  0
SECTION
  2
HEADER
  9
$ACADVER
  1
AC1015
  9
$ACADMAINTVER
 70
    20
  9
$DWGCODEPAGE
  3
ANSI_1252
  9
$INSBASE
 10
0.0
 20
0.0
 30
0.0
  9
$EXTMIN
 10
-78805.24692617562
 20
-74826.51831333043
 30
0.0
  9
$EXTMAX
 10
-77705.63192513847
 20
-73698.73113090669
 30
0.0
  9
$LIMMIN
 10
0.0
 20
0.0
  9
$LIMMAX
 10
1189.0
 20
841.0
  9
$ORTHOMODE
 70
     1
  9
$REGENMODE
 70
     1
  9
$FILLMODE
 70
     1
  9
$QTEXTMODE
 70
     0
  9
$MIRRTEXT
 70
     1
  9
$LTSCALE
 40
1.0
  9
$ATTMODE
 70
     1
  9
$TEXTSIZE
 40
30.0
  9
$TRACEWID
 40
1.0
  9
$TEXTSTYLE
  7
ROMANS
  9
$CLAYER
  8
0
  9
$CELTYPE
  6
BYLAYER
  9
$CECOLOR
 62
   256
  9
$CELTSCALE
 40
1.0
  9
$DISPSILH
 70
     0
  9
$DIMSCALE
 40
1.0
  9
$DIMASZ
 40
30.0
  9
$DIMEXO
 40
0.0
  9
$DIMDLI
 40
3.75
  9
$DIMRND
 40
0.0
  9
$DIMDLE
 40
0.0
  9
$DIMEXE
 40
10.0
  9
$DIMTP
 40
0.0
  9
$DIMTM
 40
0.0
  9
$DIMTXT
 40
30.0
  9
$DIMCEN
 40
2.5
  9
$DIMTSZ
 40
0.0
  9
$DIMTOL
 70
     0
  9
$DIMLIM
 70
     0
  9
$DIMTIH
 70
     0
  9
$DIMTOH
 70
     0
  9
$DIMSE1
 70
     0
  9
$DIMSE2
 70
     0
  9
$DIMTAD
 70
     1
  9
$DIMZIN
 70
     0
  9
$DIMBLK
  1

  9
$DIMASO
 70
     1
  9
$DIMSHO
 70
     1
  9
$DIMPOST
  1

  9
$DIMAPOST
  1

  9
$DIMALT
 70
     0
  9
$DIMALTD
 70
     2
  9
$DIMALTF
 40
25.4
  9
$DIMLFAC
 40
1.0
  9
$DIMTOFL
 70
     1
  9
$DIMTVP
 40
0.0
  9
$DIMTIX
 70
     0
  9
$DIMSOXD
 70
     0
  9
$DIMSAH
 70
     0
  9
$DIMBLK1
  1

  9
$DIMBLK2
  1

  9
$DIMSTYLE
  2
STANDARD
  9
$DIMCLRD
 70
     0
  9
$DIMCLRE
 70
     0
  9
$DIMCLRT
 70
     0
  9
$DIMTFAC
 40
1.0
  9
$DIMGAP
 40
10.0
  9
$DIMJUST
 70
     0
  9
$DIMSD1
 70
     0
  9
$DIMSD2
 70
     0
  9
$DIMTOLJ
 70
     1
  9
$DIMTZIN
 70
     0
  9
$DIMALTZ
 70
     0
  9
$DIMALTTZ
 70
     0
  9
$DIMUPT
 70
     0
  9
$DIMDEC
 70
     0
  9
$DIMTDEC
 70
     0
  9
$DIMALTU
 70
     2
  9
$DIMALTTD
 70
     2
  9
$DIMTXSTY
  7
STANDARD
  9
$DIMAUNIT
 70
     0
  9
$DIMADEC
 70
     0
  9
$DIMALTRND
 40
0.0
  9
$DIMAZIN
 70
     0
  9
$DIMDSEP
 70
    46
  9
$DIMATFIT
 70
     3
  9
$DIMFRAC
 70
     0
  9
$DIMLDRBLK
  1

  9
$DIMLUNIT
 70
     2
  9
$DIMLWD
 70
    -2
  9
$DIMLWE
 70
    -2
  9
$DIMTMOVE
 70
     0
  9
$LUNITS
 70
     2
  9
$LUPREC
 70
     4
  9
$SKETCHINC
 40
1.0
  9
$FILLETRAD
 40
0.0
  9
$AUNITS
 70
     0
  9
$AUPREC
 70
     0
  9
$MENU
  1
C:\ACADR13\WIN\SUPPORT\ACADFULL
  9
$ELEVATION
 40
0.0
  9
$PELEVATION
 40
0.0
  9
$THICKNESS
 40
0.0
  9
$LIMCHECK
 70
     0
  9
$CHAMFERA
 40
10.0
  9
$CHAMFERB
 40
10.0
  9
$CHAMFERC
 40
0.0
  9
$CHAMFERD
 40
0.0
  9
$SKPOLY
 70
     0
  9
$TDCREATE
 40
2450382.434570139
  9
$TDUCREATE
 40
2450382.351236806
  9
$TDUPDATE
 40
2455058.410815544
  9
$TDUUPDATE
 40
2455058.327482210
  9
$TDINDWG
 40
0.7887389815
  9
$TDUSRTIMER
 40
0.7887371644
  9
$USRTIMER
 70
     1
  9
$ANGBASE
 50
0.0
  9
$ANGDIR
 70
     0
  9
$PDMODE
 70
     0
  9
$PDSIZE
 40
0.0
  9
$PLINEWID
 40
0.0
  9
$SPLFRAME
 70
     0
  9
$SPLINETYPE
 70
     6
  9
$SPLINESEGS
 70
     8
  9
$HANDSEED
  5
3CDB0
  9
$SURFTAB1
 70
     6
  9
$SURFTAB2
 70
     6
  9
$SURFTYPE
 70
     6
  9
$SURFU
 70
     6
  9
$SURFV
 70
     6
  9
$UCSBASE
  2

  9
$UCSNAME
  2

  9
$UCSORG
 10
0.0
 20
0.0
 30
0.0
  9
$UCSXDIR
 10
1.0
 20
0.0
 30
0.0
  9
$UCSYDIR
 10
0.0
 20
1.0
 30
0.0
  9
$UCSORTHOREF
  2

  9
$UCSORTHOVIEW
 70
     0
  9
$UCSORGTOP
 10
0.0
 20
0.0
 30
0.0
  9
$UCSORGBOTTOM
 10
0.0
 20
0.0
 30
0.0
  9
$UCSORGLEFT
 10
0.0
 20
0.0
 30
0.0
  9
$UCSORGRIGHT
 10
0.0
 20
0.0
 30
0.0
  9
$UCSORGFRONT
 10
0.0
 20
0.0
 30
0.0
  9
$UCSORGBACK
 10
0.0
 20
0.0
 30
0.0
  9
$PUCSBASE
  2

  9
$PUCSNAME
  2

  9
$PUCSORG
 10
0.0
 20
0.0
 30
0.0
  9
$PUCSXDIR
 10
1.0
 20
0.0
 30
0.0
  9
$PUCSYDIR
 10
0.0
 20
1.0
 30
0.0
  9
$PUCSORTHOREF
  2

  9
$PUCSORTHOVIEW
 70
     0
  9
$PUCSORGTOP
 10
0.0
 20
0.0
 30
0.0
  9
$PUCSORGBOTTOM
 10
0.0
 20
0.0
 30
0.0
  9
$PUCSORGLEFT
 10
0.0
 20
0.0
 30
0.0
  9
$PUCSORGRIGHT
 10
0.0
 20
0.0
 30
0.0
  9
$PUCSORGFRONT
 10
0.0
 20
0.0
 30
0.0
  9
$PUCSORGBACK
 10
0.0
 20
0.0
 30
0.0
  9
$USERI1
 70
     0
  9
$USERI2
 70
     0
  9
$USERI3
 70
     0
  9
$USERI4
 70
     0
  9
$USERI5
 70
     0
  9
$USERR1
 40
0.0
  9
$USERR2
 40
0.0
  9
$USERR3
 40
0.0
  9
$USERR4
 40
0.0
  9
$USERR5
 40
0.0
  9
$WORLDVIEW
 70
     1
  9
$SHADEDGE
 70
     3
  9
$SHADEDIF
 70
    70
  9
$TILEMODE
 70
     1
  9
$MAXACTVP
 70
    16
  9
$PINSBASE
 10
0.0
 20
0.0
 30
0.0
  9
$PLIMCHECK
 70
     0
  9
$PEXTMIN
 10
12.55000000000001
 20
41.32999999999998
 30
0.0
  9
$PEXTMAX
 10
195.5499999999999
 20
284.67
 30
0.0
  9
$PLIMMIN
 10
-0.0980265521206203
 20
-3.678311471965383
  9
$PLIMMAX
 10
207.2988188848241
 20
289.6460551372062
  9
$UNITMODE
 70
     0
  9
$VISRETAIN
 70
     0
  9
$PLINEGEN
 70
     0
  9
$PSLTSCALE
 70
     1
  9
$TREEDEPTH
 70
  3020
  9
$CMLSTYLE
  2
STANDARD
  9
$CMLJUST
 70
     0
  9
$CMLSCALE
 40
1.0
  9
$PROXYGRAPHICS
 70
     1
  9
$MEASUREMENT
 70
     0
  9
$CELWEIGHT
370
    -1
  9
$ENDCAPS
280
     0
  9
$JOINSTYLE
280
     0
  9
$LWDISPLAY
290
     0
  9
$INSUNITS
 70
     0
  9
$HYPERLINKBASE
  1

  9
$STYLESHEET
  1

  9
$XEDIT
290
     1
  9
$CEPSNTYPE
380
     0
  9
$PSTYLEMODE
290
     1
  9
$FINGERPRINTGUID
  2
{408A79E2-F00F-47E2-9806-578BB6257B10}
  9
$VERSIONGUID
  2
{DA9A9E83-0DD7-4E57-8398-FFC82F62700E}
  9
$EXTNAMES
290
     1
  9
$PSVPSCALE
 40
0.0
  9
$OLESTARTUP
290
     0
  0
ENDSEC
  0
SECTION
  2
CLASSES
  0
CLASS
  1
DICTIONARYVAR
  2
AcDbDictionaryVar
  3
ObjectDBX Classes
 90
        0
280
     0
281
     0
  0
CLASS
  1
ACDBDICTIONARYWDFLT
  2
AcDbDictionaryWithDefault
  3
ObjectDBX Classes
 90
        0
280
     0
281
     0
  0
CLASS
  1
ACDBPLACEHOLDER
  2
AcDbPlaceHolder
  3
ObjectDBX Classes
 90
        0
280
     0
281
     0
  0
CLASS
  1
LAYOUT
  2
AcDbLayout
  3
ObjectDBX Classes
 90
        0
280
     0
281
     0
  0
CLASS
  1
MATERIAL
  2
AcDbMaterial
  3
ObjectDBX Classes
 90
     1024
280
     0
281
     0
  0
CLASS
  1
VISUALSTYLE
  2
AcDbVisualStyle
  3
ObjectDBX Classes
 90
     4095
280
     0
281
     0
  0
CLASS
  1
TABLESTYLE
  2
AcDbTableStyle
  3
ObjectDBX Classes
 90
     4095
280
     0
281
     0
  0
CLASS
  1
SORTENTSTABLE
  2
AcDbSortentsTable
  3
ObjectDBX Classes
 90
        0
280
     0
281
     0
  0
ENDSEC
  0
SECTION
  2
TABLES
  0
TABLE
  2
VPORT
  5
8
330
0
100
AcDbSymbolTable
 70
     1
  0
VPORT
  5
39C01
330
8
100
AcDbSymbolTableRecord
100
AcDbViewportTableRecord
  2
*Active
 70
     0
 10
0.0
 20
0.0
 11
1.0
 21
1.0
 12
-77970.26833790465
 22
-73842.32107828732
 13
0.0
 23
0.0
 14
10.0
 24
10.0
 15
10.0
 25
10.0
 16
0.0
 26
0.0
 36
1.0
 17
0.0
 27
0.0
 37
0.0
 40
617.7595356148883
 41
1.611036339165545
 42
50.0
 43
0.0
 44
0.0
 50
0.0
 51
0.0
 71
     0
 72
 20000
 73
     1
 74
     1
 75
     0
 76
     0
 77
     0
 78
     0
281
     0
 65
     1
110
0.0
120
0.0
130
0.0
111
1.0
121
0.0
131
0.0
112
0.0
122
1.0
132
0.0
 79
     0
146
0.0
  0
ENDTAB
  0
TABLE
  2
LTYPE
  5
5
330
0
100
AcDbSymbolTable
 70
     1
  0
LTYPE
  5
14
330
5
100
AcDbSymbolTableRecord
100
AcDbLinetypeTableRecord
  2
BYBLOCK
 70
     0
  3

 72
    65
 73
     0
 40
0.0
  0
LTYPE
  5
15
330
5
100
AcDbSymbolTableRecord
100
AcDbLinetypeTableRecord
  2
BYLAYER
 70
     0
  3

 72
    65
 73
     0
 40
0.0
  0
LTYPE
  5
16
330
5
100
AcDbSymbolTableRecord
100
AcDbLinetypeTableRecord
  2
CONTINUOUS
 70
     0
  3
Solid line
 72
    65
 73
     0
 40
0.0
  0
ENDTAB
  0
TABLE
  2
LAYER
  5
2
102
{ACAD_XDICTIONARY
360
39C3D
102
}
330
0
100
AcDbSymbolTable
 70
     5
  0
LAYER
  5
F
330
2
100
AcDbSymbolTableRecord
100
AcDbLayerTableRecord
  2
0
 70
     0
 62
     7
  6
CONTINUOUS
370
    -3
390
39BF2
  0
LAYER
  5
3FD
330
2
100
AcDbSymbolTableRecord
100
AcDbLayerTableRecord
  2
DEFPOINTS
 70
     0
 62
     7
  6
CONTINUOUS
290
     0
370
    -3
390
39BF2
  0
LAYER
  5
3CAA4
330
2
100
AcDbSymbolTableRecord
100
AcDbLayerTableRecord
  2
HEWI
 70
     0
 62
     7
  6
CONTINUOUS
370
    -3
390
39BF2
  0
LAYER
  5
3CBC5
330
2
100
AcDbSymbolTableRecord
100
AcDbLayerTableRecord
  2
KK
 70
     0
 62
     2
  6
CONTINUOUS
370
    -3
390
39BF2
  0
LAYER
  5
3CBC6
330
2
100
AcDbSymbolTableRecord
100
AcDbLayerTableRecord
  2
2DZ_ SICHTBARE LINIEN
 70
     0
 62
     7
  6
CONTINUOUS
370
    -3
390
39BF2
  0
ENDTAB
  0
TABLE
  2
STYLE
  5
3
330
0
100
AcDbSymbolTable
 70
     2
  0
STYLE
  5
10
330
3
100
AcDbSymbolTableRecord
100
AcDbTextStyleTableRecord
  2
STANDARD
 70
     0
 40
0.0
 41
1.0
 50
0.0
 71
     0
 42
2.5
  3
ISOCP
  4

  0
STYLE
  5
3F
330
3
100
AcDbSymbolTableRecord
100
AcDbTextStyleTableRecord
  2
ROMANS
 70
     0
 40
0.0
 41
0.8
 50
0.0
 71
     0
 42
30.0
  3
romans.shx
  4

  0
ENDTAB
  0
TABLE
  2
VIEW
  5
6
330
0
100
AcDbSymbolTable
 70
     0
  0
ENDTAB
  0
TABLE
  2
UCS
  5
7
330
0
100
AcDbSymbolTable
 70
     0
  0
ENDTAB
  0
TABLE
  2
APPID
  5
9
330
0
100
AcDbSymbolTable
 70
     5
  0
APPID
  5
11
330
9
100
AcDbSymbolTableRecord
100
AcDbRegAppTableRecord
  2
ACAD
 70
     0
  0
APPID
  5
36496
330
9
100
AcDbSymbolTableRecord
100
AcDbRegAppTableRecord
  2
ACADIGES
 70
     0
  0
APPID
  5
36497
330
9
100
AcDbSymbolTableRecord
100
AcDbRegAppTableRecord
  2
AUTOCAD_POSTSCRIPT_FIGURE
 70
     0
  0
APPID
  5
3A910
330
9
100
AcDbSymbolTableRecord
100
AcDbRegAppTableRecord
  2
ACAD_PSEXT
 70
     0
  0
APPID
  5
3AB52
330
9
100
AcDbSymbolTableRecord
100
AcDbRegAppTableRecord
  2
AcAecLayerStandard
 70
     0
  0
ENDTAB
  0
TABLE
  2
DIMSTYLE
  5
A
330
0
100
AcDbSymbolTable
 70
     4
100
AcDbDimStyleTable
 71
     1
340
1D
  0
DIMSTYLE
105
1D
330
A
100
AcDbSymbolTableRecord
100
AcDbDimStyleTableRecord
  2
STANDARD
 70
     0
340
10
  0
DIMSTYLE
105
3CBC7
330
A
100
AcDbSymbolTableRecord
100
AcDbDimStyleTableRecord
  2
ISO-25
 70
     0
 41
25.0
 42
0.625
 43
3.75
 44
1.25
 73
     0
 74
     0
 77
     1
 78
     8
140
50.0
141
2.5
143
0.0394
145
1.0
147
9.0
172
     1
340
10
  0
DIMSTYLE
105
3CBC8
330
A
100
AcDbSymbolTableRecord
100
AcDbDimStyleTableRecord
  2
20
 70
     0
 40
20.0
 41
3.5
 42
2.0
 43
6.0
 44
1.8
 73
     0
 74
     0
 77
     1
140
3.5
141
3.5
147
2.0
172
     1
176
   256
177
   256
178
   256
179
     1
271
     0
272
     0
278
    44
279
     1
340
10
  0
DIMSTYLE
105
3CBC9
330
A
100
AcDbSymbolTableRecord
100
AcDbDimStyleTableRecord
  2
100
 70
     0
 40
100.0
 41
3.5
 42
2.0
 43
6.0
 44
1.8
 73
     0
 74
     0
 77
     1
140
3.5
141
3.5
147
2.0
172
     1
176
   256
177
   256
178
   256
179
     1
271
     0
272
     0
278
    44
279
     1
340
10
  0
ENDTAB
  0
TABLE
  2
BLOCK_RECORD
  5
1
330
0
100
AcDbSymbolTable
 70
    22
  0
BLOCK_RECORD
  5
1A
102
{ACAD_XDICTIONARY
360
3B151
102
}
330
1
100
AcDbSymbolTableRecord
100
AcDbBlockTableRecord
  2
*MODEL_SPACE
340
39BF5
  0
BLOCK_RECORD
  5
17
330
1
100
AcDbSymbolTableRecord
100
AcDbBlockTableRecord
  2
*PAPER_SPACE
340
39BF6
  0
BLOCK_RECORD
  5
3CAB6
330
1
100
AcDbSymbolTableRecord
100
AcDbBlockTableRecord
  2
*D0
340
0
  0
BLOCK_RECORD
  5
3CAC5
330
1
100
AcDbSymbolTableRecord
100
AcDbBlockTableRecord
  2
*D1
340
0
  0
BLOCK_RECORD
  5
3CADF
330
1
100
AcDbSymbolTableRecord
100
AcDbBlockTableRecord
  2
*D2
340
0
  0
BLOCK_RECORD
  5
3CAEC
330
1
100
AcDbSymbolTableRecord
100
AcDbBlockTableRecord
  2
*D3
340
0
  0
BLOCK_RECORD
  5
3CAF9
330
1
100
AcDbSymbolTableRecord
100
AcDbBlockTableRecord
  2
*D4
340
0
  0
BLOCK_RECORD
  5
3CB08
330
1
100
AcDbSymbolTableRecord
100
AcDbBlockTableRecord
  2
*D5
340
0
  0
BLOCK_RECORD
  5
3CB17
330
1
100
AcDbSymbolTableRecord
100
AcDbBlockTableRecord
  2
*D6
340
0
  0
BLOCK_RECORD
  5
3CB26
330
1
100
AcDbSymbolTableRecord
100
AcDbBlockTableRecord
  2
*D7
340
0
  0
BLOCK_RECORD
  5
3CB35
330
1
100
AcDbSymbolTableRecord
100
AcDbBlockTableRecord
  2
*D8
340
0
  0
BLOCK_RECORD
  5
3CB54
330
1
100
AcDbSymbolTableRecord
100
AcDbBlockTableRecord
  2
*D9
340
0
  0
BLOCK_RECORD
  5
3CB69
330
1
100
AcDbSymbolTableRecord
100
AcDbBlockTableRecord
  2
*D10
340
0
  0
BLOCK_RECORD
  5
3CB76
330
1
100
AcDbSymbolTableRecord
100
AcDbBlockTableRecord
  2
*D11
340
0
  0
BLOCK_RECORD
  5
3CB8C
330
1
100
AcDbSymbolTableRecord
100
AcDbBlockTableRecord
  2
*D12
340
0
  0
BLOCK_RECORD
  5
3CB9B
330
1
100
AcDbSymbolTableRecord
100
AcDbBlockTableRecord
  2
*D13
340
0
  0
BLOCK_RECORD
  5
3CD01
330
1
100
AcDbSymbolTableRecord
100
AcDbBlockTableRecord
  2
*D14
340
0
  0
BLOCK_RECORD
  5
3CD10
330
1
100
AcDbSymbolTableRecord
100
AcDbBlockTableRecord
  2
*D15
340
0
  0
BLOCK_RECORD
  5
3CD20
330
1
100
AcDbSymbolTableRecord
100
AcDbBlockTableRecord
  2
*D16
340
0
  0
BLOCK_RECORD
  5
3CD2E
330
1
100
AcDbSymbolTableRecord
100
AcDbBlockTableRecord
  2
*D17
340
0
  0
BLOCK_RECORD
  5
3CD71
330
1
100
AcDbSymbolTableRecord
100
AcDbBlockTableRecord
  2
*D18
340
0
  0
BLOCK_RECORD
  5
3CD7E
330
1
100
AcDbSymbolTableRecord
100
AcDbBlockTableRecord
  2
*D19
340
0
  0
BLOCK_RECORD
  5
3CD8B
330
1
100
AcDbSymbolTableRecord
100
AcDbBlockTableRecord
  2
*D20
340
0
  0
BLOCK_RECORD
  5
3CD9A
330
1
100
AcDbSymbolTableRecord
100
AcDbBlockTableRecord
  2
*D21
340
0
  0
ENDTAB
  0
ENDSEC
  0
SECTION
  2
BLOCKS
  0
BLOCK
  5
1B
330
1A
100
AcDbEntity
  8
0
100
AcDbBlockBegin
  2
*MODEL_SPACE
 70
     0
 10
0.0
 20
0.0
 30
0.0
  3
*MODEL_SPACE
  1

  0
ENDBLK
  5
1C
330
1A
100
AcDbEntity
  8
0
100
AcDbBlockEnd
  0
BLOCK
  5
18
330
17
100
AcDbEntity
 67
     1
  8
0
100
AcDbBlockBegin
  2
*PAPER_SPACE
 70
     0
 10
0.0
 20
0.0
 30
0.0
  3
*PAPER_SPACE
  1

  0
ENDBLK
  5
19
330
17
100
AcDbEntity
 67
     1
  8
0
100
AcDbBlockEnd
  0
BLOCK
  5
3CAC2
330
3CAB6
100
AcDbEntity
  8
0
100
AcDbBlockBegin
  2
*D0
 70
     1
 10
0.0
 20
0.0
 30
0.0
  3
*D0
  1

  0
LINE
  5
3CAB7
330
3CAB6
100
AcDbEntity
  8
0
 62
     0
370
    -2
100
AcDbLine
 10
-77825.83700011731
 20
-74532.09343057517
 30
0.0
 11
-78130.57439538697
 21
-74532.09343057517
 31
0.0
  0
LINE
  5
3CAB8
330
3CAB6
100
AcDbEntity
  8
0
 62
     0
370
    -2
100
AcDbLine
 10
-77825.83700011731
 20
-74560.09343057517
 30
0.0
 11
-78130.57439538697
 21
-74560.09343057517
 31
0.0
  0
LINE
  5
3CAB9
330
3CAB6
100
AcDbEntity
  8
0
 62
     0
370
    -2
100
AcDbLine
 10
-78120.57439538697
 20
-74502.09343057517
 30
0.0
 11
-78120.57439538697
 21
-74472.09343057517
 31
0.0
  0
LINE
  5
3CABA
330
3CAB6
100
AcDbEntity
  8
0
 62
     0
370
    -2
100
AcDbLine
 10
-78120.57439538697
 20
-74590.09343057517
 30
0.0
 11
-78120.57439538697
 21
-74673.8552415988
 31
0.0
  0
LINE
  5
3CABB
330
3CAB6
100
AcDbEntity
  8
0
 62
     0
370
    -2
100
AcDbLine
 10
-78120.57439538697
 20
-74532.09343057517
 30
0.0
 11
-78120.57439538697
 21
-74560.09343057517
 31
0.0
  0
SOLID
  5
3CABC
330
3CAB6
100
AcDbEntity
  8
0
 62
     0
100
AcDbTrace
 10
-78125.57439538696
 20
-74502.09343057517
 30
0.0
 11
-78115.57439538697
 21
-74502.09343057517
 31
0.0
 12
-78120.57439538697
 22
-74532.09343057517
 32
0.0
 13
-78120.57439538697
 23
-74532.09343057517
 33
0.0
  0
SOLID
  5
3CABD
330
3CAB6
100
AcDbEntity
  8
0
 62
     0
100
AcDbTrace
 10
-78125.57439538696
 20
-74590.09343057517
 30
0.0
 11
-78115.57439538697
 21
-74590.09343057517
 31
0.0
 12
-78120.57439538697
 22
-74560.09343057517
 32
0.0
 13
-78120.57439538697
 23
-74560.09343057517
 33
0.0
  0
MTEXT
  5
3CABE
330
3CAB6
100
AcDbEntity
  8
0
 62
     0
100
AcDbMText
 10
-78145.57734814286
 20
-74646.97433608701
 30
0.0
 40
30.0
 41
0.0
 71
     5
 72
     1
  1
\A1;28
 11
0.0000000000000001
 21
1.0
 31
0.0
 73
     1
 44
1.0
1001
ACAD
1000
MTEXTBEGIN
1070
    73
1070
     1
1070
    44
1040
1.0
1070
    74
1070
     0
1000
MTEXTEND
  0
POINT
  5
3CABF
330
3CAB6
100
AcDbEntity
  8
DEFPOINTS
 62
     0
100
AcDbPoint
 10
-77825.83700011731
 20
-74532.09343057517
 30
0.0
  0
POINT
  5
3CAC0
330
3CAB6
100
AcDbEntity
  8
DEFPOINTS
 62
     0
100
AcDbPoint
 10
-77825.83700011731
 20
-74560.09343057517
 30
0.0
  0
POINT
  5
3CAC1
330
3CAB6
100
AcDbEntity
  8
DEFPOINTS
 62
     0
100
AcDbPoint
 10
-78120.57439538697
 20
-74560.09343057517
 30
0.0
  0
ENDBLK
  5
3CAC3
330
3CAB6
100
AcDbEntity
  8
0
100
AcDbBlockEnd
  0
BLOCK
  5
3CACF
330
3CAC5
100
AcDbEntity
  8
0
100
AcDbBlockBegin
  2
*D1
 70
     1
 10
0.0
 20
0.0
 30
0.0
  3
*D1
  1

  0
LINE
  5
3CAD5
330
3CAC5
100
AcDbEntity
  8
0
 62
     0
370
    -2
100
AcDbLine
 10
-78025.83700011829
 20
-74754.51828743532
 30
0.0
 11
-78025.83700011829
 21
-74705.66300795048
 31
0.0
  0
LINE
  5
3CAD6
330
3CAC5
100
AcDbEntity
  8
0
 62
     0
370
    -2
100
AcDbLine
 10
-77724.83700011552
 20
-74754.51828677817
 30
0.0
 11
-77724.83700011552
 21
-74705.66300795048
 31
0.0
  0
LINE
  5
3CAD7
330
3CAC5
100
AcDbEntity
  8
0
 62
     0
370
    -2
100
AcDbLine
 10
-77995.83700011829
 20
-74715.66300795045
 30
0.0
 11
-77754.83700011553
 21
-74715.66300795045
 31
0.0
  0
SOLID
  5
3CAD8
330
3CAC5
100
AcDbEntity
  8
0
 62
     0
100
AcDbTrace
 10
-77995.83700011829
 20
-74710.66300795048
 30
0.0
 11
-77995.83700011829
 21
-74720.66300795048
 31
0.0
 12
-78025.83700011829
 22
-74715.66300795045
 32
0.0
 13
-78025.83700011829
 23
-74715.66300795045
 33
0.0
  0
SOLID
  5
3CAD9
330
3CAC5
100
AcDbEntity
  8
0
 62
     0
100
AcDbTrace
 10
-77754.83700011553
 20
-74710.66300795048
 30
0.0
 11
-77754.83700011553
 21
-74720.66300795048
 31
0.0
 12
-77724.83700011552
 22
-74715.66300795045
 32
0.0
 13
-77724.83700011552
 23
-74715.66300795045
 33
0.0
  0
MTEXT
  5
3CADA
330
3CAC5
100
AcDbEntity
  8
0
 62
     0
100
AcDbMText
 10
-77875.33700011691
 20
-74690.66300795049
 30
0.0
 40
30.0
 41
0.0
 71
     5
 72
     1
  1
\A1;301
 73
     1
 44
1.0
1001
ACAD
1000
MTEXTBEGIN
1070
    73
1070
     1
1070
    44
1040
1.0
1070
    74
1070
     0
1000
MTEXTEND
  0
POINT
  5
3CADB
330
3CAC5
100
AcDbEntity
  8
DEFPOINTS
 62
     0
100
AcDbPoint
 10
-78025.83700011829
 20
-74754.51828743532
 30
0.0
  0
POINT
  5
3CADC
330
3CAC5
100
AcDbEntity
  8
DEFPOINTS
 62
     0
100
AcDbPoint
 10
-77724.83700011552
 20
-74754.51828677817
 30
0.0
  0
POINT
  5
3CADD
330
3CAC5
100
AcDbEntity
  8
DEFPOINTS
 62
     0
100
AcDbPoint
 10
-77724.83700011552
 20
-74715.66300795045
 30
0.0
  0
ENDBLK
  5
3CAD0
330
3CAC5
100
AcDbEntity
  8
0
100
AcDbBlockEnd
  0
BLOCK
  5
3CAE9
330
3CADF
100
AcDbEntity
  8
0
100
AcDbBlockBegin
  2
*D2
 70
     1
 10
0.0
 20
0.0
 30
0.0
  3
*D2
  1

  0
LINE
  5
3CAE0
330
3CADF
100
AcDbEntity
  8
0
 62
     0
370
    -2
100
AcDbLine
 10
-78039.83700533188
 20
-74546.09343057517
 30
0.0
 11
-78039.83700533188
 21
-74489.47904948878
 31
0.0
  0
LINE
  5
3CAE1
330
3CADF
100
AcDbEntity
  8
0
 62
     0
370
    -2
100
AcDbLine
 10
-77711.83699652034
 20
-74546.09346660452
 30
0.0
 11
-77711.83699652034
 21
-74489.47904948878
 31
0.0
  0
LINE
  5
3CAE2
330
3CADF
100
AcDbEntity
  8
0
 62
     0
370
    -2
100
AcDbLine
 10
-78009.83700533188
 20
-74499.47904948879
 30
0.0
 11
-77741.83699652034
 21
-74499.47904948879
 31
0.0
  0
SOLID
  5
3CAE3
330
3CADF
100
AcDbEntity
  8
0
 62
     0
100
AcDbTrace
 10
-78009.83700533188
 20
-74494.47904948878
 30
0.0
 11
-78009.83700533188
 21
-74504.47904948878
 31
0.0
 12
-78039.83700533188
 22
-74499.47904948879
 32
0.0
 13
-78039.83700533188
 23
-74499.47904948879
 33
0.0
  0
SOLID
  5
3CAE4
330
3CADF
100
AcDbEntity
  8
0
 62
     0
100
AcDbTrace
 10
-77741.83699652034
 20
-74494.47904948878
 30
0.0
 11
-77741.83699652034
 21
-74504.47904948878
 31
0.0
 12
-77711.83699652034
 22
-74499.47904948879
 32
0.0
 13
-77711.83699652034
 23
-74499.47904948879
 33
0.0
  0
MTEXT
  5
3CAE5
330
3CADF
100
AcDbEntity
  8
0
 62
     0
100
AcDbMText
 10
-77875.83700092612
 20
-74474.47609673288
 30
0.0
 40
30.0
 41
0.0
 71
     5
 72
     1
  1
\A1;328
 73
     1
 44
1.0
1001
ACAD
1000
MTEXTBEGIN
1070
    73
1070
     1
1070
    44
1040
1.0
1070
    74
1070
     0
1000
MTEXTEND
  0
POINT
  5
3CAE6
330
3CADF
100
AcDbEntity
  8
DEFPOINTS
 62
     0
100
AcDbPoint
 10
-78039.83700533188
 20
-74546.09343057517
 30
0.0
  0
POINT
  5
3CAE7
330
3CADF
100
AcDbEntity
  8
DEFPOINTS
 62
     0
100
AcDbPoint
 10
-77711.83699652034
 20
-74546.09346660452
 30
0.0
  0
POINT
  5
3CAE8
330
3CADF
100
AcDbEntity
  8
DEFPOINTS
 62
     0
100
AcDbPoint
 10
-77711.83699652034
 20
-74499.47904948879
 30
0.0
  0
ENDBLK
  5
3CAEA
330
3CADF
100
AcDbEntity
  8
0
100
AcDbBlockEnd
  0
BLOCK
  5
3CAF6
330
3CAEC
100
AcDbEntity
  8
0
100
AcDbBlockBegin
  2
*D3
 70
     1
 10
0.0
 20
0.0
 30
0.0
  3
*D3
  1

  0
LINE
  5
3CAED
330
3CAEC
100
AcDbEntity
  8
0
 62
     0
370
    -2
100
AcDbLine
 10
-78039.83700533184
 20
-74546.09355682415
 30
0.0
 11
-78039.83700533184
 21
-74491.79841968737
 31
0.0
  0
LINE
  5
3CAEE
330
3CAEC
100
AcDbEntity
  8
0
 62
     0
370
    -2
100
AcDbLine
 10
-77714.83699652036
 20
-74546.09359251874
 30
0.0
 11
-77714.83699652036
 21
-74491.79841968737
 31
0.0
  0
LINE
  5
3CAEF
330
3CAEC
100
AcDbEntity
  8
0
 62
     0
370
    -2
100
AcDbLine
 10
-78009.83700533182
 20
-74501.79841968737
 30
0.0
 11
-77744.83699652036
 21
-74501.79841968737
 31
0.0
  0
SOLID
  5
3CAF0
330
3CAEC
100
AcDbEntity
  8
0
 62
     0
100
AcDbTrace
 10
-78009.83700533182
 20
-74496.79841968738
 30
0.0
 11
-78009.83700533182
 21
-74506.79841968737
 31
0.0
 12
-78039.83700533184
 22
-74501.79841968737
 32
0.0
 13
-78039.83700533184
 23
-74501.79841968737
 33
0.0
  0
SOLID
  5
3CAF1
330
3CAEC
100
AcDbEntity
  8
0
 62
     0
100
AcDbTrace
 10
-77744.83699652036
 20
-74496.79841968738
 30
0.0
 11
-77744.83699652036
 21
-74506.79841968737
 31
0.0
 12
-77714.83699652036
 22
-74501.79841968737
 32
0.0
 13
-77714.83699652036
 23
-74501.79841968737
 33
0.0
  0
MTEXT
  5
3CAF2
330
3CAEC
100
AcDbEntity
  8
0
 62
     0
100
AcDbMText
 10
-77877.33700092609
 20
-74476.79546693146
 30
0.0
 40
30.0
 41
0.0
 71
     5
 72
     1
  1
\A1;325
 73
     1
 44
1.0
1001
ACAD
1000
MTEXTBEGIN
1070
    73
1070
     1
1070
    44
1040
1.0
1070
    74
1070
     0
1000
MTEXTEND
  0
POINT
  5
3CAF3
330
3CAEC
100
AcDbEntity
  8
DEFPOINTS
 62
     0
100
AcDbPoint
 10
-78039.83700533184
 20
-74546.09355682415
 30
0.0
  0
POINT
  5
3CAF4
330
3CAEC
100
AcDbEntity
  8
DEFPOINTS
 62
     0
100
AcDbPoint
 10
-77714.83699652036
 20
-74546.09359251874
 30
0.0
  0
POINT
  5
3CAF5
330
3CAEC
100
AcDbEntity
  8
DEFPOINTS
 62
     0
100
AcDbPoint
 10
-77714.83699652036
 20
-74501.79841968737
 30
0.0
  0
ENDBLK
  5
3CAF7
330
3CAEC
100
AcDbEntity
  8
0
100
AcDbBlockEnd
  0
BLOCK
  5
3CB05
330
3CAF9
100
AcDbEntity
  8
0
100
AcDbBlockBegin
  2
*D4
 70
     1
 10
0.0
 20
0.0
 30
0.0
  3
*D4
  1

  0
LINE
  5
3CAFA
330
3CAF9
100
AcDbEntity
  8
0
 62
     0
370
    -2
100
AcDbLine
 10
-77864.16521979449
 20
-74532.09343057517
 30
0.0
 11
-77836.06719168392
 21
-74532.09343057517
 31
0.0
  0
LINE
  5
3CAFB
330
3CAF9
100
AcDbEntity
  8
0
 62
     0
370
    -2
100
AcDbLine
 10
-77864.16521979448
 20
-74560.09343057517
 30
0.0
 11
-77836.06719168392
 21
-74560.09343057517
 31
0.0
  0
LINE
  5
3CAFC
330
3CAF9
100
AcDbEntity
  8
0
 62
     0
370
    -2
100
AcDbLine
 10
-77846.06719168392
 20
-74502.09343057517
 30
0.0
 11
-77846.06719168392
 21
-74472.09343057517
 31
0.0
  0
LINE
  5
3CAFD
330
3CAF9
100
AcDbEntity
  8
0
 62
     0
370
    -2
100
AcDbLine
 10
-77846.06719168392
 20
-74590.09343057517
 30
0.0
 11
-77846.06719168392
 21
-74673.8552415988
 31
0.0
  0
LINE
  5
3CAFE
330
3CAF9
100
AcDbEntity
  8
0
 62
     0
370
    -2
100
AcDbLine
 10
-77846.06719168392
 20
-74532.09343057517
 30
0.0
 11
-77846.06719168392
 21
-74560.09343057517
 31
0.0
  0
SOLID
  5
3CAFF
330
3CAF9
100
AcDbEntity
  8
0
 62
     0
100
AcDbTrace
 10
-77851.06719168392
 20
-74502.09343057517
 30
0.0
 11
-77841.06719168392
 21
-74502.09343057517
 31
0.0
 12
-77846.06719168392
 22
-74532.09343057517
 32
0.0
 13
-77846.06719168392
 23
-74532.09343057517
 33
0.0
  0
SOLID
  5
3CB00
330
3CAF9
100
AcDbEntity
  8
0
 62
     0
100
AcDbTrace
 10
-77851.06719168392
 20
-74590.09343057517
 30
0.0
 11
-77841.06719168392
 21
-74590.09343057517
 31
0.0
 12
-77846.06719168392
 22
-74560.09343057517
 32
0.0
 13
-77846.06719168392
 23
-74560.09343057517
 33
0.0
  0
MTEXT
  5
3CB01
330
3CAF9
100
AcDbEntity
  8
0
 62
     0
100
AcDbMText
 10
-77871.07014443981
 20
-74646.97433608701
 30
0.0
 40
30.0
 41
0.0
 71
     5
 72
     1
  1
\A1;28
 11
0.0000000000000001
 21
1.0
 31
0.0
 73
     1
 44
1.0
1001
ACAD
1000
MTEXTBEGIN
1070
    73
1070
     1
1070
    44
1040
1.0
1070
    74
1070
     0
1000
MTEXTEND
  0
POINT
  5
3CB02
330
3CAF9
100
AcDbEntity
  8
DEFPOINTS
 62
     0
100
AcDbPoint
 10
-77864.16521979449
 20
-74532.09343057517
 30
0.0
  0
POINT
  5
3CB03
330
3CAF9
100
AcDbEntity
  8
DEFPOINTS
 62
     0
100
AcDbPoint
 10
-77864.16521979448
 20
-74560.09343057517
 30
0.0
  0
POINT
  5
3CB04
330
3CAF9
100
AcDbEntity
  8
DEFPOINTS
 62
     0
100
AcDbPoint
 10
-77846.06719168392
 20
-74560.09343057517
 30
0.0
  0
ENDBLK
  5
3CB06
330
3CAF9
100
AcDbEntity
  8
0
100
AcDbBlockEnd
  0
BLOCK
  5
3CB14
330
3CB08
100
AcDbEntity
  8
0
100
AcDbBlockBegin
  2
*D5
 70
     1
 10
0.0
 20
0.0
 30
0.0
  3
*D5
  1

  0
LINE
  5
3CB09
330
3CB08
100
AcDbEntity
  8
0
 62
     0
370
    -2
100
AcDbLine
 10
-78026.83700011384
 20
-74754.51828635716
 30
0.0
 11
-78115.72246615005
 21
-74754.51828635716
 31
0.0
  0
LINE
  5
3CB0A
330
3CB08
100
AcDbEntity
  8
0
 62
     0
370
    -2
100
AcDbLine
 10
-78026.83699171049
 20
-74826.51830208872
 30
0.0
 11
-78115.72246615005
 21
-74826.51830208872
 31
0.0
  0
LINE
  5
3CB0B
330
3CB08
100
AcDbEntity
  8
0
 62
     0
370
    -2
100
AcDbLine
 10
-78105.72246615008
 20
-74724.51828635715
 30
0.0
 11
-78105.72246615008
 21
-74694.51828635715
 31
0.0
  0
LINE
  5
3CB0C
330
3CB08
100
AcDbEntity
  8
0
 62
     0
370
    -2
100
AcDbLine
 10
-78105.72246615008
 20
-74856.51830208872
 30
0.0
 11
-78105.72246615008
 21
-74886.51830208872
 31
0.0
  0
LINE
  5
3CB0D
330
3CB08
100
AcDbEntity
  8
0
 62
     0
370
    -2
100
AcDbLine
 10
-78105.72246615008
 20
-74754.51828635716
 30
0.0
 11
-78105.72246615008
 21
-74826.51830208872
 31
0.0
  0
SOLID
  5
3CB0E
330
3CB08
100
AcDbEntity
  8
0
 62
     0
100
AcDbTrace
 10
-78110.72246615005
 20
-74724.51828635715
 30
0.0
 11
-78100.72246615005
 21
-74724.51828635715
 31
0.0
 12
-78105.72246615008
 22
-74754.51828635716
 32
0.0
 13
-78105.72246615008
 23
-74754.51828635716
 33
0.0
  0
SOLID
  5
3CB0F
330
3CB08
100
AcDbEntity
  8
0
 62
     0
100
AcDbTrace
 10
-78110.72246615005
 20
-74856.51830208872
 30
0.0
 11
-78100.72246615005
 21
-74856.51830208872
 31
0.0
 12
-78105.72246615008
 22
-74826.51830208872
 32
0.0
 13
-78105.72246615008
 23
-74826.51830208872
 33
0.0
  0
MTEXT
  5
3CB10
330
3CB08
100
AcDbEntity
  8
0
 62
     0
100
AcDbMText
 10
-78130.72541890596
 20
-74790.51829422296
 30
0.0
 40
30.0
 41
0.0
 71
     5
 72
     1
  1
\A1;72
 11
0.0000000000000001
 21
1.0
 31
0.0
 73
     1
 44
1.0
1001
ACAD
1000
MTEXTBEGIN
1070
    73
1070
     1
1070
    44
1040
1.0
1070
    74
1070
     0
1000
MTEXTEND
  0
POINT
  5
3CB11
330
3CB08
100
AcDbEntity
  8
DEFPOINTS
 62
     0
100
AcDbPoint
 10
-78026.83700011384
 20
-74754.51828635716
 30
0.0
  0
POINT
  5
3CB12
330
3CB08
100
AcDbEntity
  8
DEFPOINTS
 62
     0
100
AcDbPoint
 10
-78026.83699171049
 20
-74826.51830208872
 30
0.0
  0
POINT
  5
3CB13
330
3CB08
100
AcDbEntity
  8
DEFPOINTS
 62
     0
100
AcDbPoint
 10
-78105.72246615008
 20
-74826.51830208872
 30
0.0
  0
ENDBLK
  5
3CB15
330
3CB08
100
AcDbEntity
  8
0
100
AcDbBlockEnd
  0
BLOCK
  5
3CB23
330
3CB17
100
AcDbEntity
  8
0
100
AcDbBlockBegin
  2
*D6
 70
     1
 10
0.0
 20
0.0
 30
0.0
  3
*D6
  1

  0
LINE
  5
3CB18
330
3CB17
100
AcDbEntity
  8
0
 62
     0
370
    -2
100
AcDbLine
 10
-78039.83700097604
 20
-74781.45751600413
 30
0.0
 11
-78039.83700097604
 21
-74696.47810558567
 31
0.0
  0
LINE
  5
3CB19
330
3CB17
100
AcDbEntity
  8
0
 62
     0
370
    -2
100
AcDbLine
 10
-78014.83699976008
 20
-74777.51829378793
 30
0.0
 11
-78014.83699976008
 21
-74696.47810558567
 31
0.0
  0
LINE
  5
3CB1A
330
3CB17
100
AcDbEntity
  8
0
 62
     0
370
    -2
100
AcDbLine
 10
-78069.83700097604
 20
-74706.47810558567
 30
0.0
 11
-78099.83700097604
 21
-74706.47810558567
 31
0.0
  0
LINE
  5
3CB1B
330
3CB17
100
AcDbEntity
  8
0
 62
     0
370
    -2
100
AcDbLine
 10
-77984.83699976006
 20
-74706.47810558567
 30
0.0
 11
-77899.83254804933
 21
-74706.47810558567
 31
0.0
  0
LINE
  5
3CB1C
330
3CB17
100
AcDbEntity
  8
0
 62
     0
370
    -2
100
AcDbLine
 10
-78039.83700097604
 20
-74706.47810558567
 30
0.0
 11
-78014.83699976008
 21
-74706.47810558567
 31
0.0
  0
SOLID
  5
3CB1D
330
3CB17
100
AcDbEntity
  8
0
 62
     0
100
AcDbTrace
 10
-78069.83700097604
 20
-74701.47810558567
 30
0.0
 11
-78069.83700097604
 21
-74711.47810558568
 31
0.0
 12
-78039.83700097604
 22
-74706.47810558567
 32
0.0
 13
-78039.83700097604
 23
-74706.47810558567
 33
0.0
  0
SOLID
  5
3CB1E
330
3CB17
100
AcDbEntity
  8
0
 62
     0
100
AcDbTrace
 10
-77984.83699976006
 20
-74701.47810558567
 30
0.0
 11
-77984.83699976006
 21
-74711.47810558568
 31
0.0
 12
-78014.83699976008
 22
-74706.47810558567
 32
0.0
 13
-78014.83699976008
 23
-74706.47810558567
 33
0.0
  0
MTEXT
  5
3CB1F
330
3CB17
100
AcDbEntity
  8
0
 62
     0
100
AcDbMText
 10
-77927.3347739047
 20
-74681.47515282976
 30
0.0
 40
30.0
 41
0.0
 71
     5
 72
     1
  1
\A1;25
 73
     1
 44
1.0
1001
ACAD
1000
MTEXTBEGIN
1070
    73
1070
     1
1070
    44
1040
1.0
1070
    74
1070
     0
1000
MTEXTEND
  0
POINT
  5
3CB20
330
3CB17
100
AcDbEntity
  8
DEFPOINTS
 62
     0
100
AcDbPoint
 10
-78039.83700097604
 20
-74781.45751600413
 30
0.0
  0
POINT
  5
3CB21
330
3CB17
100
AcDbEntity
  8
DEFPOINTS
 62
     0
100
AcDbPoint
 10
-78014.83699976008
 20
-74777.51829378793
 30
0.0
  0
POINT
  5
3CB22
330
3CB17
100
AcDbEntity
  8
DEFPOINTS
 62
     0
100
AcDbPoint
 10
-78014.83699976008
 20
-74706.47810558567
 30
0.0
  0
ENDBLK
  5
3CB24
330
3CB17
100
AcDbEntity
  8
0
100
AcDbBlockEnd
  0
BLOCK
  5
3CB32
330
3CB26
100
AcDbEntity
  8
0
100
AcDbBlockBegin
  2
*D7
 70
     1
 10
0.0
 20
0.0
 30
0.0
  3
*D7
  1

  0
LINE
  5
3CB27
330
3CB26
100
AcDbEntity
  8
0
 62
     0
370
    -2
100
AcDbLine
 10
-78213.45196464285
 20
-74546.09343057517
 30
0.0
 11
-78213.45196464285
 21
-74619.22797220136
 31
0.0
  0
LINE
  5
3CB28
330
3CB26
100
AcDbEntity
  8
0
 62
     0
370
    -2
100
AcDbLine
 10
-78141.45195942739
 20
-74546.09343057517
 30
0.0
 11
-78141.45195942739
 21
-74619.22797220136
 31
0.0
  0
LINE
  5
3CB29
330
3CB26
100
AcDbEntity
  8
0
 62
     0
370
    -2
100
AcDbLine
 10
-78243.45196464285
 20
-74609.22797220137
 30
0.0
 11
-78273.45196464285
 21
-74609.22797220137
 31
0.0
  0
LINE
  5
3CB2A
330
3CB26
100
AcDbEntity
  8
0
 62
     0
370
    -2
100
AcDbLine
 10
-78111.45195942739
 20
-74609.22797220137
 30
0.0
 11
-78081.45195942739
 21
-74609.22797220137
 31
0.0
  0
LINE
  5
3CB2B
330
3CB26
100
AcDbEntity
  8
0
 62
     0
370
    -2
100
AcDbLine
 10
-78213.45196464285
 20
-74609.22797220137
 30
0.0
 11
-78141.45195942739
 21
-74609.22797220137
 31
0.0
  0
SOLID
  5
3CB2C
330
3CB26
100
AcDbEntity
  8
0
 62
     0
100
AcDbTrace
 10
-78243.45196464285
 20
-74604.22797220136
 30
0.0
 11
-78243.45196464285
 21
-74614.22797220136
 31
0.0
 12
-78213.45196464285
 22
-74609.22797220137
 32
0.0
 13
-78213.45196464285
 23
-74609.22797220137
 33
0.0
  0
SOLID
  5
3CB2D
330
3CB26
100
AcDbEntity
  8
0
 62
     0
100
AcDbTrace
 10
-78111.45195942739
 20
-74604.22797220136
 30
0.0
 11
-78111.45195942739
 21
-74614.22797220136
 31
0.0
 12
-78141.45195942739
 22
-74609.22797220137
 32
0.0
 13
-78141.45195942739
 23
-74609.22797220137
 33
0.0
  0
MTEXT
  5
3CB2E
330
3CB26
100
AcDbEntity
  8
0
 62
     0
100
AcDbMText
 10
-78177.45196203512
 20
-74584.22501944546
 30
0.0
 40
30.0
 41
0.0
 71
     5
 72
     1
  1
\A1;72
 73
     1
 44
1.0
1001
ACAD
1000
MTEXTBEGIN
1070
    73
1070
     1
1070
    44
1040
1.0
1070
    74
1070
     0
1000
MTEXTEND
  0
POINT
  5
3CB2F
330
3CB26
100
AcDbEntity
  8
DEFPOINTS
 62
     0
100
AcDbPoint
 10
-78213.45196464285
 20
-74546.09343057517
 30
0.0
  0
POINT
  5
3CB30
330
3CB26
100
AcDbEntity
  8
DEFPOINTS
 62
     0
100
AcDbPoint
 10
-78141.45195942739
 20
-74546.09343057517
 30
0.0
  0
POINT
  5
3CB31
330
3CB26
100
AcDbEntity
  8
DEFPOINTS
 62
     0
100
AcDbPoint
 10
-78141.45195942739
 20
-74609.22797220137
 30
0.0
  0
ENDBLK
  5
3CB33
330
3CB26
100
AcDbEntity
  8
0
100
AcDbBlockEnd
  0
BLOCK
  5
3CB41
330
3CB35
100
AcDbEntity
  8
0
100
AcDbBlockBegin
  2
*D8
 70
     1
 10
0.0
 20
0.0
 30
0.0
  3
*D8
  1

  0
LINE
  5
3CB36
330
3CB35
100
AcDbEntity
  8
0
 62
     0
370
    -2
100
AcDbLine
 10
-78184.05478760716
 20
-74535.09343057517
 30
0.0
 11
-78164.56125663209
 21
-74535.09343057517
 31
0.0
  0
LINE
  5
3CB37
330
3CB35
100
AcDbEntity
  8
0
 62
     0
370
    -2
100
AcDbLine
 10
-78184.05442739767
 20
-74560.09305022371
 30
0.0
 11
-78164.56125663209
 21
-74560.09305022371
 31
0.0
  0
LINE
  5
3CB38
330
3CB35
100
AcDbEntity
  8
0
 62
     0
370
    -2
100
AcDbLine
 10
-78174.56125663209
 20
-74505.09343057517
 30
0.0
 11
-78174.56125663209
 21
-74475.09343057517
 31
0.0
  0
LINE
  5
3CB39
330
3CB35
100
AcDbEntity
  8
0
 62
     0
370
    -2
100
AcDbLine
 10
-78174.56125663209
 20
-74590.09305022371
 30
0.0
 11
-78174.56125663209
 21
-74675.09750193448
 31
0.0
  0
LINE
  5
3CB3A
330
3CB35
100
AcDbEntity
  8
0
 62
     0
370
    -2
100
AcDbLine
 10
-78174.56125663209
 20
-74535.09343057517
 30
0.0
 11
-78174.56125663209
 21
-74560.09305022371
 31
0.0
  0
SOLID
  5
3CB3B
330
3CB35
100
AcDbEntity
  8
0
 62
     0
100
AcDbTrace
 10
-78179.56125663209
 20
-74505.09343057517
 30
0.0
 11
-78169.56125663209
 21
-74505.09343057517
 31
0.0
 12
-78174.56125663209
 22
-74535.09343057517
 32
0.0
 13
-78174.56125663209
 23
-74535.09343057517
 33
0.0
  0
SOLID
  5
3CB3C
330
3CB35
100
AcDbEntity
  8
0
 62
     0
100
AcDbTrace
 10
-78179.56125663209
 20
-74590.09305022371
 30
0.0
 11
-78169.56125663209
 21
-74590.09305022371
 31
0.0
 12
-78174.56125663209
 22
-74560.09305022371
 32
0.0
 13
-78174.56125663209
 23
-74560.09305022371
 33
0.0
  0
MTEXT
  5
3CB3D
330
3CB35
100
AcDbEntity
  8
0
 62
     0
100
AcDbMText
 10
-78199.56420938797
 20
-74647.59527607911
 30
0.0
 40
30.0
 41
0.0
 71
     5
 72
     1
  1
\A1;25
 11
0.0000000000000001
 21
1.0
 31
0.0
 73
     1
 44
1.0
1001
ACAD
1000
MTEXTBEGIN
1070
    73
1070
     1
1070
    44
1040
1.0
1070
    74
1070
     0
1000
MTEXTEND
  0
POINT
  5
3CB3E
330
3CB35
100
AcDbEntity
  8
DEFPOINTS
 62
     0
100
AcDbPoint
 10
-78184.05478760716
 20
-74535.09343057517
 30
0.0
  0
POINT
  5
3CB3F
330
3CB35
100
AcDbEntity
  8
DEFPOINTS
 62
     0
100
AcDbPoint
 10
-78184.05442739767
 20
-74560.09305022371
 30
0.0
  0
POINT
  5
3CB40
330
3CB35
100
AcDbEntity
  8
DEFPOINTS
 62
     0
100
AcDbPoint
 10
-78174.56125663209
 20
-74560.09305022371
 30
0.0
  0
ENDBLK
  5
3CB42
330
3CB35
100
AcDbEntity
  8
0
100
AcDbBlockEnd
  0
BLOCK
  5
3CB5E
330
3CB54
100
AcDbEntity
  8
0
100
AcDbBlockBegin
  2
*D9
 70
     1
 10
0.0
 20
0.0
 30
0.0
  3
*D9
  1

  0
LINE
  5
3CB55
330
3CB54
100
AcDbEntity
  8
0
 62
     0
370
    -2
100
AcDbLine
 10
-78346.2261985043
 20
-74547.59145628447
 30
0.0
 11
-78346.2261985043
 21
-74478.94825313822
 31
0.0
  0
LINE
  5
3CB56
330
3CB54
100
AcDbEntity
  8
0
 62
     0
370
    -2
100
AcDbLine
 10
-77721.22619268522
 20
-74547.59183304711
 30
0.0
 11
-77721.22619268522
 21
-74478.94825313822
 31
0.0
  0
LINE
  5
3CB57
330
3CB54
100
AcDbEntity
  8
0
 62
     0
370
    -2
100
AcDbLine
 10
-78316.2261985043
 20
-74488.94825313822
 30
0.0
 11
-77751.22619268524
 21
-74488.94825313822
 31
0.0
  0
SOLID
  5
3CB58
330
3CB54
100
AcDbEntity
  8
0
 62
     0
100
AcDbTrace
 10
-78316.2261985043
 20
-74483.94825313823
 30
0.0
 11
-78316.2261985043
 21
-74493.94825313822
 31
0.0
 12
-78346.2261985043
 22
-74488.94825313822
 32
0.0
 13
-78346.2261985043
 23
-74488.94825313822
 33
0.0
  0
SOLID
  5
3CB59
330
3CB54
100
AcDbEntity
  8
0
 62
     0
100
AcDbTrace
 10
-77751.22619268524
 20
-74483.94825313823
 30
0.0
 11
-77751.22619268524
 21
-74493.94825313822
 31
0.0
 12
-77721.22619268522
 22
-74488.94825313822
 32
0.0
 13
-77721.22619268522
 23
-74488.94825313822
 33
0.0
  0
MTEXT
  5
3CB5A
330
3CB54
100
AcDbEntity
  8
0
 62
     0
100
AcDbMText
 10
-78033.72619559476
 20
-74463.94530038231
 30
0.0
 40
30.0
 41
0.0
 71
     5
 72
     1
  1
\A1;625
 73
     1
 44
1.0
1001
ACAD
1000
MTEXTBEGIN
1070
    73
1070
     1
1070
    44
1040
1.0
1070
    74
1070
     0
1000
MTEXTEND
  0
POINT
  5
3CB5B
330
3CB54
100
AcDbEntity
  8
DEFPOINTS
 62
     0
100
AcDbPoint
 10
-78346.2261985043
 20
-74547.59145628447
 30
0.0
  0
POINT
  5
3CB5C
330
3CB54
100
AcDbEntity
  8
DEFPOINTS
 62
     0
100
AcDbPoint
 10
-77721.22619268522
 20
-74547.59183304711
 30
0.0
  0
POINT
  5
3CB5D
330
3CB54
100
AcDbEntity
  8
DEFPOINTS
 62
     0
100
AcDbPoint
 10
-77721.22619268522
 20
-74488.94825313822
 30
0.0
  0
ENDBLK
  5
3CB5F
330
3CB54
100
AcDbEntity
  8
0
100
AcDbBlockEnd
  0
BLOCK
  5
3CB73
330
3CB69
100
AcDbEntity
  8
0
100
AcDbBlockBegin
  2
*D10
 70
     1
 10
0.0
 20
0.0
 30
0.0
  3
*D10
  1

  0
LINE
  5
3CB6A
330
3CB69
100
AcDbEntity
  8
0
 62
     0
370
    -2
100
AcDbLine
 10
-78333.22619519746
 20
-74754.51828635716
 30
0.0
 11
-78333.22619519746
 21
-74691.82077936753
 31
0.0
  0
LINE
  5
3CB6B
330
3CB69
100
AcDbEntity
  8
0
 62
     0
370
    -2
100
AcDbLine
 10
-77431.22619519915
 20
-74754.51828677817
 30
0.0
 11
-77431.22619519915
 21
-74691.82077936753
 31
0.0
  0
LINE
  5
3CB6C
330
3CB69
100
AcDbEntity
  8
0
 62
     0
370
    -2
100
AcDbLine
 10
-78303.22619519747
 20
-74701.82077936752
 30
0.0
 11
-77461.22619519915
 21
-74701.82077936752
 31
0.0
  0
SOLID
  5
3CB6D
330
3CB69
100
AcDbEntity
  8
0
 62
     0
100
AcDbTrace
 10
-78303.22619519747
 20
-74696.82077936752
 30
0.0
 11
-78303.22619519747
 21
-74706.82077936753
 31
0.0
 12
-78333.22619519746
 22
-74701.82077936752
 32
0.0
 13
-78333.22619519746
 23
-74701.82077936752
 33
0.0
  0
SOLID
  5
3CB6E
330
3CB69
100
AcDbEntity
  8
0
 62
     0
100
AcDbTrace
 10
-77461.22619519915
 20
-74696.82077936752
 30
0.0
 11
-77461.22619519915
 21
-74706.82077936753
 31
0.0
 12
-77431.22619519915
 22
-74701.82077936752
 32
0.0
 13
-77431.22619519915
 23
-74701.82077936752
 33
0.0
  0
MTEXT
  5
3CB6F
330
3CB69
100
AcDbEntity
  8
0
 62
     0
100
AcDbMText
 10
-77882.22619519832
 20
-74676.81057622633
 30
0.0
 40
30.0
 41
0.0
 71
     5
 72
     1
  1
\A1;902
 73
     1
 44
1.0
1001
ACAD
1000
MTEXTBEGIN
1070
    73
1070
     1
1070
    44
1040
1.0
1070
    74
1070
     0
1000
MTEXTEND
  0
POINT
  5
3CB70
330
3CB69
100
AcDbEntity
  8
DEFPOINTS
 62
     0
100
AcDbPoint
 10
-78333.22619519746
 20
-74754.51828635716
 30
0.0
  0
POINT
  5
3CB71
330
3CB69
100
AcDbEntity
  8
DEFPOINTS
 62
     0
100
AcDbPoint
 10
-77431.22619519915
 20
-74754.51828677817
 30
0.0
  0
POINT
  5
3CB72
330
3CB69
100
AcDbEntity
  8
DEFPOINTS
 62
     0
100
AcDbPoint
 10
-77431.22619519915
 20
-74701.82077936752
 30
0.0
  0
ENDBLK
  5
3CB74
330
3CB69
100
AcDbEntity
  8
0
100
AcDbBlockEnd
  0
BLOCK
  5
3CB80
330
3CB76
100
AcDbEntity
  8
0
100
AcDbBlockBegin
  2
*D11
 70
     1
 10
0.0
 20
0.0
 30
0.0
  3
*D11
  1

  0
LINE
  5
3CB82
330
3CB76
100
AcDbEntity
  8
0
 62
     0
370
    -2
100
AcDbLine
 10
-78333.22619519746
 20
-74754.51828635716
 30
0.0
 11
-78333.22619519746
 21
-74679.74245040638
 31
0.0
  0
LINE
  5
3CB83
330
3CB76
100
AcDbEntity
  8
0
 62
     0
370
    -2
100
AcDbLine
 10
-77408.22619519915
 20
-74754.51828677815
 30
0.0
 11
-77408.22619519915
 21
-74679.74245040638
 31
0.0
  0
LINE
  5
3CB84
330
3CB76
100
AcDbEntity
  8
0
 62
     0
370
    -2
100
AcDbLine
 10
-78303.22619519747
 20
-74689.74245040636
 30
0.0
 11
-77438.22619519916
 21
-74689.74245040636
 31
0.0
  0
SOLID
  5
3CB85
330
3CB76
100
AcDbEntity
  8
0
 62
     0
100
AcDbTrace
 10
-78303.22619519747
 20
-74684.74245040638
 30
0.0
 11
-78303.22619519747
 21
-74694.74245040638
 31
0.0
 12
-78333.22619519746
 22
-74689.74245040636
 32
0.0
 13
-78333.22619519746
 23
-74689.74245040636
 33
0.0
  0
SOLID
  5
3CB86
330
3CB76
100
AcDbEntity
  8
0
 62
     0
100
AcDbTrace
 10
-77438.22619519916
 20
-74684.74245040638
 30
0.0
 11
-77438.22619519916
 21
-74694.74245040638
 31
0.0
 12
-77408.22619519915
 22
-74689.74245040636
 32
0.0
 13
-77408.22619519915
 23
-74689.74245040636
 33
0.0
  0
MTEXT
  5
3CB87
330
3CB76
100
AcDbEntity
  8
0
 62
     0
100
AcDbMText
 10
-77870.72619519831
 20
-74664.73224726517
 30
0.0
 40
30.0
 41
0.0
 71
     5
 72
     1
  1
\A1;925
 73
     1
 44
1.0
1001
ACAD
1000
MTEXTBEGIN
1070
    73
1070
     1
1070
    44
1040
1.0
1070
    74
1070
     0
1000
MTEXTEND
  0
POINT
  5
3CB88
330
3CB76
100
AcDbEntity
  8
DEFPOINTS
 62
     0
100
AcDbPoint
 10
-78333.22619519746
 20
-74754.51828635716
 30
0.0
  0
POINT
  5
3CB89
330
3CB76
100
AcDbEntity
  8
DEFPOINTS
 62
     0
100
AcDbPoint
 10
-77408.22619519915
 20
-74754.51828677815
 30
0.0
  0
POINT
  5
3CB8A
330
3CB76
100
AcDbEntity
  8
DEFPOINTS
 62
     0
100
AcDbPoint
 10
-77408.22619519915
 20
-74689.74245040636
 30
0.0
  0
ENDBLK
  5
3CB81
330
3CB76
100
AcDbEntity
  8
0
100
AcDbBlockEnd
  0
BLOCK
  5
3CB98
330
3CB8C
100
AcDbEntity
  8
0
100
AcDbBlockBegin
  2
*D12
 70
     1
 10
0.0
 20
0.0
 30
0.0
  3
*D12
  1

  0
LINE
  5
3CB8D
330
3CB8C
100
AcDbEntity
  8
0
 62
     0
370
    -2
100
AcDbLine
 10
-78346.2261985043
 20
-74547.59145628447
 30
0.0
 11
-77386.01688028825
 21
-74547.59145628447
 31
0.0
  0
LINE
  5
3CB8E
330
3CB8C
100
AcDbEntity
  8
0
 62
     0
370
    -2
100
AcDbLine
 10
-77398.22619268534
 20
-74547.59127793893
 30
0.0
 11
-77386.01688028825
 21
-74547.59127793893
 31
0.0
  0
LINE
  5
3CB8F
330
3CB8C
100
AcDbEntity
  8
0
 62
     0
370
    -2
100
AcDbLine
 10
-77396.01688028825
 20
-74577.59145628445
 30
0.0
 11
-77396.01688028825
 21
-74607.59145628445
 31
0.0
  0
LINE
  5
3CB90
330
3CB8C
100
AcDbEntity
  8
0
 62
     0
370
    -2
100
AcDbLine
 10
-77396.01688028825
 20
-74517.59127793891
 30
0.0
 11
-77396.01688028825
 21
-74455.54403384441
 31
0.0
  0
LINE
  5
3CB91
330
3CB8C
100
AcDbEntity
  8
0
 62
     0
370
    -2
100
AcDbLine
 10
-77396.01688028825
 20
-74547.59145628447
 30
0.0
 11
-77396.01688028825
 21
-74547.59127793893
 31
0.0
  0
SOLID
  5
3CB92
330
3CB8C
100
AcDbEntity
  8
0
 62
     0
100
AcDbTrace
 10
-77401.01688028826
 20
-74577.59145628445
 30
0.0
 11
-77391.01688028825
 21
-74577.59145628445
 31
0.0
 12
-77396.01688028825
 22
-74547.59145628447
 32
0.0
 13
-77396.01688028825
 23
-74547.59145628447
 33
0.0
  0
SOLID
  5
3CB93
330
3CB8C
100
AcDbEntity
  8
0
 62
     0
100
AcDbTrace
 10
-77401.01688028826
 20
-74517.59127793891
 30
0.0
 11
-77391.01688028825
 21
-74517.59127793891
 31
0.0
 12
-77396.01688028825
 22
-74547.59127793893
 32
0.0
 13
-77396.01688028825
 23
-74547.59127793893
 33
0.0
  0
MTEXT
  5
3CB94
330
3CB8C
100
AcDbEntity
  8
0
 62
     0
100
AcDbMText
 10
-77421.01688028824
 20
-74471.56765589167
 30
0.0
 40
30.0
 41
0.0
 71
     5
 72
     1
  1
\A1;0
 11
0.0000000000000001
 21
1.0
 31
0.0
 73
     1
 44
1.0
1001
ACAD
1000
MTEXTBEGIN
1070
    73
1070
     1
1070
    44
1040
1.0
1070
    74
1070
     0
1000
MTEXTEND
  0
POINT
  5
3CB95
330
3CB8C
100
AcDbEntity
  8
DEFPOINTS
 62
     0
100
AcDbPoint
 10
-78346.2261985043
 20
-74547.59145628447
 30
0.0
  0
POINT
  5
3CB96
330
3CB8C
100
AcDbEntity
  8
DEFPOINTS
 62
     0
100
AcDbPoint
 10
-77398.22619268534
 20
-74547.59127793893
 30
0.0
  0
POINT
  5
3CB97
330
3CB8C
100
AcDbEntity
  8
DEFPOINTS
 62
     0
100
AcDbPoint
 10
-77396.01688028825
 20
-74547.59127793893
 30
0.0
  0
ENDBLK
  5
3CB99
330
3CB8C
100
AcDbEntity
  8
0
100
AcDbBlockEnd
  0
BLOCK
  5
3CBA5
330
3CB9B
100
AcDbEntity
  8
0
100
AcDbBlockBegin
  2
*D13
 70
     1
 10
0.0
 20
0.0
 30
0.0
  3
*D13
  1

  0
LINE
  5
3CB9C
330
3CB9B
100
AcDbEntity
  8
0
 62
     0
370
    -2
100
AcDbLine
 10
-78346.22619843287
 20
-74789.01828744509
 30
0.0
 11
-78346.22619843287
 21
-74936.13270312431
 31
0.0
  0
LINE
  5
3CB9D
330
3CB9B
100
AcDbEntity
  8
0
 62
     0
370
    -2
100
AcDbLine
 10
-77420.22619321846
 20
-74789.01807527122
 30
0.0
 11
-77420.22619321846
 21
-74936.13270312431
 31
0.0
  0
LINE
  5
3CB9E
330
3CB9B
100
AcDbEntity
  8
0
 62
     0
370
    -2
100
AcDbLine
 10
-78316.22619843287
 20
-74926.13270312431
 30
0.0
 11
-77450.22619321846
 21
-74926.13270312431
 31
0.0
  0
SOLID
  5
3CB9F
330
3CB9B
100
AcDbEntity
  8
0
 62
     0
100
AcDbTrace
 10
-78316.22619843287
 20
-74921.13270312431
 30
0.0
 11
-78316.22619843287
 21
-74931.13270312431
 31
0.0
 12
-78346.22619843287
 22
-74926.13270312431
 32
0.0
 13
-78346.22619843287
 23
-74926.13270312431
 33
0.0
  0
SOLID
  5
3CBA0
330
3CB9B
100
AcDbEntity
  8
0
 62
     0
100
AcDbTrace
 10
-77450.22619321846
 20
-74921.13270312431
 30
0.0
 11
-77450.22619321846
 21
-74931.13270312431
 31
0.0
 12
-77420.22619321846
 22
-74926.13270312431
 32
0.0
 13
-77420.22619321846
 23
-74926.13270312431
 33
0.0
  0
MTEXT
  5
3CBA1
330
3CB9B
100
AcDbEntity
  8
0
 62
     0
100
AcDbMText
 10
-77883.22619582567
 20
-74901.12249998311
 30
0.0
 40
30.0
 41
0.0
 71
     5
 72
     1
  1
\A1;926
 73
     1
 44
1.0
1001
ACAD
1000
MTEXTBEGIN
1070
    73
1070
     1
1070
    44
1040
1.0
1070
    74
1070
     0
1000
MTEXTEND
  0
POINT
  5
3CBA2
330
3CB9B
100
AcDbEntity
  8
DEFPOINTS
 62
     0
100
AcDbPoint
 10
-78346.22619843287
 20
-74789.01828744509
 30
0.0
  0
POINT
  5
3CBA3
330
3CB9B
100
AcDbEntity
  8
DEFPOINTS
 62
     0
100
AcDbPoint
 10
-77420.22619321846
 20
-74789.01807527122
 30
0.0
  0
POINT
  5
3CBA4
330
3CB9B
100
AcDbEntity
  8
DEFPOINTS
 62
     0
100
AcDbPoint
 10
-77420.22619321846
 20
-74926.13270312431
 30
0.0
  0
ENDBLK
  5
3CBA6
330
3CB9B
100
AcDbEntity
  8
0
100
AcDbBlockEnd
  0
BLOCK
  5
3CD0D
330
3CD01
100
AcDbEntity
  8
0
100
AcDbBlockBegin
  2
*D14
 70
     1
 10
0.0
 20
0.0
 30
0.0
  3
*D14
  1

  0
LINE
  5
3CD02
330
3CD01
100
AcDbEntity
  8
0
 62
     0
370
    -2
100
AcDbLine
 10
-78154.38942225824
 20
-73847.35104929528
 30
0.0
 11
-78092.59811442212
 21
-73847.35104929528
 31
0.0
  0
LINE
  5
3CD03
330
3CD01
100
AcDbEntity
  8
0
 62
     0
370
    -2
100
AcDbLine
 10
-78154.38942271721
 20
-73862.68349348147
 30
0.0
 11
-78092.59811442212
 21
-73862.68349348147
 31
0.0
  0
LINE
  5
3CD04
330
3CD01
100
AcDbEntity
  8
0
 62
     0
370
    -2
100
AcDbLine
 10
-78102.59811442211
 20
-73817.35104929528
 30
0.0
 11
-78102.59811442211
 21
-73787.35104929527
 31
0.0
  0
LINE
  5
3CD05
330
3CD01
100
AcDbEntity
  8
0
 62
     0
370
    -2
100
AcDbLine
 10
-78102.59811442211
 20
-73892.68349348149
 30
0.0
 11
-78102.59811442211
 21
-73970.92613416861
 31
0.0
  0
LINE
  5
3CD06
330
3CD01
100
AcDbEntity
  8
0
 62
     0
370
    -2
100
AcDbLine
 10
-78102.59811442211
 20
-73847.35104929528
 30
0.0
 11
-78102.59811442211
 21
-73862.68349348147
 31
0.0
  0
SOLID
  5
3CD07
330
3CD01
100
AcDbEntity
  8
0
 62
     0
100
AcDbTrace
 10
-78107.59811442212
 20
-73817.35104929528
 30
0.0
 11
-78097.59811442211
 21
-73817.35104929528
 31
0.0
 12
-78102.59811442211
 22
-73847.35104929528
 32
0.0
 13
-78102.59811442211
 23
-73847.35104929528
 33
0.0
  0
SOLID
  5
3CD08
330
3CD01
100
AcDbEntity
  8
0
 62
     0
100
AcDbTrace
 10
-78107.59811442212
 20
-73892.68349348149
 30
0.0
 11
-78097.59811442211
 21
-73892.68349348149
 31
0.0
 12
-78102.59811442211
 22
-73862.68349348147
 32
0.0
 13
-78102.59811442211
 23
-73862.68349348147
 33
0.0
  0
MTEXT
  5
3CD09
330
3CD01
100
AcDbEntity
  8
0
 62
     0
100
AcDbMText
 10
-78127.5981144221
 20
-73946.80481382506
 30
0.0
 40
30.0
 41
0.0
 71
     5
 72
     1
  1
\A1;15
 11
0.0000000000000001
 21
1.0
 31
0.0
 73
     1
 44
1.0
1001
ACAD
1000
MTEXTBEGIN
1070
    73
1070
     1
1070
    44
1040
1.0
1070
    74
1070
     0
1000
MTEXTEND
  0
POINT
  5
3CD0A
330
3CD01
100
AcDbEntity
  8
DEFPOINTS
 62
     0
100
AcDbPoint
 10
-78154.38942225824
 20
-73847.35104929528
 30
0.0
  0
POINT
  5
3CD0B
330
3CD01
100
AcDbEntity
  8
DEFPOINTS
 62
     0
100
AcDbPoint
 10
-78154.38942271721
 20
-73862.68349348147
 30
0.0
  0
POINT
  5
3CD0C
330
3CD01
100
AcDbEntity
  8
DEFPOINTS
 62
     0
100
AcDbPoint
 10
-78102.59811442211
 20
-73862.68349348147
 30
0.0
  0
ENDBLK
  5
3CD0E
330
3CD01
100
AcDbEntity
  8
0
100
AcDbBlockEnd
  0
BLOCK
  5
3CD1A
330
3CD10
100
AcDbEntity
  8
0
100
AcDbBlockBegin
  2
*D15
 70
     1
 10
0.0
 20
0.0
 30
0.0
  3
*D15
  1

  0
LINE
  5
3CD11
330
3CD10
100
AcDbEntity
  8
0
 62
     0
370
    -2
100
AcDbLine
 10
-78061.29108879152
 20
-73847.35100732659
 30
0.0
 11
-77964.1444591554
 21
-73847.35100732659
 31
0.0
  0
LINE
  5
3CD12
330
3CD10
100
AcDbEntity
  8
0
 62
     0
370
    -2
100
AcDbLine
 10
-78061.29054087176
 20
-73964.16963591535
 30
0.0
 11
-77964.1444591554
 21
-73964.16963591535
 31
0.0
  0
LINE
  5
3CD13
330
3CD10
100
AcDbEntity
  8
0
 62
     0
370
    -2
100
AcDbLine
 10
-77974.1444591554
 20
-73877.35100732659
 30
0.0
 11
-77974.1444591554
 21
-73934.16963591535
 31
0.0
  0
SOLID
  5
3CD14
330
3CD10
100
AcDbEntity
  8
0
 62
     0
100
AcDbTrace
 10
-77979.1444591554
 20
-73877.35100732659
 30
0.0
 11
-77969.14445915541
 21
-73877.35100732659
 31
0.0
 12
-77974.1444591554
 22
-73847.35100732659
 32
0.0
 13
-77974.1444591554
 23
-73847.35100732659
 33
0.0
  0
SOLID
  5
3CD15
330
3CD10
100
AcDbEntity
  8
0
 62
     0
100
AcDbTrace
 10
-77979.1444591554
 20
-73934.16963591535
 30
0.0
 11
-77969.14445915541
 21
-73934.16963591535
 31
0.0
 12
-77974.1444591554
 22
-73964.16963591535
 32
0.0
 13
-77974.1444591554
 23
-73964.16963591535
 33
0.0
  0
MTEXT
  5
3CD16
330
3CD10
100
AcDbEntity
  8
0
 62
     0
100
AcDbMText
 10
-77999.14445915539
 20
-73905.76032162099
 30
0.0
 40
30.0
 41
0.0
 71
     5
 72
     1
  1
\A1;117
 11
0.0000000000000001
 21
1.0
 31
0.0
 73
     1
 44
1.0
1001
ACAD
1000
MTEXTBEGIN
1070
    73
1070
     1
1070
    44
1040
1.0
1070
    74
1070
     0
1000
MTEXTEND
  0
POINT
  5
3CD17
330
3CD10
100
AcDbEntity
  8
DEFPOINTS
 62
     0
100
AcDbPoint
 10
-78061.29108879152
 20
-73847.35100732659
 30
-0.0000000000000078
  0
POINT
  5
3CD18
330
3CD10
100
AcDbEntity
  8
DEFPOINTS
 62
     0
100
AcDbPoint
 10
-78061.29054087176
 20
-73964.16963591535
 30
-0.000000000000011
  0
POINT
  5
3CD19
330
3CD10
100
AcDbEntity
  8
DEFPOINTS
 62
     0
100
AcDbPoint
 10
-77974.1444591554
 20
-73964.16963591535
 30
0.0
  0
ENDBLK
  5
3CD1B
330
3CD10
100
AcDbEntity
  8
0
100
AcDbBlockEnd
  0
BLOCK
  5
3CD2A
330
3CD20
100
AcDbEntity
  8
0
100
AcDbBlockBegin
  2
*D16
 70
     1
 10
0.0
 20
0.0
 30
0.0
  3
*D16
  1

  0
LINE
  5
3CD21
330
3CD20
100
AcDbEntity
  8
0
 62
     0
370
    -2
100
AcDbLine
 10
-78020.02452810097
 20
-73867.11018846216
 30
0.0
 11
-78020.02452810097
 21
-73829.52985670272
 31
0.0
  0
LINE
  5
3CD22
330
3CD20
100
AcDbEntity
  8
0
 62
     0
370
    -2
100
AcDbLine
 10
-77914.02452810097
 20
-73867.11018846216
 30
0.0
 11
-77914.02452810097
 21
-73829.52985670272
 31
0.0
  0
LINE
  5
3CD23
330
3CD20
100
AcDbEntity
  8
0
 62
     0
370
    -2
100
AcDbLine
 10
-77990.02452810097
 20
-73839.52985670269
 30
0.0
 11
-77944.02452810097
 21
-73839.52985670269
 31
0.0
  0
SOLID
  5
3CD24
330
3CD20
100
AcDbEntity
  8
0
 62
     0
100
AcDbTrace
 10
-77990.02452810097
 20
-73834.52985670269
 30
0.0
 11
-77990.02452810097
 21
-73844.52985670272
 31
0.0
 12
-78020.02452810097
 22
-73839.52985670269
 32
0.0
 13
-78020.02452810097
 23
-73839.52985670269
 33
0.0
  0
SOLID
  5
3CD25
330
3CD20
100
AcDbEntity
  8
0
 62
     0
100
AcDbTrace
 10
-77944.02452810097
 20
-73834.52985670269
 30
0.0
 11
-77944.02452810097
 21
-73844.52985670272
 31
0.0
 12
-77914.02452810097
 22
-73839.52985670269
 32
0.0
 13
-77914.02452810097
 23
-73839.52985670269
 33
0.0
  0
MTEXT
  5
3CD26
330
3CD20
100
AcDbEntity
  8
0
 62
     0
100
AcDbMText
 10
-77967.02452810097
 20
-73814.52985670271
 30
0.0
 40
30.0
 41
0.0
 71
     5
 72
     1
  1
\A1;106
 73
     1
 44
1.0
1001
ACAD
1000
MTEXTBEGIN
1070
    73
1070
     1
1070
    44
1040
1.0
1070
    74
1070
     0
1000
MTEXTEND
  0
POINT
  5
3CD27
330
3CD20
100
AcDbEntity
  8
DEFPOINTS
 62
     0
100
AcDbPoint
 10
-78020.02452810097
 20
-73867.11018846216
 30
0.0
  0
POINT
  5
3CD28
330
3CD20
100
AcDbEntity
  8
DEFPOINTS
 62
     0
100
AcDbPoint
 10
-77914.02452810097
 20
-73867.11018846216
 30
0.0
  0
POINT
  5
3CD29
330
3CD20
100
AcDbEntity
  8
DEFPOINTS
 62
     0
100
AcDbPoint
 10
-77914.02452810097
 20
-73839.52985670269
 30
0.0
  0
ENDBLK
  5
3CD2B
330
3CD20
100
AcDbEntity
  8
0
100
AcDbBlockEnd
  0
BLOCK
  5
3CD3A
330
3CD2E
100
AcDbEntity
  8
0
100
AcDbBlockBegin
  2
*D17
 70
     1
 10
0.0
 20
0.0
 30
0.0
  3
*D17
  1

  0
LINE
  5
3CD2F
330
3CD2E
100
AcDbEntity
  8
0
 62
     0
370
    -2
100
AcDbLine
 10
-77990.16838616111
 20
-73877.11018846216
 30
0.0
 11
-77954.53105243457
 21
-73877.11018846216
 31
0.0
  0
LINE
  5
3CD30
330
3CD2E
100
AcDbEntity
  8
0
 62
     0
370
    -2
100
AcDbLine
 10
-77990.16838616111
 20
-73943.11018846216
 30
0.0
 11
-77954.53105243457
 21
-73943.11018846216
 31
0.0
  0
LINE
  5
3CD31
330
3CD2E
100
AcDbEntity
  8
0
 62
     0
370
    -2
100
AcDbLine
 10
-77964.53105243457
 20
-73847.11018846216
 30
0.0
 11
-77964.53105243457
 21
-73817.11018846216
 31
0.0
  0
LINE
  5
3CD32
330
3CD2E
100
AcDbEntity
  8
0
 62
     0
370
    -2
100
AcDbLine
 10
-77964.53105243457
 20
-73973.11018846216
 30
0.0
 11
-77964.53105243457
 21
-74003.11018846216
 31
0.0
  0
LINE
  5
3CD33
330
3CD2E
100
AcDbEntity
  8
0
 62
     0
370
    -2
100
AcDbLine
 10
-77964.53105243457
 20
-73877.11018846216
 30
0.0
 11
-77964.53105243457
 21
-73943.11018846216
 31
0.0
  0
SOLID
  5
3CD34
330
3CD2E
100
AcDbEntity
  8
0
 62
     0
100
AcDbTrace
 10
-77969.53105243457
 20
-73847.11018846216
 30
0.0
 11
-77959.53105243457
 21
-73847.11018846216
 31
0.0
 12
-77964.53105243457
 22
-73877.11018846216
 32
0.0
 13
-77964.53105243457
 23
-73877.11018846216
 33
0.0
  0
SOLID
  5
3CD35
330
3CD2E
100
AcDbEntity
  8
0
 62
     0
100
AcDbTrace
 10
-77969.53105243457
 20
-73973.11018846216
 30
0.0
 11
-77959.53105243457
 21
-73973.11018846216
 31
0.0
 12
-77964.53105243457
 22
-73943.11018846216
 32
0.0
 13
-77964.53105243457
 23
-73943.11018846216
 33
0.0
  0
MTEXT
  5
3CD36
330
3CD2E
100
AcDbEntity
  8
0
 62
     0
100
AcDbMText
 10
-77989.53105243455
 20
-73910.11018846217
 30
0.0
 40
30.0
 41
0.0
 71
     5
 72
     1
  1
\A1;66
 11
0.0000000000000001
 21
1.0
 31
0.0
 73
     1
 44
1.0
1001
ACAD
1000
MTEXTBEGIN
1070
    73
1070
     1
1070
    44
1040
1.0
1070
    74
1070
     0
1000
MTEXTEND
  0
POINT
  5
3CD37
330
3CD2E
100
AcDbEntity
  8
DEFPOINTS
 62
     0
100
AcDbPoint
 10
-77990.16838616111
 20
-73877.11018846216
 30
0.0
  0
POINT
  5
3CD38
330
3CD2E
100
AcDbEntity
  8
DEFPOINTS
 62
     0
100
AcDbPoint
 10
-77990.16838616111
 20
-73943.11018846216
 30
0.0
  0
POINT
  5
3CD39
330
3CD2E
100
AcDbEntity
  8
DEFPOINTS
 62
     0
100
AcDbPoint
 10
-77964.53105243457
 20
-73943.11018846216
 30
0.0
  0
ENDBLK
  5
3CD3B
330
3CD2E
100
AcDbEntity
  8
0
100
AcDbBlockEnd
  0
BLOCK
  5
3CD7B
330
3CD71
100
AcDbEntity
  8
0
100
AcDbBlockBegin
  2
*D18
 70
     1
 10
0.0
 20
0.0
 30
0.0
  3
*D18
  1

  0
LINE
  5
3CD72
330
3CD71
100
AcDbEntity
  8
0
 62
     0
370
    -2
100
AcDbLine
 10
-77967.89539090026
 20
-73822.51656397755
 30
0.0
 11
-77911.66959504765
 21
-73822.51656397755
 31
0.0
  0
LINE
  5
3CD73
330
3CD71
100
AcDbEntity
  8
0
 62
     0
370
    -2
100
AcDbLine
 10
-77967.89539090026
 20
-73962.51656397755
 30
0.0
 11
-77911.66959504765
 21
-73962.51656397755
 31
0.0
  0
LINE
  5
3CD74
330
3CD71
100
AcDbEntity
  8
0
 62
     0
370
    -2
100
AcDbLine
 10
-77921.66959504766
 20
-73852.51656397755
 30
0.0
 11
-77921.66959504766
 21
-73932.51656397755
 31
0.0
  0
SOLID
  5
3CD75
330
3CD71
100
AcDbEntity
  8
0
 62
     0
100
AcDbTrace
 10
-77926.66959504765
 20
-73852.51656397755
 30
0.0
 11
-77916.66959504765
 21
-73852.51656397755
 31
0.0
 12
-77921.66959504766
 22
-73822.51656397755
 32
0.0
 13
-77921.66959504766
 23
-73822.51656397755
 33
0.0
  0
SOLID
  5
3CD76
330
3CD71
100
AcDbEntity
  8
0
 62
     0
100
AcDbTrace
 10
-77926.66959504765
 20
-73932.51656397755
 30
0.0
 11
-77916.66959504765
 21
-73932.51656397755
 31
0.0
 12
-77921.66959504766
 22
-73962.51656397755
 32
0.0
 13
-77921.66959504766
 23
-73962.51656397755
 33
0.0
  0
MTEXT
  5
3CD77
330
3CD71
100
AcDbEntity
  8
0
 62
     0
100
AcDbMText
 10
-77946.66959504764
 20
-73892.51656397757
 30
0.0
 40
30.0
 41
0.0
 71
     5
 72
     1
  1
\A1;140
 11
0.0000000000000001
 21
1.0
 31
0.0
 73
     1
 44
1.0
1001
ACAD
1000
MTEXTBEGIN
1070
    73
1070
     1
1070
    44
1040
1.0
1070
    74
1070
     0
1000
MTEXTEND
  0
POINT
  5
3CD78
330
3CD71
100
AcDbEntity
  8
DEFPOINTS
 62
     0
100
AcDbPoint
 10
-77967.89539090026
 20
-73822.51656397755
 30
0.0
  0
POINT
  5
3CD79
330
3CD71
100
AcDbEntity
  8
DEFPOINTS
 62
     0
100
AcDbPoint
 10
-77967.89539090026
 20
-73962.51656397755
 30
0.0
  0
POINT
  5
3CD7A
330
3CD71
100
AcDbEntity
  8
DEFPOINTS
 62
     0
100
AcDbPoint
 10
-77921.66959504766
 20
-73962.51656397755
 30
0.0
  0
ENDBLK
  5
3CD7C
330
3CD71
100
AcDbEntity
  8
0
100
AcDbBlockEnd
  0
BLOCK
  5
3CD88
330
3CD7E
100
AcDbEntity
  8
0
100
AcDbBlockBegin
  2
*D19
 70
     1
 10
0.0
 20
0.0
 30
0.0
  3
*D19
  1

  0
LINE
  5
3CD7F
330
3CD7E
100
AcDbEntity
  8
0
 62
     0
370
    -2
100
AcDbLine
 10
-78010.55958429985
 20
-73812.51656397755
 30
0.0
 11
-77965.66818139202
 21
-73812.51656397755
 31
0.0
  0
LINE
  5
3CD80
330
3CD7E
100
AcDbEntity
  8
0
 62
     0
370
    -2
100
AcDbLine
 10
-78010.55958429985
 20
-73972.51656397755
 30
0.0
 11
-77965.66818139202
 21
-73972.51656397755
 31
0.0
  0
LINE
  5
3CD81
330
3CD7E
100
AcDbEntity
  8
0
 62
     0
370
    -2
100
AcDbLine
 10
-77975.66818139201
 20
-73842.51656397755
 30
0.0
 11
-77975.66818139201
 21
-73942.51656397755
 31
0.0
  0
SOLID
  5
3CD82
330
3CD7E
100
AcDbEntity
  8
0
 62
     0
100
AcDbTrace
 10
-77980.66818139202
 20
-73842.51656397755
 30
0.0
 11
-77970.66818139201
 21
-73842.51656397755
 31
0.0
 12
-77975.66818139201
 22
-73812.51656397755
 32
0.0
 13
-77975.66818139201
 23
-73812.51656397755
 33
0.0
  0
SOLID
  5
3CD83
330
3CD7E
100
AcDbEntity
  8
0
 62
     0
100
AcDbTrace
 10
-77980.66818139202
 20
-73942.51656397755
 30
0.0
 11
-77970.66818139201
 21
-73942.51656397755
 31
0.0
 12
-77975.66818139201
 22
-73972.51656397755
 32
0.0
 13
-77975.66818139201
 23
-73972.51656397755
 33
0.0
  0
MTEXT
  5
3CD84
330
3CD7E
100
AcDbEntity
  8
0
 62
     0
100
AcDbMText
 10
-78000.668181392
 20
-73892.51656397757
 30
0.0
 40
30.0
 41
0.0
 71
     5
 72
     1
  1
\A1;160
 11
0.0000000000000001
 21
1.0
 31
0.0
 73
     1
 44
1.0
1001
ACAD
1000
MTEXTBEGIN
1070
    73
1070
     1
1070
    44
1040
1.0
1070
    74
1070
     0
1000
MTEXTEND
  0
POINT
  5
3CD85
330
3CD7E
100
AcDbEntity
  8
DEFPOINTS
 62
     0
100
AcDbPoint
 10
-78010.55958429985
 20
-73812.51656397755
 30
0.0
  0
POINT
  5
3CD86
330
3CD7E
100
AcDbEntity
  8
DEFPOINTS
 62
     0
100
AcDbPoint
 10
-78010.55958429985
 20
-73972.51656397755
 30
0.0
  0
POINT
  5
3CD87
330
3CD7E
100
AcDbEntity
  8
DEFPOINTS
 62
     0
100
AcDbPoint
 10
-77975.66818139201
 20
-73972.51656397755
 30
0.0
  0
ENDBLK
  5
3CD89
330
3CD7E
100
AcDbEntity
  8
0
100
AcDbBlockEnd
  0
BLOCK
  5
3CD97
330
3CD8B
100
AcDbEntity
  8
0
100
AcDbBlockBegin
  2
*D20
 70
     1
 10
0.0
 20
0.0
 30
0.0
  3
*D20
  1

  0
LINE
  5
3CD8C
330
3CD8B
100
AcDbEntity
  8
0
 62
     0
370
    -2
100
AcDbLine
 10
-78031.32796844555
 20
-73832.51656397755
 30
0.0
 11
-78160.12463338446
 21
-73832.51656397755
 31
0.0
  0
LINE
  5
3CD8D
330
3CD8B
100
AcDbEntity
  8
0
 62
     0
370
    -2
100
AcDbLine
 10
-78031.32796844555
 20
-73812.51656397755
 30
0.0
 11
-78160.12463338446
 21
-73812.51656397755
 31
0.0
  0
LINE
  5
3CD8E
330
3CD8B
100
AcDbEntity
  8
0
 62
     0
370
    -2
100
AcDbLine
 10
-78150.12463338446
 20
-73862.51656397755
 30
0.0
 11
-78150.12463338446
 21
-73892.51656397755
 31
0.0
  0
LINE
  5
3CD8F
330
3CD8B
100
AcDbEntity
  8
0
 62
     0
370
    -2
100
AcDbLine
 10
-78150.12463338446
 20
-73782.51656397755
 30
0.0
 11
-78150.12463338446
 21
-73698.73113090669
 31
0.0
  0
LINE
  5
3CD90
330
3CD8B
100
AcDbEntity
  8
0
 62
     0
370
    -2
100
AcDbLine
 10
-78150.12463338446
 20
-73832.51656397755
 30
0.0
 11
-78150.12463338446
 21
-73812.51656397755
 31
0.0
  0
SOLID
  5
3CD91
330
3CD8B
100
AcDbEntity
  8
0
 62
     0
100
AcDbTrace
 10
-78155.12463338446
 20
-73862.51656397755
 30
0.0
 11
-78145.12463338446
 21
-73862.51656397755
 31
0.0
 12
-78150.12463338446
 22
-73832.51656397755
 32
0.0
 13
-78150.12463338446
 23
-73832.51656397755
 33
0.0
  0
SOLID
  5
3CD92
330
3CD8B
100
AcDbEntity
  8
0
 62
     0
100
AcDbTrace
 10
-78155.12463338446
 20
-73782.51656397755
 30
0.0
 11
-78145.12463338446
 21
-73782.51656397755
 31
0.0
 12
-78150.12463338446
 22
-73812.51656397755
 32
0.0
 13
-78150.12463338446
 23
-73812.51656397755
 33
0.0
  0
MTEXT
  5
3CD93
330
3CD8B
100
AcDbEntity
  8
0
 62
     0
100
AcDbMText
 10
-78175.12758614036
 20
-73725.62384744212
 30
0.0
 40
30.0
 41
0.0
 71
     5
 72
     1
  1
\A1;20
 11
0.0000000000000001
 21
1.0
 31
0.0
 73
     1
 44
1.0
1001
ACAD
1000
MTEXTBEGIN
1070
    73
1070
     1
1070
    44
1040
1.0
1070
    74
1070
     0
1000
MTEXTEND
  0
POINT
  5
3CD94
330
3CD8B
100
AcDbEntity
  8
DEFPOINTS
 62
     0
100
AcDbPoint
 10
-78031.32796844555
 20
-73832.51656397755
 30
0.0
  0
POINT
  5
3CD95
330
3CD8B
100
AcDbEntity
  8
DEFPOINTS
 62
     0
100
AcDbPoint
 10
-78031.32796844555
 20
-73812.51656397755
 30
0.0
  0
POINT
  5
3CD96
330
3CD8B
100
AcDbEntity
  8
DEFPOINTS
 62
     0
100
AcDbPoint
 10
-78150.12463338446
 20
-73812.51656397755
 30
0.0
  0
ENDBLK
  5
3CD98
330
3CD8B
100
AcDbEntity
  8
0
100
AcDbBlockEnd
  0
BLOCK
  5
3CDA6
330
3CD9A
100
AcDbEntity
  8
0
100
AcDbBlockBegin
  2
*D21
 70
     1
 10
0.0
 20
0.0
 30
0.0
  3
*D21
  1

  0
LINE
  5
3CD9B
330
3CD9A
100
AcDbEntity
  8
0
 62
     0
370
    -2
100
AcDbLine
 10
-77902.72067088173
 20
-73972.51656397755
 30
0.0
 11
-77902.72067088173
 21
-74020.46130046059
 31
0.0
  0
LINE
  5
3CD9C
330
3CD9A
100
AcDbEntity
  8
0
 62
     0
370
    -2
100
AcDbLine
 10
-77884.32067088175
 20
-73971.71656397754
 30
0.0
 11
-77884.32067088175
 21
-74020.46130046059
 31
0.0
  0
LINE
  5
3CD9D
330
3CD9A
100
AcDbEntity
  8
0
 62
     0
370
    -2
100
AcDbLine
 10
-77932.72067088173
 20
-74010.46130046059
 30
0.0
 11
-77962.72067088172
 21
-74010.46130046059
 31
0.0
  0
LINE
  5
3CD9E
330
3CD9A
100
AcDbEntity
  8
0
 62
     0
370
    -2
100
AcDbLine
 10
-77854.32067088175
 20
-74010.46130046059
 30
0.0
 11
-77777.32067088175
 21
-74010.46130046059
 31
0.0
  0
LINE
  5
3CD9F
330
3CD9A
100
AcDbEntity
  8
0
 62
     0
370
    -2
100
AcDbLine
 10
-77902.72067088173
 20
-74010.46130046059
 30
0.0
 11
-77884.32067088175
 21
-74010.46130046059
 31
0.0
  0
SOLID
  5
3CDA0
330
3CD9A
100
AcDbEntity
  8
0
 62
     0
100
AcDbTrace
 10
-77932.72067088173
 20
-74005.46130046059
 30
0.0
 11
-77932.72067088173
 21
-74015.46130046059
 31
0.0
 12
-77902.72067088173
 22
-74010.46130046059
 32
0.0
 13
-77902.72067088173
 23
-74010.46130046059
 33
0.0
  0
SOLID
  5
3CDA1
330
3CD9A
100
AcDbEntity
  8
0
 62
     0
100
AcDbTrace
 10
-77854.32067088175
 20
-74005.46130046059
 30
0.0
 11
-77854.32067088175
 21
-74015.46130046059
 31
0.0
 12
-77884.32067088175
 22
-74010.46130046059
 32
0.0
 13
-77884.32067088175
 23
-74010.46130046059
 33
0.0
  0
MTEXT
  5
3CDA2
330
3CD9A
100
AcDbEntity
  8
0
 62
     0
100
AcDbMText
 10
-77800.82067088175
 20
-73985.46130046059
 30
0.0
 40
30.0
 41
0.0
 71
     5
 72
     1
  1
\A1;18
 73
     1
 44
1.0
1001
ACAD
1000
MTEXTBEGIN
1070
    73
1070
     1
1070
    44
1040
1.0
1070
    74
1070
     0
1000
MTEXTEND
  0
POINT
  5
3CDA3
330
3CD9A
100
AcDbEntity
  8
DEFPOINTS
 62
     0
100
AcDbPoint
 10
-77902.72067088173
 20
-73972.51656397755
 30
0.0
  0
POINT
  5
3CDA4
330
3CD9A
100
AcDbEntity
  8
DEFPOINTS
 62
     0
100
AcDbPoint
 10
-77884.32067088175
 20
-73971.71656397754
 30
0.0
  0
POINT
  5
3CDA5
330
3CD9A
100
AcDbEntity
  8
DEFPOINTS
 62
     0
100
AcDbPoint
 10
-77884.32067088175
 20
-74010.46130046059
 30
0.0
  0
ENDBLK
  5
3CDA7
330
3CD9A
100
AcDbEntity
  8
0
100
AcDbBlockEnd
  0
ENDSEC
  0
SECTION
  2
ENTITIES
  0
SPLINE
  5
3CA64
330
1A
100
AcDbEntity
  8
HEWI
100
AcDbSpline
210
0.0
220
0.0
230
1.0
 70
     8
 71
     2
 72
     6
 73
     3
 74
     0
 42
0.0000000001
 43
0.0000000001
 40
0.0
 40
0.0
 40
0.0
 40
25.99999999999909
 40
25.99999999999909
 40
25.99999999999909
 10
-78606.63194094518
 20
-74754.51828274032
 30
0.0
 10
-78617.63194095408
 20
-74754.51828743532
 30
0.0
 10
-78630.63194095409
 20
-74754.51828743532
 30
0.0
  0
SPLINE
  5
3CA65
330
1A
100
AcDbEntity
  8
HEWI
100
AcDbSpline
210
0.0
220
0.0
230
1.0
 70
    24
 71
     2
 72
     6
 73
     3
 74
     0
 42
0.0000000001
 43
0.0000000001
 40
0.0
 40
0.0
 40
0.0
 40
0.9990058067055544
 40
0.9990058067055544
 40
0.9990058067055544
 10
-78630.63194095409
 20
-74754.51828743532
 30
0.0
 10
-78631.13194094964
 20
-74754.51828743532
 30
0.0
 10
-78631.63194094518
 20
-74754.51828743532
 30
0.0
  0
SPLINE
  5
3CA66
330
1A
100
AcDbEntity
  8
HEWI
100
AcDbSpline
210
0.0
220
0.0
230
1.0
 70
    12
 71
     2
 72
     6
 73
     3
 74
     0
 42
0.0000000001
 43
0.0000000001
 40
0.0
 40
0.0
 40
0.0
 40
69.00000001948168
 40
69.00000001948168
 40
69.00000001948168
 10
-78631.63194094518
 20
-74754.51828743532
 30
0.0
 41
1.0
 10
-78631.63193446611
 20
-74789.01828744504
 30
0.0
 41
0.9999999999998411
 10
-78631.63196686262
 20
-74823.51828745477
 30
0.0
 41
1.0
  0
SPLINE
  5
3CA67
330
1A
100
AcDbEntity
  8
HEWI
100
AcDbSpline
210
0.0
220
0.0
230
1.0
 70
    12
 71
     2
 72
     8
 73
     5
 74
     0
 42
0.0000000001
 43
0.0000000001
 40
0.0
 40
0.0
 40
0.0
 40
2.356264979575601
 40
2.356264979575601
 40
4.712529959147389
 40
4.712529959147389
 40
4.712529959147389
 10
-78631.63196686262
 20
-74823.51828745477
 30
0.0
 41
1.0
 10
-78631.63206922282
 20
-74824.76098003878
 30
0.0
 41
0.9238634492288737
 10
-78630.75335138652
 20
-74825.6396949146
 30
0.0
 41
1.0
 10
-78629.87463355022
 20
-74826.51840979043
 30
0.0
 41
0.9238634492289971
 10
-78628.63194096653
 20
-74826.51830329079
 30
0.0
 41
0.9999999999997536
  0
SPLINE
  5
3CA68
330
1A
100
AcDbEntity
  8
HEWI
100
AcDbSpline
210
0.0
220
0.0
230
1.0
 70
    12
 71
     2
 72
     6
 73
     3
 74
     0
 42
0.0000000001
 43
0.0000000001
 40
0.0
 40
0.0
 40
0.0
 40
316.840317668637
 40
316.840317668637
 40
316.840317668637
 10
-78628.63194096653
 20
-74826.51830329079
 30
0.0
 41
1.0
 10
-78470.21178213221
 20
-74826.51828369363
 30
0.0
 41
0.9999999999999914
 10
-77708.63090021317
 20
-74826.51831238189
 30
0.0
 41
0.999999999999996
  0
SPLINE
  5
3CA69
330
1A
100
AcDbEntity
  8
HEWI
100
AcDbSpline
210
0.0
220
0.0
230
1.0
 70
    12
 71
     2
 72
    12
 73
     9
 74
     0
 42
0.0000000001
 43
0.0000000001
 40
0.0
 40
0.0
 40
0.0
 40
1.081355769544572
 40
1.081355769544572
 40
2.356173053229833
 40
2.356173053229833
 40
3.630943515214466
 40
3.630943515214466
 40
4.712320205791459
 40
4.712320205791459
 40
4.712320205791459
 10
-77708.63194093463
 20
-74826.51831333043
 30
0.0
 41
0.9999999999996196
 10
-77708.08539027227
 20
-74826.51790953776
 30
0.0
 41
0.9839595101881439
 10
-77707.57376788113
 20
-74826.3256588722
 30
0.0
 41
1.0
 10
-77706.96844501607
 20
-74826.09691278537
 30
0.0
 41
0.9776820454573304
 10
-77706.51052687343
 20
-74825.63969126591
 30
0.0
 41
1.0
 10
-77706.05333643027
 20
-74825.1817772564
 30
0.0
 41
0.9776845577072876
 10
-77705.82460250183
 20
-74824.57647639612
 30
0.0
 41
1.0
 10
-77705.63232986268
 20
-74824.06484978722
 30
0.0
 41
0.9839565426201659
 10
-77705.63192513847
 20
-74823.51828744775
 30
0.0
 41
1.0
  0
SPLINE
  5
3CA6A
330
1A
100
AcDbEntity
  8
HEWI
100
AcDbSpline
210
0.0
220
0.0
230
1.0
 70
    12
 71
     2
 72
     6
 73
     3
 74
     0
 42
0.0000000001
 43
0.0000000001
 40
0.0
 40
0.0
 40
0.0
 40
69.0000000124505
 40
69.0000000124505
 40
69.0000000124505
 10
-77705.63192513847
 20
-74823.51828744775
 30
0.0
 41
1.0
 10
-77705.63194489764
 20
-74789.01828744151
 30
0.0
 41
0.9999999999999408
 10
-77705.63194094853
 20
-74754.51828743529
 30
0.0
 41
1.0
  0
SPLINE
  5
3CA6B
330
1A
100
AcDbEntity
  8
HEWI
100
AcDbSpline
210
0.0
220
0.0
230
1.0
 70
    24
 71
     2
 72
     6
 73
     3
 74
     0
 42
0.0000000001
 43
0.0000000001
 40
0.0
 40
0.0
 40
0.0
 40
1.0
 40
1.0
 40
1.0
 10
-77705.63194094853
 20
-74754.51828743529
 30
0.0
 10
-77706.13194095132
 20
-74754.51828743529
 30
0.0
 10
-77706.63194095408
 20
-74754.51828743529
 30
0.0
  0
SPLINE
  5
3CA6C
330
1A
100
AcDbEntity
  8
HEWI
100
AcDbSpline
210
0.0
220
0.0
230
1.0
 70
     8
 71
     2
 72
     6
 73
     3
 74
     0
 42
0.0000000001
 43
0.0000000001
 40
0.0
 40
0.0
 40
0.0
 40
26.0
 40
26.0
 40
26.0
 10
-77706.63194095408
 20
-74754.51828743529
 30
0.0
 10
-77719.63194095407
 20
-74754.51828743529
 30
0.0
 10
-77730.63194094853
 20
-74754.51828457362
 30
0.0
  0
SPLINE
  5
3CA6D
330
1A
100
AcDbEntity
  8
HEWI
100
AcDbSpline
210
0.0
220
0.0
230
1.0
 70
    24
 71
     2
 72
     6
 73
     3
 74
     0
 42
0.0000000001
 43
0.0000000001
 40
0.0
 40
0.0
 40
0.0
 40
1.0
 40
1.0
 40
1.0
 10
-77729.63194110773
 20
-74754.51828713634
 30
0.0
 10
-77730.13194110773
 20
-74754.51828713634
 30
0.0
 10
-77730.63194110773
 20
-74754.51828713629
 30
0.0
  0
SPLINE
  5
3CA6E
330
1A
100
AcDbEntity
  8
HEWI
100
AcDbSpline
210
0.0
220
0.0
230
1.0
 70
    24
 71
     2
 72
     6
 73
     3
 74
     0
 42
0.0000000001
 43
0.0000000001
 40
0.0
 40
0.0
 40
0.0
 40
43.00000000000037
 40
43.00000000000037
 40
43.00000000000037
 10
-77730.63194110773
 20
-74754.51828713629
 30
0.0
 10
-77730.63194110773
 20
-74776.01828713632
 30
0.0
 10
-77730.63194110773
 20
-74797.51828713632
 30
0.0
  0
SPLINE
  5
3CA6F
330
1A
100
AcDbEntity
  8
HEWI
100
AcDbSpline
210
0.0
220
0.0
230
1.0
 70
    12
 71
     2
 72
     8
 73
     5
 74
     0
 42
0.0000000001
 43
0.0000000001
 40
0.0
 40
0.0
 40
0.0
 40
0.785417774742287
 40
0.785417774742287
 40
1.570835549484573
 40
1.570835549484573
 40
1.570835549484573
 10
-77730.63194079098
 20
-74800.51830001178
 30
0.0
 41
1.0
 10
-77730.63190293957
 20
-74800.93252925168
 30
0.0
 41
0.9238620471494344
 10
-77730.92480724532
 20
-74801.22543355741
 30
0.0
 41
1.0
 10
-77731.21771155104
 20
-74801.51833786312
 30
0.0
 41
0.9238620471494344
 10
-77731.63194079097
 20
-74801.51830001179
 30
0.0
 41
1.0
  0
SPLINE
  5
3CA71
330
1A
100
AcDbEntity
  8
HEWI
100
AcDbSpline
210
0.0
220
0.0
230
1.0
 70
    12
 71
     2
 72
     8
 73
     5
 74
     0
 42
0.0000000001
 43
0.0000000001
 40
0.0
 40
0.0
 40
0.0
 40
0.7854177747426096
 40
0.7854177747426096
 40
1.570835549485219
 40
1.570835549485219
 40
1.570835549485219
 10
-78605.63194035893
 20
-74801.5183006305
 30
0.0
 41
1.0
 10
-78606.04616959885
 20
-74801.51833848188
 30
0.0
 41
0.9238620471493172
 10
-78606.33907390457
 20
-74801.22543417612
 30
0.0
 41
1.0
 10
-78606.63197821031
 20
-74800.93252987039
 30
0.0
 41
0.9238620471493172
 10
-78606.63194035893
 20
-74800.5183006305
 30
0.0
 41
1.0
  0
SPLINE
  5
3CA72
330
1A
100
AcDbEntity
  8
HEWI
100
AcDbSpline
210
0.0
220
0.0
230
1.0
 70
     8
 71
     2
 72
     6
 73
     3
 74
     0
 42
0.0000000001
 43
0.0000000001
 40
0.0
 40
0.0
 40
0.0
 40
43.00000000000014
 40
43.00000000000014
 40
43.00000000000014
 10
-78606.63194035893
 20
-74800.51830063047
 30
0.0
 10
-78606.63194068196
 20
-74776.01828694536
 30
0.0
 10
-78606.63194068196
 20
-74754.51828694535
 30
0.0
  0
SPLINE
  5
3CA73
330
1A
100
AcDbEntity
  8
HEWI
100
AcDbSpline
210
0.0
220
0.0
230
1.0
 70
    24
 71
     2
 72
     6
 73
     3
 74
     0
 42
0.0000000001
 43
0.0000000001
 40
0.0
 40
0.0
 40
0.0
 40
1.000000000000909
 40
1.000000000000909
 40
1.000000000000909
 10
-78606.63194068196
 20
-74754.51828694535
 30
0.0
 10
-78607.13194068197
 20
-74754.51828694535
 30
0.0
 10
-78607.63194068197
 20
-74754.51828694535
 30
0.0
  0
SPLINE
  5
3CA74
330
1A
100
AcDbEntity
  8
HEWI
100
AcDbSpline
210
0.0
220
0.0
230
1.0
 70
    12
 71
     2
 72
     6
 73
     3
 74
     0
 42
0.0000000001
 43
0.0000000001
 40
0.0
 40
0.0
 40
0.0
 40
26.00000000002713
 40
26.00000000002713
 40
26.00000000002713
 10
-78631.63195931981
 20
-74536.08948199375
 30
0.0
 41
1.0
 10
-78631.63193052086
 20
-74546.09343057517
 30
0.0
 41
0.9999999999971027
 10
-78631.63195676423
 20
-74559.09343057517
 30
0.0
 41
1.0
  0
SPLINE
  5
3CA75
330
1A
100
AcDbEntity
  8
HEWI
100
AcDbSpline
210
0.0
220
0.0
230
1.0
 70
    12
 71
     2
 72
     8
 73
     5
 74
     0
 42
0.0000000001
 43
0.0000000001
 40
0.0
 40
0.0
 40
0.0
 40
0.7853889924635534
 40
0.7853889924635534
 40
1.570820684875215
 40
1.570820684875215
 40
1.570820684875215
 10
-78631.63195676423
 20
-74559.09343057517
 30
0.0
 41
1.0
 10
-78631.6320054323
 20
-74559.5076472035
 30
0.0
 41
0.92385362838485
 10
-78631.33910480767
 20
-74559.80053735636
 30
0.0
 41
1.0
 10
-78631.04619261457
 20
-74560.09343566597
 30
0.0
 41
0.9238817156773432
 10
-78630.63196203555
 20
-74560.09343057517
 30
0.0
 41
1.0
  0
SPLINE
  5
3CA76
330
1A
100
AcDbEntity
  8
HEWI
100
AcDbSpline
210
0.0
220
0.0
230
1.0
 70
    24
 71
     2
 72
     6
 73
     3
 74
     0
 42
0.0000000001
 43
0.0000000001
 40
0.0
 40
0.0
 40
0.0
 40
2.000021071876175
 40
2.000021071876175
 40
2.000021071876175
 10
-78630.63196203555
 20
-74560.09343057517
 30
0.0
 10
-78629.63195149961
 20
-74560.09343057517
 30
0.0
 10
-78628.63194096368
 20
-74560.09343057517
 30
0.0
  0
SPLINE
  5
3CA77
330
1A
100
AcDbEntity
  8
HEWI
100
AcDbSpline
210
0.0
220
0.0
230
1.0
 70
    24
 71
     2
 72
     6
 73
     3
 74
     0
 42
0.0000000001
 43
0.0000000001
 40
0.0
 40
0.0
 40
0.0
 40
316.2484794488261
 40
316.2484794488261
 40
316.2484794488261
 10
-78628.63194096368
 20
-74560.09343057517
 30
0.0
 10
-78470.50770123924
 20
-74560.09343057517
 30
0.0
 10
-77709.63191360572
 20
-74560.09343057517
 30
0.0
  0
SPLINE
  5
3CA78
330
1A
100
AcDbEntity
  8
HEWI
100
AcDbSpline
210
0.0
220
0.0
230
1.0
 70
    24
 71
     2
 72
     6
 73
     3
 74
     0
 42
0.0000000001
 43
0.0000000001
 40
0.0
 40
0.0
 40
0.0
 40
2.00001725901302
 40
2.00001725901302
 40
2.00001725901302
 10
-77711.63194093556
 20
-74560.09343057517
 30
0.0
 10
-77710.63193230603
 20
-74560.09343057517
 30
0.0
 10
-77709.63192367656
 20
-74560.09343057517
 30
0.0
  0
SPLINE
  5
3CA79
330
1A
100
AcDbEntity
  8
HEWI
100
AcDbSpline
210
0.0
220
0.0
230
1.0
 70
    12
 71
     2
 72
     8
 73
     5
 74
     0
 42
0.0000000001
 43
0.0000000001
 40
0.0
 40
0.0
 40
0.0
 40
0.7854256367649785
 40
0.7854256367649785
 40
1.570816285309748
 40
1.570816285309748
 40
1.570816285309748
 10
-77709.63192367656
 20
-74560.09343057517
 30
0.0
 41
1.0
 10
-77709.21769617089
 20
-74560.09343474656
 30
0.0
 41
0.9238813213407995
 10
-77708.92478740472
 20
-74559.80053735635
 30
0.0
 41
1.0
 10
-77708.6318881179
 20
-74559.5076466499
 30
0.0
 41
0.9238583073135318
 10
-77708.63192799585
 20
-74559.09343057514
 30
0.0
 41
1.0
  0
SPLINE
  5
3CA7A
330
1A
100
AcDbEntity
  8
HEWI
100
AcDbSpline
210
0.0
220
0.0
230
1.0
 70
    12
 71
     2
 72
     6
 73
     3
 74
     0
 42
0.0000000001
 43
0.0000000001
 40
0.0
 40
0.0
 40
0.0
 40
26.00000000001215
 40
26.00000000001215
 40
26.00000000001215
 10
-77708.63192799605
 20
-74559.09343057514
 30
0.0
 41
1.0
 10
-77708.63194814426
 20
-74546.09343057517
 30
0.0
 41
0.9999999999986227
 10
-77708.63192986969
 20
-74536.09023551901
 30
0.0
 41
1.0
  0
SPLINE
  5
3CA7B
330
1A
100
AcDbEntity
  8
HEWI
100
AcDbSpline
210
0.0
220
0.0
230
1.0
 70
    12
 71
     2
 72
     8
 73
     5
 74
     0
 42
0.0000000001
 43
0.0000000001
 40
0.0
 40
0.0
 40
0.0
 40
0.7853889923814405
 40
0.7853889923814405
 40
1.57082068508596
 40
1.57082068508596
 40
1.57082068508596
 10
-77708.63192513997
 20
-74536.09343057514
 30
0.0
 41
1.0
 10
-77708.63187647148
 20
-74535.6792139468
 30
0.0
 41
0.9238536281841266
 10
-77708.92477709616
 20
-74535.38632379396
 30
0.0
 41
1.0
 10
-77709.21768928942
 20
-74535.09342548433
 30
0.0
 41
0.9238817156888556
 10
-77709.63191986858
 20
-74535.09343057517
 30
0.0
 41
1.0
  0
SPLINE
  5
3CA7C
330
1A
100
AcDbEntity
  8
HEWI
100
AcDbSpline
210
0.0
220
0.0
230
1.0
 70
    24
 71
     2
 72
     6
 73
     3
 74
     0
 42
0.0000000001
 43
0.0000000001
 40
0.0
 40
0.0
 40
0.0
 40
2.000021070554563
 40
2.000021070554563
 40
2.000021070554563
 10
-77709.63191986858
 20
-74535.09343057517
 30
0.0
 10
-77710.63193040387
 20
-74535.09343057517
 30
0.0
 10
-77711.63194093914
 20
-74535.09343057517
 30
0.0
  0
SPLINE
  5
3CA7D
330
1A
100
AcDbEntity
  8
HEWI
100
AcDbSpline
210
0.0
220
0.0
230
1.0
 70
    24
 71
     2
 72
     6
 73
     3
 74
     0
 42
0.0000000001
 43
0.0000000001
 40
105.7515134021407
 40
105.7515134021407
 40
105.7515134021407
 40
422.0000000279862
 40
422.0000000279862
 40
422.0000000279862
 10
-77709.63190757806
 20
-74535.09343057517
 30
0.0
 10
-78470.50769765423
 20
-74535.09343057517
 30
0.0
 10
-78628.63194096712
 20
-74535.09343057517
 30
0.0
  0
SPLINE
  5
3CA7E
330
1A
100
AcDbEntity
  8
HEWI
100
AcDbSpline
210
0.0
220
0.0
230
1.0
 70
    24
 71
     2
 72
     6
 73
     3
 74
     0
 42
0.0000000001
 43
0.0000000001
 40
0.0
 40
0.0
 40
0.0
 40
2.000017260456389
 40
2.000017260456389
 40
2.000017260456389
 10
-78628.63194096712
 20
-74535.09343057517
 30
0.0
 10
-78629.63194959736
 20
-74535.09343057517
 30
0.0
 10
-78630.63195822759
 20
-74535.09343057517
 30
0.0
  0
SPLINE
  5
3CA7F
330
1A
100
AcDbEntity
  8
HEWI
100
AcDbSpline
210
0.0
220
0.0
230
1.0
 70
    12
 71
     2
 72
     8
 73
     5
 74
     0
 42
0.0000000001
 43
0.0000000001
 40
0.0
 40
0.0
 40
0.0
 40
0.7854256366862212
 40
0.7854256366862212
 40
1.570819614067073
 40
1.570819614067073
 40
1.570819614067073
 10
-78630.63195822759
 20
-74535.09343057517
 30
0.0
 41
1.0
 10
-78631.04618573323
 20
-74535.09342640379
 30
0.0
 41
0.9238813213618898
 10
-78631.33909449933
 20
-74535.38632379398
 30
0.0
 41
1.0
 10
-78631.631993252
 20
-74535.67921472107
 30
0.0
 41
0.9238647863986138
 10
-78631.63196686475
 20
-74536.09343057517
 30
0.0
 41
1.0
  0
SPLINE
  5
3CA80
330
1A
100
AcDbEntity
  8
HEWI
100
AcDbSpline
210
0.0
220
0.0
230
1.0
 70
    24
 71
     2
 72
     6
 73
     3
 74
     0
 42
0.0000000001
 43
0.0000000001
 40
0.0
 40
0.0
 40
0.0
 40
26.0
 40
26.0
 40
26.0
 10
-78733.24690026317
 20
-74559.09343057517
 30
0.0
 10
-78733.24690026317
 20
-74546.09343057517
 30
0.0
 10
-78733.24690026317
 20
-74535.09343057517
 30
0.0
  0
SPLINE
  5
3CA81
330
1A
100
AcDbEntity
  8
HEWI
100
AcDbSpline
210
0.0
220
0.0
230
1.0
 70
    24
 71
     2
 72
     6
 73
     3
 74
     0
 42
0.0000000001
 43
0.0000000001
 40
0.0
 40
0.0
 40
0.0
 40
1.0
 40
1.0
 40
1.0
 10
-78733.24690026317
 20
-74536.09343057517
 30
0.0
 10
-78733.24690026317
 20
-74535.59343057517
 30
0.0
 10
-78733.24690026317
 20
-74535.09343057517
 30
0.0
  0
SPLINE
  5
3CA82
330
1A
100
AcDbEntity
  8
HEWI
100
AcDbSpline
210
0.0
220
0.0
230
1.0
 70
    24
 71
     2
 72
     6
 73
     3
 74
     0
 42
0.0000000001
 43
0.0000000001
 40
0.0
 40
0.0
 40
0.0
 40
69.00000001489411
 40
69.00000001489411
 40
69.00000001489411
 10
-78733.24690026317
 20
-74535.09343057517
 30
0.0
 10
-78767.74690027062
 20
-74535.09343057517
 30
0.0
 10
-78802.24690027807
 20
-74535.09343057517
 30
0.0
  0
SPLINE
  5
3CA83
330
1A
100
AcDbEntity
  8
HEWI
100
AcDbSpline
210
0.0
220
0.0
230
1.0
 70
    24
 71
     2
 72
     6
 73
     3
 74
     0
 42
0.0000000001
 43
0.0000000001
 40
0.0
 40
0.0
 40
0.0
 40
2.000017260021423
 40
2.000017260021423
 40
2.000017260021423
 10
-78802.24690027807
 20
-74535.09343057517
 30
0.0
 10
-78803.24690890807
 20
-74535.09343057517
 30
0.0
 10
-78804.2469175381
 20
-74535.09343057517
 30
0.0
  0
SPLINE
  5
3CA84
330
1A
100
AcDbEntity
  8
HEWI
100
AcDbSpline
210
0.0
220
0.0
230
1.0
 70
    12
 71
     2
 72
     8
 73
     5
 74
     0
 42
0.0000000001
 43
0.0000000001
 40
0.0
 40
0.0
 40
0.0
 40
0.7854256362811034
 40
0.7854256362811034
 40
1.570819613925013
 40
1.570819613925013
 40
1.570819613925013
 10
-78804.2469175381
 20
-74535.09343057517
 30
0.0
 41
1.0
 10
-78804.66114504351
 20
-74535.09342640397
 30
0.0
 41
0.9238813214457302
 10
-78804.95405380943
 20
-74535.38632379398
 30
0.0
 41
1.0
 10
-78805.24695256228
 20
-74535.679214721
 30
0.0
 41
0.9238647866000857
 10
-78805.24692617562
 20
-74536.09343057517
 30
0.0
 41
1.0
  0
SPLINE
  5
3CA85
330
1A
100
AcDbEntity
  8
HEWI
100
AcDbSpline
210
0.0
220
0.0
230
1.0
 70
    12
 71
     2
 72
     6
 73
     3
 74
     0
 42
0.0000000001
 43
0.0000000001
 40
0.0
 40
0.0
 40
0.0
 40
26.00000000002707
 40
26.00000000002707
 40
26.00000000002707
 10
-78805.24691863072
 20
-74536.08948199975
 30
0.0
 41
1.0
 10
-78805.24688983181
 20
-74546.09343057517
 30
0.0
 41
0.9999999999971027
 10
-78805.24691607531
 20
-74559.09343057517
 30
0.0
 41
1.0
  0
SPLINE
  5
3CA86
330
1A
100
AcDbEntity
  8
HEWI
100
AcDbSpline
210
0.0
220
0.0
230
1.0
 70
    12
 71
     2
 72
     8
 73
     5
 74
     0
 42
0.0000000001
 43
0.0000000001
 40
0.0
 40
0.0
 40
0.0
 40
0.7853889927575674
 40
0.7853889927575674
 40
1.570820684715504
 40
1.570820684715504
 40
1.570820684715504
 10
-78805.24691607531
 20
-74559.09343057517
 30
0.0
 41
1.0
 10
-78805.24696474251
 20
-74559.50764720357
 30
0.0
 41
0.9238536286543627
 10
-78804.9540641177
 20
-74559.80053735636
 30
0.0
 41
1.0
 10
-78804.66115192478
 20
-74560.09343566576
 30
0.0
 41
0.9238817157595152
 10
-78804.24692134603
 20
-74560.09343057517
 30
0.0
 41
1.0
  0
SPLINE
  5
3CA87
330
1A
100
AcDbEntity
  8
HEWI
100
AcDbSpline
210
0.0
220
0.0
230
1.0
 70
    24
 71
     2
 72
     6
 73
     3
 74
     0
 42
0.0000000001
 43
0.0000000001
 40
0.0
 40
0.0
 40
0.0
 40
2.000021071497001
 40
2.000021071497001
 40
2.000021071497001
 10
-78804.24692134603
 20
-74560.09343057517
 30
0.0
 10
-78803.24691081026
 20
-74560.09343057517
 30
0.0
 10
-78802.24690027452
 20
-74560.09343057517
 30
0.0
  0
SPLINE
  5
3CA88
330
1A
100
AcDbEntity
  8
HEWI
100
AcDbSpline
210
0.0
220
0.0
230
1.0
 70
    24
 71
     2
 72
     6
 73
     3
 74
     0
 42
0.0000000001
 43
0.0000000001
 40
0.0
 40
0.0
 40
0.0
 40
69.00000001135683
 40
69.00000001135683
 40
69.00000001135683
 10
-78802.24690027452
 20
-74560.09343057517
 30
0.0
 10
-78767.74690026887
 20
-74560.09293347853
 30
0.0
 10
-78733.24690026317
 20
-74560.09243638187
 30
0.0
  0
SPLINE
  5
3CA89
330
1A
100
AcDbEntity
  8
HEWI
100
AcDbSpline
210
0.0
220
0.0
230
1.0
 70
    24
 71
     2
 72
     6
 73
     3
 74
     0
 42
0.0000000001
 43
0.0000000001
 40
0.0
 40
0.0
 40
0.0
 40
0.9990058067025984
 40
0.9990058067025984
 40
0.9990058067025984
 10
-78733.24690026317
 20
-74560.09243638187
 30
0.0
 10
-78733.24690026317
 20
-74559.59293347851
 30
0.0
 10
-78733.24690026317
 20
-74559.09343057517
 30
0.0
  0
SPLINE
  5
3CAD1
330
1A
100
AcDbEntity
  8
HEWI
100
AcDbSpline
210
0.0
220
0.0
230
1.0
 70
     8
 71
     2
 72
     6
 73
     3
 74
     0
 42
0.0000000001
 43
0.0000000001
 40
-270.0001828212934
 40
-270.0001828212934
 40
-270.0001828212934
 40
0.0
 40
0.0
 40
0.0
 10
-78329.63194079096
 20
-74801.51830001179
 30
0.0
 10
-78467.63184922669
 20
-74801.51830031076
 30
0.0
 10
-78602.63194063732
 20
-74801.51830031076
 30
0.0
  0
SPLINE
  5
3CAD2
330
1A
100
AcDbEntity
  8
HEWI
100
AcDbSpline
210
0.0
220
0.0
230
1.0
 70
     8
 71
     3
 72
    10
 73
     6
 74
     0
 42
0.0000000001
 43
0.0000000001
 40
0.0
 40
0.0
 40
0.0
 40
0.0
 40
68.310000012326
 40
68.310000012326
 40
69.0000000124505
 40
69.0000000124505
 40
69.0000000124505
 40
69.0000000124505
 10
-77730.63194079098
 20
-74800.51830001178
 30
0.0
 10
-77730.63193817952
 20
-74800.74829609253
 30
0.0
 10
-77730.63194347512
 20
-74777.97829041904
 30
0.0
 10
-77730.63194100041
 20
-74754.97828468825
 30
0.0
 10
-77730.63194097487
 20
-74754.74828463094
 30
0.0
 10
-77730.63194094853
 20
-74754.51828457362
 30
0.0
  0
SPLINE
  5
3CAD3
330
1A
100
AcDbEntity
  8
HEWI
100
AcDbSpline
210
0.0
220
0.0
230
1.0
 70
     8
 71
     3
 72
     8
 73
     4
 74
     0
 42
0.0000000001
 43
0.0000000001
 40
22.99982068627835
 40
22.99982068627835
 40
22.99982068627835
 40
22.99982068627835
 40
295.7523999529946
 40
295.7523999529946
 40
295.7523999529946
 40
295.7523999529946
 10
-78605.63212297091
 20
-74801.51830063053
 30
0.0
 10
-78514.71459495985
 20
-74801.51829084539
 30
0.0
 10
-78423.79706694878
 20
-74801.51828972752
 30
0.0
 10
-77731.63099664151
 20
-74801.5182996523
 30
0.0
  0
TEXT
  5
3CC59
330
1A
100
AcDbEntity
  8
KK
100
AcDbText
 10
-78452.44260389717
 20
-74309.1078069186
 30
0.0
 40
60.0
  1
Spiegelablage Griff
100
AcDbText
  0
LWPOLYLINE
  5
3CD3E
330
1A
100
AcDbEntity
  8
0
100
AcDbPolyline
 90
        8
 70
     1
 43
0.0
 10
-77903.52067088172
 20
-73971.71656397754
 42
0.4142135623730951
 10
-77902.72067088173
 20
-73972.51656397755
 10
-77884.32067088173
 20
-73972.51656397755
 42
0.4142135623730951
 10
-77883.52067088172
 20
-73971.71656397754
 10
-77883.52067088172
 20
-73813.31656397756
 42
0.4142135623730951
 10
-77884.32067088173
 20
-73812.51656397755
 10
-77902.72067088173
 20
-73812.51656397755
 42
0.4142135623730951
 10
-77903.52067088172
 20
-73813.31656397756
  0
LWPOLYLINE
  5
3CD3F
330
1A
100
AcDbEntity
  8
0
100
AcDbPolyline
 90
        8
 70
     1
 43
0.0
 10
-77903.52067088172
 20
-74145.25306324716
 42
0.4142135623730951
 10
-77902.72067088173
 20
-74146.05306324715
 10
-77884.32067088171
 20
-74146.05306324715
 42
0.4142135623730951
 10
-77883.52067088172
 20
-74145.25306324716
 10
-77883.52067088172
 20
-74040.85306324715
 42
0.4142135623730951
 10
-77884.32067088171
 20
-74040.05306324715
 10
-77902.72067088173
 20
-74040.05306324715
 42
0.4142135623730951
 10
-77903.52067088172
 20
-74040.85306324715
  0
LINE
  5
3CD41
330
1A
100
AcDbEntity
  8
0
100
AcDbLine
 10
-78053.89539090026
 20
-73952.51656397755
 30
0.0
 11
-78053.89539090026
 21
-73832.51656397755
 31
0.0
  0
LINE
  5
3CD43
330
1A
100
AcDbEntity
  8
0
100
AcDbLine
 10
-78054.69539090026
 20
-73812.51656397755
 30
0.0
 11
-78073.09539090026
 21
-73812.51656397755
 31
0.0
  0
ARC
  5
3CD44
330
1A
100
AcDbEntity
  8
0
100
AcDbCircle
 10
-78073.09539090027
 20
-73813.31656397754
 30
0.0
 40
0.7999999999883585
100
AcDbArc
 50
89.99999999895781
 51
180.0000000010421
  0
LINE
  5
3CD45
330
1A
100
AcDbEntity
  8
0
100
AcDbLine
 10
-78073.89539090026
 20
-73813.31656397756
 30
0.0
 11
-78073.89539090026
 21
-73971.71656397754
 31
0.0
  0
ARC
  5
3CD46
330
1A
100
AcDbEntity
  8
0
100
AcDbCircle
 10
-78073.09539090027
 20
-73971.71656397756
 30
0.0
 40
0.7999999999883585
100
AcDbArc
 50
179.9999999989578
 51
270.0000000010422
  0
LINE
  5
3CD47
330
1A
100
AcDbEntity
  8
0
100
AcDbLine
 10
-78073.09539090026
 20
-73972.51656397755
 30
0.0
 11
-78054.69539090026
 21
-73972.51656397755
 31
0.0
  0
LINE
  5
3CD4A
330
1A
100
AcDbEntity
  8
0
100
AcDbLine
 10
-78073.89539090026
 20
-73953.31656397755
 30
0.0
 11
-78073.89539090026
 21
-73971.71656397754
 31
0.0
  0
ARC
  5
3CD4B
330
1A
100
AcDbEntity
  8
0
100
AcDbCircle
 10
-78073.09539090027
 20
-73971.71656397756
 30
0.0
 40
0.7999999999883585
100
AcDbArc
 50
179.9999999989578
 51
270.0000000010422
  0
LINE
  5
3CD4C
330
1A
100
AcDbEntity
  8
0
100
AcDbLine
 10
-78073.09539090026
 20
-73972.51656397755
 30
0.0
 11
-77968.69539090026
 21
-73972.51656397755
 31
0.0
  0
ARC
  5
3CD4D
330
1A
100
AcDbEntity
  8
0
100
AcDbCircle
 10
-77968.69539090025
 20
-73971.71656397756
 30
0.0
 40
0.7999999999883585
100
AcDbArc
 50
269.9999999989578
 51
0.0000000010422042
  0
LINE
  5
3CD4E
330
1A
100
AcDbEntity
  8
0
100
AcDbLine
 10
-77967.89539090026
 20
-73971.71656397754
 30
0.0
 11
-77967.89539090026
 21
-73953.31656397755
 31
0.0
  0
ARC
  5
3CD4F
330
1A
100
AcDbEntity
  8
0
100
AcDbCircle
 10
-77968.69539090025
 20
-73953.31656397754
 30
0.0
 40
0.7999999999883585
100
AcDbArc
 50
359.9999999989578
 51
90.0000000010422
  0
LINE
  5
3CD50
330
1A
100
AcDbEntity
  8
0
100
AcDbLine
 10
-77968.69539090026
 20
-73952.51656397755
 30
0.0
 11
-78053.89539090026
 21
-73952.51656397755
 31
0.0
  0
LINE
  5
3CD51
330
1A
100
AcDbEntity
  8
0
100
AcDbLine
 10
-78053.89539090026
 20
-73832.51656397755
 30
0.0
 11
-77968.69539090026
 21
-73832.51656397755
 31
0.0
  0
ARC
  5
3CD52
330
1A
100
AcDbEntity
  8
0
100
AcDbCircle
 10
-77968.69539090025
 20
-73831.71656397756
 30
0.0
 40
0.7999999999883585
100
AcDbArc
 50
269.9999999989578
 51
0.0000000010422042
  0
LINE
  5
3CD53
330
1A
100
AcDbEntity
  8
0
100
AcDbLine
 10
-77967.89539090026
 20
-73831.71656397755
 30
0.0
 11
-77967.89539090026
 21
-73813.31656397756
 31
0.0
  0
ARC
  5
3CD54
330
1A
100
AcDbEntity
  8
0
100
AcDbCircle
 10
-77968.69539090025
 20
-73813.31656397754
 30
0.0
 40
0.7999999999883585
100
AcDbArc
 50
359.9999999989578
 51
90.0000000010422
  0
LINE
  5
3CD55
330
1A
100
AcDbEntity
  8
0
100
AcDbLine
 10
-77968.69539090026
 20
-73812.51656397755
 30
0.0
 11
-78073.09539090026
 21
-73812.51656397755
 31
0.0
  0
ARC
  5
3CD56
330
1A
100
AcDbEntity
  8
0
100
AcDbCircle
 10
-78073.09539090027
 20
-73813.31656397754
 30
0.0
 40
0.7999999999883585
100
AcDbArc
 50
89.99999999895781
 51
180.0000000010421
  0
LINE
  5
3CD57
330
1A
100
AcDbEntity
  8
0
100
AcDbLine
 10
-78073.89539090026
 20
-73813.31656397756
 30
0.0
 11
-78073.89539090026
 21
-73831.71656397755
 31
0.0
  0
VIEWPORT
  5
22
102
{ACAD_XDICTIONARY
360
3CDA9
102
}
330
17
100
AcDbEntity
 67
     1
  8
0
100
AcDbViewport
 10
102.801238835773
 20
158.0978495602885
 30
0.0
 40
506.5832670616006
 41
315.7152190709725
 68
     1
 69
     1
 12
102.801238835773
 22
158.0978495602885
 13
0.0
 23
0.0
 14
1.0
 24
1.0
 15
10.0
 25
10.0
 16
0.0
 26
0.0
 36
1.0
 17
0.0
 27
0.0
 37
0.0
 42
50.0
 43
0.0
 44
0.0
 45
315.7152190709725
 50
0.0
 51
0.0
 72
   100
 90
    32800
  1

281
     0
 71
     1
 74
     0
110
0.0
120
0.0
130
0.0
111
1.0
121
0.0
131
0.0
112
0.0
122
1.0
132
0.0
 79
     0
146
0.0
  0
ENDSEC
  0
SECTION
  2
OBJECTS
  0
DICTIONARY
  5
C
330
0
100
AcDbDictionary
281
     1
  3
ACAD_COLOR
350
39BFD
  3
ACAD_GROUP
350
D
  3
ACAD_LAYOUT
350
39BF3
  3
ACAD_MATERIAL
350
39BFC
  3
ACAD_MLINESTYLE
350
E
  3
ACAD_PLOTSETTINGS
350
39BF4
  3
ACAD_PLOTSTYLENAME
350
39BF1
  3
ACAD_TABLESTYLE
350
39C2F
  3
ACAD_VISUALSTYLE
350
39C1E
  3
ACDBVARIABLEDICTIONARY
350
210D7
  3
DWGPROPS
350
3CDA8
  0
DICTIONARY
  5
39C3D
330
2
100
AcDbDictionary
280
     1
281
     1
  3
ACAD_LAYERFILTERS
360
3A6E6
  3
ACAD_LAYERSTATES
360
39C3E
  3
ACLYDICTIONARY
360
3A6E5
  0
DICTIONARY
  5
3B151
330
1A
100
AcDbDictionary
280
     1
281
     1
  3
ACAD_SORTENTS
360
3B152
  0
DICTIONARY
  5
3CDA9
330
22
100
AcDbDictionary
280
     1
281
     1
  3
ACAD_XREC_ROUNDTRIP
360
3CDAA
  0
DICTIONARY
  5
39BFD
102
{ACAD_REACTORS
330
C
102
}
330
C
100
AcDbDictionary
281
     1
  0
DICTIONARY
  5
D
102
{ACAD_REACTORS
330
C
102
}
330
C
100
AcDbDictionary
281
     1
  0
DICTIONARY
  5
39BF3
102
{ACAD_REACTORS
330
C
102
}
330
C
100
AcDbDictionary
281
     1
  3
Layout1
350
39BF6
  3
Model
350
39BF5
  0
DICTIONARY
  5
39BFC
102
{ACAD_REACTORS
330
C
102
}
330
C
100
AcDbDictionary
281
     1
  3
ByBlock
350
39C1C
  3
ByLayer
350
39C1B
  3
Global
350
39C1D
  0
DICTIONARY
  5
E
102
{ACAD_REACTORS
330
C
102
}
330
C
100
AcDbDictionary
281
     1
  3
STANDARD
350
13
  0
DICTIONARY
  5
39BF4
102
{ACAD_REACTORS
330
C
102
}
330
C
100
AcDbDictionary
281
     1
  0
ACDBDICTIONARYWDFLT
  5
39BF1
102
{ACAD_REACTORS
330
C
102
}
330
C
100
AcDbDictionary
281
     1
  3
Normal
350
39BF2
100
AcDbDictionaryWithDefault
340
39BF2
  0
DICTIONARY
  5
39C2F
102
{ACAD_REACTORS
330
C
102
}
330
C
100
AcDbDictionary
281
     1
  3
Standard
350
39C30
  0
DICTIONARY
  5
39C1E
102
{ACAD_REACTORS
330
C
102
}
330
C
100
AcDbDictionary
281
     1
  3
2dWireframe
350
39C24
  3
3D Hidden
350
39C26
  3
3dWireframe
350
39C25
  3
Basic
350
39C23
  3
Brighten
350
39C2A
  3
ColorChange
350
39C2E
  3
Conceptual
350
39C27
  3
Dim
350
39C29
  3
Facepattern
350
39C2D
  3
Flat
350
39C1F
  3
FlatWithEdges
350
39C20
  3
Gouraud
350
39C21
  3
GouraudWithEdges
350
39C22
  3
Linepattern
350
39C2C
  3
Realistic
350
39C28
  3
Thicken
350
39C2B
  0
DICTIONARY
  5
210D7
102
{ACAD_REACTORS
330
C
102
}
330
C
100
AcDbDictionary
281
     1
  3
CTABLESTYLE
350
39C39
  3
DIMASSOC
350
3BD64
  3
INDEXCTL
350
3BD63
  3
SORTENTS
350
210D8
  0
XRECORD
  5
3CDA8
102
{ACAD_REACTORS
330
C
102
}
330
C
100
AcDbXrecord
280
     1
  1
DWGPROPS COOKIE
  2

  3

  4

  6

  7

  8
kaschu
  9

300
=
301
=
302
=
303
=
304
=
305
=
306
=
307
=
308
=
309
=
 40
0.7887388078703703
 41
2450382.434570139
 42
2455058.410815544
  1

 90
        0
  0
DICTIONARY
  5
3A6E6
102
{ACAD_REACTORS
330
39C3D
102
}
330
39C3D
100
AcDbDictionary
281
     1
  0
DICTIONARY
  5
39C3E
102
{ACAD_REACTORS
330
39C3D
102
}
330
39C3D
100
AcDbDictionary
281
     1
  0
DICTIONARY
  5
3A6E5
102
{ACAD_REACTORS
330
39C3D
102
}
330
39C3D
100
AcDbDictionary
281
     1
1001
ACAD
1000
<All
  0
SORTENTSTABLE
  5
3B152
102
{ACAD_REACTORS
330
3B151
102
}
330
3B151
100
AcDbSortentsTable
330
1A
331
3CA85
  5
3CA89
331
3CA67
  5
3CA68
331
3CD4B
  5
3CD49
331
3CD53
  5
3CD42
331
3CA6F
  5
3CA73
331
3CA77
  5
3CA7B
331
3CD45
  5
3CD54
331
3CA7F
  5
3CA83
331
3CAD2
  5
3CA6D
331
3CD4C
  5
3CD4A
331
3CA86
  5
3CAC4
331
3CA68
  5
3CA69
331
3CD54
  5
3CD43
331
3CA78
  5
3CA7C
331
3CD46
  5
3CD55
331
3CAD3
  5
3CA6A
331
3CA87
  5
3CAD1
331
3CA69
  5
3CA6B
331
3CD4D
  5
3CD4B
331
3CD55
  5
3CD44
331
3CA71
  5
3CA75
331
3CA79
  5
3CA7D
331
3CD47
  5
3CD56
331
3CA80
  5
3CA84
331
3CD4E
  5
3CD4C
331
3CA88
  5
3CAD2
331
3CA6A
  5
3CA6C
331
3CD56
  5
3CD45
331
3CA72
  5
3CA76
331
3CA7A
  5
3CA7E
331
3CA81
  5
3CA85
331
3CD4F
  5
3CD4D
331
3CA89
  5
3CAD3
331
3CA6B
  5
3CA6E
331
3CD57
  5
3CD46
331
3CC59
  5
3CC59
331
3CA73
  5
3CA77
331
3CD41
  5
3CD50
331
3CA7B
  5
3CA7F
331
3CD3E
  5
3CD57
331
3CA82
  5
3CA86
331
3CA64
  5
3CA64
331
3CD50
  5
3CD4F
331
3CA6C
  5
3CA6F
331
3CA74
  5
3CA78
331
3CA7C
  5
3CA80
331
3CD3F
  5
3CD58
331
3CA65
  5
3CA65
331
3CA83
  5
3CA87
331
3CD51
  5
3CD40
331
3CA6D
  5
3CA71
331
3CA75
  5
3CA79
331
3CD43
  5
3CD52
331
3CA7D
  5
3CA81
331
3CD4A
  5
3CD48
331
3CA84
  5
3CA88
331
3CA66
  5
3CA66
331
3CD52
  5
3CD41
331
3CA6E
  5
3CA72
331
3CA76
  5
3CA7A
331
3CD44
  5
3CD53
331
3CA7E
  5
3CA82
331
3CAD1
  5
3CA74
  0
XRECORD
  5
3CDAA
102
{ACAD_REACTORS
330
3CDA9
102
}
330
3CDA9
100
AcDbXrecord
280
     1
102
SHADEPLOT
 70
     0
  0
LAYOUT
  5
39BF6
102
{ACAD_XDICTIONARY
360
39C40
102
}
102
{ACAD_REACTORS
330
39BF3
102
}
330
39BF3
100
AcDbPlotSettings
  1

  2
\\druckserv1\AROABM2L
  4
A4
  6

 40
6.805083274841307
 41
5.069413185119628
 42
6.805084228515625
 43
5.027069091796875
 44
209.9733276367186
 45
296.9683227539062
 46
0.0
 47
0.0
 48
0.0
 49
0.0
140
0.0
141
0.0
142
1.0
143
0.9877294786496324
 70
   688
 72
     1
 73
     0
 74
     1
  7
ctb2004.ctb
 75
     0
147
1.012422957515799
148
-6.623554803105719
149
-1.328897370432399
100
AcDbLayout
  1
Layout1
 70
     1
 71
     1
 10
-0.0980265521206203
 20
-3.678311471965383
 11
207.2988188848241
 21
289.6460551372062
 12
0.0
 22
0.0
 32
0.0
 14
12.55000000000001
 24
41.32999999999998
 34
0.0
 15
195.5499999999999
 25
284.67
 35
0.0
146
0.0
 13
0.0
 23
0.0
 33
0.0
 16
1.0
 26
0.0
 36
0.0
 17
0.0
 27
1.0
 37
0.0
 76
     0
330
17
331
22
  0
LAYOUT
  5
39BF5
102
{ACAD_XDICTIONARY
360
3CDAB
102
}
102
{ACAD_REACTORS
330
39BF3
102
}
330
39BF3
100
AcDbPlotSettings
  1

  2
\\PCDRUCK1\AROABM2L
  4

  6

 40
0.0
 41
0.0
 42
0.0
 43
0.0
 44
0.0
 45
0.0
 46
0.0
 47
0.0
 48
0.0
 49
0.0
140
0.0
141
0.0
142
1.0
143
1.0
 70
  1712
 72
     0
 73
     0
 74
     0
  7

 75
     0
147
1.0
148
0.0
149
0.0
100
AcDbLayout
  1
Model
 70
     1
 71
     0
 10
0.0
 20
0.0
 11
12.0
 21
9.0
 12
0.0
 22
0.0
 32
0.0
 14
0.0
 24
0.0
 34
0.0
 15
0.0
 25
0.0
 35
0.0
146
0.0
 13
0.0
 23
0.0
 33
0.0
 16
1.0
 26
0.0
 36
0.0
 17
0.0
 27
1.0
 37
0.0
 76
     0
330
1A
331
39C01
  0
MATERIAL
  5
39C1C
102
{ACAD_XDICTIONARY
360
3BDEF
102
}
102
{ACAD_REACTORS
330
39BFC
102
}
330
39BFC
100
AcDbMaterial
  1
ByBlock
  0
MATERIAL
  5
39C1B
102
{ACAD_XDICTIONARY
360
3BDED
102
}
102
{ACAD_REACTORS
330
39BFC
102
}
330
39BFC
100
AcDbMaterial
  1
ByLayer
  0
MATERIAL
  5
39C1D
102
{ACAD_XDICTIONARY
360
3BDF1
102
}
102
{ACAD_REACTORS
330
39BFC
102
}
330
39BFC
100
AcDbMaterial
  1
Global
  0
MLINESTYLE
  5
13
102
{ACAD_REACTORS
330
E
102
}
330
E
100
AcDbMlineStyle
  2
STANDARD
 70
     0
  3

 62
     0
 51
90.0
 52
90.0
 71
     2
 49
0.5
 62
   256
  6
BYLAYER
 49
-0.5
 62
   256
  6
BYLAYER
  0
ACDBPLACEHOLDER
  5
39BF2
102
{ACAD_REACTORS
330
39BF1
102
}
330
39BF1
  0
TABLESTYLE
  5
39C30
102
{ACAD_XDICTIONARY
360
3CDAE
102
}
102
{ACAD_REACTORS
330
39C2F
102
}
330
39C2F
100
AcDbTableStyle
  3
Standard
 70
     0
 71
     0
 40
0.06
 41
0.06
280
     0
281
     0
  7
STANDARD
140
0.18
170
     2
 62
     0
 63
     7
283
     0
274
    -2
284
     1
 64
     0
275
    -2
285
     1
 65
     0
276
    -2
286
     1
 66
     0
277
    -2
287
     1
 67
     0
278
    -2
288
     1
 68
     0
279
    -2
289
     1
 69
     0
  7
STANDARD
140
0.25
170
     5
 62
     0
 63
     7
283
     0
274
    -2
284
     1
 64
     0
275
    -2
285
     1
 65
     0
276
    -2
286
     1
 66
     0
277
    -2
287
     1
 67
     0
278
    -2
288
     1
 68
     0
279
    -2
289
     1
 69
     0
  7
STANDARD
140
0.18
170
     5
 62
     0
 63
     7
283
     0
274
    -2
284
     1
 64
     0
275
    -2
285
     1
 65
     0
276
    -2
286
     1
 66
     0
277
    -2
287
     1
 67
     0
278
    -2
288
     1
 68
     0
279
    -2
289
     1
 69
     0
  0
VISUALSTYLE
  5
39C24
102
{ACAD_REACTORS
330
39C1E
102
}
330
39C1E
100
AcDbVisualStyle
  2
2dWireframe
 70
     4
 71
     0
 72
     2
 73
     0
 90
        0
 40
-0.6
 41
-30.0
 62
     5
 63
     7
 74
     1
 91
        4
 64
     7
 65
   257
 75
     1
175
     1
 42
1.0
 92
        0
 66
   257
 43
1.0
 76
     1
 77
     6
 78
     2
 67
     7
 79
     5
170
     0
171
     0
290
     0
174
     0
 93
        1
 44
0.0
173
     0
291
     0
 45
0.0
1001
ACAD
1000
AcDbSavedByObjectVersion
1070
     0
1000
AcDbSavedByObjectVersion
1070
     0
1000
AcDbSavedByObjectVersion
1070
     0
1000
AcDbSavedByObjectVersion
1070
     0
1000
AcDbSavedByObjectVersion
1070
     0
  0
VISUALSTYLE
  5
39C26
102
{ACAD_REACTORS
330
39C1E
102
}
330
39C1E
100
AcDbVisualStyle
  2
3D Hidden
 70
     6
 71
     1
 72
     2
 73
     2
 90
        0
 40
-0.6
 41
-30.0
 62
     5
 63
     7
 74
     2
 91
        2
 64
     7
 65
   257
 75
     2
175
     1
 42
40.0
 92
        0
 66
   257
 43
1.0
 76
     1
 77
     6
 78
     2
 67
     7
 79
     3
170
     0
171
     0
290
     0
174
     0
 93
        1
 44
0.0
173
     0
291
     0
 45
0.0
1001
ACAD
1000
AcDbSavedByObjectVersion
1070
     0
1000
AcDbSavedByObjectVersion
1070
     0
1000
AcDbSavedByObjectVersion
1070
     0
1000
AcDbSavedByObjectVersion
1070
     0
1000
AcDbSavedByObjectVersion
1070
     0
  0
VISUALSTYLE
  5
39C25
102
{ACAD_REACTORS
330
39C1E
102
}
330
39C1E
100
AcDbVisualStyle
  2
3dWireframe
 70
     5
 71
     0
 72
     2
 73
     0
 90
        0
 40
-0.6
 41
-30.0
 62
     5
 63
     7
 74
     1
 91
        4
 64
     7
 65
   257
 75
     1
175
     1
 42
1.0
 92
        0
 66
   257
 43
1.0
 76
     1
 77
     6
 78
     2
 67
     7
 79
     5
170
     0
171
     0
290
     0
174
     0
 93
        1
 44
0.0
173
     0
291
     0
 45
0.0
1001
ACAD
1000
AcDbSavedByObjectVersion
1070
     0
1000
AcDbSavedByObjectVersion
1070
     0
1000
AcDbSavedByObjectVersion
1070
     0
1000
AcDbSavedByObjectVersion
1070
     0
1000
AcDbSavedByObjectVersion
1070
     0
  0
VISUALSTYLE
  5
39C23
102
{ACAD_REACTORS
330
39C1E
102
}
330
39C1E
100
AcDbVisualStyle
  2
Basic
 70
     7
 71
     1
 72
     0
 73
     1
 90
        0
 40
-0.6
 41
-30.0
 62
     5
 63
     7
 74
     0
 91
        4
 64
     7
 65
   257
 75
     1
175
     1
 42
1.0
 92
        8
 66
     7
 43
1.0
 76
     1
 77
     6
 78
     2
 67
     7
 79
     5
170
     0
171
     0
290
     0
174
     0
 93
        1
 44
0.0
173
     0
291
     1
 45
0.0
1001
ACAD
1000
AcDbSavedByObjectVersion
1070
     0
1000
AcDbSavedByObjectVersion
1070
     0
1000
AcDbSavedByObjectVersion
1070
     0
1000
AcDbSavedByObjectVersion
1070
     0
1000
AcDbSavedByObjectVersion
1070
     0
  0
VISUALSTYLE
  5
39C2A
102
{ACAD_REACTORS
330
39C1E
102
}
330
39C1E
100
AcDbVisualStyle
  2
Brighten
 70
    12
 71
     2
 72
     2
 73
     0
 90
        0
 40
-0.6
 41
-30.0
 62
     5
 63
     7
 74
     1
 91
        4
 64
     7
 65
   257
 75
     1
175
     1
 42
1.0
 92
        8
 66
     7
 43
1.0
 76
     1
 77
     6
 78
     2
 67
     7
 79
     5
170
     0
171
     0
290
     0
174
     0
 93
        1
 44
50.0
173
     0
291
     1
 45
0.0
1001
ACAD
1000
AcDbSavedByObjectVersion
1070
     0
1000
AcDbSavedByObjectVersion
1070
     0
1000
AcDbSavedByObjectVersion
1070
     0
1000
AcDbSavedByObjectVersion
1070
     0
1000
AcDbSavedByObjectVersion
1070
     0
  0
VISUALSTYLE
  5
39C2E
102
{ACAD_REACTORS
330
39C1E
102
}
330
39C1E
100
AcDbVisualStyle
  2
ColorChange
 70
    16
 71
     2
 72
     2
 73
     3
 90
        0
 40
-0.6
 41
-30.0
 62
     5
 63
     8
 74
     1
 91
        4
 64
     7
 65
   257
 75
     1
175
     1
 42
1.0
 92
        8
 66
     8
 43
1.0
 76
     1
 77
     6
 78
     2
 67
     7
 79
     5
170
     0
171
     0
290
     0
174
     0
 93
        1
 44
0.0
173
     0
291
     1
 45
0.0
1001
ACAD
1000
AcDbSavedByObjectVersion
1070
     0
1000
AcDbSavedByObjectVersion
1070
     0
1000
AcDbSavedByObjectVersion
1070
     0
1000
AcDbSavedByObjectVersion
1070
     0
1000
AcDbSavedByObjectVersion
1070
     0
  0
VISUALSTYLE
  5
39C27
102
{ACAD_REACTORS
330
39C1E
102
}
330
39C1E
100
AcDbVisualStyle
  2
Conceptual
 70
     9
 71
     3
 72
     2
 73
     0
 90
        0
 40
-0.6
 41
-30.0
 62
     5
 63
     7
 74
     2
 91
        2
 64
     7
 65
   257
 75
     1
175
     1
 42
40.0
 92
        8
 66
     7
 43
1.0
 76
     1
 77
     6
 78
     2
 67
     7
 79
     3
170
     0
171
     0
290
     0
174
     0
 93
        1
 44
0.0
173
     0
291
     0
 45
0.0
1001
ACAD
1000
AcDbSavedByObjectVersion
1070
     0
1000
AcDbSavedByObjectVersion
1070
     0
1000
AcDbSavedByObjectVersion
1070
     0
1000
AcDbSavedByObjectVersion
1070
     0
1000
AcDbSavedByObjectVersion
1070
     0
  0
VISUALSTYLE
  5
39C29
102
{ACAD_REACTORS
330
39C1E
102
}
330
39C1E
100
AcDbVisualStyle
  2
Dim
 70
    11
 71
     2
 72
     2
 73
     0
 90
        0
 40
-0.6
 41
-30.0
 62
     5
 63
     7
 74
     1
 91
        4
 64
     7
 65
   257
 75
     1
175
     1
 42
1.0
 92
        8
 66
     7
 43
1.0
 76
     1
 77
     6
 78
     2
 67
     7
 79
     5
170
     0
171
     0
290
     0
174
     0
 93
        1
 44
-50.0
173
     0
291
     1
 45
0.0
1001
ACAD
1000
AcDbSavedByObjectVersion
1070
     0
1000
AcDbSavedByObjectVersion
1070
     0
1000
AcDbSavedByObjectVersion
1070
     0
1000
AcDbSavedByObjectVersion
1070
     0
1000
AcDbSavedByObjectVersion
1070
     0
  0
VISUALSTYLE
  5
39C2D
102
{ACAD_REACTORS
330
39C1E
102
}
330
39C1E
100
AcDbVisualStyle
  2
Facepattern
 70
    15
 71
     2
 72
     2
 73
     0
 90
        0
 40
-0.6
 41
-30.0
 62
     5
 63
     7
 74
     1
 91
        4
 64
     7
 65
   257
 75
     1
175
     1
 42
1.0
 92
        8
 66
     7
 43
1.0
 76
     1
 77
     6
 78
     2
 67
     7
 79
     5
170
     0
171
     0
290
     0
174
     0
 93
        1
 44
0.0
173
     0
291
     1
 45
0.0
1001
ACAD
1000
AcDbSavedByObjectVersion
1070
     0
1000
AcDbSavedByObjectVersion
1070
     0
1000
AcDbSavedByObjectVersion
1070
     0
1000
AcDbSavedByObjectVersion
1070
     0
1000
AcDbSavedByObjectVersion
1070
     0
  0
VISUALSTYLE
  5
39C1F
102
{ACAD_REACTORS
330
39C1E
102
}
330
39C1E
100
AcDbVisualStyle
  2
Flat
 70
     0
 71
     2
 72
     1
 73
     1
 90
        2
 40
-0.6
 41
30.0
 62
     5
 63
     7
 74
     0
 91
        4
 64
     7
 65
   257
 75
     1
175
     1
 42
1.0
 92
        8
 66
     7
 43
1.0
 76
     1
 77
     6
 78
     2
 67
     7
 79
     5
170
     0
171
     0
290
     0
174
     0
 93
       13
 44
0.0
173
     0
291
     1
 45
0.0
1001
ACAD
1000
AcDbSavedByObjectVersion
1070
     0
1000
AcDbSavedByObjectVersion
1070
     0
1000
AcDbSavedByObjectVersion
1070
     0
1000
AcDbSavedByObjectVersion
1070
     0
1000
AcDbSavedByObjectVersion
1070
     0
  0
VISUALSTYLE
  5
39C20
102
{ACAD_REACTORS
330
39C1E
102
}
330
39C1E
100
AcDbVisualStyle
  2
FlatWithEdges
 70
     1
 71
     2
 72
     1
 73
     1
 90
        2
 40
-0.6
 41
30.0
 62
     5
 63
     7
 74
     1
 91
        4
 64
     7
 65
   257
 75
     1
175
     1
 42
1.0
 92
        0
 66
   257
 43
1.0
 76
     1
 77
     6
 78
     2
 67
     7
 79
     5
170
     0
171
     0
290
     0
174
     0
 93
       13
 44
0.0
173
     0
291
     1
 45
0.0
1001
ACAD
1000
AcDbSavedByObjectVersion
1070
     0
1000
AcDbSavedByObjectVersion
1070
     0
1000
AcDbSavedByObjectVersion
1070
     0
1000
AcDbSavedByObjectVersion
1070
     0
1000
AcDbSavedByObjectVersion
1070
     0
  0
VISUALSTYLE
  5
39C21
102
{ACAD_REACTORS
330
39C1E
102
}
330
39C1E
100
AcDbVisualStyle
  2
Gouraud
 70
     2
 71
     2
 72
     2
 73
     1
 90
        2
 40
-0.6
 41
30.0
 62
     5
 63
     7
 74
     0
 91
        4
 64
     7
 65
   257
 75
     1
175
     1
 42
1.0
 92
        0
 66
     7
 43
1.0
 76
     1
 77
     6
 78
     2
 67
     7
 79
     5
170
     0
171
     0
290
     0
174
     0
 93
       13
 44
0.0
173
     0
291
     1
 45
0.0
1001
ACAD
1000
AcDbSavedByObjectVersion
1070
     0
1000
AcDbSavedByObjectVersion
1070
     0
1000
AcDbSavedByObjectVersion
1070
     0
1000
AcDbSavedByObjectVersion
1070
     0
1000
AcDbSavedByObjectVersion
1070
     0
  0
VISUALSTYLE
  5
39C22
102
{ACAD_REACTORS
330
39C1E
102
}
330
39C1E
100
AcDbVisualStyle
  2
GouraudWithEdges
 70
     3
 71
     2
 72
     2
 73
     1
 90
        2
 40
-0.6
 41
30.0
 62
     5
 63
     7
 74
     1
 91
        4
 64
     7
 65
   257
 75
     1
175
     1
 42
1.0
 92
        0
 66
   257
 43
1.0
 76
     1
 77
     6
 78
     2
 67
     7
 79
     5
170
     0
171
     0
290
     0
174
     0
 93
       13
 44
0.0
173
     0
291
     1
 45
0.0
1001
ACAD
1000
AcDbSavedByObjectVersion
1070
     0
1000
AcDbSavedByObjectVersion
1070
     0
1000
AcDbSavedByObjectVersion
1070
     0
1000
AcDbSavedByObjectVersion
1070
     0
1000
AcDbSavedByObjectVersion
1070
     0
  0
VISUALSTYLE
  5
39C2C
102
{ACAD_REACTORS
330
39C1E
102
}
330
39C1E
100
AcDbVisualStyle
  2
Linepattern
 70
    14
 71
     2
 72
     2
 73
     0
 90
        0
 40
-0.6
 41
-30.0
 62
     5
 63
     7
 74
     1
 91
        4
 64
     7
 65
   257
 75
     7
175
     7
 42
1.0
 92
        8
 66
     7
 43
1.0
 76
     1
 77
     6
 78
     2
 67
     7
 79
     5
170
     0
171
     0
290
     0
174
     0
 93
        1
 44
0.0
173
     0
291
     1
 45
0.0
1001
ACAD
1000
AcDbSavedByObjectVersion
1070
     0
1000
AcDbSavedByObjectVersion
1070
     0
1000
AcDbSavedByObjectVersion
1070
     0
1000
AcDbSavedByObjectVersion
1070
     0
1000
AcDbSavedByObjectVersion
1070
     0
  0
VISUALSTYLE
  5
39C28
102
{ACAD_REACTORS
330
39C1E
102
}
330
39C1E
100
AcDbVisualStyle
  2
Realistic
 70
     8
 71
     2
 72
     2
 73
     0
 90
        0
 40
-0.6
 41
-30.0
 62
     5
 63
     7
 74
     1
 91
        0
 64
     7
 65
   257
 75
     1
175
     1
 42
1.0
 92
        8
 66
     8
 43
1.0
 76
     1
 77
     6
 78
     2
 67
     7
 79
     5
170
     0
171
     0
290
     0
174
     0
 93
       13
 44
0.0
173
     0
291
     0
 45
0.0
1001
ACAD
1000
AcDbSavedByObjectVersion
1070
     0
1000
AcDbSavedByObjectVersion
1070
     0
1000
AcDbSavedByObjectVersion
1070
     0
1000
AcDbSavedByObjectVersion
1070
     0
1000
AcDbSavedByObjectVersion
1070
     0
  0
VISUALSTYLE
  5
39C2B
102
{ACAD_REACTORS
330
39C1E
102
}
330
39C1E
100
AcDbVisualStyle
  2
Thicken
 70
    13
 71
     2
 72
     2
 73
     0
 90
        0
 40
-0.6
 41
-30.0
 62
     5
 63
     7
 74
     1
 91
        4
 64
     7
 65
   257
 75
     1
175
     1
 42
1.0
 92
       12
 66
     7
 43
1.0
 76
     1
 77
     6
 78
     2
 67
     7
 79
     5
170
     0
171
     0
290
     0
174
     0
 93
        1
 44
0.0
173
     0
291
     1
 45
0.0
1001
ACAD
1000
AcDbSavedByObjectVersion
1070
     0
1000
AcDbSavedByObjectVersion
1070
     0
1000
AcDbSavedByObjectVersion
1070
     0
1000
AcDbSavedByObjectVersion
1070
     0
1000
AcDbSavedByObjectVersion
1070
     0
  0
DICTIONARYVAR
  5
39C39
102
{ACAD_REACTORS
330
210D7
102
}
330
210D7
100
DictionaryVariables
280
     0
  1
STANDARD
  0
DICTIONARYVAR
  5
3BD64
102
{ACAD_REACTORS
330
210D7
102
}
330
210D7
100
DictionaryVariables
280
     0
  1
1
  0
DICTIONARYVAR
  5
3BD63
102
{ACAD_REACTORS
330
210D7
102
}
330
210D7
100
DictionaryVariables
280
     0
  1
0
  0
DICTIONARYVAR
  5
210D8
102
{ACAD_REACTORS
330
210D7
102
}
330
210D7
100
DictionaryVariables
280
     0
  1
96
  0
DICTIONARY
  5
39C40
330
39BF6
100
AcDbDictionary
280
     1
281
     1
  3
ACAD_XREC_ROUNDTRIP
360
3CDAD
  3
ADSK_XREC_LAYOUTTHUMBNAIL
360
39C41
  0
DICTIONARY
  5
3CDAB
330
39BF5
100
AcDbDictionary
280
     1
281
     1
  3
ACAD_XREC_ROUNDTRIP
360
3CDAC
  0
DICTIONARY
  5
3BDEF
330
39C1C
100
AcDbDictionary
280
     1
281
     1
  3
ACAD_XREC_ROUNDTRIP
360
3BDF0
  0
DICTIONARY
  5
3BDED
330
39C1B
100
AcDbDictionary
280
     1
281
     1
  3
ACAD_XREC_ROUNDTRIP
360
3BDEE
  0
DICTIONARY
  5
3BDF1
330
39C1D
100
AcDbDictionary
280
     1
281
     1
  3
ACAD_XREC_ROUNDTRIP
360
3BDF2
  0
DICTIONARY
  5
3CDAE
330
39C30
100
AcDbDictionary
280
     1
281
     1
  3
ACAD_XREC_ROUNDTRIP
360
3CDAF
  0
XRECORD
  5
3CDAD
102
{ACAD_REACTORS
330
39C40
102
}
330
39C40
100
AcDbXrecord
280
     1
102
SHADEPLOT
 70
     1
102
SHADEPLOTRESLEVEL
 70
     2
102
SHADEPLOTCUSTOMDPI
 70
   300
  0
XRECORD
  5
39C41
102
{ACAD_REACTORS
330
39C40
102
}
330
39C40
100
AcDbXrecord
280
     1
310
28000000620000008C0000000100080000000000B036000000000000000000000001000000000000FFFFFF0000000000FFFFFF000000000000000000000000000000000000000000000000000000000000000000330000006600000099000000CC000000FF00000000330000333300006633000099330000CC330000FF3300
310
0000660000336600006666000099660000CC660000FF66000000990000339900006699000099990000CC990000FF99000000CC000033CC000066CC000099CC0000CCCC0000FFCC000000FF000033FF000066FF000099FF0000CCFF0000FFFF000000003300330033006600330099003300CC003300FF003300003333003333
310
33006633330099333300CC333300FF33330000663300336633006666330099663300CC663300FF66330000993300339933006699330099993300CC993300FF99330000CC330033CC330066CC330099CC3300CCCC3300FFCC330000FF330033FF330066FF330099FF3300CCFF3300FFFF330000006600330066006600660099
310
006600CC006600FF00660000336600333366006633660099336600CC336600FF33660000666600336666006666660099666600CC666600FF66660000996600339966006699660099996600CC996600FF99660000CC660033CC660066CC660099CC6600CCCC6600FFCC660000FF660033FF660066FF660099FF6600CCFF6600
310
FFFF660000009900330099006600990099009900CC009900FF00990000339900333399006633990099339900CC339900FF33990000669900336699006666990099669900CC669900FF66990000999900339999006699990099999900CC999900FF99990000CC990033CC990066CC990099CC9900CCCC9900FFCC990000FF99
310
0033FF990066FF990099FF9900CCFF9900FFFF99000000CC003300CC006600CC009900CC00CC00CC00FF00CC000033CC003333CC006633CC009933CC00CC33CC00FF33CC000066CC003366CC006666CC009966CC00CC66CC00FF66CC000099CC003399CC006699CC009999CC00CC99CC00FF99CC0000CCCC0033CCCC0066CC
310
CC0099CCCC00CCCCCC00FFCCCC0000FFCC0033FFCC0066FFCC0099FFCC00CCFFCC00FFFFCC000000FF003300FF006600FF009900FF00CC00FF00FF00FF000033FF003333FF006633FF009933FF00CC33FF00FF33FF000066FF003366FF006666FF009966FF00CC66FF00FF66FF000099FF003399FF006699FF009999FF00CC
310
99FF00FF99FF0000CCFF0033CCFF0066CCFF0099CCFF00CCCCFF00FFCCFF0000FFFF0033FFFF0066FFFF0099FFFF00CCFFFF00FFFFFF00000000000D0D0D001A1A1A00282828003535350043434300505050005D5D5D006B6B6B00787878008686860093939300A1A1A100AEAEAE00BBBBBB00C9C9C900D6D6D600E4E4E400
310
F1F1F100FFFFFF0000000000000000000000000000000000000000000000000000000000000000000000000000000000E2E2E2E2E2E2E2E2E2E2E2E2E2E2E2E2E2E2E2E2E2E2E2E2E2E2E2E2E2E2E2E2E2E2E2E2E2E2E2E2E2E2E2E2E2E2E2E2E2E2E2E2E2E2E2E2E2E2E2E2E2E2E2E2E2E2E2E2E2E2E2E2E2E2E2E2E2E2E2
310
E2E2E2E2E2E2E2E2E2E2E2E2E2E2E2E2E2E2E2813EE2F5F5F5F5F5F5F5F5F5F5F5F5F5F5F5F5F5F5F5F5F5F5F5F5F5F5F5F5F5F5F5F5F5F5F5F5F5F5F5F5F5F5F5F5F5F5F5F5F5F5F5F5F5F5F5F5F5F5F5F5F5F5F5F5F5F5F5F5F5F5F5F5F5F5F5F5F5F5F5F5F5F5F5F5F5F5F5F5F5F5F5F5F5F5F5F5F5AC45E2F5F5F5F5F5
310
F5F5F5F5F5F5F5F5F5F5F5F5F5F5F5F5F5F5F5F5F5F5F5F5F5F5F5F5F5F5F5F5F5F5F5F5F5F5F5F5F5F5F5F5F5F5F5F5F5F5F5F5F5F5F5F5F5F5F5F5F5F5F5F5F5F5F5F5F5F5F5F5F5F5F5F5F5F5F5F5F5F5F5F5F5F5F5F5F5F5F5F5B33EE2F5F5E2E2E2E2E2E2E2E2F5F5F5F5F5F5F5F5E2E2E2E2E2E2E2E2E2E2E2E2E2E2
310
E2F5F5F5F5F5F5F5F5E2E2E2E2E2E2E2E2E2E2E2E2E2E2E2F5F5F5F5F5F5F5F5E2E2E2E2E2E2E2E2E2E2E2E2E2E2E2F5F5F5F5F5F5F5F5E2E2E2E2E2E2E2E2F5F5B645E2F5F5E2F5F5F5F5F5F5F5F5F5F5F5F5F5F5F5F5F5F5F5F5F5F5F5F5F5F5F5F5F5F5F5F5F5F5F5F5F5F5F5F5F5F5F5F5F5F5F5F5F5F5F5F5F5F5F5F5
310
F5F5F5F5F5F5F5F5F5F5F5F5F5F5F5F5F5F5F5F5F5F5F5F5F5F5F5F5F5F5F5F5F5F5F5E2F5F5053FE2F5F5E2F5F5F5F5F5F5F5F5F5F5F5F5F5F5F5F5F5F5F5F5F5F5F5F5F5F5F5F5F5F5F5F5F5F5F5F5F5F5F5F5F5F5F5F5F5F5F5F5F5F5F5F5F5F5F5F5F5F5F5F5F5F5F5F5F5F5F5F5F5F5F5F5F5F5F5F5F5F5F5F5F5F5F5
310
F5F5F5F5F5F5F5F5E2F5F5C745E2F5F5E2F5F5F5F5F5F5F5F5F5F5F5F5F5F5F5F5F5F5F5F5F5F5F5F5F5F5F5F5F5F5F5F5F5F5F5F5F5F5F5F5F5F5F5F5F5F5F5F5F5F5F5F5F5F5F5F5F5F5F5F5F5F5F5F5F5F5F5F5F5F5F5F5F5F5F5F5F5F5F5F5F5F5F5F5F5F5F5F5F5F5F5E2F5F5303FE2F5F5E2F5F5F5F5F5F5F5F5F5F5
310
F5F5F5F5F5F5F5F5F5F5F5F5F5F5F5F5F5F5F5F5F5F5F5F5F5F5F5F5F5F5F5F5F5F5F5F5F5F5F5F5F5F5F5F5F5F5F5F5F5F5F5F5F5F5F5F5F5F5F5F5F5F5F5F5F5F5F5F5F5F5F5F5F5F5F5F5F5F5F5F5F5E2F5F59745E2F5F5E2F5F5F5F5F5F5F5F5F5F5F5F5F5F5F5F5F5F5F5F5F5F5F5F5F5F5F5F5F5F5F5F5F5F5F5F5F5
310
F5F5F5F5F5F5F5F5F5F5F5F5F5F5F5F5F5F5F5F5F5F5F5F5F5F5F5F5F5F5F5F5F5F5F5F5F5F5F5F5F5F5F5F5F5F5F5F5F5F5F5F5F5F5E2F5F5043DE2F5F5E2F5F5F5F5F5F5F5F5F5F5F5F5F5F5F5F5F5F5F5F5F5F5F5F5F5F5F5F5F5F5F5F5F5F5F5F5F5F5F5F5F5F5F5F5F5F5F5F5F5F5F5F5F5F5F5F5F5F5F5F5F5F5F5F5
310
F5F5F5F5F5F5F5F5F5F5F5F5F5F5F5F5F5F5F5F5F5F5F5F5F5F5F5E2F5F57045E2F5F5E2F5F5F5F5F5F5F5F5F5F5F5F5F5F5F5F5F5F5F5F5F5F5F5F5F5F5F5F5F5F5F5F5F5F5F5F5F5F5F5F5F5F5F5F5F5F5F5F5F5F5F5F5F5F5F5F5F5F5F5F5F5F5F5F5F5F5F5F5F5F5F5F5F5F5F5F5F5F5F5F5F5F5F5F5F5F5F5F5F5F5F5
310
E2F5F5473DE2F5F5E2F5F5F5F5F5F5F5F5F5F5F5F5F5F5F5F5F5F5F5F5F5F5F5F5F5F5F5F5F5F5F5F5F5F5F5F5F5F5F5F5F5F5F5F5F5F5F5F5F5F5F5F5F5F5F5F5F5F5F5F5F5F5F5F5F5F5F5F5F5F5F5F5F5F5F5F5F5F5F5F5F5F5F5F5F5F5F5F5F5F5F5E2F5F54345E2F5F5F5F5F5F5F5F5F5F5F5F5F5F5F5F5F5F5F5F5F5
310
F5F5F5F5F5F5F5F5F5F5F5F5F5F5F5F5F5F5F5F5F5F5F5F5F5F5F5F5F5F5F5F5F5F5F5F5F5F5F5F5F5F5F5F5F5F5F5F5F5F5F5F5F5F5F5F5F5F5F5F5F5F5F5F5F5F5F5F5F5F5F5F5F5F5F5F57D3DE2F5F5F5F5F5F5F5F5F5F5F5F5F5F5F5F5F5F5F5F5F5F5F5F5F5F5F5F5F5F5F5F5F5F5F5F5F5F5F5F5F5F5F5F5F5F5F5F5
310
F5F5F5F5F5F5F5F5F5F5F5F5F5F5F5F5F5F5F5F5F5F5F5F5F5F5F5F5F5F5F5F5F5F5F5F5F5F5F5F5F5F5F5F5F5F5F5F5F57045E2F5F5F5F5F5F5F5F5F5F5F5F5F5F5F5F5F5F5F5F5F5F5F5F5F5F5F5F5F5F5F5F5F5F5F5F5F5F5F5F5F5F5F5F5F5F5F5F5F5F5F5F5F5F5F5F5F5F5F5F5F5F5F5F5F5F5F5F5F5F5F5F5F5F5F5
310
F5F5F5F5F5F5F5F5F5F5F5F5F5F5F5F5F5F5F5F5F5F5B33DE2F5F5F5F5F5F5F5F5F5F5F5F5F5F5F5F5F5F5F5F5F5F5F5F5F5F5F5F5F5F5F5F5F5F5F5F5F5F5F5F5F5F5F5F5F5F5F5F5F5F5F5F5F5F5F5F5F5F5F5F5F5F5F5F5F5F5F5F5F5F5F5F5F5F5F5F5F5F5F5F5F5F5F5F5F5F5F5F5F5F5F5F5F5F5F5F5F54345E2F5F5
310
F5F5F5F5F5F5F5F5F5F5F5F5F5F5F5F5F5F5F5F5F5F5F5F5F5F5F5F5F5F5F5F5F5F5F5F5F5F5F5F5F5F5F5F5F5F5F5F5F5F5F5F5F5F5F5F5F5F5F5F5F5F5F5F5F5F5F5F5F5F5F5F5F5F5F5F5F5F5F5F5F5F5F5F5F5F5F5F5F5F5F5F5F5F5F5EA3DE2F5F5F5F5F5F5F5F5F5F5F5F5F5F5F5F5F5F5F5F5F5F5F5F5F5F5F5F5F5
310
F5F5F5F5F5F5F5F5F5F5F5F5F5F5F5F5F5F5F5F5F5F5F5F5F5F5F5F5F5F5F5F5F5F5F5F5F5F5F5F5F5F5F5F5F5F5F5F5F5F5F5F5F5F5F5F5F5F5F5F5F5F5F5F5F5F5F5F54045E2F5F5F5F5F5F5F5F5F5F5F5F5F5F5F5F5F5F5F5F5F5F5F5F5F5F5F5F5F5F5F5F5F5F5F5F5F5F5F5F5F5F5F5F5F5F5F5F5F5F5F5F5F5F5F5F5
310
F5F5F5F5F5F5F5F5F5F5F5F5F5F5F5F5F5F5F5F5F5F5F5F5F5F5F5F5F5F5F5F5F5F5F5F5F5F5F5F5F5513EE2F5F5F5F5F5F5F5F5F5F5F5F5F5F5F5F5F5F5F5F5F5F5F5F5F5F5F5F5F5F5F5F5F5F5F5F5F5F5F5F5F5F5F5F5F5F5F5F5F5F5F5F5F5F5F5F5F5F5F5F5F5F5F5F5F5F5F5F5F5F5F5F5F5F5F5F5F5F5F5F5F5F5F5
310
F5F5F5F5F5F5F5F5F5F5F5F5F5F55445E2F5F5F5F5F5F5F5F5F5F5F5F5F5F5F5F5F5F5F5F5F5F5F5F5F5F5F5F5F5F5F5F5F5F5F5F5F5F5F5F5F5F5F5F5F5F5F5F5F5F5F5F5F5F5F5F5F5F5F5F5F5F5F5F5F5F5F5F5F5F5F5F5F5F5F5F5F5F5F5F5F5F5F5F5F5F5F5F5F5F5F5F5F5F5F5F5F5913EE2F5F5E2F5F5F5F5F5F5F5
310
F5F5F5F5F5F5F5F5F5F5F5F5F5F5F5F5F5F5F5F5F5F5F5F5F5F5F5F5F5F5F5F5F5F5F5F5F5F5F5F5F5F5F5F5F5F5F5F5F5F5F5F5F5F5F5F5F5F5F5F5F5F5F5F5F5F5F5F5F5F5F5F5F5F5F5F5F5F5F5F5F5F5F5F5E2F5F57345E2F5F5E2F5F5F5F5F5F5F5F5F5F5F5F5F5F5F5F5F5F5F5F5F5F5F5F5F5F5F5F5F5F5F5F5F5F5
310
F5F5F5F5F5F5F5F5F5F5F5F5F5F5F5F5F5F5F5F5F5F5F5F5F5F5F5F5F5F5F5F5F5F5F5F5F5F5F5F5F5F5F5F5F5F5F5F5F5F5F5F5F5F5F5F5F5E2F5F5C03EE2F5F5E2F5F5F5F5F5F5F5F5F5F5F5F5F5F5F5F5F5F5F5F5F5F5F5F5F5F5F5F5F5F5F5F5F5F5F5F5F5F5F5F5F5F5F5F5F5F5F5F5F5F5F5F5F5F5F5F5F5F5F5F5F5
310
F5F5F5F5F5F5F5F5F5F5F5F5F5F5F5F5F5F5F5F5F5F5F5F5F5F5F5F5F5F5E2F5F54045E2F5F5E2F5F5F5F5F5F5F5F5F5F5F5F5F5F5F5F5F5F5F5F5F5F5F5F5F5F5F5F5F5F5F5F5F5F5F5F5F5F5F5F5F5F5F5F5F5F5F5F5F5F5F5F5F5F5F5F5F5F5F5F5F5F5F5F5F5F5F5F5F5F5F5F5F5F5F5F5F5F5F5F5F5F5F5F5F5F5F5F5
310
F5F5F5E2F5F5243FE2F5F5E2F5F5F5F5F5F5F5F5F5F5F5F5F5F5F5F5F5F5F5F5F5F5F5F5F5F5F5F5F5F5F5F5F5F5F5F5F5F5F5F5F5F5F5F5F5F5F5F5F5F5F5F5F5F5F5F5F5F5F5F5F5F5F5F5F5F5F5F5F5F5F5F5F5F5F5F5F5F5F5F5F5F5F5F5F5F5F5F5F5F5F5E2F5F54345E2F5F5E2F5F5F5F5F5F5F5F5F5F5F5F5F5F5F5
310
F5F5F5F5F5F5F5F5F5F5F5F5F5F5F5F5F5F5F5F5F5F5F5F5F5F5F5F5F5F5F5F5F5F5F5F5F5F5F5F5F5F5F5F5F5F5F5F5F5F5F5F5F5F5F5F5F5F5F5F5F5F5F5F5F5F5F5F5F5F5F5F5F5F5F5F5E2F5F5443FE2F5F5E2F5F5F5F5F5F5F5F5F5F5F5F5F5F5F5F5F5F5F5F5F5F5F5F5F5F5F5F5F5F5F5F5F5F5F5F5F5F5F5F5F5F5
310
F5F5F5F5F5F5F5F5F5F5F5F5F5F5F5F5F5F5F5F5F5F5F5F5F5F5F5F5F5F5F5F5F5F5F5F5F5F5F5F5F5F5F5F5F5F5F5F5F5E2F5F55B45E2F5F5E2F5F5F5F5F5F5F5F5F5F5F5F5F5F5F5F5F5F5F5F5F5F5F5F5F5F5F5F5F5F5F5F5F5F5F5F5F5F5F5F5F5F5F5F5F5F5F5F5F5F5F5F5F5F5F5F5F5F5F5F5F5F5F5F5F5F5F5F5F5
310
F5F5F5F5F5F5F5F5F5F5F5F5F5F5F5F5F5F5F5F5F5F5E2F5F5483FE2F5F5E2F5F5F5F5F5F5F5F5F5F5F5F5F5F5F5F5F5F5F5F5F5F5F5F5F5F5F5F5F5F5F5F5F5F5F5F5F5F5F5F5F5F5F5F5F5F5F5F5F5F5F5F5F5F5F5F5F5F5F5F5F5F5F5F5F5F5F5F5F5F5F5F5F5F5F5F5F5F5F5F5F5F5F5F5F5F5F5F5F5F5F5E2F5F5EC44
310
E2F5F5E2F5F5F5F5F5F5F5F5F5F5F5F5F5F5F5F5F5F5F5F5F5F5F5F5F5F5F5F5F5F5F5F5F5F5F5F5F5F5F5F5F5F5F5F5F5F5F5F5F5F5F5F5F5F5F5F5F5F5F5F5F5F5F5F5F5F5F5F5F5F5F5F5F5F5F5F5F5F5F5F5F5F5F5F5F5F5F5F5F5F5F5E2F5F5583DE2F5F5E2F5F5F5F5F5F5F5F5F5F5F5F5F5F5F5F5F5F5F5F5F5F5F5
310
F5F5F5F5F5F5F5F5F5F5F5F5F5F5F5F5F5F5F5F5F5F5F5F5F5F5F5F5F5F5F5F5F5F5F5F5F5F5F5F5F5F5F5F5F5F5F5F5F5F5F5F5F5F5F5F5F5F5F5F5F5F5F5F5F5F5F5F5E2F5F50B45E2F5F5E2F5F5F5F5F5F5F5F5F5F5F5F5F5F5F5F5F5F5F5F5F5F5F5F5F5F5F5F5F5F5F5F5F5F5F5F5F5F5F5F5F5F5F5F5F5F5F5F5F5F5
310
F5F5F5F5F5F5F5F5F5F5F5F5F5F5F5F5F5F5F5F5F5F5F5F5F5F5F5F5F5F5F5F5F5F5F5F5F5F5F5F5F5E2F5F57C3DE2F5F5E2F5F5F5F5F5F5F5F5F5F5F5F5F5F5F5F5F5F5F5F5F5F5F5F5F5F5F5F5F5F5F5F5F5F5F5F5F5F5F5F5F5F5F5F5F5F5F5F5F5F5F5F5F5F5F5F5F5F5F5F5F5F5F5F5F5F5F5F5F5F5F5F5F5F5F5F5F5
310
F5F5F5F5F5F5F5F5F5F5F5F5F5F5E2F5F50E45E2F5F5E2F5F5F5F5F5F5F5F5F5F5F5F5F5F5F5F5F5F5F5F5F5F5F5F5F5F5F5F5F5F5F5F5F5F5F5F5F5F5F5F5F5F5F5F5F5F5F5F5F5F5F5F5F5F5F5F5F5F5F5F5F5F5F5F5F5F5F5F5F5F5F5F5F5F5F5F5F5F5F5F5F5F5F5F5F5F5F5F5F5F5F5E2F5F5A73DE2F5F5E2F5F5F5F5
310
F5F5F5F5F5F5F5F5F5F5F5F5F5F5F5F5F5F5F5F5F5F5F5F5F5F5F5F5F5F5F5F5F5F5F5F5F5F5F5F5F5F5F5F5F5F5F5F5F5F5F5F5F5F5F5F5F5F5F5F5F5F5F5F5F5F5F5F5F5F5F5F5F5F5F5F5F5F5F5F5F5F5F5F5F5F5F5E2F5F5EC44E2F5F5E2F5F5F5F5F5F5F5F5F5F5F5F5F5F5F5F5F5F5F5F5F5F5F5F5F5F5F5F5F5F5F5
310
F5F5F5F5F5F5F5F5F5F5F5F5F5F5F5F5F5F5F5F5F5F5F5F5F5F5F5F5F5F5F5F5F5F5F5F5F5F5F5F5F5F5F5F5F5F5F5F5F5F5F5F5F5F5F5F5F5F5F5F5E2F5F5D93DE2F5F5E2F5F5F5F5F5F5F5F5F5F5F5F5F5F5F5F5F5F5F5F5F5F5F5F5F5F5F5F5F5F5F5F5F5F5F5F5F5F5F5F5F5F5F5F5F5F5F5F5F5F5F5F5F5F5F5F5F5F5
310
F5F5F5F5F5F5F5F5F5F5F5F5F5F5F5F5F5F5F5F5F5F5F5F5F5F5F5F5F5F5F5F5F5E2F5F5F344E2F5F5F5F5F5F5F5F5F5F5F5F5F5F5F5F5F5F5F5F5F5F5F5F5F5F5F5F5F5F5F5F5F5F5F5F5F5F5F5F5F5F5F5F5F5F5F5F5F5F5F5F5F5F5F5F5F5F5F5F5F5F5F5F5F5F5F5F5F5F5F5F5F5F5F5F5F5F5F5F5F5F5F5F5F5F5F5F5
310
F5F5F5F5F5F5F5F5F5F73CE2F5F5F5F5F5F5F5F5F5F5F5F5F5F5F5F5F5F5F5F5F5F5F5F5F5F5F5F5F5F5F5F5F5F5F5F5F5F5F5F5F5F5F5F5F5F5F5F5F5F5F5F5F5F5F5F5F5F5F5F5F5F5F5F5F5F5F5F5F5F5F5F5F5F5F5F5F5F5F5F5F5F5F5F5F5F5F5F5F5F5F5F5F5F5F5F5F5B344E2F5F5F5F5F5F5F5F5F5F5F5F5F5F5F5
310
F5F5F5F5F5F5F5F5F5F5F5F5F5F5F5F5F5F5F5F5F5F5F5F5F5F5F5F5F5F5F5F5F5F5F5F5F5F5F5F5F5F5F5F5F5F5F5F5F5F5F5F5F5F5F5F5F5F5F5F5F5F5F5F5F5F5F5F5F5F5F5F5F5F5F5F5F5F5F5F5F5F56A3DE2F5F5F5F5F5F5F5F5F5F5F5F5F5F5F5F5F5F5F5F5F5F5F5F5F5F5F5F5F5F5F5F5F5F5F5F5F5F5F5F5F5F5
310
F5F5F5F5F5F5F5F5F5F5F5F5F5F5F5F5F5F5F5F5F5F5F5F5F5F5F5F5F5F5F5F5F5F5F5F5F5F5F5F5F5F5F5F5F5F5F5F5F5F5F5F5F5F5F5BA44E2F5F5F5F5F5F5F5F5F5F5F5F5F5F5F5F5F5F5F5F5F5F5F5F5F5F5F5F5F5F5F5F5F5F5F5F5F5F5F5F5F5F5F5F5F5F5F5F5F5F5F5F5F5F5F5F5F5F5F5F5F5F5F5F5F5F5F5F5F5
310
F5F5F5F5F5F5F5F5F5F5F5F5F5F5F5F5F5F5F5F5F5F5F5F5F5F5F5F59D3DE2F5F5F5F5F5F5F5F5F5F5F5F5F5F5F5F5F5F5F5F5F5F5F5F5F5F5F5F5F5F5F5F5F5F5F5F5F5F5F5F5F5F5F5F5F5F5F5F5F5F5F5F5F5F5F5F5F5F5F5F5F5F5F5F5F5F5F5F5F5F5F5F5F5F5F5F5F5F5F5F5F5F5F5F5F5F5F5F5F5F5F5F5F5F5F5F5
310
F5AB44E2F5F5F5F5F5F5F5F5F5F5F5F5F5F5F5F5F5F5F5F5F5F5F5F5F5F5F5F5F5F5F5F5F5F5F5F5F5F5F5F5F5F5F5F5F5F5F5F5F5F5F5F5F5F5F5F5F5F5F5F5F5F5F5F5F5F5F5F5F5F5F5F5F5F5F5F5F5F5F5F5F5F5F5F5F5F5F5F5F5F5F5F5F5F5F5F5F5EA3DE2F5F5F5F5F5F5F5F5F5F5F5F5F5F5F5F5F5F5F5F5F5F5F5
310
F5F5F5F5F5F5F5F5F5F5F5F5F5F5F5F5F5F5F5F5F5F5F5F5F5F5F5F5F5F5F5F5F5F5F5F5F5F5F5F5F5F5F5F5F5F5F5F5F5F5F5F5F5F5F5F5F5F5F5F5F5F5F5F5F5F5F5F5F5F5F5F5F5F5C844E2F5F5F5F5F5F5F5F5F5F5F5F5F5F5F5F5F5F5F5F5F5F5F5F5F5F5F5F5F5F5F5F5F5F5F5F5F5F5F5F5F5F5F5F5F5F5F5F5F5F5
310
F5F5F5F5F5F5F5F5F5F5F5F5F5F5F5F5F5F5F5F5F5F5F5F5F5F5F5F5F5F5F5F5F5F5F5F5F5F5F5F5F5F5F5F5F5F5F5F93CE2F5F5F5F5F5F5F5F5F5F5F5F5F5F5F5F5F5F5F5F5F5F5F5F5F5F5F5F5F5F5F5F5F5F5F5F5F5F5F5F5F5F5F5F5F5F5F5F5F5F5F5F5F5F5F5F5F5F5F5F5F5F5F5F5F5F5F5F5F5F5F5F5F5F5F5F5F5
310
F5F5F5F5F5F5F5F5F5F5F5F5F5F5F5F5F5F5F5F54444E2F5F5E2F5F5F5F5F5F5F5F5F5F5F5F5F5F5F5F5F5F5F5F5F5F5F5F5F5F5F5F5F5F5F5F5F5F5F5F5F5F5F5F5F5F5F5F5F5F5F5F5F5F5F5F5F5F5F5F5F5F5F5F5F5F5F5F5F5F5F5F5F5F5F5F5F5F5F5F5F5F5F5F5F5F5F5F5F5F5F5F5F5F5F5E2F5F5673DE2F5F5E2F5
310
F5F5F5F5F5F5F5F5F5F5F5F5F5F5F5F5F5F5F5F5F5F5F5F5F5F5F5F5F5F5F5F5F5F5F5F5F5F5F5F5F5F5F5F5F5F5F5F5F5F5F5F5F5F5F5F5F5F5F5F5F5F5F5F5F5F5F5F5F5F5F5F5F5F5F5F5F5F5F5F5F5F5F5F5F5F5F5F5F5F5E2F5F54B44E2F5F5E2F5F5F5F5F5F5F5F5F5F5F5F5F5F5F5F5F5F5F5F5F5F5F5F5F5F5F5F5
310
F5F5F5F5F5F5F5F5F5F5F5F5F5F5F5F5F5F5F5F5F5F5F5F5F5F5F5F5F5F5F5F5F5F5F5F5F5F5F5F5F5F5F5F5F5F5F5F5F5F5F5F5F5F5F5F5F5F5F5F5F5F5F5E2F5F58D3DE2F5F5E2F5F5F5F5F5F5F5F5F5F5F5F5F5F5F5F5F5F5F5F5F5F5F5F5F5F5F5F5F5F5F5F5F5F5F5F5F5F5F5F5F5F5F5F5F5F5F5F5F5F5F5F5F5F5F5
310
F5F5F5F5F5F5F5F5F5F5F5F5F5F5F5F5F5F5F5F5F5F5F5F5F5F5F5F5F5F5F5F5F5F5F5F5E2F5F54444E2F5F5E2F5F5F5F5F5F5F5F5F5F5F5F5F5F5F5F5F5F5F5F5F5F5F5F5F5F5F5F5F5F5F5F5F5F5F5F5F5F5F5F5F5F5F5F5F5F5F5F5F5F5F5F5F5F5F5F5F5F5F5F5F5F5F5F5F5F5F5F5F5F5F5F5F5F5F5F5F5F5F5F5F5F5
310
F5F5F5F5F5F5F5F5F5E2F5F5D23DE2F5F5E2F5F5F5F5F5F5F5F5F5F5F5F5F5F5F5F5F5F5F5F5F5F5F5F5F5F5F5F5F5F5F5F5F5F5F5F5F5F5F5F5F5F5F5F5F5F5F5F5F5F5F5F5F5F5F5F5F5F5F5F5F5F5F5F5F5F5F5F5F5F5F5F5F5F5F5F5F5F5F5F5F5F5F5F5F5F5F5F5F5F5F5E2F5F54444E2F5F5E2F5F5F5F5F5F5F5F5F5
310
F5F5F5F5F5F5F5F5F5F5F5F5F5F5F5F5F5F5F5F5F5F5F5F5F5F5F5F5F5F5F5F5F5F5F5F5F5F5F5F5F5F5F5F5F5F5F5F5F5F5F5F5F5F5F5F5F5F5F5F5F5F5F5F5F5F5F5F5F5F5F5F5F5F5F5F5F5F5F5F5F5F5E2F5F5F43DE2F5F5E2F5F5F5F5F5F5F5F5F5F5F5F5F5F5F5F5F5F5F5F5F5F5F5F5F5F5F5F5F5F5F5F5F5F5F5F5
310
F5F5F5F5F5F5F5F5F5F5F5F5F5F5F5F5F5F5F5F5F5F5F5F5F5F5F5F5F5F5F5F5F5F5F5F5F5F5F5F5F5F5F5F5F5F5F5F5F5F5F5F5F5F5F5E2F5F56344E2F5F5E2F5F5F5F5F5F5F5F5F5F5F5F5F5F5F5F5F5F5F5F5F5F5F5F5F5F5F5F5F5F5F5F5F5F5F5F5F5F5F5F5F5F5F5F5F5F5F5F5F5F5F5F5F5F5F5F5F5F5F5F5F5F5F5
310
F5F5F5F5F5F5F5F5F5F5F5F5F5F5F5F5F5F5F5F5F5F5F5F5F5F5F5F5E2F5F5163EE2F5F5E2F5F5F5F5F5F5F5F5F5F5F5F5F5F5F5F5F5F5F5F5F5F5F5F5F5F5F5F5F5F5F5F5F5F5F5F5F5F5F5F5F5F5F5F5F5F5F5F5F5F5F5F5F5F5F5F5F5F5F5F5F5F5F5F5F5F5F5F5F5F5F5F5F5F5F5F5F5F5F5F5F5F5F5F5F5F5F5F5F5F5
310
F5E2F5F54444E2F5F5E2F5F5F5F5F5F5F5F5F5F5F5F5F5F5F5F5F5F5F5F5F5F5F5F5F5F5F5F5F5F5F5F5F5F5F5F5F5F5F5F5F5F5F5F5F5F5F5F5F5F5F5F5F5F5F5F5F5F5F5F5F5F5F5F5F5F5F5F5F5F5F5F5F5F5F5F5F5F5F5F5F5F5F5F5F5F5F5F5F5F5F5E2F5F5F73CE2F5F5E2F5F5F5F5F5F5F5F5F5F5F5F5F5F5F5F5F5
310
F5F5F5F5F5F5F5F5F5F5F5F5F5F5F5F5F5F5F5F5F5F5F5F5F5F5F5F5F5F5F5F5F5F5F5F5F5F5F5F5F5F5F5F5F5F5F5F5F5F5F5F5F5F5F5F5F5F5F5F5F5F5F5F5F5F5F5F5F5F5F5F5F5F5E2F5F50F44E2F5F5E2F5F5F5F5F5F5F5F5F5F5F5F5F5F5F5F5F5F5F5F5F5F5F5F5F5F5F5F5F5F5F5F5F5F5F5F5F5F5F5F5F5F5F5F5
310
F5F5F5F5F5F5F5F5F5F5F5F5F5F5F5F5F5F5F5F5F5F5F5F5F5F5F5F5F5F5F5F5F5F5F5F5F5F5F5F5F5F5F5F5F5F5F5E2F5F5453DE2F5F5E2F5F5F5F5F5F5F5F5F5F5F5F5F5F5F5F5F5F5F5F5F5F5F5F5F5F5F5F5F5F5F5F5F5F5F5F5F5F5F5F5F5F5F5F5F5F5F5F5F5F5F5F5F5F5F5F5F5F5F5F5F5F5F5F5F5F5F5F5F5F5F5
310
F5F5F5F5F5F5F5F5F5F5F5F5F5F5F5F5F5F5F5F5E2F5F50344E2F5F5E2F5F5F5F5F5F5F5F5F5F5F5F5F5F5F5F5F5F5F5F5F5F5F5F5F5F5F5F5F5F5F5F5F5F5F5F5F5F5F5F5F5F5F5F5F5F5F5F5F5F5F5F5F5F5F5F5F5F5F5F5F5F5F5F5F5F5F5F5F5F5F5F5F5F5F5F5F5F5F5F5F5F5F5F5F5F5F5F5F5F5F5E2F5F5613DE2F5
310
F5E2F5F5F5F5F5F5F5F5F5F5F5F5F5F5F5F5F5F5F5F5F5F5F5F5F5F5F5F5F5F5F5F5F5F5F5F5F5F5F5F5F5F5F5F5F5F5F5F5F5F5F5F5F5F5F5F5F5F5F5F5F5F5F5F5F5F5F5F5F5F5F5F5F5F5F5F5F5F5F5F5F5F5F5F5F5F5F5F5F5F5F5E2F5F52044E2F5F5E2F5F5F5F5F5F5F5F5F5F5F5F5F5F5F5F5F5F5F5F5F5F5F5F5F5
310
F5F5F5F5F5F5F5F5F5F5F5F5F5F5F5F5F5F5F5F5F5F5F5F5F5F5F5F5F5F5F5F5F5F5F5F5F5F5F5F5F5F5F5F5F5F5F5F5F5F5F5F5F5F5F5F5F5F5F5F5F5F5F5F5F5F5E2F5F5873DE2F5F5F5F5F5F5F5F5F5F5F5F5F5F5F5F5F5F5F5F5F5F5F5F5F5F5F5F5F5F5F5F5F5F5F5F5F5F5F5F5F5F5F5F5F5F5F5F5F5F5F5F5F5F5F5
310
F5F5F5F5F5F5F5F5F5F5F5F5F5F5F5F5F5F5F5F5F5F5F5F5F5F5F5F5F5F5F5F5F5F5F5F5F5F5F5F5F5F50F44E2F5F5F5F5F5F5F5F5F5F5F5F5F5F5F5F5F5F5F5F5F5F5F5F5F5F5F5F5F5F5F5F5F5F5F5F5F5F5F5F5F5F5F5F5F5F5F5F5F5F5F5F5F5F5F5F5F5F5F5F5F5F5F5F5F5F5F5F5F5F5F5F5F5F5F5F5F5F5F5F5F5F5
310
F5F5F5F5F5F5F5F5F5F5F5F5F5F5F5B53DE2F5F5F5F5F5F5F5F5F5F5F5F5F5F5F5F5F5F5F5F5F5F5F5F5F5F5F5F5F5F5F5F5F5F5F5F5F5F5F5F5F5F5F5F5F5F5F5F5F5F5F5F5F5F5F5F5F5F5F5F5F5F5F5F5F5F5F5F5F5F5F5F5F5F5F5F5F5F5F5F5F5F5F5F5F5F5F5F5F5F5F5F5F5F5F5F5F50A44E2F5F5F5F5F5F5F5F5F5
310
F5F5F5F5F5F5F5F5F5F5F5F5F5F5F5F5F5F5F5F5F5F5F5F5F5F5F5F5F5F5F5F5F5F5F5F5F5F5F5F5F5F5F5F5F5F5F5F5F5F5F5F5F5F5F5F5F5F5F5F5F5F5F5F5F5F5F5F5F5F5F5F5F5F5F5F5F5F5F5F5F5F5F5F5F5F5F5F5C73DE2F5F5F5F5F5F5F5F5F5F5F5F5F5F5F5F5F5F5F5F5F5F5F5F5F5F5F5F5F5F5F5F5F5F5F5F5
310
F5F5F5F5F5F5F5F5F5F5F5F5F5F5F5F5F5F5F5F5F5F5F5F5F5F5F5F5F5F5F5F5F5F5F5F5F5F5F5F5F5F5F5F5F5F5F5F5F5F5F5F5F5F5F5F5F5F5F5F5F5F743E2F5F5F5F5F5F5F5F5F5F5F5F5F5F5F5F5F5F5F5F5F5F5F5F5F5F5F5F5F5F5F5F5F5F5F5F5F5F5F5F5F5F5F5F5F5F5F5F5F5F5F5F5F5F5F5F5F5F5F5F5F5F5F5
310
F5F5F5F5F5F5F5F5F5F5F5F5F5F5F5F5F5F5F5F5F5F5F5F5F5F5F5F5F5F5F5F5F5F5013EE2F5F5F5F5F5F5F5F5F5F5F5F5F5F5F5F5F5F5F5F5F5F5F5F5F5F5F5F5F5F5F5F5F5F5F5F5F5F5F5F5F5F5F5F5F5F5F5F5F5F5F5F5F5F5F5F5F5F5F5F5F5F5F5F5F5F5F5F5F5F5F5F5F5F5F5F5F5F5F5F5F5F5F5F5F5F5F5F5F5F5
310
F5F5F5F5F5F5F5F743E2F5F5F5F5F5F5F5F5F5F5F5F5F5F5F5F5F5F5F5F5F5F5F5F5F5F5F5F5F5F5F5F5F5F5F5F5F5F5F5F5F5F5F5F5F5F5F5F5F5F5F5F5F5F5F5F5F5F5F5F5F5F5F5F5F5F5F5F5F5F5F5F5F5F5F5F5F5F5F5F5F5F5F5F5F5F5F5F5F5F5F5F5F5F5F5F5F5243EE2F5F5F5F5F5F5F5F5F5F5F5F5F5F5F5F5F5
310
F5F5F5F5F5F5F5F5F5F5F5F5F5F5F5F5F5F5F5F5F5F5F5F5F5F5F5F5F5F5F5F5F5F5F5F5F5F5F5F5F5F5F5F5F5F5F5F5F5F5F5F5F5F5F5F5F5F5F5F5F5F5F5F5F5F5F5F5F5F5F5F5F5F5F5F5F5F5F5F50344E2F5F5E2F5F5F5F5F5F5F5F5F5F5F5F5F5F5F5F5F5F5F5F5F5F5F5F5F5F5F5F5F5F5F5F5F5F5F5F5F5F5F5F5F5
310
F5F5F5F5F5F5F5F5F5F5F5F5F5F5F5F5F5F5F5F5F5F5F5F5F5F5F5F5F5F5F5F5F5F5F5F5F5F5F5F5F5F5F5F5F5F5F5F5F5F5E2F5F5423DE2F5F5E2F5F5F5F5F5F5F5F5F5F5F5F5F5F5F5F5F5F5F5F5F5F5F5F5F5F5F5F5F5F5F5F5F5F5F5F5F5F5F5F5F5F5F5F5F5F5F5F5F5F5F5F5F5F5F5F5F5F5F5F5F5F5F5F5F5F5F5F5
310
F5F5F5F5F5F5F5F5F5F5F5F5F5F5F5F5F5F5F5F5F5F5F5E2F5F5A343E2F5F5E2F5F5F5F5F5F5F5F5F5F5F5F5F5F5F5F5F5F5F5F5F5F5F5F5F5F5F5F5F5F5F5F5F5F5F5F5F5F5F5F5F5F5F5F5F5F5F5F5F5F5F5F5F5F5F5F5F5F5F5F5F5F5F5F5F5F5F5F5F5F5F5F5F5F5F5F5F5F5F5F5F5F5F5F5F5F5F5F5F5F5F5E2F5F57B
310
3DE2F5F5E2F5F5F5F5F5F5F5F5F5F5F5F5F5F5F5F5F5F5F5F5F5F5F5F5F5F5F5F5F5F5F5F5F5F5F5F5F5F5F5F5F5F5F5F5F5F5F5F5F5F5F5F5F5F5F5F5F5F5F5F5F5F5F5F5F5F5F5F5F5F5F5F5F5F5F5F5F5F5F5F5F5F5F5F5F5F5F5F5F5F5F5E2F5F5AA43E2F5F5E2F5F5F5F5F5F5F5F5F5F5F5F5F5F5F5F5F5F5F5F5F5F5
310
F5F5F5F5F5F5F5F5F5F5F5F5F5F5F5F5F5F5F5F5F5F5F5F5F5F5F5F5F5F5F5F5F5F5F5F5F5F5F5F5F5F5F5F5F5F5F5F5F5F5F5F5F5F5F5F5F5F5F5F5F5F5F5F5F5F5F5F5F5E2F5F5A33DE2F5F5E2F5F5F5F5F5F5F5F5F5F5F5F5F5F5F5F5F5F5F5F5F5F5F5F5F5F5F5F5F5F5F5F5F5F5F5F5F5F5F5F5F5F5F5F5F5F5F5F5F5
310
F5F5F5F5F5F5F5F5F5F5F5F5F5F5F5F5F5F5F5F5F5F5F5F5F5F5F5F5F5F5F5F5F5F5F5F5F5F5F5F5F5F5E2F5F59C43E2F5F5E2F5F5F5F5F5F5F5F5F5F5F5F5F5F5F5F5F5F5F5F5F5F5F5F5F5F5F5F5F5F5F5F5F5F5F5F5F5F5F5F5F5F5F5F5F5F5F5F5F5F5F5F5F5F5F5F5F5F5F5F5F5F5F5F5F5F5F5F5F5F5F5F5F5F5F5F5
310
F5F5F5F5F5F5F5F5F5F5F5F5F5F5F5E2F5F5C73DE2F5F5E2F5F5F5F5F5F5F5F5F5F5F5F5F5F5F5F5F5F5F5F5F5F5F5F5F5F5F5F5F5F5F5F5F5F5F5F5F5F5F5F5F5F5F5F5F5F5F5F5F5F5F5F5F5F5F5F5F5F5F5F5F5F5F5F5F5F5F5F5F5F5F5F5F5F5F5F5F5F5F5F5F5F5F5F5F5F5F5F5F5F5F5E2F5F5CE43E2F5F5E2F5F5F5
310
F5F5F5F5F5F5F5F5F5F5F5F5F5F5F5F5F5F5F5F5F5F5F5F5F5F5F5F5F5F5F5F5F5F5F5F5F5F5F5F5F5F5F5F5F5F5F5F5F5F5F5F5F5F5F5F5F5F5F5F5F5F5F5F5F5F5F5F5F5F5F5F5F5F5F5F5F5F5F5F5F5F5F5F5F5F5F5F5E2F5F5163EE2F5F5E2F5F5F5F5F5F5F5F5F5F5F5F5F5F5F5F5F5F5F5F5F5F5F5F5F5F5F5F5F5F5
310
F5F5F5F5F5F5F5F5F5F5F5F5F5F5F5F5F5F5F5F5F5F5F5F5F5F5F5F5F5F5F5F5F5F5F5F5F5F5F5F5F5F5F5F5F5F5F5F5F5F5F5F5F5F5F5F5F5F5F5F5F5E2F5F5B143E2F5F5E2F5F5F5F5F5F5F5F5F5F5F5F5F5F5F5F5F5F5F5F5F5F5F5F5F5F5F5F5F5F5F5F5F5F5F5F5F5F5F5F5F5F5F5F5F5F5F5F5F5F5F5F5F5F5F5F5F5
310
F5F5F5F5F5F5F5F5F5F5F5F5F5F5F5F5F5F5F5F5F5F5F5F5F5F5F5F5F5F5F5F5F5F5E2F5F53D3EE2F5F5E2F5F5F5F5F5F5F5F5F5F5F5F5F5F5F5F5F5F5F5F5F5F5F5F5F5F5F5F5F5F5F5F5F5F5F5F5F5F5F5F5F5F5F5F5F5F5F5F5F5F5F5F5F5F5F5F5F5F5F5F5F5F5F5F5F5F5F5F5F5F5F5F5F5F5F5F5F5F5F5F5F5F5F5F5
310
F5F5F5F5F5F5F5E2F5F5B943E2F5F5E2F5F5F5F5F5F5F5F5F5F5F5F5F5F5F5F5F5F5F5F5F5F5F5F5F5F5F5F5F5F5F5F5F5F5F5F5F5F5F5F5F5F5F5F5F5F5F5F5F5F5F5F5F5F5F5F5F5F5F5F5F5F5F5F5F5F5F5F5F5F5F5F5F5F5F5F5F5F5F5F5F5F5F5F5F5F5F5F5F5F5F5E2F5F5753EE2F5F5E2F5F5F5F5F5F5F5F5F5F5F5
310
F5F5F5F5F5F5F5F5F5F5F5F5F5F5F5F5F5F5F5F5F5F5F5F5F5F5F5F5F5F5F5F5F5F5F5F5F5F5F5F5F5F5F5F5F5F5F5F5F5F5F5F5F5F5F5F5F5F5F5F5F5F5F5F5F5F5F5F5F5F5F5F5F5F5F5F5F5F5F5F5E2F5F5BD43E2F5F5E2F5F5F5F5F5F5F5F5F5F5F5F5F5F5F5F5F5F5F5F5F5F5F5F5F5F5F5F5F5F5F5F5F5F5F5F5F5F5
310
F5F5F5F5F5F5F5F5F5F5F5F5F5F5F5F5F5F5F5F5F5F5F5F5F5F5F5F5F5F5F5F5F5F5F5F5F5F5F5F5F5F5F5F5F5F5F5F5F5F5F5F5F5E2F5F5F93CE2F5F5E2F5F5F5F5F5F5F5F5F5F5F5F5F5F5F5F5F5F5F5F5F5F5F5F5F5F5F5F5F5F5F5F5F5F5F5F5F5F5F5F5F5F5F5F5F5F5F5F5F5F5F5F5F5F5F5F5F5F5F5F5F5F5F5F5F5
310
F5F5F5F5F5F5F5F5F5F5F5F5F5F5F5F5F5F5F5F5F5F5F5F5F5F5E2F5F54843E2F5F5E2F5F5F5F5F5F5F5F5F5F5F5F5F5F5F5F5F5F5F5F5F5F5F5F5F5F5F5F5F5F5F5F5F5F5F5F5F5F5F5F5F5F5F5F5F5F5F5F5F5F5F5F5F5F5F5F5F5F5F5F5F5F5F5F5F5F5F5F5F5F5F5F5F5F5F5F5F5F5F5F5F5F5F5F5F5F5F5F5F5F5F5E2
310
F5F5053DE2F5F5F5F5F5F5F5F5F5F5F5F5F5F5F5F5F5F5F5F5F5F5F5F5F5F5F5F5F5F5F5F5F5F5F5F5F5F5F5F5F5F5F5F5F5F5F5F5F5F5F5F5F5F5F5F5F5F5F5F5F5F5F5F5F5F5F5F5F5F5F5F5F5F5F5F5F5F5F5F5F5F5F5F5F5F5F5F5F5F5F5F5F5F5F5F5F56543E2F5F5F5F5F5F5F5F5F5F5F5F5F5F5F5F5F5F5F5F5F5F5
310
F5F5F5F5F5F5F5F5F5F5F5F5F5F5F5F5F5F5F5F5F5F5F5F5F5F5F5F5F5F5F5F5F5F5F5F5F5F5F5F5F5F5F5F5F5F5F5F5F5F5F5F5F5F5F5F5F5F5F5F5F5F5F5F5F5F5F5F5F5F5F5F5F5F5F55B3DE2F5F5F5F5F5F5F5F5F5F5F5F5F5F5F5F5F5F5F5F5F5F5F5F5F5F5F5F5F5F5F5F5F5F5F5F5F5F5F5F5F5F5F5F5F5F5F5F5F5
310
F5F5F5F5F5F5F5F5F5F5F5F5F5F5F5F5F5F5F5F5F5F5F5F5F5F5F5F5F5F5F5F5F5F5F5F5F5F5F5F5F5F5F5F5F5F5F5F56943E2F5F5F5F5F5F5F5F5F5F5F5F5F5F5F5F5F5F5F5F5F5F5F5F5F5F5F5F5F5F5F5F5F5F5F5F5F5F5F5F5F5F5F5F5F5F5F5F5F5F5F5F5F5F5F5F5F5F5F5F5F5F5F5F5F5F5F5F5F5F5F5F5F5F5F5F5
310
F5F5F5F5F5F5F5F5F5F5F5F5F5F5F5F5F5F5F5F5F5703DE2F5F5F5F5F5F5F5F5F5F5F5F5F5F5F5F5F5F5F5F5F5F5F5F5F5F5F5F5F5F5F5F5F5F5F5F5F5F5F5F5F5F5F5F5F5F5F5F5F5F5F5F5F5F5F5F5F5F5F5F5F5F5F5F5F5F5F5F5F5F5F5F5F5F5F5F5F5F5F5F5F5F5F5F5F5F5F5F5F5F5F5F5F5F5F5F5F54F43E2F5F5F5
310
F5F5F5F5F5F5F5F5F5F5F5F5F5F5F5F5F5F5F5F5F5F5F5F5F5F5F5F5F5F5F5F5F5F5F5F5F5F5F5F5F5F5F5F5F5F5F5F5F5F5F5F5F5F5F5F5F5F5F5F5F5F5F5F5F5F5F5F5F5F5F5F5F5F5F5F5F5F5F5F5F5F5F5F5F5F5F5F5F5F5F5F5F5F5A83DE2F5F5F5F5F5F5F5F5F5F5F5F5F5F5F5F5F5F5F5F5F5F5F5F5F5F5F5F5F5F5
310
F5F5F5F5F5F5F5F5F5F5F5F5F5F5F5F5F5F5F5F5F5F5F5F5F5F5F5F5F5F5F5F5F5F5F5F5F5F5F5F5F5F5F5F5F5F5F5F5F5F5F5F5F5F5F5F5F5F5F5F5F5F5F5F5F5F5F55B43E2F5F5F5F5F5F5F5F5F5F5F5F5F5F5F5F5F5F5F5F5F5F5F5F5F5F5F5F5F5F5F5F5F5F5F5F5F5F5F5F5F5F5F5F5F5F5F5F5F5F5F5F5F5F5F5F5F5
310
F5F5F5F5F5F5F5F5F5F5F5F5F5F5F5F5F5F5F5F5F5F5F5F5F5F5F5F5F5F5F5F5F5F5F5F5F5F5F5F5DD3DE2F5F5F5F5F5F5F5F5F5F5F5F5F5F5F5F5F5F5F5F5F5F5F5F5F5F5F5F5F5F5F5F5F5F5F5F5F5F5F5F5F5F5F5F5F5F5F5F5F5F5F5F5F5F5F5F5F5F5F5F5F5F5F5F5F5F5F5F5F5F5F5F5F5F5F5F5F5F5F5F5F5F5F5F5
310
F5F5F5F5F5F5F5F5F5F5F5F5F55B43E2F5F5F5F5F5F5F5F5F5F5F5F5F5F5F5F5F5F5F5F5F5F5F5F5F5F5F5F5F5F5F5F5F5F5F5F5F5F5F5F5F5F5F5F5F5F5F5F5F5F5F5F5F5F5F5F5F5F5F5F5F5F5F5F5F5F5F5F5F5F5F5F5F5F5F5F5F5F5F5F5F5F5F5F5F5F5F5F5F5F5F5F5F5F5F5F5F50F3EE2F5F5E2F5F5F5F5F5F5F5F5
310
F5F5F5F5F5F5F5F5F5F5F5F5F5F5F5F5F5F5F5F5F5F5F5F5F5F5F5F5F5F5F5F5F5F5F5F5F5F5F5F5F5F5F5F5F5F5F5F5F5F5F5F5F5F5F5F5F5F5F5F5F5F5F5F5F5F5F5F5F5F5F5F5F5F5F5F5F5F5F5F5F5F5F5E2F5F56243E2F5F5E2F5F5F5F5F5F5F5F5F5F5F5F5F5F5F5F5F5F5F5F5F5F5F5F5F5F5F5F5F5F5F5F5F5F5F5
310
F5F5F5F5F5F5F5F5F5F5F5F5F5F5F5F5F5F5F5F5F5F5F5F5F5F5F5F5F5F5F5F5F5F5F5F5F5F5F5F5F5F5F5F5F5F5F5F5F5F5F5F5F5F5F5F5E2F5F5323EE2F5F5E2F5F5F5F5F5F5F5F5F5F5F5F5F5F5F5F5F5F5F5F5F5F5F5F5F5F5F5F5F5F5F5F5F5F5F5F5F5F5F5F5F5F5F5F5F5F5F5F5F5F5F5F5F5F5F5F5F5F5F5F5F5F5
310
F5F5F5F5F5F5F5F5F5F5F5F5F5F5F5F5F5F5F5F5F5F5F5F5F5F5F5F5F5E2F5F51F43E2F5F5E2F5F5F5F5F5F5F5F5F5F5F5F5F5F5F5F5F5F5F5F5F5F5F5F5F5F5F5F5F5F5F5F5F5F5F5F5F5F5F5F5F5F5F5F5F5F5F5F5F5F5F5F5F5F5F5F5F5F5F5F5F5F5F5F5F5F5F5F5F5F5F5F5F5F5F5F5F5F5F5F5F5F5F5F5F5F5F5F5F5
310
F5F5E2F5F5F83CE2F5F5E2F5F5F5F5F5F5F5F5F5F5F5F5F5F5F5F5F5F5F5F5F5F5F5F5F5F5F5F5F5F5F5F5F5F5F5F5F5F5F5F5F5F5F5F5F5F5F5F5F5F5F5F5F5F5F5F5F5F5F5F5F5F5F5F5F5F5F5F5F5F5F5F5F5F5F5F5F5F5F5F5F5F5F5F5F5F5F5F5F5F5F5E2F5F50C43E2F5F5E2F5F5F5F5F5F5F5F5F5F5F5F5F5F5F5F5
310
F5F5F5F5F5F5F5F5F5F5F5F5F5F5F5F5F5F5F5F5F5F5F5F5F5F5F5F5F5F5F5F5F5F5F5F5F5F5F5F5F5F5F5F5F5F5F5F5F5F5F5F5F5F5F5F5F5F5F5F5F5F5F5F5F5F5F5F5F5F5F5F5F5F5F5E2F5F5603DE2F5F5E2F5F5F5F5F5F5F5F5F5F5F5F5F5F5F5F5F5F5F5F5F5F5F5F5F5F5F5F5F5F5F5F5F5F5F5F5F5F5F5F5F5F5F5
310
F5F5F5F5F5F5F5F5F5F5F5F5F5F5F5F5F5F5F5F5F5F5F5F5F5F5F5F5F5F5F5F5F5F5F5F5F5F5F5F5F5F5F5F5F5F5F5F5E2F5F50743E2F5F5E2F5F5F5F5F5F5F5F5F5F5F5F5F5F5F5F5F5F5F5F5F5F5F5F5F5F5F5F5F5F5F5F5F5F5F5F5F5F5F5F5F5F5F5F5F5F5F5F5F5F5F5F5F5F5F5F5F5F5F5F5F5F5F5F5F5F5F5F5F5F5
310
F5F5F5F5F5F5F5F5F5F5F5F5F5F5F5F5F5F5F5F5F5E2F5F5893DE2F5F5E2F5F5F5F5F5F5F5F5F5F5F5F5F5F5F5F5F5F5F5F5F5F5F5F5F5F5F5F5F5F5F5F5F5F5F5F5F5F5F5F5F5F5F5F5F5F5F5F5F5F5F5F5F5F5F5F5F5F5F5F5F5F5F5F5F5F5F5F5F5F5F5F5F5F5F5F5F5F5F5F5F5F5F5F5F5F5F5F5F5F5F5E2F5F50243E2
310
F5F5E2F5F5F5F5F5F5F5F5F5F5F5F5F5F5F5F5F5F5F5F5F5F5F5F5F5F5F5F5F5F5F5F5F5F5F5F5F5F5F5F5F5F5F5F5F5F5F5F5F5F5F5F5F5F5F5F5F5F5F5F5F5F5F5F5F5F5F5F5F5F5F5F5F5F5F5F5F5F5F5F5F5F5F5F5F5F5F5F5F5F5F5E2F5F5B23DE2F5F5E2F5F5F5F5F5F5F5F5F5F5F5F5F5F5F5F5F5F5F5F5F5F5F5F5
310
F5F5F5F5F5F5F5F5F5F5F5F5F5F5F5F5F5F5F5F5F5F5F5F5F5F5F5F5F5F5F5F5F5F5F5F5F5F5F5F5F5F5F5F5F5F5F5F5F5F5F5F5F5F5F5F5F5F5F5F5F5F5F5F5F5F5F5E2F5F50E43E2F5F5E2F5F5F5F5F5F5F5F5F5F5F5F5F5F5F5F5F5F5F5F5F5F5F5F5F5F5F5F5F5F5F5F5F5F5F5F5F5F5F5F5F5F5F5F5F5F5F5F5F5F5F5
310
F5F5F5F5F5F5F5F5F5F5F5F5F5F5F5F5F5F5F5F5F5F5F5F5F5F5F5F5F5F5F5F5F5F5F5F5F5F5F5F5E2F5F5DC3DE2F5F5E2F5F5F5F5F5F5F5F5F5F5F5F5F5F5F5F5F5F5F5F5F5F5F5F5F5F5F5F5F5F5F5F5F5F5F5F5F5F5F5F5F5F5F5F5F5F5F5F5F5F5F5F5F5F5F5F5F5F5F5F5F5F5F5F5F5F5F5F5F5F5F5F5F5F5F5F5F5F5
310
F5F5F5F5F5F5F5F5F5F5F5F5F5E2F5F50C43E2F5F5E2F5F5F5F5F5F5F5F5F5F5F5F5F5F5F5F5F5F5F5F5F5F5F5F5F5F5F5F5F5F5F5F5F5F5F5F5F5F5F5F5F5F5F5F5F5F5F5F5F5F5F5F5F5F5F5F5F5F5F5F5F5F5F5F5F5F5F5F5F5F5F5F5F5F5F5F5F5F5F5F5F5F5F5F5F5F5F5F5F5F5F5E2F5F5083EE2F5F5E2F5F5F5F5F5
310
F5F5F5F5F5F5F5F5F5F5F5F5F5F5F5F5F5F5F5F5F5F5F5F5F5F5F5F5F5F5F5F5F5F5F5F5F5F5F5F5F5F5F5F5F5F5F5F5F5F5F5F5F5F5F5F5F5F5F5F5F5F5F5F5F5F5F5F5F5F5F5F5F5F5F5F5F5F5F5F5F5F5F5F5F5F5E2F5F59F42E2F5F5E2F5F5F5F5F5F5F5F5F5F5F5F5F5F5F5F5F5F5F5F5F5F5F5F5F5F5F5F5F5F5F5F5
310
F5F5F5F5F5F5F5F5F5F5F5F5F5F5F5F5F5F5F5F5F5F5F5F5F5F5F5F5F5F5F5F5F5F5F5F5F5F5F5F5F5F5F5F5F5F5F5F5F5F5F5F5F5F5F5F5F5F5F5E2F5F51C3DE2F5F5E2F5F5F5F5F5F5F5F5F5F5F5F5F5F5F5F5F5F5F5F5F5F5F5F5F5F5F5F5F5F5F5F5F5F5F5F5F5F5F5F5F5F5F5F5F5F5F5F5F5F5F5F5F5F5F5F5F5F5F5
310
F5F5F5F5F5F5F5F5F5F5F5F5F5F5F5F5F5F5F5F5F5F5F5F5F5F5F5F5F5F5F5F5E2F5F5C442E2F5F5F5F5F5F5F5F5F5F5F5F5F5F5F5F5F5F5F5F5F5F5F5F5F5F5F5F5F5F5F5F5F5F5F5F5F5F5F5F5F5F5F5F5F5F5F5F5F5F5F5F5F5F5F5F5F5F5F5F5F5F5F5F5F5F5F5F5F5F5F5F5F5F5F5F5F5F5F5F5F5F5F5F5F5F5F5F5F5
310
F5F5F5F5F5F5F5F5573DE2F5F5F5F5F5F5F5F5F5F5F5F5F5F5F5F5F5F5F5F5F5F5F5F5F5F5F5F5F5F5F5F5F5F5F5F5F5F5F5F5F5F5F5F5F5F5F5F5F5F5F5F5F5F5F5F5F5F5F5F5F5F5F5F5F5F5F5F5F5F5F5F5F5F5F5F5F5F5F5F5F5F5F5F5F5F5F5F5F5F5F5F5F5F5F5F5F5A942E2F5F5F5F5F5F5F5F5F5F5F5F5F5F5F5F5
310
F5F5F5F5F5F5F5F5F5F5F5F5F5F5F5F5F5F5F5F5F5F5F5F5F5F5F5F5F5F5F5F5F5F5F5F5F5F5F5F5F5F5F5F5F5F5F5F5F5F5F5F5F5F5F5F5F5F5F5F5F5F5F5F5F5F5F5F5F5F5F5F5F5F5F5F5F5F5F5F5F58D3DE2F5F5F5F5F5F5F5F5F5F5F5F5F5F5F5F5F5F5F5F5F5F5F5F5F5F5F5F5F5F5F5F5F5F5F5F5F5F5F5F5F5F5F5
310
F5F5F5F5F5F5F5F5F5F5F5F5F5F5F5F5F5F5F5F5F5F5F5F5F5F5F5F5F5F5F5F5F5F5F5F5F5F5F5F5F5F5F5F5F5F5F5F5F5F5F5F5F5F5A942E2F5F5F5F5F5F5F5F5F5F5F5F5F5F5F5F5F5F5F5F5F5F5F5F5F5F5F5F5F5F5F5F5F5F5F5F5F5F5F5F5F5F5F5F5F5F5F5F5F5F5F5F5F5F5F5F5F5F5F5F5F5F5F5F5F5F5F5F5F5F5
310
F5F5F5F5F5F5F5F5F5F5F5F5F5F5F5F5F5F5F5F5F5F5F5F5F5F5F5B13DE2F5F5F5F5F5F5F5F5F5F5F5F5F5F5F5F5F5F5F5F5F5F5F5F5F5F5F5F5F5F5F5F5F5F5F5F5F5F5F5F5F5F5F5F5F5F5F5F5F5F5F5F5F5F5F5F5F5F5F5F5F5F5F5F5F5F5F5F5F5F5F5F5F5F5F5F5F5F5F5F5F5F5F5F5F5F5F5F5F5F5F5F5F5F5F5F5F5
310
A742E2F5F5F5F5F5F5F5F5F5F5F5F5F5F5F5F5F5F5F5F5F5F5F5F5F5F5F5F5F5F5F5F5F5F5F5F5F5F5F5F5F5F5F5F5F5F5F5F5F5F5F5F5F5F5F5F5F5F5F5F5F5F5F5F5F5F5F5F5F5F5F5F5F5F5F5F5F5F5F5F5F5F5F5F5F5F5F5F5F5F5F5F5F5F5F5F5F50000E2F5F5F5F5F5F5F5F5F5F5F5F5F5F5F5F5F5F5F5F5F5F5F5F5
310
F5F5F5F5F5F5F5F5F5F5F5F5F5F5F5F5F5F5F5F5F5F5F5F5F5F5F5F5F5F5F5F5F5F5F5F5F5F5F5F5F5F5F5F5F5F5F5F5F5F5F5F5F5F5F5F5F5F5F5F5F5F5F5F5F5F5F5F5F5F5F5F5F50000E2F5F5F5F5F5F5F5F5F5F5F5F5F5F5F5F5F5F5F5F5F5F5F5F5F5F5F5F5F5F5F5F5F5F5F5F5F5F5F5F5F5F5F5F5F5F5F5F5F5F5F5
310
F5F5F5F5F5F5F5F5F5F5F5F5F5F5F5F5F5F5F5F5F5F5F5F5F5F5F5F5F5F5F5F5F5F5F5F5F5F5F5F5F5F5F5F5F5F50000E2F5F5E2F5F5F5F5F5F5F5F5F5F5F5F5F5F5F5F5F5F5F5F5F5F5F5F5F5F5F5F5F5F5F5F5F5F5F5F5F5F5F5F5F5F5F5F5F5F5F5F5F5F5F5F5F5F5F5F5F5F5F5F5F5F5F5F5F5F5F5F5F5F5F5F5F5F5F5
310
F5F5F5F5F5F5F5F5F5F5F5F5F5F5F5F5E2F5F50000E2F5F5E2F5F5F5F5F5F5F5F5F5F5F5F5F5F5F5F5F5F5F5F5F5F5F5F5F5F5F5F5F5F5F5F5F5F5F5F5F5F5F5F5F5F5F5F5F5F5F5F5F5F5F5F5F5F5F5F5F5F5F5F5F5F5F5F5F5F5F5F5F5F5F5F5F5F5F5F5F5F5F5F5F5F5F5F5F5F5F5F5F5F5F5E2F5F50000E2F5F5E2F5F5
310
F5F5F5F5F5F5F5F5F5F5F5F5F5F5F5F5F5F5F5F5F5F5F5F5F5F5F5F5F5F5F5F5F5F5F5F5F5F5F5F5F5F5F5F5F5F5F5F5F5F5F5F5F5F5F5F5F5F5F5F5F5F5F5F5F5F5F5F5F5F5F5F5F5F5F5F5F5F5F5F5F5F5F5F5F5F5F5F5F5E2F5F50000E2F5F5E2F5F5F5F5F5F5F5F5F5F5F5F5F5F5F5F5F5F5F5F5F5F5F5F5F5F5F5F5F5
310
F5F5F5F5F5F5F5F5F5F5F5F5F5F5F5F5F5F5F5F5F5F5F5F5F5F5F5F5F5F5F5F5F5F5F5F5F5F5F5F5F5F5F5F5F5F5F5F5F5F5F5F5F5F5F5F5F5F5F5F5F5F5E2F5F50000E2F5F5E2F5F5F5F5F5F5F5F5F5F5F5F5F5F5F5F5F5F5F5F5F5F5F5F5F5F5F5F5F5F5F5F5F5F5F5F5F5F5F5F5F5F5F5F5F5F5F5F5F5F5F5F5F5F5F5F5
310
F5F5F5F5F5F5F5F5F5F5F5F5F5F5F5F5F5F5F5F5F5F5F5F5F5F5F5F5F5F5F5F5F5F5F5E2F5F50000E2F5F5E2F5F5F5F5F5F5F5F5F5F5F5F5F5F5F5F5F5F5F5F5F5F5F5F5F5F5F5F5F5F5F5F5F5F5F5F5F5F5F5F5F5F5F5F5F5F5F5F5F5F5F5F5F5F5F5F5F5F5F5F5F5F5F5F5F5F5F5F5F5F5F5F5F5F5F5F5F5F5F5F5F5F5F5
310
F5F5F5F5F5F5F5F5E2F5F50000E2F5F5E2F5F5F5F5F5F5F5F5F5F5F5F5F5F5F5F5F5F5F5F5F5F5F5F5F5F5F5F5F5F5F5F5F5F5F5F5F5F5F5F5F5F5F5F5F5F5F5F5F5F5F5F5F5F5F5F5F5F5F5F5F5F5F5F5F5F5F5F5F5F5F5F5F5F5F5F5F5F5F5F5F5F5F5F5F5F5F5F5F5F5F5E2F5F52801E2F5F5E2F5F5F5F5F5F5F5F5F5F5
310
F5F5F5F5F5F5F5F5F5F5F5F5F5F5F5F5F5F5F5F5F5F5F5F5F5F5F5F5F5F5F5F5F5F5F5F5F5F5F5F5F5F5F5F5F5F5F5F5F5F5F5F5F5F5F5F5F5F5F5F5F5F5F5F5F5F5F5F5F5F5F5F5F5F5F5F5F5F5F5F5F5E2F5F57FF5E2F5F5E2E2E2E2E2E2E2E2F5F5F5F5F5F5F5F5E2E2E2E2E2E2E2E2E2E2E2E2E2E2E2F5F5F5F5F5F5F5
310
F5E2E2E2E2E2E2E2E2E2E2E2E2E2E2E2F5F5F5F5F5F5F5F5E2E2E2E2E2E2E2E2E2E2E2E2E2E2E2F5F5F5F5F5F5F5F5E2E2E2E2E2E2E2E2F5F5F5F5E2F5F5F5F5F5F5F5F5F5F5F5F5F5F5F5F5F5F5F5F5F5F5F5F5F5F5F5F5F5F5F5F5F5F5F5F5F5F5F5F5F5F5F5F5F5F5F5F5F5F5F5F5F5F5F5F5F5F5F5F5F5F5F5F5F5F5F5
310
F5F5F5F5F5F5F5F5F5F5F5F5F5F5F5F5F5F5F5F5F5F5F5F5F5F5F5F5F5F5F5F5E2F5F5F5F5F5F5F5F5F5F5F5F5F5F5F5F5F5F5F5F5F5F5F5F5F5F5F5F5F5F5F5F5F5F5F5F5F5F5F5F5F5F5F5F5F5F5F5F5F5F5F5F5F5F5F5F5F5F5F5F5F5F5F5F5F5F5F5F5F5F5F5F5F5F5F5F5F5F5F5F5F5F5F5F5F5F5F5F5F5F5F5F5F5F5
310
F5F5F5F5F5E2E2E2E2E2E2E2E2E2E2E2E2E2E2E2E2E2E2E2E2E2E2E2E2E2E2E2E2E2E2E2E2E2E2E2E2E2E2E2E2E2E2E2E2E2E2E2E2E2E2E2E2E2E2E2E2E2E2E2E2E2E2E2E2E2E2E2E2E2E2E2E2E2E2E2E2E2E2E2E2E2E2E2E2E2E2E2E2E2E2E2E2E2E2E2E2E2E2BEBEEFEFEFEFEFEFEFEFEFEFEFEFEFEFEFEFEFEFEFEFEFEF
310
EFEFEFEFEFEFEFEFEFEFEFEFEFEFEFEFEFEFEFEFEFEFEFEFEFEFEFEFEFEFEFEFEFEFEFEFEFEFEFEFEFEFEFEFEFEFEFEFEFEFEFEFEFEFEFEFEFEFEFEFEFEFEFEFEFEFEFEFEFEFEFEFEFEFEFEFF5F5
  0
XRECORD
  5
3CDAC
102
{ACAD_REACTORS
330
3CDAB
102
}
330
3CDAB
100
AcDbXrecord
280
     1
102
SHADEPLOT
 70
     0
102
SHADEPLOTRESLEVEL
 70
     2
102
SHADEPLOTCUSTOMDPI
 70
   300
  0
XRECORD
  5
3BDF0
102
{ACAD_REACTORS
330
3BDEF
102
}
330
3BDEF
100
AcDbXrecord
280
     1
102
MATERIAL
148
0.0
149
0.0
149
0.0
 93
        0
 94
       63
282
     0
 72
     1
 77
     1
171
     1
175
     1
179
     1
273
     0
  0
XRECORD
  5
3BDEE
102
{ACAD_REACTORS
330
3BDED
102
}
330
3BDED
100
AcDbXrecord
280
     1
102
MATERIAL
148
0.0
149
0.0
149
0.0
 93
        0
 94
       63
282
     0
 72
     1
 77
     1
171
     1
175
     1
179
     1
273
     0
  0
XRECORD
  5
3BDF2
102
{ACAD_REACTORS
330
3BDF1
102
}
330
3BDF1
100
AcDbXrecord
280
     1
102
MATERIAL
148
0.0
149
0.0
149
0.0
 93
        0
 94
       63
282
     0
 72
     1
 77
     1
171
     1
175
     1
179
     1
273
     0
  0
XRECORD
  5
3CDAF
102
{ACAD_REACTORS
330
3CDAE
102
}
330
3CDAE
100
AcDbXrecord
280
     1
102
ACAD_ROUNDTRIP_PRE2007_TABLESTYLE
 90
      512
 91
        0
  1

 92
      512
 93
        0
  2

 94
      512
 95
        0
  3

  0
ENDSEC
  0
EOF
