  0
SECTION
  2
HEADER
  9
$ACADVER
  1
AC1015
  9
$ACADMAINTVER
 70
    20
  9
$DWGCODEPAGE
  3
ANSI_1252
  9
$INSBASE
 10
0.0
 20
0.0
 30
0.0
  9
$EXTMIN
 10
-2070.600000006998
 20
-1763.600000007
 30
-0.0000000000000602
  9
$EXTMAX
 10
2625.499086667049
 20
553.9629492713138
 30
0.0000000000002365
  9
$LIMMIN
 10
0.0
 20
0.0
  9
$LIMMAX
 10
12.0
 20
9.0
  9
$ORTHOMODE
 70
     1
  9
$REGENMODE
 70
     1
  9
$FILLMODE
 70
     1
  9
$QTEXTMODE
 70
     0
  9
$MIRRTEXT
 70
     1
  9
$LTSCALE
 40
1.0
  9
$ATTMODE
 70
     1
  9
$TEXTSIZE
 40
0.2
  9
$TRACEWID
 40
0.05
  9
$TEXTSTYLE
  7
STANDARD
  9
$CLAYER
  8
0
  9
$CELTYPE
  6
BYLAYER
  9
$CECOLOR
 62
   256
  9
$CELTSCALE
 40
1.0
  9
$DISPSILH
 70
     0
  9
$DIMSCALE
 40
1.0
  9
$DIMASZ
 40
0.18
  9
$DIMEXO
 40
0.0625
  9
$DIMDLI
 40
0.38
  9
$DIMRND
 40
0.0
  9
$DIMDLE
 40
0.0
  9
$DIMEXE
 40
0.18
  9
$DIMTP
 40
0.0
  9
$DIMTM
 40
0.0
  9
$DIMTXT
 40
0.18
  9
$DIMCEN
 40
0.09
  9
$DIMTSZ
 40
0.0
  9
$DIMTOL
 70
     0
  9
$DIMLIM
 70
     0
  9
$DIMTIH
 70
     1
  9
$DIMTOH
 70
     1
  9
$DIMSE1
 70
     0
  9
$DIMSE2
 70
     0
  9
$DIMTAD
 70
     0
  9
$DIMZIN
 70
     0
  9
$DIMBLK
  1

  9
$DIMASO
 70
     1
  9
$DIMSHO
 70
     1
  9
$DIMPOST
  1

  9
$DIMAPOST
  1

  9
$DIMALT
 70
     0
  9
$DIMALTD
 70
     2
  9
$DIMALTF
 40
25.4
  9
$DIMLFAC
 40
1.0
  9
$DIMTOFL
 70
     0
  9
$DIMTVP
 40
0.0
  9
$DIMTIX
 70
     0
  9
$DIMSOXD
 70
     0
  9
$DIMSAH
 70
     0
  9
$DIMBLK1
  1

  9
$DIMBLK2
  1

  9
$DIMSTYLE
  2
STANDARD
  9
$DIMCLRD
 70
     0
  9
$DIMCLRE
 70
     0
  9
$DIMCLRT
 70
     0
  9
$DIMTFAC
 40
1.0
  9
$DIMGAP
 40
0.09
  9
$DIMJUST
 70
     0
  9
$DIMSD1
 70
     0
  9
$DIMSD2
 70
     0
  9
$DIMTOLJ
 70
     1
  9
$DIMTZIN
 70
     0
  9
$DIMALTZ
 70
     0
  9
$DIMALTTZ
 70
     0
  9
$DIMUPT
 70
     0
  9
$DIMDEC
 70
     4
  9
$DIMTDEC
 70
     4
  9
$DIMALTU
 70
     2
  9
$DIMALTTD
 70
     2
  9
$DIMTXSTY
  7
STANDARD
  9
$DIMAUNIT
 70
     0
  9
$DIMADEC
 70
     0
  9
$DIMALTRND
 40
0.0
  9
$DIMAZIN
 70
     0
  9
$DIMDSEP
 70
    46
  9
$DIMATFIT
 70
     3
  9
$DIMFRAC
 70
     0
  9
$DIMLDRBLK
  1

  9
$DIMLUNIT
 70
     2
  9
$DIMLWD
 70
    -2
  9
$DIMLWE
 70
    -2
  9
$DIMTMOVE
 70
     0
  9
$LUNITS
 70
     2
  9
$LUPREC
 70
     4
  9
$SKETCHINC
 40
0.1
  9
$FILLETRAD
 40
0.5
  9
$AUNITS
 70
     0
  9
$AUPREC
 70
     0
  9
$MENU
  1
.
  9
$ELEVATION
 40
0.0
  9
$PELEVATION
 40
0.0
  9
$THICKNESS
 40
0.0
  9
$LIMCHECK
 70
     0
  9
$CHAMFERA
 40
0.5
  9
$CHAMFERB
 40
0.5
  9
$CHAMFERC
 40
1.0
  9
$CHAMFERD
 40
0.0
  9
$SKPOLY
 70
     0
  9
$TDCREATE
 40
2451762.447447570
  9
$TDUCREATE
 40
2451762.364114236
  9
$TDUPDATE
 40
2456770.549835521
  9
$TDUUPDATE
 40
2456770.466502188
  9
$TDINDWG
 40
0.0157022106
  9
$TDUSRTIMER
 40
0.0157019444
  9
$USRTIMER
 70
     1
  9
$ANGBASE
 50
0.0
  9
$ANGDIR
 70
     0
  9
$PDMODE
 70
     0
  9
$PDSIZE
 40
0.0
  9
$PLINEWID
 40
0.0
  9
$SPLFRAME
 70
     0
  9
$SPLINETYPE
 70
     6
  9
$SPLINESEGS
 70
     8
  9
$HANDSEED
  5
76F
  9
$SURFTAB1
 70
     6
  9
$SURFTAB2
 70
     6
  9
$SURFTYPE
 70
     6
  9
$SURFU
 70
     6
  9
$SURFV
 70
     6
  9
$UCSBASE
  2

  9
$UCSNAME
  2

  9
$UCSORG
 10
0.0
 20
0.0
 30
0.0
  9
$UCSXDIR
 10
1.0
 20
0.0
 30
0.0
  9
$UCSYDIR
 10
0.0
 20
1.0
 30
0.0
  9
$UCSORTHOREF
  2

  9
$UCSORTHOVIEW
 70
     0
  9
$UCSORGTOP
 10
0.0
 20
0.0
 30
0.0
  9
$UCSORGBOTTOM
 10
0.0
 20
0.0
 30
0.0
  9
$UCSORGLEFT
 10
0.0
 20
0.0
 30
0.0
  9
$UCSORGRIGHT
 10
0.0
 20
0.0
 30
0.0
  9
$UCSORGFRONT
 10
0.0
 20
0.0
 30
0.0
  9
$UCSORGBACK
 10
0.0
 20
0.0
 30
0.0
  9
$PUCSBASE
  2

  9
$PUCSNAME
  2

  9
$PUCSORG
 10
0.0
 20
0.0
 30
0.0
  9
$PUCSXDIR
 10
1.0
 20
0.0
 30
0.0
  9
$PUCSYDIR
 10
0.0
 20
1.0
 30
0.0
  9
$PUCSORTHOREF
  2

  9
$PUCSORTHOVIEW
 70
     0
  9
$PUCSORGTOP
 10
0.0
 20
0.0
 30
0.0
  9
$PUCSORGBOTTOM
 10
0.0
 20
0.0
 30
0.0
  9
$PUCSORGLEFT
 10
0.0
 20
0.0
 30
0.0
  9
$PUCSORGRIGHT
 10
0.0
 20
0.0
 30
0.0
  9
$PUCSORGFRONT
 10
0.0
 20
0.0
 30
0.0
  9
$PUCSORGBACK
 10
0.0
 20
0.0
 30
0.0
  9
$USERI1
 70
     0
  9
$USERI2
 70
     0
  9
$USERI3
 70
     0
  9
$USERI4
 70
     0
  9
$USERI5
 70
     0
  9
$USERR1
 40
0.0
  9
$USERR2
 40
0.0
  9
$USERR3
 40
0.0
  9
$USERR4
 40
0.0
  9
$USERR5
 40
0.0
  9
$WORLDVIEW
 70
     1
  9
$SHADEDGE
 70
     3
  9
$SHADEDIF
 70
    70
  9
$TILEMODE
 70
     1
  9
$MAXACTVP
 70
    64
  9
$PINSBASE
 10
0.0
 20
0.0
 30
0.0
  9
$PLIMCHECK
 70
     0
  9
$PEXTMIN
 10
1.000000000000000E+20
 20
1.000000000000000E+20
 30
1.000000000000000E+20
  9
$PEXTMAX
 10
-1.000000000000000E+20
 20
-1.000000000000000E+20
 30
-1.000000000000000E+20
  9
$PLIMMIN
 10
0.0
 20
0.0
  9
$PLIMMAX
 10
12.0
 20
9.0
  9
$UNITMODE
 70
     0
  9
$VISRETAIN
 70
     1
  9
$PLINEGEN
 70
     0
  9
$PSLTSCALE
 70
     1
  9
$TREEDEPTH
 70
  3020
  9
$CMLSTYLE
  2
STANDARD
  9
$CMLJUST
 70
     0
  9
$CMLSCALE
 40
1.0
  9
$PROXYGRAPHICS
 70
     1
  9
$MEASUREMENT
 70
     0
  9
$CELWEIGHT
370
    -1
  9
$ENDCAPS
280
     0
  9
$JOINSTYLE
280
     0
  9
$LWDISPLAY
290
     0
  9
$INSUNITS
 70
     0
  9
$HYPERLINKBASE
  1

  9
$STYLESHEET
  1

  9
$XEDIT
290
     1
  9
$CEPSNTYPE
380
     0
  9
$PSTYLEMODE
290
     1
  9
$FINGERPRINTGUID
  2
{D172B89C-4C61-4B3F-A19E-6E07E26F8A90}
  9
$VERSIONGUID
  2
{F4DC1EE9-7C75-463F-800C-E16DCCD7BA41}
  9
$EXTNAMES
290
     1
  9
$PSVPSCALE
 40
0.0
  9
$OLESTARTUP
290
     0
  0
ENDSEC
  0
SECTION
  2
CLASSES
  0
CLASS
  1
ACDBDICTIONARYWDFLT
  2
AcDbDictionaryWithDefault
  3
ObjectDBX Classes
 90
        0
280
     0
281
     0
  0
CLASS
  1
MATERIAL
  2
AcDbMaterial
  3
ObjectDBX Classes
 90
     1153
280
     0
281
     0
  0
CLASS
  1
VISUALSTYLE
  2
AcDbVisualStyle
  3
ObjectDBX Classes
 90
     4095
280
     0
281
     0
  0
CLASS
  1
TABLESTYLE
  2
AcDbTableStyle
  3
ObjectDBX Classes
 90
     4095
280
     0
281
     0
  0
CLASS
  1
SCALE
  2
AcDbScale
  3
ObjectDBX Classes
 90
     1153
280
     0
281
     0
  0
CLASS
  1
MLEADERSTYLE
  2
AcDbMLeaderStyle
  3
ACDB_MLEADERSTYLE_CLASS
 90
     4095
280
     0
281
     0
  0
CLASS
  1
ACDBSECTIONVIEWSTYLE
  2
AcDbSectionViewStyle
  3
ObjectDBX Classes
 90
     1025
280
     0
281
     0
  0
CLASS
  1
ACDBDETAILVIEWSTYLE
  2
AcDbDetailViewStyle
  3
ObjectDBX Classes
 90
     1025
280
     0
281
     0
  0
CLASS
  1
DICTIONARYVAR
  2
AcDbDictionaryVar
  3
ObjectDBX Classes
 90
        0
280
     0
281
     0
  0
CLASS
  1
CELLSTYLEMAP
  2
AcDbCellStyleMap
  3
ObjectDBX Classes
 90
     1152
280
     0
281
     0
  0
CLASS
  1
SORTENTSTABLE
  2
AcDbSortentsTable
  3
ObjectDBX Classes
 90
        0
280
     0
281
     0
  0
CLASS
  1
ACDBPLACEHOLDER
  2
AcDbPlaceHolder
  3
ObjectDBX Classes
 90
        0
280
     0
281
     0
  0
CLASS
  1
LAYOUT
  2
AcDbLayout
  3
ObjectDBX Classes
 90
        0
280
     0
281
     0
  0
ENDSEC
  0
SECTION
  2
TABLES
  0
TABLE
  2
VPORT
  5
8
330
0
100
AcDbSymbolTable
 70
     1
  0
VPORT
  5
432
330
8
100
AcDbSymbolTableRecord
100
AcDbViewportTableRecord
  2
*ACTIVE
 70
     0
 10
0.0
 20
0.0
 11
1.0
 21
1.0
 12
1737.421166177449
 22
436.5590723263676
 13
0.0
 23
0.0
 14
0.5
 24
0.5
 15
0.5
 25
0.5
 16
0.0
 26
0.0
 36
1.0
 17
0.0
 27
0.0
 37
0.0
 40
872.1375555975992
 41
1.663500678426051
 42
50.0
 43
0.0
 44
0.0
 50
0.0
 51
0.0
 71
     0
 72
   100
 73
     1
 74
     3
 75
     0
 76
     0
 77
     0
 78
     0
281
     0
 65
     1
110
0.0
120
0.0
130
0.0
111
1.0
121
0.0
131
0.0
112
0.0
122
1.0
132
0.0
 79
     0
146
0.0
1001
ACAD_NAV_VCDISPLAY
1070
     3
  0
ENDTAB
  0
TABLE
  2
LTYPE
  5
5
330
0
100
AcDbSymbolTable
 70
     3
  0
LTYPE
  5
14
330
5
100
AcDbSymbolTableRecord
100
AcDbLinetypeTableRecord
  2
BYBLOCK
 70
     0
  3

 72
    65
 73
     0
 40
0.0
  0
LTYPE
  5
15
330
5
100
AcDbSymbolTableRecord
100
AcDbLinetypeTableRecord
  2
BYLAYER
 70
     0
  3

 72
    65
 73
     0
 40
0.0
  0
LTYPE
  5
16
330
5
100
AcDbSymbolTableRecord
100
AcDbLinetypeTableRecord
  2
CONTINUOUS
 70
     0
  3
Solid line
 72
    65
 73
     0
 40
0.0
  0
LTYPE
  5
3ED
330
5
100
AcDbSymbolTableRecord
100
AcDbLinetypeTableRecord
  2
ACAD_ISO02W100
 70
     0
  3
ISO Strichlinie __ __ __ __ __ __ __ __ __ __ _
 72
    65
 73
     2
 40
15.0
 49
12.0
 74
     0
 49
-3.0
 74
     0
  0
LTYPE
  5
4A1
330
5
100
AcDbSymbolTableRecord
100
AcDbLinetypeTableRecord
  2
PHANTOM2
 70
     0
  3
___ _ _ ___ _ _ ___ _ _ ___ _ _
 72
    65
 73
     6
 40
1.25
 49
0.625
 74
     0
 49
-0.125
 74
     0
 49
0.125
 74
     0
 49
-0.125
 74
     0
 49
0.125
 74
     0
 49
-0.125
 74
     0
  0
ENDTAB
  0
TABLE
  2
LAYER
  5
2
102
{ACAD_XDICTIONARY
360
555
102
}
330
0
100
AcDbSymbolTable
 70
     5
  0
LAYER
  5
10
102
{ACAD_XDICTIONARY
360
4AD
102
}
330
2
100
AcDbSymbolTableRecord
100
AcDbLayerTableRecord
  2
0
 70
     0
 62
     7
  6
CONTINUOUS
370
    -3
390
218
  0
LAYER
  5
81
102
{ACAD_XDICTIONARY
360
4AF
102
}
330
2
100
AcDbSymbolTableRecord
100
AcDbLayerTableRecord
  2
PV-C5
 70
     2
 62
     7
  6
CONTINUOUS
370
    -3
390
218
  0
LAYER
  5
3EE
102
{ACAD_XDICTIONARY
360
4B1
102
}
330
2
100
AcDbSymbolTableRecord
100
AcDbLayerTableRecord
  2
MITTELLINIE
 70
     0
 62
     4
  6
ACAD_ISO02W100
370
    -3
390
218
  0
LAYER
  5
416
330
2
100
AcDbSymbolTableRecord
100
AcDbLayerTableRecord
  2
DEFPOINTS
 70
     0
 62
     7
  6
CONTINUOUS
290
     0
370
    -3
390
218
  0
LAYER
  5
4AA
102
{ACAD_XDICTIONARY
360
4B3
102
}
330
2
100
AcDbSymbolTableRecord
100
AcDbLayerTableRecord
  2
Hewi
 70
     0
 62
     7
  6
CONTINUOUS
370
    -3
390
218
1001
AcAecLayerStandard
1000

1000

1001
AcCmTransparency
1071
        0
  0
ENDTAB
  0
TABLE
  2
STYLE
  5
3
330
0
100
AcDbSymbolTable
 70
     2
  0
STYLE
  5
11
330
3
100
AcDbSymbolTableRecord
100
AcDbTextStyleTableRecord
  2
STANDARD
 70
     0
 40
0.0
 41
1.0
 50
0.0
 71
     0
 42
0.2
  3
txt
  4

  0
STYLE
  5
59B
330
3
100
AcDbSymbolTableRecord
100
AcDbTextStyleTableRecord
  2
ROMANS
 70
     0
 40
0.0
 41
0.8
 50
0.0
 71
     0
 42
30.0
  3
romans.shx
  4

  0
ENDTAB
  0
TABLE
  2
VIEW
  5
6
330
0
100
AcDbSymbolTable
 70
     0
  0
ENDTAB
  0
TABLE
  2
UCS
  5
7
330
0
100
AcDbSymbolTable
 70
     0
  0
ENDTAB
  0
TABLE
  2
APPID
  5
9
330
0
100
AcDbSymbolTable
 70
     6
  0
APPID
  5
12
330
9
100
AcDbSymbolTableRecord
100
AcDbRegAppTableRecord
  2
ACAD
 70
     0
  0
APPID
  5
4AB
330
9
100
AcDbSymbolTableRecord
100
AcDbRegAppTableRecord
  2
AcAecLayerStandard
 70
     0
  0
APPID
  5
4AC
330
9
100
AcDbSymbolTableRecord
100
AcDbRegAppTableRecord
  2
AcCmTransparency
 70
     0
  0
APPID
  5
4BC
330
9
100
AcDbSymbolTableRecord
100
AcDbRegAppTableRecord
  2
ACAD_NAV_VCDISPLAY
 70
     0
  0
APPID
  5
4F4
330
9
100
AcDbSymbolTableRecord
100
AcDbRegAppTableRecord
  2
ACAD_MLEADERVER
 70
     0
  0
APPID
  5
53D
330
9
100
AcDbSymbolTableRecord
100
AcDbRegAppTableRecord
  2
ACAD_EXEMPT_FROM_CAD_STANDARDS
 70
     0
  0
ENDTAB
  0
TABLE
  2
DIMSTYLE
  5
A
330
0
100
AcDbSymbolTable
 70
     1
100
AcDbDimStyleTable
 71
     1
340
27
  0
DIMSTYLE
105
27
330
A
100
AcDbSymbolTableRecord
100
AcDbDimStyleTableRecord
  2
STANDARD
 70
     0
340
11
  0
ENDTAB
  0
TABLE
  2
BLOCK_RECORD
  5
1
330
0
100
AcDbSymbolTable
 70
    14
  0
BLOCK_RECORD
  5
1F
102
{ACAD_XDICTIONARY
360
211
102
}
330
1
100
AcDbSymbolTableRecord
100
AcDbBlockTableRecord
  2
*MODEL_SPACE
340
4A5
  0
BLOCK_RECORD
  5
1B
102
{ACAD_XDICTIONARY
360
20F
102
}
330
1
100
AcDbSymbolTableRecord
100
AcDbBlockTableRecord
  2
*PAPER_SPACE
340
4A6
  0
BLOCK_RECORD
  5
48
330
1
100
AcDbSymbolTableRecord
100
AcDbBlockTableRecord
  2
*U0
340
0
102
{BLKREFS
331
84
102
}
  0
BLOCK_RECORD
  5
83
330
1
100
AcDbSymbolTableRecord
100
AcDbBlockTableRecord
  2
FRONT
340
0
  0
BLOCK_RECORD
  5
88
330
1
100
AcDbSymbolTableRecord
100
AcDbBlockTableRecord
  2
*U2
340
0
102
{BLKREFS
331
122
102
}
  0
BLOCK_RECORD
  5
121
330
1
100
AcDbSymbolTableRecord
100
AcDbBlockTableRecord
  2
LEFT
340
0
  0
BLOCK_RECORD
  5
126
330
1
100
AcDbSymbolTableRecord
100
AcDbBlockTableRecord
  2
*U4
340
0
102
{BLKREFS
331
19B
102
}
  0
BLOCK_RECORD
  5
19A
330
1
100
AcDbSymbolTableRecord
100
AcDbBlockTableRecord
  2
RIGHT
340
0
  0
BLOCK_RECORD
  5
19F
330
1
100
AcDbSymbolTableRecord
100
AcDbBlockTableRecord
  2
*U6
340
0
102
{BLKREFS
331
20A
102
}
  0
BLOCK_RECORD
  5
209
330
1
100
AcDbSymbolTableRecord
100
AcDbBlockTableRecord
  2
TOP
340
0
  0
BLOCK_RECORD
  5
417
330
1
100
AcDbSymbolTableRecord
100
AcDbBlockTableRecord
  2
*D8
340
0
  0
BLOCK_RECORD
  5
425
330
1
100
AcDbSymbolTableRecord
100
AcDbBlockTableRecord
  2
*D9
340
0
  0
BLOCK_RECORD
  5
540
330
1
100
AcDbSymbolTableRecord
100
AcDbBlockTableRecord
  2
*D10
340
0
  0
BLOCK_RECORD
  5
704
330
1
100
AcDbSymbolTableRecord
100
AcDbBlockTableRecord
  2
*D12
340
0
  0
BLOCK_RECORD
  5
729
330
1
100
AcDbSymbolTableRecord
100
AcDbBlockTableRecord
  2
*D13
340
0
  0
ENDTAB
  0
ENDSEC
  0
SECTION
  2
BLOCKS
  0
BLOCK
  5
20
330
1F
100
AcDbEntity
  8
0
100
AcDbBlockBegin
  2
*MODEL_SPACE
 70
     0
 10
0.0
 20
0.0
 30
0.0
  3
*MODEL_SPACE
  1

  0
ENDBLK
  5
21
330
1F
100
AcDbEntity
  8
0
100
AcDbBlockEnd
  0
BLOCK
  5
1C
330
1B
100
AcDbEntity
 67
     1
  8
0
100
AcDbBlockBegin
  2
*PAPER_SPACE
 70
     0
 10
0.0
 20
0.0
 30
0.0
  3
*PAPER_SPACE
  1

  0
ENDBLK
  5
1D
330
1B
100
AcDbEntity
 67
     1
  8
0
100
AcDbBlockEnd
  0
BLOCK
  5
7E
330
48
100
AcDbEntity
  8
0
100
AcDbBlockBegin
  2
*U0
 70
     1
 10
0.0
 20
0.0
 30
0.0
  3
*U0
  1
*ANON
  0
LINE
  5
49
330
48
100
AcDbEntity
  8
PV-C5
100
AcDbLine
 10
39.55000000000001
 20
0.0
 30
47.85260745431297
 11
27.44999999999999
 21
0.0
 31
47.85260745431297
  0
LINE
  5
4A
330
48
100
AcDbEntity
  8
PV-C5
100
AcDbLine
 10
-1.5
 20
0.0
 30
550.0
 11
68.5
 21
0.0
 31
550.0
  0
LINE
  5
4B
330
48
100
AcDbEntity
  8
PV-C5
100
AcDbLine
 10
0.5
 20
0.0
 30
538.0
 11
66.5
 21
0.0
 31
538.0
  0
LINE
  5
4C
330
48
100
AcDbEntity
  8
PV-C5
100
AcDbLine
 10
113.5
 20
0.0
 30
0.0
 11
113.5
 21
0.0
 31
-16.49999999999993
  0
LINE
  5
4D
330
48
100
AcDbEntity
  8
PV-C5
100
AcDbLine
 10
113.5
 20
0.0
 30
16.49999999999993
 11
113.5
 21
0.0
 31
-0.0000000000002304
  0
CIRCLE
  5
4E
330
48
100
AcDbEntity
  8
PV-C5
100
AcDbCircle
 10
0.0
 20
0.0
 30
0.0
 40
16.5
210
0.0
220
-1.0
230
0.0
  0
ARC
  5
4F
330
48
100
AcDbEntity
  8
PV-C5
100
AcDbCircle
 10
0.0
 20
0.0
 30
0.0
 40
16.5
210
0.0
220
-1.0
230
0.0
100
AcDbArc
 50
90.00000000000005
 51
270.0000000000012
  0
LINE
  5
50
330
48
100
AcDbEntity
  8
PV-C5
100
AcDbLine
 10
113.5
 20
0.0
 30
16.5
 11
113.5
 21
0.0
 31
-16.5
  0
LINE
  5
51
330
48
100
AcDbEntity
  8
PV-C5
100
AcDbLine
 10
4.7
 20
0.0
 30
-48.0
 11
4.7
 21
0.0
 31
-29.2068277077089
  0
ARC
  5
52
330
48
100
AcDbEntity
  8
PV-C5
100
AcDbCircle
 10
-1.299999999999998
 20
-48.0
 30
0.0
 40
6.0
210
0.0
220
-1.0
230
0.0
100
AcDbArc
 50
180.0
 51
0.0000000000003997
  0
LINE
  5
53
330
48
100
AcDbEntity
  8
PV-C5
100
AcDbLine
 10
-7.299999999999998
 20
0.0
 30
-48.0
 11
-7.299999999999998
 21
0.0
 31
-40.0
  0
ARC
  5
54
330
48
100
AcDbEntity
  8
PV-C5
100
AcDbCircle
 10
-6.299999999999998
 20
-40.0
 30
0.0
 40
1.0
210
0.0
220
-1.0
230
0.0
100
AcDbArc
 50
89.99999999999982
 51
180.0
  0
LINE
  5
55
330
48
100
AcDbEntity
  8
PV-C5
100
AcDbLine
 10
-6.299999999999998
 20
0.0
 30
-39.0
 11
-5.7280956304157
 21
0.0
 31
-39.0
  0
ARC
  5
56
330
48
100
AcDbEntity
  8
PV-C5
100
AcDbCircle
 10
-8.2698893126973
 20
-43.30572698585423
 30
0.0
 40
4.999999999999999
210
0.0
220
-1.0
230
0.0
100
AcDbArc
 50
324.1818597325738
 51
59.44543228519068
  0
ARC
  5
57
330
48
100
AcDbEntity
  8
PV-C5
100
AcDbCircle
 10
-1.788004252157838
 20
-47.99454750197898
 30
0.0
 40
3.0
210
0.0
220
-1.0
230
0.0
100
AcDbArc
 50
144.0143379942916
 51
28.97259099486252
  0
ARC
  5
58
330
48
100
AcDbEntity
  8
PV-C5
100
AcDbCircle
 10
5.2
 20
-44.1
 30
0.0
 40
5.0
210
0.0
220
-1.0
230
0.0
100
AcDbArc
 50
180.0
 51
209.2272521580106
  0
LINE
  5
59
330
48
100
AcDbEntity
  8
PV-C5
100
AcDbLine
 10
0.2000000000000002
 20
0.0
 30
-44.1
 11
0.2
 21
0.0
 31
-29.58189961357776
  0
ARC
  5
5A
330
48
100
AcDbEntity
  8
PV-C5
100
AcDbCircle
 10
0.0
 20
0.0
 30
0.0
 40
29.58257569495584
210
0.0
220
-1.0
230
0.0
100
AcDbArc
 50
270.387364620227
 51
279.1417371986804
  0
ARC
  5
5B
330
48
100
AcDbEntity
  8
PV-C5
100
AcDbCircle
 10
0.0
 20
0.0
 30
0.0
 40
35.0
210
0.0
220
-1.0
230
0.0
100
AcDbArc
 50
38.34533625290029
 51
180.0
  0
ARC
  5
5C
330
48
100
AcDbEntity
  8
PV-C5
100
AcDbCircle
 10
0.0
 20
0.0
 30
0.0
 40
35.0
210
0.0
220
-1.0
230
0.0
100
AcDbArc
 50
277.7173182460554
 51
331.8729317813944
  0
ARC
  5
5D
330
48
100
AcDbEntity
  8
PV-C5
100
AcDbCircle
 10
0.0
 20
0.0
 30
0.0
 40
35.0
210
0.0
220
-1.0
230
0.0
100
AcDbArc
 50
179.9999999999992
 51
270.3274062361787
  0
ARC
  5
5E
330
48
100
AcDbEntity
  8
PV-C5
100
AcDbCircle
 10
0.0
 20
0.0
 30
0.0
 40
16.8
210
0.0
220
-1.0
230
0.0
100
AcDbArc
 50
79.15593743630314
 51
180.0000000000002
  0
ARC
  5
5F
330
48
100
AcDbEntity
  8
PV-C5
100
AcDbCircle
 10
0.0
 20
0.0
 30
0.0
 40
16.8
210
0.0
220
-1.0
230
0.0
100
AcDbArc
 50
179.999999999999
 51
280.8440625636959
  0
LINE
  5
60
330
48
100
AcDbEntity
  8
PV-C5
100
AcDbLine
 10
1183.0
 20
0.0
 30
35.0
 11
1183.0
 21
0.0
 31
-35.0
  0
LINE
  5
61
330
48
100
AcDbEntity
  8
PV-C5
100
AcDbLine
 10
1171.0
 20
0.0
 30
33.0
 11
1171.0
 21
0.0
 31
-33.0
  0
LINE
  5
62
330
48
100
AcDbEntity
  8
PV-C5
100
AcDbLine
 10
1173.0
 20
0.0
 30
-35.0
 11
1183.0
 21
0.0
 31
-35.0
  0
LINE
  5
63
330
48
100
AcDbEntity
  8
PV-C5
100
AcDbLine
 10
1173.0
 20
0.0
 30
35.0
 11
1183.0
 21
0.0
 31
35.0
  0
ARC
  5
64
330
48
100
AcDbEntity
  8
PV-C5
100
AcDbCircle
 10
-20.61228453347117
 20
14.14686277275726
 30
0.0
 40
5.0
210
0.0
220
-1.0
230
0.0
100
AcDbArc
 50
325.5369590328141
 51
145.5369590328153
  0
ARC
  5
65
330
48
100
AcDbEntity
  8
PV-C5
100
AcDbCircle
 10
10.38200332636176
 20
22.74233952194481
 30
0.0
 40
4.999999999999999
210
0.0
220
-1.0
230
0.0
100
AcDbArc
 50
65.46304096718451
 51
245.4630409671841
  0
LINE
  5
66
330
48
100
AcDbEntity
  8
PV-C5
100
AcDbLine
 10
1171.0
 20
0.0
 30
16.5
 11
113.5
 21
0.0
 31
16.5
  0
LINE
  5
67
330
48
100
AcDbEntity
  8
PV-C5
100
AcDbLine
 10
1171.0
 20
0.0
 30
-16.5
 11
113.5
 21
0.0
 31
-16.5
  0
LINE
  5
68
330
48
100
AcDbEntity
  8
PV-C5
100
AcDbLine
 10
68.5
 20
0.0
 30
540.0
 11
68.5
 21
0.0
 31
550.0
  0
LINE
  5
69
330
48
100
AcDbEntity
  8
PV-C5
100
AcDbLine
 10
-1.5
 20
0.0
 30
540.0
 11
-1.5
 21
0.0
 31
550.0
  0
LINE
  5
6A
330
48
100
AcDbEntity
  8
PV-C5
100
AcDbLine
 10
17.0
 20
0.0
 30
538.0
 11
17.0
 21
0.0
 31
49.88934683145163
  0
LINE
  5
6B
330
48
100
AcDbEntity
  8
PV-C5
100
AcDbLine
 10
50.0
 20
0.0
 30
538.0
 11
50.0
 21
0.0
 31
49.88934683145163
  0
ARC
  5
6C
330
48
100
AcDbEntity
  8
PV-C5
100
AcDbCircle
 10
33.5
 20
167.6999999999999
 30
0.0
 40
119.9999999999999
210
0.0
220
-1.0
230
0.0
100
AcDbArc
 50
262.6004459104684
 51
267.110112628002
  0
ARC
  5
6D
330
48
100
AcDbEntity
  8
PV-C5
100
AcDbCircle
 10
33.5
 20
167.6999999999999
 30
0.0
 40
119.9999999999999
210
0.0
220
-1.0
230
0.0
100
AcDbArc
 50
272.8898873719978
 51
277.3995540895314
  0
LINE
  5
6E
330
48
100
AcDbEntity
  8
PV-C5
100
AcDbLine
 10
27.44999999999999
 20
0.0
 30
47.85260745431297
 11
27.44999999999999
 21
0.0
 31
15.0
  0
LINE
  5
6F
330
48
100
AcDbEntity
  8
PV-C5
100
AcDbLine
 10
39.55
 20
0.0
 30
47.85260745431297
 11
39.55
 21
0.0
 31
16.5
  0
ARC
  5
70
330
48
100
AcDbEntity
  8
PV-C5
100
AcDbCircle
 10
1173.0
 20
33.0
 30
0.0
 40
2.0
210
0.0
220
-1.0
230
0.0
100
AcDbArc
 50
90.00000000000019
 51
180.0000000000012
  0
ARC
  5
71
330
48
100
AcDbEntity
  8
PV-C5
100
AcDbCircle
 10
1173.0
 20
-33.0
 30
0.0
 40
2.0
210
0.0
220
-1.0
230
0.0
100
AcDbArc
 50
179.9999999999978
 51
269.9999999999997
  0
ARC
  5
72
330
48
100
AcDbEntity
  8
PV-C5
100
AcDbCircle
 10
0.0
 20
0.0
 30
0.0
 40
20.0
210
0.0
220
-1.0
230
0.0
100
AcDbArc
 50
55.58849133023056
 51
65.46304096718448
  0
ARC
  5
73
330
48
100
AcDbEntity
  8
PV-C5
100
AcDbCircle
 10
0.0
 20
0.0
 30
0.0
 40
20.0
210
0.0
220
-1.0
230
0.0
100
AcDbArc
 50
145.5369590328138
 51
304.4115086697694
  0
ARC
  5
74
330
48
100
AcDbEntity
  8
PV-C5
100
AcDbCircle
 10
0.0
 20
0.0
 30
0.0
 40
30.0
210
0.0
220
-1.0
230
0.0
100
AcDbArc
 50
145.5369590328155
 51
270.3819746928999
  0
ARC
  5
75
330
48
100
AcDbEntity
  8
PV-C5
100
AcDbCircle
 10
0.0
 20
0.0
 30
0.0
 40
30.0
210
0.0
220
-1.0
230
0.0
100
AcDbArc
 50
279.0134702622983
 51
326.6329870307682
  0
ARC
  5
76
330
48
100
AcDbEntity
  8
PV-C5
100
AcDbCircle
 10
0.0
 20
0.0
 30
0.0
 40
30.0
210
0.0
220
-1.0
230
0.0
100
AcDbArc
 50
33.36701296923173
 51
65.46304096718447
  0
LINE
  5
77
330
48
100
AcDbEntity
  8
PV-C5
100
AcDbLine
 10
113.4999999999996
 20
0.0
 30
16.5
 11
37.63296864349297
 21
0.0
 31
16.5
  0
LINE
  5
78
330
48
100
AcDbEntity
  8
PV-C5
100
AcDbLine
 10
27.44999999999996
 20
0.0
 30
16.5
 11
0.0
 21
0.0
 31
16.5
  0
LINE
  5
79
330
48
100
AcDbEntity
  8
PV-C5
100
AcDbLine
 10
0.0
 20
0.0
 30
-16.5
 11
113.4999999999996
 21
0.0
 31
-16.5
  0
ARC
  5
7A
330
48
100
AcDbEntity
  8
PV-C5
100
AcDbCircle
 10
0.5
 20
540.0
 30
0.0
 40
2.0
210
0.0
220
-1.0
230
0.0
100
AcDbArc
 50
180.0000000000002
 51
270.0000000000012
  0
ARC
  5
7B
330
48
100
AcDbEntity
  8
PV-C5
100
AcDbCircle
 10
66.5
 20
540.0
 30
0.0
 40
2.0
210
0.0
220
-1.0
230
0.0
100
AcDbArc
 50
269.9999999999978
 51
359.9999999999997
  0
ARC
  5
7C
330
48
100
AcDbEntity
  8
PV-C5
100
AcDbCircle
 10
48.79999999999999
 20
49.88934683145163
 30
0.0
 40
1.199999999999999
210
0.0
220
-1.0
230
0.0
100
AcDbArc
 50
277.3995540895318
 51
0.0000000000003435
  0
ARC
  5
7D
330
48
100
AcDbEntity
  8
PV-C5
100
AcDbCircle
 10
18.2
 20
49.88934683145163
 30
0.0
 40
1.199999999999999
210
0.0
220
-1.0
230
0.0
100
AcDbArc
 50
179.9999999999995
 51
262.6004459104663
  0
ENDBLK
  5
7F
330
48
100
AcDbEntity
  8
0
100
AcDbBlockEnd
  0
BLOCK
  5
85
330
83
100
AcDbEntity
  8
0
100
AcDbBlockBegin
  2
FRONT
 70
     0
 10
0.0
 20
0.0
 30
0.0
  3
FRONT
  1

  0
INSERT
  5
84
330
83
100
AcDbEntity
  8
PV-C5
100
AcDbBlockReference
  2
*U0
 10
0.0
 20
0.0
 30
0.0
 50
180.0
210
0.0
220
1.0
230
0.0
  0
ENDBLK
  5
86
330
83
100
AcDbEntity
  8
0
100
AcDbBlockEnd
  0
BLOCK
  5
11F
330
88
100
AcDbEntity
  8
0
100
AcDbBlockBegin
  2
*U2
 70
     1
 10
0.0
 20
0.0
 30
0.0
  3
*U2
  1
*ANON
  0
LINE
  5
89
330
88
100
AcDbEntity
  8
PV-C5
100
AcDbLine
 10
0.0
 20
-949.5
 30
47.85260745431297
 11
0.0
 21
-943.4499999999999
 31
47.85260745431297
  0
LINE
  5
8A
330
88
100
AcDbEntity
  8
PV-C5
100
AcDbLine
 10
0.0
 20
-955.55
 30
47.85260745431297
 11
0.0
 21
-949.5
 31
47.85260745431297
  0
LINE
  5
8B
330
88
100
AcDbEntity
  8
PV-C5
100
AcDbLine
 10
0.0
 20
-949.5
 30
550.0
 11
0.0
 21
-984.5
 31
550.0
  0
LINE
  5
8C
330
88
100
AcDbEntity
  8
PV-C5
100
AcDbLine
 10
0.0
 20
-914.4999999999999
 30
550.0
 11
0.0
 21
-949.5000000000002
 31
550.0
  0
LINE
  5
8D
330
88
100
AcDbEntity
  8
PV-C5
100
AcDbLine
 10
0.0
 20
-949.5
 30
538.0
 11
0.0
 21
-982.5000000000001
 31
538.0
  0
LINE
  5
8E
330
88
100
AcDbEntity
  8
PV-C5
100
AcDbLine
 10
0.0
 20
-916.5
 30
538.0
 11
0.0
 21
-949.5000000000002
 31
538.0
  0
LINE
  5
8F
330
88
100
AcDbEntity
  8
PV-C5
100
AcDbLine
 10
0.0
 20
-869.5
 30
-16.5
 11
0.0
 21
-869.5
 31
16.5
  0
LINE
  5
90
330
88
100
AcDbEntity
  8
PV-C5
100
AcDbLine
 10
0.0
 20
-869.5
 30
-16.5
 11
0.0
 21
-869.5
 31
16.5
  0
ARC
  5
91
330
88
100
AcDbEntity
  8
PV-C5
100
AcDbCircle
 10
983.0
 20
0.0
 30
0.0
 40
16.5
210
-1.0
220
0.0
230
0.0
100
AcDbArc
 50
269.9999999999985
 51
89.9999999999996
  0
LINE
  5
92
330
88
100
AcDbEntity
  8
PV-C5
100
AcDbLine
 10
0.0
 20
-598.0
 30
-48.0
 11
0.0
 21
-598.0
 31
-54.0
  0
LINE
  5
93
330
88
100
AcDbEntity
  8
PV-C5
100
AcDbLine
 10
0.0
 20
-598.0
 30
-40.0
 11
0.0
 21
-598.0
 31
-48.0
  0
LINE
  5
94
330
88
100
AcDbEntity
  8
PV-C5
100
AcDbLine
 10
0.0
 20
-598.0
 30
-39.0
 11
0.0
 21
-598.0
 31
-40.0
  0
LINE
  5
95
330
88
100
AcDbEntity
  8
PV-C5
100
AcDbLine
 10
0.0
 20
-602.0
 30
-39.0
 11
0.0
 21
-598.0
 31
-39.0
  0
LINE
  5
96
330
88
100
AcDbEntity
  8
PV-C5
100
AcDbLine
 10
0.0
 20
-598.0
 30
-29.58257569495584
 11
0.0
 21
-598.0
 31
-39.0
  0
LINE
  5
97
330
88
100
AcDbEntity
  8
PV-C5
100
AcDbLine
 10
0.0
 20
-602.0
 30
-54.0
 11
0.0
 21
-602.0
 31
-48.0
  0
LINE
  5
98
330
88
100
AcDbEntity
  8
PV-C5
100
AcDbLine
 10
0.0
 20
-602.0
 30
-48.0
 11
0.0
 21
-602.0
 31
-40.0
  0
LINE
  5
99
330
88
100
AcDbEntity
  8
PV-C5
100
AcDbLine
 10
0.0
 20
-602.0
 30
-40.0
 11
0.0
 21
-602.0
 31
-39.0
  0
LINE
  5
9A
330
88
100
AcDbEntity
  8
PV-C5
100
AcDbLine
 10
0.0
 20
-602.0
 30
-39.0
 11
0.0
 21
-602.0
 31
-29.58257569495584
  0
LINE
  5
9B
330
88
100
AcDbEntity
  8
PV-C5
100
AcDbLine
 10
0.0
 20
-498.0
 30
-48.0
 11
0.0
 21
-498.0
 31
-54.0
  0
LINE
  5
9C
330
88
100
AcDbEntity
  8
PV-C5
100
AcDbLine
 10
0.0
 20
-498.0
 30
-40.0
 11
0.0
 21
-498.0
 31
-48.0
  0
LINE
  5
9D
330
88
100
AcDbEntity
  8
PV-C5
100
AcDbLine
 10
0.0
 20
-498.0
 30
-39.0
 11
0.0
 21
-498.0
 31
-40.0
  0
LINE
  5
9E
330
88
100
AcDbEntity
  8
PV-C5
100
AcDbLine
 10
0.0
 20
-502.0
 30
-39.0
 11
0.0
 21
-498.0
 31
-39.0
  0
LINE
  5
9F
330
88
100
AcDbEntity
  8
PV-C5
100
AcDbLine
 10
0.0
 20
-498.0
 30
-29.58257569495584
 11
0.0
 21
-498.0
 31
-39.0
  0
LINE
  5
A0
330
88
100
AcDbEntity
  8
PV-C5
100
AcDbLine
 10
0.0
 20
-502.0
 30
-54.0
 11
0.0
 21
-502.0
 31
-48.0
  0
LINE
  5
A1
330
88
100
AcDbEntity
  8
PV-C5
100
AcDbLine
 10
0.0
 20
-502.0
 30
-48.0
 11
0.0
 21
-502.0
 31
-40.0
  0
LINE
  5
A2
330
88
100
AcDbEntity
  8
PV-C5
100
AcDbLine
 10
0.0
 20
-502.0
 30
-40.0
 11
0.0
 21
-502.0
 31
-39.0
  0
LINE
  5
A3
330
88
100
AcDbEntity
  8
PV-C5
100
AcDbLine
 10
0.0
 20
-502.0
 30
-39.0
 11
0.0
 21
-502.0
 31
-29.58257569495584
  0
LINE
  5
A4
330
88
100
AcDbEntity
  8
PV-C5
100
AcDbLine
 10
0.0
 20
-397.9999999999998
 30
-48.0
 11
0.0
 21
-397.9999999999998
 31
-54.0
  0
LINE
  5
A5
330
88
100
AcDbEntity
  8
PV-C5
100
AcDbLine
 10
0.0
 20
-397.9999999999998
 30
-40.0
 11
0.0
 21
-397.9999999999998
 31
-48.0
  0
LINE
  5
A6
330
88
100
AcDbEntity
  8
PV-C5
100
AcDbLine
 10
0.0
 20
-397.9999999999998
 30
-39.0
 11
0.0
 21
-397.9999999999998
 31
-40.0
  0
LINE
  5
A7
330
88
100
AcDbEntity
  8
PV-C5
100
AcDbLine
 10
0.0
 20
-401.9999999999998
 30
-39.0
 11
0.0
 21
-397.9999999999998
 31
-39.0
  0
LINE
  5
A8
330
88
100
AcDbEntity
  8
PV-C5
100
AcDbLine
 10
0.0
 20
-397.9999999999998
 30
-29.58257569495584
 11
0.0
 21
-397.9999999999998
 31
-39.0
  0
LINE
  5
A9
330
88
100
AcDbEntity
  8
PV-C5
100
AcDbLine
 10
0.0
 20
-401.9999999999998
 30
-54.0
 11
0.0
 21
-401.9999999999998
 31
-48.0
  0
LINE
  5
AA
330
88
100
AcDbEntity
  8
PV-C5
100
AcDbLine
 10
0.0
 20
-401.9999999999998
 30
-48.0
 11
0.0
 21
-401.9999999999998
 31
-40.0
  0
LINE
  5
AB
330
88
100
AcDbEntity
  8
PV-C5
100
AcDbLine
 10
0.0
 20
-401.9999999999998
 30
-40.0
 11
0.0
 21
-401.9999999999998
 31
-39.0
  0
LINE
  5
AC
330
88
100
AcDbEntity
  8
PV-C5
100
AcDbLine
 10
0.0
 20
-401.9999999999998
 30
-39.0
 11
0.0
 21
-401.9999999999998
 31
-29.58257569495584
  0
LINE
  5
AD
330
88
100
AcDbEntity
  8
PV-C5
100
AcDbLine
 10
0.0
 20
200.0
 30
0.0
 11
0.0
 21
200.0
 31
35.0
  0
LINE
  5
AE
330
88
100
AcDbEntity
  8
PV-C5
100
AcDbLine
 10
0.0
 20
200.0
 30
-35.0
 11
0.0
 21
200.0
 31
0.0000000000004888
  0
LINE
  5
AF
330
88
100
AcDbEntity
  8
PV-C5
100
AcDbLine
 10
0.0
 20
188.0
 30
0.0
 11
0.0
 21
188.0
 31
33.0
  0
LINE
  5
B0
330
88
100
AcDbEntity
  8
PV-C5
100
AcDbLine
 10
0.0
 20
188.0
 30
-33.0
 11
0.0
 21
188.0
 31
0.0000000000004609
  0
LINE
  5
B1
330
88
100
AcDbEntity
  8
PV-C5
100
AcDbLine
 10
0.0
 20
-297.9999999999999
 30
-48.0
 11
0.0
 21
-297.9999999999999
 31
-54.0
  0
LINE
  5
B2
330
88
100
AcDbEntity
  8
PV-C5
100
AcDbLine
 10
0.0
 20
-297.9999999999999
 30
-40.0
 11
0.0
 21
-297.9999999999999
 31
-48.0
  0
LINE
  5
B3
330
88
100
AcDbEntity
  8
PV-C5
100
AcDbLine
 10
0.0
 20
-297.9999999999999
 30
-39.0
 11
0.0
 21
-297.9999999999999
 31
-40.0
  0
LINE
  5
B4
330
88
100
AcDbEntity
  8
PV-C5
100
AcDbLine
 10
0.0
 20
-301.9999999999999
 30
-39.0
 11
0.0
 21
-297.9999999999999
 31
-39.0
  0
LINE
  5
B5
330
88
100
AcDbEntity
  8
PV-C5
100
AcDbLine
 10
0.0
 20
-297.9999999999999
 30
-29.58257569495584
 11
0.0
 21
-297.9999999999999
 31
-39.0
  0
LINE
  5
B6
330
88
100
AcDbEntity
  8
PV-C5
100
AcDbLine
 10
0.0
 20
-301.9999999999999
 30
-54.0
 11
0.0
 21
-301.9999999999999
 31
-48.0
  0
LINE
  5
B7
330
88
100
AcDbEntity
  8
PV-C5
100
AcDbLine
 10
0.0
 20
-301.9999999999999
 30
-48.0
 11
0.0
 21
-301.9999999999999
 31
-40.0
  0
LINE
  5
B8
330
88
100
AcDbEntity
  8
PV-C5
100
AcDbLine
 10
0.0
 20
-301.9999999999999
 30
-40.0
 11
0.0
 21
-301.9999999999999
 31
-39.0
  0
LINE
  5
B9
330
88
100
AcDbEntity
  8
PV-C5
100
AcDbLine
 10
0.0
 20
-301.9999999999999
 30
-39.0
 11
0.0
 21
-301.9999999999999
 31
-29.58257569495584
  0
LINE
  5
BA
330
88
100
AcDbEntity
  8
PV-C5
100
AcDbLine
 10
0.0
 20
-197.9999999999997
 30
-48.0
 11
0.0
 21
-197.9999999999997
 31
-54.0
  0
LINE
  5
BB
330
88
100
AcDbEntity
  8
PV-C5
100
AcDbLine
 10
0.0
 20
-197.9999999999997
 30
-40.0
 11
0.0
 21
-197.9999999999997
 31
-48.0
  0
LINE
  5
BC
330
88
100
AcDbEntity
  8
PV-C5
100
AcDbLine
 10
0.0
 20
-197.9999999999997
 30
-39.0
 11
0.0
 21
-197.9999999999997
 31
-40.0
  0
LINE
  5
BD
330
88
100
AcDbEntity
  8
PV-C5
100
AcDbLine
 10
0.0
 20
-201.9999999999998
 30
-39.0
 11
0.0
 21
-197.9999999999997
 31
-39.0
  0
LINE
  5
BE
330
88
100
AcDbEntity
  8
PV-C5
100
AcDbLine
 10
0.0
 20
-197.9999999999997
 30
-29.58257569495584
 11
0.0
 21
-197.9999999999997
 31
-39.0
  0
LINE
  5
BF
330
88
100
AcDbEntity
  8
PV-C5
100
AcDbLine
 10
0.0
 20
-201.9999999999998
 30
-54.0
 11
0.0
 21
-201.9999999999998
 31
-48.0
  0
LINE
  5
C0
330
88
100
AcDbEntity
  8
PV-C5
100
AcDbLine
 10
0.0
 20
-201.9999999999998
 30
-48.0
 11
0.0
 21
-201.9999999999998
 31
-40.0
  0
LINE
  5
C1
330
88
100
AcDbEntity
  8
PV-C5
100
AcDbLine
 10
0.0
 20
-201.9999999999998
 30
-40.0
 11
0.0
 21
-201.9999999999998
 31
-39.0
  0
LINE
  5
C2
330
88
100
AcDbEntity
  8
PV-C5
100
AcDbLine
 10
0.0
 20
-201.9999999999998
 30
-39.0
 11
0.0
 21
-201.9999999999998
 31
-29.58257569495584
  0
LINE
  5
C3
330
88
100
AcDbEntity
  8
PV-C5
100
AcDbLine
 10
0.0
 20
-97.99999999999997
 30
-48.0
 11
0.0
 21
-97.99999999999997
 31
-54.0
  0
LINE
  5
C4
330
88
100
AcDbEntity
  8
PV-C5
100
AcDbLine
 10
0.0
 20
-97.99999999999997
 30
-40.0
 11
0.0
 21
-97.99999999999997
 31
-48.0
  0
LINE
  5
C5
330
88
100
AcDbEntity
  8
PV-C5
100
AcDbLine
 10
0.0
 20
-97.99999999999997
 30
-39.0
 11
0.0
 21
-97.99999999999997
 31
-40.0
  0
LINE
  5
C6
330
88
100
AcDbEntity
  8
PV-C5
100
AcDbLine
 10
0.0
 20
-101.9999999999999
 30
-39.0
 11
0.0
 21
-97.99999999999997
 31
-39.0
  0
LINE
  5
C7
330
88
100
AcDbEntity
  8
PV-C5
100
AcDbLine
 10
0.0
 20
-97.99999999999997
 30
-29.58257569495584
 11
0.0
 21
-97.99999999999997
 31
-39.0
  0
LINE
  5
C8
330
88
100
AcDbEntity
  8
PV-C5
100
AcDbLine
 10
0.0
 20
-101.9999999999999
 30
-54.0
 11
0.0
 21
-101.9999999999999
 31
-48.0
  0
LINE
  5
C9
330
88
100
AcDbEntity
  8
PV-C5
100
AcDbLine
 10
0.0
 20
-101.9999999999999
 30
-48.0
 11
0.0
 21
-101.9999999999999
 31
-40.0
  0
LINE
  5
CA
330
88
100
AcDbEntity
  8
PV-C5
100
AcDbLine
 10
0.0
 20
-101.9999999999999
 30
-40.0
 11
0.0
 21
-101.9999999999999
 31
-39.0
  0
LINE
  5
CB
330
88
100
AcDbEntity
  8
PV-C5
100
AcDbLine
 10
0.0
 20
-101.9999999999999
 30
-39.0
 11
0.0
 21
-101.9999999999999
 31
-29.58257569495584
  0
ARC
  5
CC
330
88
100
AcDbEntity
  8
PV-C5
100
AcDbCircle
 10
983.0
 20
0.0
 30
0.0
 40
35.0
210
-1.0
220
0.0
230
0.0
100
AcDbArc
 50
208.1270682186039
 51
141.6546637470996
  0
ARC
  5
CD
330
88
100
AcDbEntity
  8
PV-C5
100
AcDbCircle
 10
983.0
 20
0.0
 30
0.0
 40
16.8
210
-1.0
220
0.0
230
0.0
100
AcDbArc
 50
259.1559374363022
 51
100.8440625636966
  0
LINE
  5
CE
330
88
100
AcDbEntity
  8
PV-C5
100
AcDbLine
 10
0.0
 20
-101.9999999999999
 30
-54.0
 11
0.0
 21
-97.99999999999997
 31
-54.0
  0
ARC
  5
CF
330
88
100
AcDbEntity
  8
PV-C5
100
AcDbCircle
 10
99.99999999999994
 20
14.14686277275726
 30
0.0
 40
5.0
210
-1.0
220
0.0
230
0.0
100
AcDbArc
 50
0.0000000000004326
 51
180.0
  0
ARC
  5
D0
330
88
100
AcDbEntity
  8
PV-C5
100
AcDbCircle
 10
99.99999999999994
 20
22.74233952194481
 30
0.0
 40
5.0
210
-1.0
220
0.0
230
0.0
100
AcDbArc
 50
0.0000000000004071
 51
180.0
  0
LINE
  5
D1
330
88
100
AcDbEntity
  8
PV-C5
100
AcDbLine
 10
0.0
 20
-201.9999999999998
 30
-54.0
 11
0.0
 21
-197.9999999999997
 31
-54.0
  0
ARC
  5
D2
330
88
100
AcDbEntity
  8
PV-C5
100
AcDbCircle
 10
199.9999999999998
 20
14.14686277275726
 30
0.0
 40
5.0
210
-1.0
220
0.0
230
0.0
100
AcDbArc
 50
0.0000000000004326
 51
180.0
  0
ARC
  5
D3
330
88
100
AcDbEntity
  8
PV-C5
100
AcDbCircle
 10
199.9999999999998
 20
22.74233952194481
 30
0.0
 40
5.0
210
-1.0
220
0.0
230
0.0
100
AcDbArc
 50
0.0000000000004071
 51
180.0
  0
LINE
  5
D4
330
88
100
AcDbEntity
  8
PV-C5
100
AcDbLine
 10
0.0
 20
-301.9999999999999
 30
-54.0
 11
0.0
 21
-297.9999999999999
 31
-54.0
  0
ARC
  5
D5
330
88
100
AcDbEntity
  8
PV-C5
100
AcDbCircle
 10
299.9999999999999
 20
14.14686277275726
 30
0.0
 40
5.0
210
-1.0
220
0.0
230
0.0
100
AcDbArc
 50
0.0000000000004326
 51
180.0
  0
ARC
  5
D6
330
88
100
AcDbEntity
  8
PV-C5
100
AcDbCircle
 10
299.9999999999999
 20
22.74233952194481
 30
0.0
 40
5.0
210
-1.0
220
0.0
230
0.0
100
AcDbArc
 50
0.0000000000004071
 51
180.0
  0
LINE
  5
D7
330
88
100
AcDbEntity
  8
PV-C5
100
AcDbLine
 10
0.0
 20
190.0
 30
35.0
 11
0.0
 21
200.0
 31
35.0
  0
LINE
  5
D8
330
88
100
AcDbEntity
  8
PV-C5
100
AcDbLine
 10
0.0
 20
190.0
 30
-35.0
 11
0.0
 21
200.0
 31
-35.0
  0
LINE
  5
D9
330
88
100
AcDbEntity
  8
PV-C5
100
AcDbLine
 10
0.0
 20
-401.9999999999998
 30
-54.0
 11
0.0
 21
-397.9999999999998
 31
-54.0
  0
ARC
  5
DA
330
88
100
AcDbEntity
  8
PV-C5
100
AcDbCircle
 10
399.9999999999998
 20
14.14686277275726
 30
0.0
 40
5.0
210
-1.0
220
0.0
230
0.0
100
AcDbArc
 50
0.0000000000004326
 51
180.0
  0
ARC
  5
DB
330
88
100
AcDbEntity
  8
PV-C5
100
AcDbCircle
 10
399.9999999999998
 20
22.74233952194481
 30
0.0
 40
5.0
210
-1.0
220
0.0
230
0.0
100
AcDbArc
 50
0.0000000000004071
 51
180.0
  0
LINE
  5
DC
330
88
100
AcDbEntity
  8
PV-C5
100
AcDbLine
 10
0.0
 20
-502.0
 30
-54.0
 11
0.0
 21
-498.0
 31
-54.0
  0
ARC
  5
DD
330
88
100
AcDbEntity
  8
PV-C5
100
AcDbCircle
 10
500.0
 20
14.14686277275726
 30
0.0
 40
5.0
210
-1.0
220
0.0
230
0.0
100
AcDbArc
 50
0.0000000000004326
 51
180.0
  0
ARC
  5
DE
330
88
100
AcDbEntity
  8
PV-C5
100
AcDbCircle
 10
500.0
 20
22.74233952194481
 30
0.0
 40
5.0
210
-1.0
220
0.0
230
0.0
100
AcDbArc
 50
0.0000000000004071
 51
180.0
  0
LINE
  5
DF
330
88
100
AcDbEntity
  8
PV-C5
100
AcDbLine
 10
0.0
 20
-602.0
 30
-54.0
 11
0.0
 21
-598.0
 31
-54.0
  0
ARC
  5
E0
330
88
100
AcDbEntity
  8
PV-C5
100
AcDbCircle
 10
600.0
 20
14.14686277275726
 30
0.0
 40
5.0
210
-1.0
220
0.0
230
0.0
100
AcDbArc
 50
0.0000000000004326
 51
180.0
  0
ARC
  5
E1
330
88
100
AcDbEntity
  8
PV-C5
100
AcDbCircle
 10
600.0
 20
22.74233952194481
 30
0.0
 40
5.0
210
-1.0
220
0.0
230
0.0
100
AcDbArc
 50
0.0000000000004071
 51
180.0
  0
LINE
  5
E2
330
88
100
AcDbEntity
  8
PV-C5
100
AcDbLine
 10
0.0
 20
188.0
 30
-16.5
 11
0.0
 21
-94.99999999999994
 31
-16.5
  0
LINE
  5
E3
330
88
100
AcDbEntity
  8
PV-C5
100
AcDbLine
 10
0.0
 20
-104.9999999999997
 30
-16.5
 11
0.0
 21
-194.9999999999997
 31
-16.5
  0
LINE
  5
E4
330
88
100
AcDbEntity
  8
PV-C5
100
AcDbLine
 10
0.0
 20
-204.9999999999998
 30
-16.5
 11
0.0
 21
-295.0
 31
-16.5
  0
LINE
  5
E5
330
88
100
AcDbEntity
  8
PV-C5
100
AcDbLine
 10
0.0
 20
-305.0
 30
-16.5
 11
0.0
 21
-395.0
 31
-16.5
  0
LINE
  5
E6
330
88
100
AcDbEntity
  8
PV-C5
100
AcDbLine
 10
0.0
 20
-405.0
 30
-16.5
 11
0.0
 21
-495.0
 31
-16.5
  0
LINE
  5
E7
330
88
100
AcDbEntity
  8
PV-C5
100
AcDbLine
 10
0.0
 20
-505.0
 30
-16.5
 11
0.0
 21
-595.0
 31
-16.5
  0
LINE
  5
E8
330
88
100
AcDbEntity
  8
PV-C5
100
AcDbLine
 10
0.0
 20
-605.0
 30
-16.5
 11
0.0
 21
-869.5
 31
-16.5
  0
LINE
  5
E9
330
88
100
AcDbEntity
  8
PV-C5
100
AcDbLine
 10
0.0
 20
188.0
 30
16.5
 11
0.0
 21
-95.58833986012468
 31
16.5
  0
LINE
  5
EA
330
88
100
AcDbEntity
  8
PV-C5
100
AcDbLine
 10
0.0
 20
-104.411660139875
 30
16.5
 11
0.0
 21
-195.5883398601246
 31
16.5
  0
LINE
  5
EB
330
88
100
AcDbEntity
  8
PV-C5
100
AcDbLine
 10
0.0
 20
-204.4116601398751
 30
16.5
 11
0.0
 21
-295.5883398601246
 31
16.5
  0
LINE
  5
EC
330
88
100
AcDbEntity
  8
PV-C5
100
AcDbLine
 10
0.0
 20
-304.4116601398751
 30
16.5
 11
0.0
 21
-395.5883398601245
 31
16.5
  0
LINE
  5
ED
330
88
100
AcDbEntity
  8
PV-C5
100
AcDbLine
 10
0.0
 20
-404.4116601398751
 30
16.5
 11
0.0
 21
-495.5883398601247
 31
16.5
  0
LINE
  5
EE
330
88
100
AcDbEntity
  8
PV-C5
100
AcDbLine
 10
0.0
 20
-504.4116601398751
 30
16.5
 11
0.0
 21
-595.5883398601247
 31
16.5
  0
LINE
  5
EF
330
88
100
AcDbEntity
  8
PV-C5
100
AcDbLine
 10
0.0
 20
-604.4116601398751
 30
16.5
 11
0.0
 21
-869.5
 31
16.5
  0
LINE
  5
F0
330
88
100
AcDbEntity
  8
PV-C5
100
AcDbLine
 10
0.0
 20
-984.5
 30
540.0
 11
0.0
 21
-984.5
 31
550.0
  0
LINE
  5
F1
330
88
100
AcDbEntity
  8
PV-C5
100
AcDbLine
 10
0.0
 20
-914.4999999999999
 30
540.0
 11
0.0
 21
-914.4999999999999
 31
550.0
  0
LINE
  5
F2
330
88
100
AcDbEntity
  8
PV-C5
100
AcDbLine
 10
0.0
 20
-933.0
 30
538.0
 11
0.0
 21
-933.0
 31
49.88934683145163
  0
LINE
  5
F3
330
88
100
AcDbEntity
  8
PV-C5
100
AcDbLine
 10
0.0
 20
-966.0
 30
538.0
 11
0.0
 21
-966.0
 31
49.88934683145163
  0
ARC
  5
F4
330
88
100
AcDbEntity
  8
PV-C5
100
AcDbCircle
 10
949.5
 20
167.6999999999999
 30
0.0
 40
120.0
210
-1.0
220
0.0
230
0.0
100
AcDbArc
 50
262.6004459104684
 51
267.110112628002
  0
ARC
  5
F5
330
88
100
AcDbEntity
  8
PV-C5
100
AcDbCircle
 10
949.5
 20
167.6999999999999
 30
0.0
 40
119.9999999999999
210
-1.0
220
0.0
230
0.0
100
AcDbArc
 50
272.8898873719978
 51
277.3995540895314
  0
LINE
  5
F6
330
88
100
AcDbEntity
  8
PV-C5
100
AcDbLine
 10
0.0
 20
-943.4499999999999
 30
47.85260745431297
 11
0.0
 21
-943.4499999999999
 31
16.5
  0
LINE
  5
F7
330
88
100
AcDbEntity
  8
PV-C5
100
AcDbLine
 10
0.0
 20
-955.55
 30
47.85260745431297
 11
0.0
 21
-955.55
 31
15.0
  0
LINE
  5
F8
330
88
100
AcDbEntity
  8
PV-C5
100
AcDbLine
 10
0.0
 20
-94.99999999999994
 30
22.74233952194481
 11
0.0
 21
-94.99999999999994
 31
16.49999999999999
  0
LINE
  5
F9
330
88
100
AcDbEntity
  8
PV-C5
100
AcDbLine
 10
0.0
 20
-94.99999999999994
 30
14.14686277275726
 11
0.0
 21
-94.99999999999994
 31
-25.0
  0
LINE
  5
FA
330
88
100
AcDbEntity
  8
PV-C5
100
AcDbLine
 10
0.0
 20
-104.9999999999997
 30
-25.0
 11
0.0
 21
-104.9999999999997
 31
14.14686277275726
  0
LINE
  5
FB
330
88
100
AcDbEntity
  8
PV-C5
100
AcDbLine
 10
0.0
 20
-104.9999999999997
 30
16.5
 11
0.0
 21
-104.9999999999997
 31
22.74233952194481
  0
ARC
  5
FC
330
88
100
AcDbEntity
  8
PV-C5
100
AcDbCircle
 10
99.99999999999994
 20
-25.0
 30
0.0
 40
5.0
210
-1.0
220
0.0
230
0.0
100
AcDbArc
 50
180.0
 51
0.000000000001239
  0
LINE
  5
FD
330
88
100
AcDbEntity
  8
PV-C5
100
AcDbLine
 10
0.0
 20
-194.9999999999997
 30
22.74233952194481
 11
0.0
 21
-194.9999999999997
 31
16.49999999999999
  0
LINE
  5
FE
330
88
100
AcDbEntity
  8
PV-C5
100
AcDbLine
 10
0.0
 20
-194.9999999999997
 30
14.14686277275726
 11
0.0
 21
-194.9999999999997
 31
-25.0
  0
LINE
  5
FF
330
88
100
AcDbEntity
  8
PV-C5
100
AcDbLine
 10
0.0
 20
-204.9999999999998
 30
-25.0
 11
0.0
 21
-204.9999999999998
 31
14.14686277275726
  0
LINE
  5
100
330
88
100
AcDbEntity
  8
PV-C5
100
AcDbLine
 10
0.0
 20
-204.9999999999998
 30
16.5
 11
0.0
 21
-204.9999999999998
 31
22.74233952194481
  0
ARC
  5
101
330
88
100
AcDbEntity
  8
PV-C5
100
AcDbCircle
 10
199.9999999999998
 20
-25.0
 30
0.0
 40
5.0
210
-1.0
220
0.0
230
0.0
100
AcDbArc
 50
180.0
 51
0.000000000001239
  0
LINE
  5
102
330
88
100
AcDbEntity
  8
PV-C5
100
AcDbLine
 10
0.0
 20
-294.9999999999998
 30
22.74233952194481
 11
0.0
 21
-294.9999999999998
 31
16.49999999999999
  0
LINE
  5
103
330
88
100
AcDbEntity
  8
PV-C5
100
AcDbLine
 10
0.0
 20
-294.9999999999998
 30
14.14686277275726
 11
0.0
 21
-294.9999999999998
 31
-25.0
  0
LINE
  5
104
330
88
100
AcDbEntity
  8
PV-C5
100
AcDbLine
 10
0.0
 20
-304.9999999999998
 30
-25.0
 11
0.0
 21
-304.9999999999998
 31
14.14686277275726
  0
LINE
  5
105
330
88
100
AcDbEntity
  8
PV-C5
100
AcDbLine
 10
0.0
 20
-304.9999999999998
 30
16.5
 11
0.0
 21
-304.9999999999998
 31
22.74233952194481
  0
ARC
  5
106
330
88
100
AcDbEntity
  8
PV-C5
100
AcDbCircle
 10
299.9999999999999
 20
-25.0
 30
0.0
 40
5.0
210
-1.0
220
0.0
230
0.0
100
AcDbArc
 50
180.0
 51
0.000000000001239
  0
ARC
  5
107
330
88
100
AcDbEntity
  8
PV-C5
100
AcDbCircle
 10
-190.0
 20
-33.0
 30
0.0
 40
2.0
210
-1.0
220
0.0
230
0.0
100
AcDbArc
 50
270.0000000000001
 51
0.000000000001239
  0
ARC
  5
108
330
88
100
AcDbEntity
  8
PV-C5
100
AcDbCircle
 10
-190.0
 20
33.0
 30
0.0
 40
2.0
210
-1.0
220
0.0
230
0.0
100
AcDbArc
 50
359.999999999998
 51
89.99999999999982
  0
LINE
  5
109
330
88
100
AcDbEntity
  8
PV-C5
100
AcDbLine
 10
0.0
 20
-394.9999999999998
 30
22.74233952194481
 11
0.0
 21
-394.9999999999998
 31
16.49999999999999
  0
LINE
  5
10A
330
88
100
AcDbEntity
  8
PV-C5
100
AcDbLine
 10
0.0
 20
-394.9999999999998
 30
14.14686277275726
 11
0.0
 21
-394.9999999999998
 31
-25.0
  0
LINE
  5
10B
330
88
100
AcDbEntity
  8
PV-C5
100
AcDbLine
 10
0.0
 20
-404.9999999999998
 30
-25.0
 11
0.0
 21
-404.9999999999998
 31
14.14686277275726
  0
LINE
  5
10C
330
88
100
AcDbEntity
  8
PV-C5
100
AcDbLine
 10
0.0
 20
-404.9999999999998
 30
16.5
 11
0.0
 21
-404.9999999999998
 31
22.74233952194481
  0
ARC
  5
10D
330
88
100
AcDbEntity
  8
PV-C5
100
AcDbCircle
 10
399.9999999999998
 20
-25.0
 30
0.0
 40
5.0
210
-1.0
220
0.0
230
0.0
100
AcDbArc
 50
180.0
 51
0.000000000001239
  0
LINE
  5
10E
330
88
100
AcDbEntity
  8
PV-C5
100
AcDbLine
 10
0.0
 20
-495.0
 30
22.74233952194481
 11
0.0
 21
-495.0
 31
16.49999999999999
  0
LINE
  5
10F
330
88
100
AcDbEntity
  8
PV-C5
100
AcDbLine
 10
0.0
 20
-495.0
 30
14.14686277275726
 11
0.0
 21
-495.0
 31
-25.0
  0
LINE
  5
110
330
88
100
AcDbEntity
  8
PV-C5
100
AcDbLine
 10
0.0
 20
-505.0
 30
-25.0
 11
0.0
 21
-505.0
 31
14.14686277275726
  0
LINE
  5
111
330
88
100
AcDbEntity
  8
PV-C5
100
AcDbLine
 10
0.0
 20
-505.0
 30
16.5
 11
0.0
 21
-505.0
 31
22.74233952194481
  0
ARC
  5
112
330
88
100
AcDbEntity
  8
PV-C5
100
AcDbCircle
 10
500.0
 20
-25.0
 30
0.0
 40
5.0
210
-1.0
220
0.0
230
0.0
100
AcDbArc
 50
180.0
 51
0.000000000001239
  0
LINE
  5
113
330
88
100
AcDbEntity
  8
PV-C5
100
AcDbLine
 10
0.0
 20
-595.0
 30
22.74233952194481
 11
0.0
 21
-595.0
 31
16.49999999999999
  0
LINE
  5
114
330
88
100
AcDbEntity
  8
PV-C5
100
AcDbLine
 10
0.0
 20
-595.0
 30
14.14686277275726
 11
0.0
 21
-595.0
 31
-25.0
  0
LINE
  5
115
330
88
100
AcDbEntity
  8
PV-C5
100
AcDbLine
 10
0.0
 20
-605.0
 30
-25.0
 11
0.0
 21
-605.0
 31
14.14686277275726
  0
LINE
  5
116
330
88
100
AcDbEntity
  8
PV-C5
100
AcDbLine
 10
0.0
 20
-605.0
 30
16.5
 11
0.0
 21
-605.0
 31
22.74233952194481
  0
ARC
  5
117
330
88
100
AcDbEntity
  8
PV-C5
100
AcDbCircle
 10
600.0
 20
-25.0
 30
0.0
 40
5.0
210
-1.0
220
0.0
230
0.0
100
AcDbArc
 50
180.0
 51
0.000000000001239
  0
LINE
  5
118
330
88
100
AcDbEntity
  8
PV-C5
100
AcDbLine
 10
0.0
 20
-983.0
 30
16.5
 11
0.0
 21
-955.55
 31
16.5
  0
LINE
  5
119
330
88
100
AcDbEntity
  8
PV-C5
100
AcDbLine
 10
0.0
 20
-945.3670313565067
 30
16.5
 11
0.0
 21
-869.4999999999994
 31
16.5
  0
LINE
  5
11A
330
88
100
AcDbEntity
  8
PV-C5
100
AcDbLine
 10
0.0
 20
-869.4999999999994
 30
-16.5
 11
0.0
 21
-983.0
 31
-16.5
  0
ARC
  5
11B
330
88
100
AcDbEntity
  8
PV-C5
100
AcDbCircle
 10
916.5
 20
540.0
 30
0.0
 40
2.0
210
-1.0
220
0.0
230
0.0
100
AcDbArc
 50
180.0000000000002
 51
269.9999999999996
  0
ARC
  5
11C
330
88
100
AcDbEntity
  8
PV-C5
100
AcDbCircle
 10
982.5000000000001
 20
540.0
 30
0.0
 40
2.0
210
-1.0
220
0.0
230
0.0
100
AcDbArc
 50
269.9999999999996
 51
359.9999999999997
  0
ARC
  5
11D
330
88
100
AcDbEntity
  8
PV-C5
100
AcDbCircle
 10
964.7999999999999
 20
49.88934683145163
 30
0.0
 40
1.199999999999999
210
-1.0
220
0.0
230
0.0
100
AcDbArc
 50
277.3995540895356
 51
0.0000000000003435
  0
ARC
  5
11E
330
88
100
AcDbEntity
  8
PV-C5
100
AcDbCircle
 10
934.2
 20
49.88934683145163
 30
0.0
 40
1.199999999999999
210
-1.0
220
0.0
230
0.0
100
AcDbArc
 50
179.9999999999995
 51
262.600445910464
  0
ENDBLK
  5
120
330
88
100
AcDbEntity
  8
0
100
AcDbBlockEnd
  0
BLOCK
  5
123
330
121
100
AcDbEntity
  8
0
100
AcDbBlockBegin
  2
LEFT
 70
     0
 10
0.0
 20
0.0
 30
0.0
  3
LEFT
  1

  0
INSERT
  5
122
330
121
100
AcDbEntity
  8
PV-C5
100
AcDbBlockReference
  2
*U2
 10
0.0
 20
0.0
 30
0.0
 50
270.0
210
0.0
220
1.0
230
0.0
  0
ENDBLK
  5
124
330
121
100
AcDbEntity
  8
0
100
AcDbBlockEnd
  0
BLOCK
  5
198
330
126
100
AcDbEntity
  8
0
100
AcDbBlockBegin
  2
*U4
 70
     1
 10
0.0
 20
0.0
 30
0.0
  3
*U4
  1
*ANON
  0
LINE
  5
127
330
126
100
AcDbEntity
  8
PV-C5
100
AcDbLine
 10
0.0
 20
-943.4499999999999
 30
47.85260745431297
 11
0.0
 21
-955.55
 31
47.85260745431297
  0
LINE
  5
128
330
126
100
AcDbEntity
  8
PV-C5
100
AcDbLine
 10
0.0
 20
-984.5
 30
550.0
 11
0.0
 21
-914.4999999999999
 31
550.0
  0
LINE
  5
129
330
126
100
AcDbEntity
  8
PV-C5
100
AcDbLine
 10
0.0
 20
-982.5000000000001
 30
538.0
 11
0.0
 21
-916.5
 31
538.0
  0
CIRCLE
  5
12A
330
126
100
AcDbEntity
  8
PV-C5
100
AcDbCircle
 10
-983.0
 20
0.0
 30
0.0
 40
16.5
210
1.0
220
0.0
230
0.0
  0
LINE
  5
12B
330
126
100
AcDbEntity
  8
PV-C5
100
AcDbLine
 10
0.0
 20
-869.5
 30
0.0
 11
0.0
 21
-869.5
 31
-16.5
  0
LINE
  5
12C
330
126
100
AcDbEntity
  8
PV-C5
100
AcDbLine
 10
0.0
 20
-869.5
 30
16.5
 11
0.0
 21
-869.5
 31
-0.0000000000002304
  0
LINE
  5
12D
330
126
100
AcDbEntity
  8
PV-C5
100
AcDbLine
 10
0.0
 20
-869.5
 30
16.5
 11
0.0
 21
-869.5
 31
-16.5
  0
LINE
  5
12E
330
126
100
AcDbEntity
  8
PV-C5
100
AcDbLine
 10
0.0
 20
-598.0
 30
-48.0
 11
0.0
 21
-598.0
 31
-29.2068277077089
  0
SPLINE
  5
12F
330
126
100
AcDbEntity
  8
PV-C5
100
AcDbSpline
210
1.0
220
0.0
230
0.0
 70
     8
 71
     3
 72
    19
 73
    15
 74
     0
 42
0.0000000001
 43
0.0000000001
 40
-1.946346350516163
 40
-1.946346350516163
 40
-1.946346350516163
 40
-1.946346350516163
 40
-1.842933541421799
 40
-1.842933541421799
 40
-0.9214667707108999
 40
-0.9214667707108999
 40
0.0
 40
0.0
 40
0.0
 40
0.9214667707108663
 40
0.9214667707108663
 40
1.842933541421732
 40
1.842933541421732
 40
1.946346350516163
 40
1.946346350516163
 40
1.946346350516163
 40
1.946346350516163
 10
0.0
 20
-602.0
 30
-29.2068277077089
 10
0.0
 20
-601.9678627451378
 30
-29.22103399918209
 10
0.0
 20
-601.9358602436021
 30
-29.23477252501263
 10
0.0
 20
-601.6205638281713
 30
-29.36629002990962
 10
0.0
 20
-601.2992718429841
 30
-29.46736202336838
 10
0.0
 20
-600.6425684504231
 30
-29.59899366481655
 10
0.0
 20
-600.3071555902367
 30
-29.62954606469697
 10
0.0
 20
-600.0
 30
-29.62954606469697
 10
0.0
 20
-599.692844409763
 30
-29.62954606469697
 10
0.0
 20
-599.3574315495767
 30
-29.59899366481655
 10
0.0
 20
-598.7007281570156
 30
-29.46736202336839
 10
0.0
 20
-598.3794361718286
 30
-29.36629002990963
 10
0.0
 20
-598.0641397563974
 30
-29.23477252501264
 10
0.0
 20
-598.0321372548619
 30
-29.2210339991821
 10
0.0
 20
-598.0
 30
-29.2068277077089
  0
LINE
  5
130
330
126
100
AcDbEntity
  8
PV-C5
100
AcDbLine
 10
0.0
 20
-598.0
 30
-54.0
 11
0.0
 21
-598.0
 31
-47.99999999999996
  0
LINE
  5
131
330
126
100
AcDbEntity
  8
PV-C5
100
AcDbLine
 10
0.0
 20
-602.0
 30
-48.0
 11
0.0
 21
-602.0
 31
-29.2068277077089
  0
LINE
  5
132
330
126
100
AcDbEntity
  8
PV-C5
100
AcDbLine
 10
0.0
 20
-602.0
 30
-47.99999999999996
 11
0.0
 21
-602.0
 31
-54.0
  0
LINE
  5
133
330
126
100
AcDbEntity
  8
PV-C5
100
AcDbLine
 10
0.0
 20
-498.0
 30
-48.0
 11
0.0
 21
-498.0
 31
-29.2068277077089
  0
SPLINE
  5
134
330
126
100
AcDbEntity
  8
PV-C5
100
AcDbSpline
210
1.0
220
0.0
230
0.0
 70
     8
 71
     3
 72
    19
 73
    15
 74
     0
 42
0.0000000001
 43
0.0000000001
 40
-1.946346350516163
 40
-1.946346350516163
 40
-1.946346350516163
 40
-1.946346350516163
 40
-1.842933541421799
 40
-1.842933541421799
 40
-0.9214667707108999
 40
-0.9214667707108999
 40
0.0
 40
0.0
 40
0.0
 40
0.9214667707108663
 40
0.9214667707108663
 40
1.842933541421732
 40
1.842933541421732
 40
1.946346350516163
 40
1.946346350516163
 40
1.946346350516163
 40
1.946346350516163
 10
0.0
 20
-502.0
 30
-29.2068277077089
 10
0.0
 20
-501.9678627451376
 30
-29.22103399918209
 10
0.0
 20
-501.9358602436023
 30
-29.23477252501263
 10
0.0
 20
-501.6205638281713
 30
-29.36629002990962
 10
0.0
 20
-501.2992718429841
 30
-29.46736202336838
 10
0.0
 20
-500.6425684504231
 30
-29.59899366481655
 10
0.0
 20
-500.3071555902367
 30
-29.62954606469697
 10
0.0
 20
-500.0
 30
-29.62954606469697
 10
0.0
 20
-499.692844409763
 30
-29.62954606469697
 10
0.0
 20
-499.3574315495767
 30
-29.59899366481655
 10
0.0
 20
-498.7007281570155
 30
-29.46736202336839
 10
0.0
 20
-498.3794361718286
 30
-29.36629002990963
 10
0.0
 20
-498.0641397563974
 30
-29.23477252501264
 10
0.0
 20
-498.032137254862
 30
-29.2210339991821
 10
0.0
 20
-498.0
 30
-29.2068277077089
  0
LINE
  5
135
330
126
100
AcDbEntity
  8
PV-C5
100
AcDbLine
 10
0.0
 20
-498.0
 30
-54.0
 11
0.0
 21
-498.0
 31
-47.99999999999996
  0
LINE
  5
136
330
126
100
AcDbEntity
  8
PV-C5
100
AcDbLine
 10
0.0
 20
-502.0
 30
-48.0
 11
0.0
 21
-502.0
 31
-29.2068277077089
  0
LINE
  5
137
330
126
100
AcDbEntity
  8
PV-C5
100
AcDbLine
 10
0.0
 20
-502.0
 30
-47.99999999999996
 11
0.0
 21
-502.0
 31
-54.0
  0
LINE
  5
138
330
126
100
AcDbEntity
  8
PV-C5
100
AcDbLine
 10
0.0
 20
-397.9999999999998
 30
-48.0
 11
0.0
 21
-397.9999999999998
 31
-29.2068277077089
  0
SPLINE
  5
139
330
126
100
AcDbEntity
  8
PV-C5
100
AcDbSpline
210
1.0
220
0.0
230
0.0
 70
     8
 71
     3
 72
    19
 73
    15
 74
     0
 42
0.0000000001
 43
0.0000000001
 40
-1.946346350516163
 40
-1.946346350516163
 40
-1.946346350516163
 40
-1.946346350516163
 40
-1.842933541421799
 40
-1.842933541421799
 40
-0.9214667707108999
 40
-0.9214667707108999
 40
0.0
 40
0.0
 40
0.0
 40
0.9214667707108663
 40
0.9214667707108663
 40
1.842933541421732
 40
1.842933541421732
 40
1.946346350516163
 40
1.946346350516163
 40
1.946346350516163
 40
1.946346350516163
 10
0.0
 20
-401.9999999999998
 30
-29.2068277077089
 10
0.0
 20
-401.9678627451376
 30
-29.22103399918209
 10
0.0
 20
-401.9358602436023
 30
-29.23477252501263
 10
0.0
 20
-401.6205638281713
 30
-29.36629002990962
 10
0.0
 20
-401.2992718429841
 30
-29.46736202336838
 10
0.0
 20
-400.6425684504231
 30
-29.59899366481655
 10
0.0
 20
-400.3071555902367
 30
-29.62954606469697
 10
0.0
 20
-399.9999999999998
 30
-29.62954606469697
 10
0.0
 20
-399.6928444097628
 30
-29.62954606469697
 10
0.0
 20
-399.3574315495767
 30
-29.59899366481655
 10
0.0
 20
-398.7007281570157
 30
-29.46736202336839
 10
0.0
 20
-398.3794361718286
 30
-29.36629002990963
 10
0.0
 20
-398.0641397563974
 30
-29.23477252501264
 10
0.0
 20
-398.0321372548619
 30
-29.2210339991821
 10
0.0
 20
-397.9999999999998
 30
-29.2068277077089
  0
LINE
  5
13A
330
126
100
AcDbEntity
  8
PV-C5
100
AcDbLine
 10
0.0
 20
-397.9999999999998
 30
-54.0
 11
0.0
 21
-397.9999999999998
 31
-47.99999999999996
  0
LINE
  5
13B
330
126
100
AcDbEntity
  8
PV-C5
100
AcDbLine
 10
0.0
 20
-401.9999999999998
 30
-48.0
 11
0.0
 21
-401.9999999999998
 31
-29.2068277077089
  0
LINE
  5
13C
330
126
100
AcDbEntity
  8
PV-C5
100
AcDbLine
 10
0.0
 20
-401.9999999999998
 30
-47.99999999999996
 11
0.0
 21
-401.9999999999998
 31
-54.0
  0
LINE
  5
13D
330
126
100
AcDbEntity
  8
PV-C5
100
AcDbLine
 10
0.0
 20
200.0
 30
35.0
 11
0.0
 21
200.0
 31
-35.0
  0
LINE
  5
13E
330
126
100
AcDbEntity
  8
PV-C5
100
AcDbLine
 10
0.0
 20
188.0
 30
33.0
 11
0.0
 21
188.0
 31
-33.0
  0
LINE
  5
13F
330
126
100
AcDbEntity
  8
PV-C5
100
AcDbLine
 10
0.0
 20
-297.9999999999999
 30
-48.0
 11
0.0
 21
-297.9999999999999
 31
-29.2068277077089
  0
SPLINE
  5
140
330
126
100
AcDbEntity
  8
PV-C5
100
AcDbSpline
210
1.0
220
0.0
230
0.0
 70
     8
 71
     3
 72
    19
 73
    15
 74
     0
 42
0.0000000001
 43
0.0000000001
 40
-1.946346350516163
 40
-1.946346350516163
 40
-1.946346350516163
 40
-1.946346350516163
 40
-1.842933541421799
 40
-1.842933541421799
 40
-0.9214667707108999
 40
-0.9214667707108999
 40
0.0
 40
0.0
 40
0.0
 40
0.9214667707108663
 40
0.9214667707108663
 40
1.842933541421732
 40
1.842933541421732
 40
1.946346350516163
 40
1.946346350516163
 40
1.946346350516163
 40
1.946346350516163
 10
0.0
 20
-301.9999999999999
 30
-29.2068277077089
 10
0.0
 20
-301.9678627451376
 30
-29.22103399918209
 10
0.0
 20
-301.9358602436021
 30
-29.23477252501263
 10
0.0
 20
-301.6205638281712
 30
-29.36629002990962
 10
0.0
 20
-301.2992718429841
 30
-29.46736202336838
 10
0.0
 20
-300.642568450423
 30
-29.59899366481655
 10
0.0
 20
-300.3071555902369
 30
-29.62954606469697
 10
0.0
 20
-299.9999999999999
 30
-29.62954606469697
 10
0.0
 20
-299.6928444097628
 30
-29.62954606469697
 10
0.0
 20
-299.3574315495767
 30
-29.59899366481655
 10
0.0
 20
-298.7007281570157
 30
-29.46736202336839
 10
0.0
 20
-298.3794361718286
 30
-29.36629002990963
 10
0.0
 20
-298.0641397563975
 30
-29.23477252501264
 10
0.0
 20
-298.0321372548619
 30
-29.2210339991821
 10
0.0
 20
-297.9999999999999
 30
-29.2068277077089
  0
LINE
  5
141
330
126
100
AcDbEntity
  8
PV-C5
100
AcDbLine
 10
0.0
 20
-297.9999999999999
 30
-54.0
 11
0.0
 21
-297.9999999999999
 31
-47.99999999999996
  0
LINE
  5
142
330
126
100
AcDbEntity
  8
PV-C5
100
AcDbLine
 10
0.0
 20
-301.9999999999999
 30
-48.0
 11
0.0
 21
-301.9999999999999
 31
-29.2068277077089
  0
LINE
  5
143
330
126
100
AcDbEntity
  8
PV-C5
100
AcDbLine
 10
0.0
 20
-301.9999999999999
 30
-47.99999999999996
 11
0.0
 21
-301.9999999999999
 31
-54.0
  0
LINE
  5
144
330
126
100
AcDbEntity
  8
PV-C5
100
AcDbLine
 10
0.0
 20
-197.9999999999997
 30
-48.0
 11
0.0
 21
-197.9999999999997
 31
-29.2068277077089
  0
SPLINE
  5
145
330
126
100
AcDbEntity
  8
PV-C5
100
AcDbSpline
210
1.0
220
0.0
230
0.0
 70
     8
 71
     3
 72
    19
 73
    15
 74
     0
 42
0.0000000001
 43
0.0000000001
 40
-1.946346350516163
 40
-1.946346350516163
 40
-1.946346350516163
 40
-1.946346350516163
 40
-1.842933541421799
 40
-1.842933541421799
 40
-0.9214667707108999
 40
-0.9214667707108999
 40
0.0
 40
0.0
 40
0.0
 40
0.9214667707108663
 40
0.9214667707108663
 40
1.842933541421732
 40
1.842933541421732
 40
1.946346350516163
 40
1.946346350516163
 40
1.946346350516163
 40
1.946346350516163
 10
0.0
 20
-201.9999999999998
 30
-29.2068277077089
 10
0.0
 20
-201.9678627451378
 30
-29.22103399918209
 10
0.0
 20
-201.9358602436021
 30
-29.23477252501263
 10
0.0
 20
-201.6205638281711
 30
-29.36629002990962
 10
0.0
 20
-201.2992718429841
 30
-29.46736202336838
 10
0.0
 20
-200.642568450423
 30
-29.59899366481655
 10
0.0
 20
-200.3071555902367
 30
-29.62954606469697
 10
0.0
 20
-199.9999999999998
 30
-29.62954606469697
 10
0.0
 20
-199.6928444097628
 30
-29.62954606469697
 10
0.0
 20
-199.3574315495767
 30
-29.59899366481655
 10
0.0
 20
-198.7007281570156
 30
-29.46736202336839
 10
0.0
 20
-198.3794361718285
 30
-29.36629002990963
 10
0.0
 20
-198.0641397563976
 30
-29.23477252501264
 10
0.0
 20
-198.0321372548619
 30
-29.2210339991821
 10
0.0
 20
-197.9999999999997
 30
-29.2068277077089
  0
LINE
  5
146
330
126
100
AcDbEntity
  8
PV-C5
100
AcDbLine
 10
0.0
 20
-197.9999999999997
 30
-54.0
 11
0.0
 21
-197.9999999999997
 31
-47.99999999999996
  0
LINE
  5
147
330
126
100
AcDbEntity
  8
PV-C5
100
AcDbLine
 10
0.0
 20
-201.9999999999998
 30
-48.0
 11
0.0
 21
-201.9999999999998
 31
-29.2068277077089
  0
LINE
  5
148
330
126
100
AcDbEntity
  8
PV-C5
100
AcDbLine
 10
0.0
 20
-201.9999999999998
 30
-47.99999999999996
 11
0.0
 21
-201.9999999999998
 31
-54.0
  0
LINE
  5
149
330
126
100
AcDbEntity
  8
PV-C5
100
AcDbLine
 10
0.0
 20
-97.99999999999997
 30
-48.0
 11
0.0
 21
-97.99999999999997
 31
-29.2068277077089
  0
SPLINE
  5
14A
330
126
100
AcDbEntity
  8
PV-C5
100
AcDbSpline
210
1.0
220
0.0
230
0.0
 70
     8
 71
     3
 72
    19
 73
    15
 74
     0
 42
0.0000000001
 43
0.0000000001
 40
-1.946346350516163
 40
-1.946346350516163
 40
-1.946346350516163
 40
-1.946346350516163
 40
-1.842933541421799
 40
-1.842933541421799
 40
-0.9214667707108999
 40
-0.9214667707108999
 40
0.0
 40
0.0
 40
0.0
 40
0.9214667707108663
 40
0.9214667707108663
 40
1.842933541421732
 40
1.842933541421732
 40
1.946346350516163
 40
1.946346350516163
 40
1.946346350516163
 40
1.946346350516163
 10
0.0
 20
-101.9999999999999
 30
-29.2068277077089
 10
0.0
 20
-101.9678627451378
 30
-29.22103399918209
 10
0.0
 20
-101.9358602436021
 30
-29.23477252501263
 10
0.0
 20
-101.6205638281711
 30
-29.36629002990962
 10
0.0
 20
-101.299271842984
 30
-29.46736202336838
 10
0.0
 20
-100.642568450423
 30
-29.59899366481655
 10
0.0
 20
-100.3071555902369
 30
-29.62954606469697
 10
0.0
 20
-99.99999999999994
 30
-29.62954606469697
 10
0.0
 20
-99.692844409763
 30
-29.62954606469697
 10
0.0
 20
-99.35743154957677
 30
-29.59899366481655
 10
0.0
 20
-98.70072815701576
 30
-29.46736202336839
 10
0.0
 20
-98.37943617182869
 30
-29.36629002990963
 10
0.0
 20
-98.06413975639765
 30
-29.23477252501264
 10
0.0
 20
-98.03213725486203
 30
-29.2210339991821
 10
0.0
 20
-97.99999999999997
 30
-29.2068277077089
  0
LINE
  5
14B
330
126
100
AcDbEntity
  8
PV-C5
100
AcDbLine
 10
0.0
 20
-97.99999999999997
 30
-54.0
 11
0.0
 21
-97.99999999999997
 31
-47.99999999999996
  0
LINE
  5
14C
330
126
100
AcDbEntity
  8
PV-C5
100
AcDbLine
 10
0.0
 20
-101.9999999999999
 30
-48.0
 11
0.0
 21
-101.9999999999999
 31
-29.2068277077089
  0
LINE
  5
14D
330
126
100
AcDbEntity
  8
PV-C5
100
AcDbLine
 10
0.0
 20
-101.9999999999999
 30
-47.99999999999996
 11
0.0
 21
-101.9999999999999
 31
-54.0
  0
CIRCLE
  5
14E
330
126
100
AcDbEntity
  8
PV-C5
100
AcDbCircle
 10
-983.0
 20
0.0
 30
0.0
 40
33.25
210
1.0
220
0.0
230
0.0
  0
CIRCLE
  5
14F
330
126
100
AcDbEntity
  8
PV-C5
100
AcDbCircle
 10
-983.0
 20
0.0
 30
0.0
 40
35.0
210
1.0
220
0.0
230
0.0
  0
CIRCLE
  5
150
330
126
100
AcDbEntity
  8
PV-C5
100
AcDbCircle
 10
-983.0
 20
0.0
 30
0.0
 40
16.8
210
1.0
220
0.0
230
0.0
  0
CIRCLE
  5
151
330
126
100
AcDbEntity
  8
PV-C5
100
AcDbCircle
 10
-983.0
 20
0.0
 30
0.0
 40
32.25
210
1.0
220
0.0
230
0.0
  0
LINE
  5
152
330
126
100
AcDbEntity
  8
PV-C5
100
AcDbLine
 10
0.0
 20
-101.9999999999999
 30
-54.0
 11
0.0
 21
-97.99999999999997
 31
-54.0
  0
ARC
  5
153
330
126
100
AcDbEntity
  8
PV-C5
100
AcDbCircle
 10
-99.99999999999994
 20
22.74233952194481
 30
0.0
 40
5.0
210
1.0
220
0.0
230
0.0
100
AcDbArc
 50
0.0000000000004071
 51
180.0
  0
LINE
  5
154
330
126
100
AcDbEntity
  8
PV-C5
100
AcDbLine
 10
0.0
 20
-201.9999999999998
 30
-54.0
 11
0.0
 21
-197.9999999999997
 31
-54.0
  0
ARC
  5
155
330
126
100
AcDbEntity
  8
PV-C5
100
AcDbCircle
 10
-199.9999999999998
 20
22.74233952194481
 30
0.0
 40
5.0
210
1.0
220
0.0
230
0.0
100
AcDbArc
 50
0.0000000000004071
 51
180.0
  0
LINE
  5
156
330
126
100
AcDbEntity
  8
PV-C5
100
AcDbLine
 10
0.0
 20
-301.9999999999999
 30
-54.0
 11
0.0
 21
-297.9999999999999
 31
-54.0
  0
ARC
  5
157
330
126
100
AcDbEntity
  8
PV-C5
100
AcDbCircle
 10
-299.9999999999999
 20
22.74233952194481
 30
0.0
 40
5.0
210
1.0
220
0.0
230
0.0
100
AcDbArc
 50
0.0000000000004071
 51
180.0
  0
LINE
  5
158
330
126
100
AcDbEntity
  8
PV-C5
100
AcDbLine
 10
0.0
 20
190.0
 30
-35.0
 11
0.0
 21
200.0
 31
-35.0
  0
LINE
  5
159
330
126
100
AcDbEntity
  8
PV-C5
100
AcDbLine
 10
0.0
 20
190.0
 30
35.0
 11
0.0
 21
200.0
 31
35.0
  0
LINE
  5
15A
330
126
100
AcDbEntity
  8
PV-C5
100
AcDbLine
 10
0.0
 20
-401.9999999999998
 30
-54.0
 11
0.0
 21
-397.9999999999998
 31
-54.0
  0
ARC
  5
15B
330
126
100
AcDbEntity
  8
PV-C5
100
AcDbCircle
 10
-399.9999999999998
 20
22.74233952194481
 30
0.0
 40
5.0
210
1.0
220
0.0
230
0.0
100
AcDbArc
 50
0.0000000000004071
 51
180.0
  0
LINE
  5
15C
330
126
100
AcDbEntity
  8
PV-C5
100
AcDbLine
 10
0.0
 20
-502.0
 30
-54.0
 11
0.0
 21
-498.0
 31
-54.0
  0
ARC
  5
15D
330
126
100
AcDbEntity
  8
PV-C5
100
AcDbCircle
 10
-500.0
 20
22.74233952194481
 30
0.0
 40
5.0
210
1.0
220
0.0
230
0.0
100
AcDbArc
 50
0.0000000000004071
 51
180.0
  0
LINE
  5
15E
330
126
100
AcDbEntity
  8
PV-C5
100
AcDbLine
 10
0.0
 20
-602.0
 30
-54.0
 11
0.0
 21
-598.0
 31
-54.0
  0
ARC
  5
15F
330
126
100
AcDbEntity
  8
PV-C5
100
AcDbCircle
 10
-600.0
 20
22.74233952194481
 30
0.0
 40
5.0
210
1.0
220
0.0
230
0.0
100
AcDbArc
 50
0.0000000000004071
 51
180.0
  0
LINE
  5
160
330
126
100
AcDbEntity
  8
PV-C5
100
AcDbLine
 10
0.0
 20
188.0
 30
16.5
 11
0.0
 21
-94.99999999999994
 31
16.5
  0
LINE
  5
161
330
126
100
AcDbEntity
  8
PV-C5
100
AcDbLine
 10
0.0
 20
-104.9999999999997
 30
16.5
 11
0.0
 21
-194.9999999999997
 31
16.5
  0
LINE
  5
162
330
126
100
AcDbEntity
  8
PV-C5
100
AcDbLine
 10
0.0
 20
-204.9999999999998
 30
16.5
 11
0.0
 21
-295.0
 31
16.5
  0
LINE
  5
163
330
126
100
AcDbEntity
  8
PV-C5
100
AcDbLine
 10
0.0
 20
-305.0
 30
16.5
 11
0.0
 21
-395.0
 31
16.5
  0
LINE
  5
164
330
126
100
AcDbEntity
  8
PV-C5
100
AcDbLine
 10
0.0
 20
-405.0
 30
16.5
 11
0.0
 21
-495.0
 31
16.5
  0
LINE
  5
165
330
126
100
AcDbEntity
  8
PV-C5
100
AcDbLine
 10
0.0
 20
-505.0
 30
16.5
 11
0.0
 21
-595.0
 31
16.5
  0
LINE
  5
166
330
126
100
AcDbEntity
  8
PV-C5
100
AcDbLine
 10
0.0
 20
-605.0
 30
16.5
 11
0.0
 21
-869.5
 31
16.5
  0
LINE
  5
167
330
126
100
AcDbEntity
  8
PV-C5
100
AcDbLine
 10
0.0
 20
188.0
 30
-16.5
 11
0.0
 21
-94.99999999999994
 31
-16.5
  0
LINE
  5
168
330
126
100
AcDbEntity
  8
PV-C5
100
AcDbLine
 10
0.0
 20
-104.9999999999997
 30
-16.5
 11
0.0
 21
-194.9999999999997
 31
-16.5
  0
LINE
  5
169
330
126
100
AcDbEntity
  8
PV-C5
100
AcDbLine
 10
0.0
 20
-204.9999999999998
 30
-16.5
 11
0.0
 21
-295.0
 31
-16.5
  0
LINE
  5
16A
330
126
100
AcDbEntity
  8
PV-C5
100
AcDbLine
 10
0.0
 20
-305.0
 30
-16.5
 11
0.0
 21
-395.0
 31
-16.5
  0
LINE
  5
16B
330
126
100
AcDbEntity
  8
PV-C5
100
AcDbLine
 10
0.0
 20
-405.0
 30
-16.5
 11
0.0
 21
-495.0
 31
-16.5
  0
LINE
  5
16C
330
126
100
AcDbEntity
  8
PV-C5
100
AcDbLine
 10
0.0
 20
-505.0
 30
-16.5
 11
0.0
 21
-595.0
 31
-16.5
  0
LINE
  5
16D
330
126
100
AcDbEntity
  8
PV-C5
100
AcDbLine
 10
0.0
 20
-605.0
 30
-16.5
 11
0.0
 21
-869.5
 31
-16.5
  0
LINE
  5
16E
330
126
100
AcDbEntity
  8
PV-C5
100
AcDbLine
 10
0.0
 20
-914.4999999999999
 30
540.0
 11
0.0
 21
-914.4999999999999
 31
550.0
  0
LINE
  5
16F
330
126
100
AcDbEntity
  8
PV-C5
100
AcDbLine
 10
0.0
 20
-984.5
 30
540.0
 11
0.0
 21
-984.5
 31
550.0
  0
LINE
  5
170
330
126
100
AcDbEntity
  8
PV-C5
100
AcDbLine
 10
0.0
 20
-966.0
 30
538.0
 11
0.0
 21
-966.0
 31
49.88934683145163
  0
LINE
  5
171
330
126
100
AcDbEntity
  8
PV-C5
100
AcDbLine
 10
0.0
 20
-933.0
 30
538.0
 11
0.0
 21
-933.0
 31
49.88934683145163
  0
ARC
  5
172
330
126
100
AcDbEntity
  8
PV-C5
100
AcDbCircle
 10
-949.5
 20
167.6999999999999
 30
0.0
 40
120.0
210
1.0
220
0.0
230
0.0
100
AcDbArc
 50
262.6004459104684
 51
267.110112628002
  0
ARC
  5
173
330
126
100
AcDbEntity
  8
PV-C5
100
AcDbCircle
 10
-949.5
 20
167.6999999999999
 30
0.0
 40
119.9999999999999
210
1.0
220
0.0
230
0.0
100
AcDbArc
 50
272.8898873719978
 51
277.3995540895314
  0
LINE
  5
174
330
126
100
AcDbEntity
  8
PV-C5
100
AcDbLine
 10
0.0
 20
-955.55
 30
47.85260745431297
 11
0.0
 21
-955.55
 31
21.71399318411971
  0
LINE
  5
175
330
126
100
AcDbEntity
  8
PV-C5
100
AcDbLine
 10
0.0
 20
-943.4499999999999
 30
47.85260745431297
 11
0.0
 21
-943.4499999999999
 31
15.0
  0
LINE
  5
176
330
126
100
AcDbEntity
  8
PV-C5
100
AcDbLine
 10
0.0
 20
-94.99999999999994
 30
-25.0
 11
0.0
 21
-94.99999999999994
 31
22.74233952194481
  0
LINE
  5
177
330
126
100
AcDbEntity
  8
PV-C5
100
AcDbLine
 10
0.0
 20
-104.9999999999997
 30
22.74233952194481
 11
0.0
 21
-104.9999999999997
 31
-25.0
  0
ARC
  5
178
330
126
100
AcDbEntity
  8
PV-C5
100
AcDbCircle
 10
-99.99999999999994
 20
-25.0
 30
0.0
 40
5.0
210
1.0
220
0.0
230
0.0
100
AcDbArc
 50
179.9999999999978
 51
246.4218215217981
  0
ARC
  5
179
330
126
100
AcDbEntity
  8
PV-C5
100
AcDbCircle
 10
-99.99999999999994
 20
-25.0
 30
0.0
 40
5.0
210
1.0
220
0.0
230
0.0
100
AcDbArc
 50
293.5781784782018
 51
0.0
  0
LINE
  5
17A
330
126
100
AcDbEntity
  8
PV-C5
100
AcDbLine
 10
0.0
 20
-194.9999999999997
 30
-25.0
 11
0.0
 21
-194.9999999999997
 31
22.74233952194481
  0
LINE
  5
17B
330
126
100
AcDbEntity
  8
PV-C5
100
AcDbLine
 10
0.0
 20
-204.9999999999998
 30
22.74233952194481
 11
0.0
 21
-204.9999999999998
 31
-25.0
  0
ARC
  5
17C
330
126
100
AcDbEntity
  8
PV-C5
100
AcDbCircle
 10
-199.9999999999998
 20
-25.0
 30
0.0
 40
5.0
210
1.0
220
0.0
230
0.0
100
AcDbArc
 50
179.9999999999978
 51
246.4218215217981
  0
ARC
  5
17D
330
126
100
AcDbEntity
  8
PV-C5
100
AcDbCircle
 10
-199.9999999999998
 20
-25.0
 30
0.0
 40
5.0
210
1.0
220
0.0
230
0.0
100
AcDbArc
 50
293.5781784782018
 51
0.0
  0
LINE
  5
17E
330
126
100
AcDbEntity
  8
PV-C5
100
AcDbLine
 10
0.0
 20
-294.9999999999998
 30
-25.0
 11
0.0
 21
-294.9999999999998
 31
22.74233952194481
  0
LINE
  5
17F
330
126
100
AcDbEntity
  8
PV-C5
100
AcDbLine
 10
0.0
 20
-304.9999999999998
 30
22.74233952194481
 11
0.0
 21
-304.9999999999998
 31
-25.0
  0
ARC
  5
180
330
126
100
AcDbEntity
  8
PV-C5
100
AcDbCircle
 10
-299.9999999999999
 20
-25.0
 30
0.0
 40
5.0
210
1.0
220
0.0
230
0.0
100
AcDbArc
 50
179.9999999999978
 51
246.4218215217981
  0
ARC
  5
181
330
126
100
AcDbEntity
  8
PV-C5
100
AcDbCircle
 10
-299.9999999999999
 20
-25.0
 30
0.0
 40
5.0
210
1.0
220
0.0
230
0.0
100
AcDbArc
 50
293.5781784782018
 51
0.0
  0
ARC
  5
182
330
126
100
AcDbEntity
  8
PV-C5
100
AcDbCircle
 10
190.0
 20
33.0
 30
0.0
 40
2.0
210
1.0
220
0.0
230
0.0
100
AcDbArc
 50
90.00000000000019
 51
180.0000000000012
  0
ARC
  5
183
330
126
100
AcDbEntity
  8
PV-C5
100
AcDbCircle
 10
190.0
 20
-33.0
 30
0.0
 40
2.0
210
1.0
220
0.0
230
0.0
100
AcDbArc
 50
179.9999999999978
 51
269.9999999999997
  0
LINE
  5
184
330
126
100
AcDbEntity
  8
PV-C5
100
AcDbLine
 10
0.0
 20
-394.9999999999998
 30
-25.0
 11
0.0
 21
-394.9999999999998
 31
22.74233952194481
  0
LINE
  5
185
330
126
100
AcDbEntity
  8
PV-C5
100
AcDbLine
 10
0.0
 20
-404.9999999999998
 30
22.74233952194481
 11
0.0
 21
-404.9999999999998
 31
-25.0
  0
ARC
  5
186
330
126
100
AcDbEntity
  8
PV-C5
100
AcDbCircle
 10
-399.9999999999998
 20
-25.0
 30
0.0
 40
5.0
210
1.0
220
0.0
230
0.0
100
AcDbArc
 50
179.9999999999978
 51
246.4218215217981
  0
ARC
  5
187
330
126
100
AcDbEntity
  8
PV-C5
100
AcDbCircle
 10
-399.9999999999998
 20
-25.0
 30
0.0
 40
5.0
210
1.0
220
0.0
230
0.0
100
AcDbArc
 50
293.5781784782018
 51
0.0
  0
LINE
  5
188
330
126
100
AcDbEntity
  8
PV-C5
100
AcDbLine
 10
0.0
 20
-495.0
 30
-25.0
 11
0.0
 21
-495.0
 31
22.74233952194481
  0
LINE
  5
189
330
126
100
AcDbEntity
  8
PV-C5
100
AcDbLine
 10
0.0
 20
-505.0
 30
22.74233952194481
 11
0.0
 21
-505.0
 31
-25.0
  0
ARC
  5
18A
330
126
100
AcDbEntity
  8
PV-C5
100
AcDbCircle
 10
-500.0
 20
-25.0
 30
0.0
 40
5.0
210
1.0
220
0.0
230
0.0
100
AcDbArc
 50
179.9999999999978
 51
246.4218215217981
  0
ARC
  5
18B
330
126
100
AcDbEntity
  8
PV-C5
100
AcDbCircle
 10
-500.0
 20
-25.0
 30
0.0
 40
5.0
210
1.0
220
0.0
230
0.0
100
AcDbArc
 50
293.5781784782018
 51
0.0
  0
LINE
  5
18C
330
126
100
AcDbEntity
  8
PV-C5
100
AcDbLine
 10
0.0
 20
-595.0
 30
-25.0
 11
0.0
 21
-595.0
 31
22.74233952194481
  0
LINE
  5
18D
330
126
100
AcDbEntity
  8
PV-C5
100
AcDbLine
 10
0.0
 20
-605.0
 30
22.74233952194481
 11
0.0
 21
-605.0
 31
-25.0
  0
ARC
  5
18E
330
126
100
AcDbEntity
  8
PV-C5
100
AcDbCircle
 10
-600.0
 20
-25.0
 30
0.0
 40
5.0
210
1.0
220
0.0
230
0.0
100
AcDbArc
 50
179.9999999999978
 51
246.4218215217981
  0
ARC
  5
18F
330
126
100
AcDbEntity
  8
PV-C5
100
AcDbCircle
 10
-600.0
 20
-25.0
 30
0.0
 40
5.0
210
1.0
220
0.0
230
0.0
100
AcDbArc
 50
293.5781784782018
 51
0.0
  0
LINE
  5
190
330
126
100
AcDbEntity
  8
PV-C5
100
AcDbLine
 10
0.0
 20
-869.5000000000003
 30
16.5
 11
0.0
 21
-943.4499999999999
 31
16.5
  0
LINE
  5
191
330
126
100
AcDbEntity
  8
PV-C5
100
AcDbLine
 10
0.0
 20
-979.8393038741442
 30
16.5
 11
0.0
 21
-983.0
 31
16.5
  0
LINE
  5
192
330
126
100
AcDbEntity
  8
PV-C5
100
AcDbLine
 10
0.0
 20
-983.0
 30
-16.5
 11
0.0
 21
-979.8393038741442
 31
-16.5
  0
LINE
  5
193
330
126
100
AcDbEntity
  8
PV-C5
100
AcDbLine
 10
0.0
 20
-952.1333513318987
 30
-16.5
 11
0.0
 21
-869.5000000000003
 31
-16.5
  0
ARC
  5
194
330
126
100
AcDbEntity
  8
PV-C5
100
AcDbCircle
 10
-982.5000000000001
 20
540.0
 30
0.0
 40
2.0
210
1.0
220
0.0
230
0.0
100
AcDbArc
 50
180.0000000000002
 51
269.9999999999996
  0
ARC
  5
195
330
126
100
AcDbEntity
  8
PV-C5
100
AcDbCircle
 10
-916.5
 20
540.0
 30
0.0
 40
2.0
210
1.0
220
0.0
230
0.0
100
AcDbArc
 50
269.9999999999996
 51
359.9999999999997
  0
ARC
  5
196
330
126
100
AcDbEntity
  8
PV-C5
100
AcDbCircle
 10
-934.2
 20
49.88934683145163
 30
0.0
 40
1.199999999999999
210
1.0
220
0.0
230
0.0
100
AcDbArc
 50
277.3995540895356
 51
0.0000000000003435
  0
ARC
  5
197
330
126
100
AcDbEntity
  8
PV-C5
100
AcDbCircle
 10
-964.7999999999999
 20
49.88934683145163
 30
0.0
 40
1.199999999999999
210
1.0
220
0.0
230
0.0
100
AcDbArc
 50
179.9999999999995
 51
262.600445910464
  0
ENDBLK
  5
199
330
126
100
AcDbEntity
  8
0
100
AcDbBlockEnd
  0
BLOCK
  5
19C
330
19A
100
AcDbEntity
  8
0
100
AcDbBlockBegin
  2
RIGHT
 70
     0
 10
0.0
 20
0.0
 30
0.0
  3
RIGHT
  1

  0
INSERT
  5
19B
330
19A
100
AcDbEntity
  8
PV-C5
100
AcDbBlockReference
  2
*U4
 10
0.0
 20
0.0
 30
0.0
 50
90.0
210
0.0
220
1.0
230
0.0
  0
ENDBLK
  5
19D
330
19A
100
AcDbEntity
  8
0
100
AcDbBlockEnd
  0
BLOCK
  5
207
330
19F
100
AcDbEntity
  8
0
100
AcDbBlockBegin
  2
*U6
 70
     1
 10
0.0
 20
0.0
 30
0.0
  3
*U6
  1
*ANON
  0
CIRCLE
  5
1A0
330
19F
100
AcDbEntity
  8
PV-C5
100
AcDbCircle
 10
33.5
 20
-949.5
 30
0.0
 40
16.5
  0
CIRCLE
  5
1A1
330
19F
100
AcDbEntity
  8
PV-C5
100
AcDbCircle
 10
33.5
 20
-949.5
 30
0.0
 40
33.25
  0
CIRCLE
  5
1A2
330
19F
100
AcDbEntity
  8
PV-C5
100
AcDbCircle
 10
33.5
 20
-949.5
 30
0.0
 40
35.0
  0
CIRCLE
  5
1A3
330
19F
100
AcDbEntity
  8
PV-C5
100
AcDbCircle
 10
33.5
 20
-949.5
 30
0.0
 40
16.8
  0
CIRCLE
  5
1A4
330
19F
100
AcDbEntity
  8
PV-C5
100
AcDbCircle
 10
33.5
 20
-949.5
 30
0.0
 40
32.25
  0
LINE
  5
1A5
330
19F
100
AcDbEntity
  8
PV-C5
100
AcDbLine
 10
113.5
 20
-966.5
 30
0.0
 11
113.5
 21
-999.5
 31
0.0
  0
LINE
  5
1A6
330
19F
100
AcDbEntity
  8
PV-C5
100
AcDbLine
 10
-16.5
 20
-869.5
 30
0.0
 11
16.5
 21
-869.5
 31
0.0
  0
LINE
  5
1A7
330
19F
100
AcDbEntity
  8
PV-C5
100
AcDbLine
 10
-16.5
 20
-869.5
 30
0.0
 11
16.5
 21
-869.5
 31
0.0
  0
LINE
  5
1A8
330
19F
100
AcDbEntity
  8
PV-C5
100
AcDbLine
 10
113.5
 20
-966.5
 30
0.0
 11
113.5
 21
-999.5
 31
0.0
  0
LINE
  5
1A9
330
19F
100
AcDbEntity
  8
PV-C5
100
AcDbLine
 10
-35.0
 20
200.0
 30
0.0
 11
35.0
 21
200.0
 31
0.0
  0
LINE
  5
1AA
330
19F
100
AcDbEntity
  8
PV-C5
100
AcDbLine
 10
-33.0
 20
188.0
 30
0.0
 11
33.0
 21
188.0
 31
0.0
  0
LINE
  5
1AB
330
19F
100
AcDbEntity
  8
PV-C5
100
AcDbLine
 10
1183.0
 20
-948.0
 30
0.0
 11
1183.0
 21
-1018.0
 31
0.0
  0
LINE
  5
1AC
330
19F
100
AcDbEntity
  8
PV-C5
100
AcDbLine
 10
1171.0
 20
-950.0
 30
0.0
 11
1171.0
 21
-1016.0
 31
0.0
  0
LINE
  5
1AD
330
19F
100
AcDbEntity
  8
PV-C5
100
AcDbLine
 10
1173.0
 20
-1018.0
 30
0.0
 11
1183.0
 21
-1018.0
 31
0.0
  0
LINE
  5
1AE
330
19F
100
AcDbEntity
  8
PV-C5
100
AcDbLine
 10
1173.0
 20
-948.0
 30
0.0
 11
1183.0
 21
-948.0
 31
0.0
  0
ARC
  5
1AF
330
19F
100
AcDbEntity
  8
PV-C5
100
AcDbCircle
 10
-20.61228453347117
 20
-99.99999999999994
 30
0.0
 40
5.0
100
AcDbArc
 50
270.0
 51
89.9999999999996
  0
ARC
  5
1B0
330
19F
100
AcDbEntity
  8
PV-C5
100
AcDbCircle
 10
10.38200332636176
 20
-99.99999999999994
 30
0.0
 40
5.0
100
AcDbArc
 50
90.0
 51
269.9999999999996
  0
ARC
  5
1B1
330
19F
100
AcDbEntity
  8
PV-C5
100
AcDbCircle
 10
-20.61228453347117
 20
-199.9999999999998
 30
0.0
 40
5.0
100
AcDbArc
 50
270.0
 51
89.9999999999996
  0
ARC
  5
1B2
330
19F
100
AcDbEntity
  8
PV-C5
100
AcDbCircle
 10
10.38200332636176
 20
-199.9999999999998
 30
0.0
 40
5.0
100
AcDbArc
 50
90.0
 51
269.9999999999996
  0
ARC
  5
1B3
330
19F
100
AcDbEntity
  8
PV-C5
100
AcDbCircle
 10
-20.61228453347117
 20
-299.9999999999999
 30
0.0
 40
5.0
100
AcDbArc
 50
270.0
 51
89.9999999999996
  0
ARC
  5
1B4
330
19F
100
AcDbEntity
  8
PV-C5
100
AcDbCircle
 10
10.38200332636176
 20
-299.9999999999999
 30
0.0
 40
5.0
100
AcDbArc
 50
90.0
 51
269.9999999999996
  0
LINE
  5
1B5
330
19F
100
AcDbEntity
  8
PV-C5
100
AcDbLine
 10
35.0
 20
190.0
 30
0.0
 11
35.0
 21
200.0
 31
0.0
  0
LINE
  5
1B6
330
19F
100
AcDbEntity
  8
PV-C5
100
AcDbLine
 10
-35.0
 20
190.0
 30
0.0
 11
-35.0
 21
200.0
 31
0.0
  0
ARC
  5
1B7
330
19F
100
AcDbEntity
  8
PV-C5
100
AcDbCircle
 10
-20.61228453347117
 20
-399.9999999999998
 30
0.0
 40
5.0
100
AcDbArc
 50
270.0
 51
89.9999999999996
  0
ARC
  5
1B8
330
19F
100
AcDbEntity
  8
PV-C5
100
AcDbCircle
 10
10.38200332636176
 20
-399.9999999999998
 30
0.0
 40
5.0
100
AcDbArc
 50
90.0
 51
269.9999999999996
  0
ARC
  5
1B9
330
19F
100
AcDbEntity
  8
PV-C5
100
AcDbCircle
 10
-20.61228453347117
 20
-500.0
 30
0.0
 40
5.0
100
AcDbArc
 50
270.0
 51
89.9999999999996
  0
ARC
  5
1BA
330
19F
100
AcDbEntity
  8
PV-C5
100
AcDbCircle
 10
10.38200332636176
 20
-500.0
 30
0.0
 40
5.0
100
AcDbArc
 50
90.0
 51
269.9999999999996
  0
ARC
  5
1BB
330
19F
100
AcDbEntity
  8
PV-C5
100
AcDbCircle
 10
-20.61228453347117
 20
-600.0
 30
0.0
 40
5.0
100
AcDbArc
 50
270.0
 51
89.9999999999996
  0
ARC
  5
1BC
330
19F
100
AcDbEntity
  8
PV-C5
100
AcDbCircle
 10
10.38200332636176
 20
-600.0
 30
0.0
 40
5.0
100
AcDbArc
 50
90.0
 51
269.9999999999996
  0
LINE
  5
1BD
330
19F
100
AcDbEntity
  8
PV-C5
100
AcDbLine
 10
-16.5
 20
188.0
 30
0.0
 11
-16.5
 21
-97.15586288731117
 31
0.0
  0
LINE
  5
1BE
330
19F
100
AcDbEntity
  8
PV-C5
100
AcDbLine
 10
-16.5
 20
-102.8441371126886
 30
0.0
 11
-16.5
 21
-197.1558628873109
 31
0.0
  0
LINE
  5
1BF
330
19F
100
AcDbEntity
  8
PV-C5
100
AcDbLine
 10
-16.5
 20
-202.8441371126886
 30
0.0
 11
-16.5
 21
-297.1558628873111
 31
0.0
  0
LINE
  5
1C0
330
19F
100
AcDbEntity
  8
PV-C5
100
AcDbLine
 10
-16.5
 20
-302.8441371126886
 30
0.0
 11
-16.5
 21
-397.1558628873109
 31
0.0
  0
LINE
  5
1C1
330
19F
100
AcDbEntity
  8
PV-C5
100
AcDbLine
 10
-16.5
 20
-402.8441371126886
 30
0.0
 11
-16.5
 21
-497.1558628873109
 31
0.0
  0
LINE
  5
1C2
330
19F
100
AcDbEntity
  8
PV-C5
100
AcDbLine
 10
-16.5
 20
-502.8441371126888
 30
0.0
 11
-16.5
 21
-597.155862887311
 31
0.0
  0
LINE
  5
1C3
330
19F
100
AcDbEntity
  8
PV-C5
100
AcDbLine
 10
-16.5
 20
-602.8441371126887
 30
0.0
 11
-16.5
 21
-869.5
 31
0.0
  0
LINE
  5
1C4
330
19F
100
AcDbEntity
  8
PV-C5
100
AcDbLine
 10
16.5
 20
188.0
 30
0.0
 11
16.5
 21
-94.99999999999994
 31
0.0
  0
LINE
  5
1C5
330
19F
100
AcDbEntity
  8
PV-C5
100
AcDbLine
 10
16.5
 20
-104.9999999999997
 30
0.0
 11
16.5
 21
-194.9999999999997
 31
0.0
  0
LINE
  5
1C6
330
19F
100
AcDbEntity
  8
PV-C5
100
AcDbLine
 10
16.5
 20
-204.9999999999998
 30
0.0
 11
16.5
 21
-295.0
 31
0.0
  0
LINE
  5
1C7
330
19F
100
AcDbEntity
  8
PV-C5
100
AcDbLine
 10
16.5
 20
-305.0
 30
0.0
 11
16.5
 21
-395.0
 31
0.0
  0
LINE
  5
1C8
330
19F
100
AcDbEntity
  8
PV-C5
100
AcDbLine
 10
16.5
 20
-405.0
 30
0.0
 11
16.5
 21
-495.0
 31
0.0
  0
LINE
  5
1C9
330
19F
100
AcDbEntity
  8
PV-C5
100
AcDbLine
 10
16.5
 20
-505.0
 30
0.0
 11
16.5
 21
-595.0
 31
0.0
  0
LINE
  5
1CA
330
19F
100
AcDbEntity
  8
PV-C5
100
AcDbLine
 10
16.5
 20
-605.0
 30
0.0
 11
16.5
 21
-869.5
 31
0.0
  0
LINE
  5
1CB
330
19F
100
AcDbEntity
  8
PV-C5
100
AcDbLine
 10
1171.0
 20
-966.5
 30
0.0
 11
113.5
 21
-966.5
 31
0.0
  0
LINE
  5
1CC
330
19F
100
AcDbEntity
  8
PV-C5
100
AcDbLine
 10
1171.0
 20
-999.5
 30
0.0
 11
113.5
 21
-999.5
 31
0.0
  0
ARC
  5
1CD
330
19F
100
AcDbEntity
  8
PV-C5
100
AcDbCircle
 10
1173.0
 20
-950.0
 30
0.0
 40
2.0
100
AcDbArc
 50
90.00000000000019
 51
179.9999999999995
  0
ARC
  5
1CE
330
19F
100
AcDbEntity
  8
PV-C5
100
AcDbCircle
 10
1173.0
 20
-1016.0
 30
0.0
 40
2.0
100
AcDbArc
 50
179.9999999999995
 51
269.9999999999997
  0
LINE
  5
1CF
330
19F
100
AcDbEntity
  8
PV-C5
100
AcDbLine
 10
-16.49999999999999
 20
-94.99999999999994
 30
0.0
 11
-20.61228453347117
 21
-94.99999999999994
 31
0.0
  0
LINE
  5
1D0
330
19F
100
AcDbEntity
  8
PV-C5
100
AcDbLine
 10
-20.61228453347117
 20
-94.99999999999994
 30
0.0
 11
-25.0
 21
-94.99999999999994
 31
0.0
  0
LINE
  5
1D1
330
19F
100
AcDbEntity
  8
PV-C5
100
AcDbLine
 10
25.0
 20
-94.99999999999994
 30
0.0
 11
10.38200332636176
 21
-94.99999999999994
 31
0.0
  0
LINE
  5
1D2
330
19F
100
AcDbEntity
  8
PV-C5
100
AcDbLine
 10
10.38200332636176
 20
-104.9999999999997
 30
0.0
 11
25.0
 21
-104.9999999999997
 31
0.0
  0
LINE
  5
1D3
330
19F
100
AcDbEntity
  8
PV-C5
100
AcDbLine
 10
-25.0
 20
-104.9999999999997
 30
0.0
 11
-20.61228453347117
 21
-104.9999999999997
 31
0.0
  0
LINE
  5
1D4
330
19F
100
AcDbEntity
  8
PV-C5
100
AcDbLine
 10
-20.61228453347117
 20
-104.9999999999997
 30
0.0
 11
-16.5
 21
-104.9999999999997
 31
0.0
  0
ARC
  5
1D5
330
19F
100
AcDbEntity
  8
PV-C5
100
AcDbCircle
 10
-25.0
 20
-99.99999999999994
 30
0.0
 40
5.0
100
AcDbArc
 50
90.0
 51
270.0000000000012
  0
ARC
  5
1D6
330
19F
100
AcDbEntity
  8
PV-C5
100
AcDbCircle
 10
25.0
 20
-99.99999999999994
 30
0.0
 40
5.0
100
AcDbArc
 50
269.9999999999978
 51
90.0
  0
LINE
  5
1D7
330
19F
100
AcDbEntity
  8
PV-C5
100
AcDbLine
 10
-16.49999999999999
 20
-194.9999999999997
 30
0.0
 11
-20.61228453347117
 21
-194.9999999999997
 31
0.0
  0
LINE
  5
1D8
330
19F
100
AcDbEntity
  8
PV-C5
100
AcDbLine
 10
-20.61228453347117
 20
-194.9999999999997
 30
0.0
 11
-25.0
 21
-194.9999999999997
 31
0.0
  0
LINE
  5
1D9
330
19F
100
AcDbEntity
  8
PV-C5
100
AcDbLine
 10
25.0
 20
-194.9999999999997
 30
0.0
 11
10.38200332636176
 21
-194.9999999999997
 31
0.0
  0
LINE
  5
1DA
330
19F
100
AcDbEntity
  8
PV-C5
100
AcDbLine
 10
10.38200332636176
 20
-204.9999999999998
 30
0.0
 11
25.0
 21
-204.9999999999998
 31
0.0
  0
LINE
  5
1DB
330
19F
100
AcDbEntity
  8
PV-C5
100
AcDbLine
 10
-25.0
 20
-204.9999999999998
 30
0.0
 11
-20.61228453347117
 21
-204.9999999999998
 31
0.0
  0
LINE
  5
1DC
330
19F
100
AcDbEntity
  8
PV-C5
100
AcDbLine
 10
-20.61228453347117
 20
-204.9999999999998
 30
0.0
 11
-16.5
 21
-204.9999999999998
 31
0.0
  0
ARC
  5
1DD
330
19F
100
AcDbEntity
  8
PV-C5
100
AcDbCircle
 10
-25.0
 20
-199.9999999999998
 30
0.0
 40
5.0
100
AcDbArc
 50
90.0
 51
270.0000000000012
  0
ARC
  5
1DE
330
19F
100
AcDbEntity
  8
PV-C5
100
AcDbCircle
 10
25.0
 20
-199.9999999999998
 30
0.0
 40
5.0
100
AcDbArc
 50
269.9999999999978
 51
90.0
  0
LINE
  5
1DF
330
19F
100
AcDbEntity
  8
PV-C5
100
AcDbLine
 10
-16.49999999999999
 20
-294.9999999999998
 30
0.0
 11
-20.61228453347117
 21
-294.9999999999998
 31
0.0
  0
LINE
  5
1E0
330
19F
100
AcDbEntity
  8
PV-C5
100
AcDbLine
 10
-20.61228453347117
 20
-294.9999999999998
 30
0.0
 11
-25.0
 21
-294.9999999999998
 31
0.0
  0
LINE
  5
1E1
330
19F
100
AcDbEntity
  8
PV-C5
100
AcDbLine
 10
25.0
 20
-294.9999999999998
 30
0.0
 11
10.38200332636176
 21
-294.9999999999998
 31
0.0
  0
LINE
  5
1E2
330
19F
100
AcDbEntity
  8
PV-C5
100
AcDbLine
 10
10.38200332636176
 20
-304.9999999999998
 30
0.0
 11
25.0
 21
-304.9999999999998
 31
0.0
  0
LINE
  5
1E3
330
19F
100
AcDbEntity
  8
PV-C5
100
AcDbLine
 10
-25.0
 20
-304.9999999999998
 30
0.0
 11
-20.61228453347117
 21
-304.9999999999998
 31
0.0
  0
LINE
  5
1E4
330
19F
100
AcDbEntity
  8
PV-C5
100
AcDbLine
 10
-20.61228453347117
 20
-304.9999999999998
 30
0.0
 11
-16.5
 21
-304.9999999999998
 31
0.0
  0
ARC
  5
1E5
330
19F
100
AcDbEntity
  8
PV-C5
100
AcDbCircle
 10
-25.0
 20
-299.9999999999999
 30
0.0
 40
5.0
100
AcDbArc
 50
90.0
 51
270.0000000000012
  0
ARC
  5
1E6
330
19F
100
AcDbEntity
  8
PV-C5
100
AcDbCircle
 10
25.0
 20
-299.9999999999999
 30
0.0
 40
5.0
100
AcDbArc
 50
269.9999999999978
 51
90.0
  0
ARC
  5
1E7
330
19F
100
AcDbEntity
  8
PV-C5
100
AcDbCircle
 10
-33.0
 20
190.0
 30
0.0
 40
2.0
100
AcDbArc
 50
180.0000000000002
 51
270.0000000000012
  0
ARC
  5
1E8
330
19F
100
AcDbEntity
  8
PV-C5
100
AcDbCircle
 10
33.0
 20
190.0
 30
0.0
 40
2.0
100
AcDbArc
 50
269.9999999999978
 51
359.9999999999997
  0
LINE
  5
1E9
330
19F
100
AcDbEntity
  8
PV-C5
100
AcDbLine
 10
-16.49999999999999
 20
-394.9999999999998
 30
0.0
 11
-20.61228453347117
 21
-394.9999999999998
 31
0.0
  0
LINE
  5
1EA
330
19F
100
AcDbEntity
  8
PV-C5
100
AcDbLine
 10
-20.61228453347117
 20
-394.9999999999998
 30
0.0
 11
-25.0
 21
-394.9999999999998
 31
0.0
  0
LINE
  5
1EB
330
19F
100
AcDbEntity
  8
PV-C5
100
AcDbLine
 10
25.0
 20
-394.9999999999998
 30
0.0
 11
10.38200332636176
 21
-394.9999999999998
 31
0.0
  0
LINE
  5
1EC
330
19F
100
AcDbEntity
  8
PV-C5
100
AcDbLine
 10
10.38200332636176
 20
-404.9999999999998
 30
0.0
 11
25.0
 21
-404.9999999999998
 31
0.0
  0
LINE
  5
1ED
330
19F
100
AcDbEntity
  8
PV-C5
100
AcDbLine
 10
-25.0
 20
-404.9999999999998
 30
0.0
 11
-20.61228453347117
 21
-404.9999999999998
 31
0.0
  0
LINE
  5
1EE
330
19F
100
AcDbEntity
  8
PV-C5
100
AcDbLine
 10
-20.61228453347117
 20
-404.9999999999998
 30
0.0
 11
-16.5
 21
-404.9999999999998
 31
0.0
  0
ARC
  5
1EF
330
19F
100
AcDbEntity
  8
PV-C5
100
AcDbCircle
 10
-25.0
 20
-399.9999999999998
 30
0.0
 40
5.0
100
AcDbArc
 50
90.0
 51
270.0000000000012
  0
ARC
  5
1F0
330
19F
100
AcDbEntity
  8
PV-C5
100
AcDbCircle
 10
25.0
 20
-399.9999999999998
 30
0.0
 40
5.0
100
AcDbArc
 50
269.9999999999978
 51
90.0
  0
LINE
  5
1F1
330
19F
100
AcDbEntity
  8
PV-C5
100
AcDbLine
 10
-16.49999999999999
 20
-495.0
 30
0.0
 11
-20.61228453347117
 21
-495.0
 31
0.0
  0
LINE
  5
1F2
330
19F
100
AcDbEntity
  8
PV-C5
100
AcDbLine
 10
-20.61228453347117
 20
-495.0
 30
0.0
 11
-25.0
 21
-495.0
 31
0.0
  0
LINE
  5
1F3
330
19F
100
AcDbEntity
  8
PV-C5
100
AcDbLine
 10
25.0
 20
-495.0
 30
0.0
 11
10.38200332636176
 21
-495.0
 31
0.0
  0
LINE
  5
1F4
330
19F
100
AcDbEntity
  8
PV-C5
100
AcDbLine
 10
10.38200332636176
 20
-505.0
 30
0.0
 11
25.0
 21
-505.0
 31
0.0
  0
LINE
  5
1F5
330
19F
100
AcDbEntity
  8
PV-C5
100
AcDbLine
 10
-25.0
 20
-505.0
 30
0.0
 11
-20.61228453347117
 21
-505.0
 31
0.0
  0
LINE
  5
1F6
330
19F
100
AcDbEntity
  8
PV-C5
100
AcDbLine
 10
-20.61228453347117
 20
-505.0
 30
0.0
 11
-16.5
 21
-505.0
 31
0.0
  0
ARC
  5
1F7
330
19F
100
AcDbEntity
  8
PV-C5
100
AcDbCircle
 10
-25.0
 20
-500.0
 30
0.0
 40
5.0
100
AcDbArc
 50
90.0
 51
270.0000000000012
  0
ARC
  5
1F8
330
19F
100
AcDbEntity
  8
PV-C5
100
AcDbCircle
 10
25.0
 20
-500.0
 30
0.0
 40
5.0
100
AcDbArc
 50
269.9999999999978
 51
90.0
  0
LINE
  5
1F9
330
19F
100
AcDbEntity
  8
PV-C5
100
AcDbLine
 10
-16.49999999999999
 20
-595.0
 30
0.0
 11
-20.61228453347117
 21
-595.0
 31
0.0
  0
LINE
  5
1FA
330
19F
100
AcDbEntity
  8
PV-C5
100
AcDbLine
 10
-20.61228453347117
 20
-595.0
 30
0.0
 11
-25.0
 21
-595.0
 31
0.0
  0
LINE
  5
1FB
330
19F
100
AcDbEntity
  8
PV-C5
100
AcDbLine
 10
25.0
 20
-595.0
 30
0.0
 11
10.38200332636176
 21
-595.0
 31
0.0
  0
LINE
  5
1FC
330
19F
100
AcDbEntity
  8
PV-C5
100
AcDbLine
 10
10.38200332636176
 20
-605.0
 30
0.0
 11
25.0
 21
-605.0
 31
0.0
  0
LINE
  5
1FD
330
19F
100
AcDbEntity
  8
PV-C5
100
AcDbLine
 10
-25.0
 20
-605.0
 30
0.0
 11
-20.61228453347117
 21
-605.0
 31
0.0
  0
LINE
  5
1FE
330
19F
100
AcDbEntity
  8
PV-C5
100
AcDbLine
 10
-20.61228453347117
 20
-605.0
 30
0.0
 11
-16.5
 21
-605.0
 31
0.0
  0
ARC
  5
1FF
330
19F
100
AcDbEntity
  8
PV-C5
100
AcDbCircle
 10
-25.0
 20
-600.0
 30
0.0
 40
5.0
100
AcDbArc
 50
90.0
 51
270.0000000000012
  0
ARC
  5
200
330
19F
100
AcDbEntity
  8
PV-C5
100
AcDbCircle
 10
25.0
 20
-600.0
 30
0.0
 40
5.0
100
AcDbArc
 50
269.9999999999978
 51
90.0
  0
ARC
  5
201
330
19F
100
AcDbEntity
  8
PV-C5
100
AcDbCircle
 10
113.5
 20
-869.5
 30
0.0
 40
130.0
100
AcDbArc
 50
179.9999999999978
 51
210.4713646668514
  0
ARC
  5
202
330
19F
100
AcDbEntity
  8
PV-C5
100
AcDbCircle
 10
113.5
 20
-869.5
 30
0.0
 40
130.0
100
AcDbArc
 50
239.5286353331484
 51
269.9999999999997
  0
ARC
  5
203
330
19F
100
AcDbEntity
  8
PV-C5
100
AcDbCircle
 10
113.5
 20
-869.5
 30
0.0
 40
97.0
100
AcDbArc
 50
242.0494416404229
 51
269.9999999999997
  0
ARC
  5
204
330
19F
100
AcDbEntity
  8
PV-C5
100
AcDbCircle
 10
113.5
 20
-869.5
 30
0.0
 40
97.0
100
AcDbArc
 50
226.8824001638122
 51
227.5558878241006
  0
ARC
  5
205
330
19F
100
AcDbEntity
  8
PV-C5
100
AcDbCircle
 10
113.5
 20
-869.5
 30
0.0
 40
97.0
100
AcDbArc
 50
222.4441121758992
 51
223.1175998361876
  0
ARC
  5
206
330
19F
100
AcDbEntity
  8
PV-C5
100
AcDbCircle
 10
113.5
 20
-869.5
 30
0.0
 40
97.0
100
AcDbArc
 50
179.9999999999978
 51
207.950558359577
  0
ENDBLK
  5
208
330
19F
100
AcDbEntity
  8
0
100
AcDbBlockEnd
  0
BLOCK
  5
20B
330
209
100
AcDbEntity
  8
0
100
AcDbBlockBegin
  2
TOP
 70
     0
 10
0.0
 20
0.0
 30
0.0
  3
TOP
  1

  0
INSERT
  5
20A
330
209
100
AcDbEntity
  8
PV-C5
100
AcDbBlockReference
  2
*U6
 10
0.0
 20
0.0
 30
0.0
  0
ENDBLK
  5
20C
330
209
100
AcDbEntity
  8
0
100
AcDbBlockEnd
  0
BLOCK
  5
422
330
417
100
AcDbEntity
  8
0
100
AcDbBlockBegin
  2
*D8
 70
     1
 10
0.0
 20
0.0
 30
0.0
  3
*D8
  1

  0
LINE
  5
418
330
417
100
AcDbEntity
  8
0
 62
     0
100
AcDbLine
 10
2002.037500006998
 20
251.9999999999999
 30
0.0
 11
1851.490840548086
 21
252.0
 31
0.0
  0
LINE
  5
419
330
417
100
AcDbEntity
  8
0
 62
     0
100
AcDbLine
 10
2035.537500006998
 20
-248.0
 30
0.0
 11
1851.490840548086
 21
-247.9999999999999
 31
0.0
  0
LINE
  5
41A
330
417
100
AcDbEntity
  8
0
 62
     0
100
AcDbLine
 10
1851.670840548085
 20
251.8199999999999
 30
0.0
 11
1851.670840548085
 21
2.180000000000014
 31
0.0
  0
LINE
  5
41B
330
417
100
AcDbEntity
  8
0
 62
     0
100
AcDbLine
 10
1851.670840548085
 20
-247.8199999999999
 30
0.0
 11
1851.670840548085
 21
1.820000000000014
 31
0.0
  0
SOLID
  5
41C
330
417
100
AcDbEntity
  8
0
 62
     0
100
AcDbTrace
 10
1851.640840548085
 20
251.8199999999999
 30
0.0
 11
1851.700840548085
 21
251.8199999999999
 31
0.0
 12
1851.670840548085
 22
252.0
 32
0.0
 13
1851.670840548085
 23
252.0
 33
0.0
  0
SOLID
  5
41D
330
417
100
AcDbEntity
  8
0
 62
     0
100
AcDbTrace
 10
1851.640840548085
 20
-247.8199999999999
 30
0.0
 11
1851.700840548085
 21
-247.8199999999999
 31
0.0
 12
1851.670840548085
 22
-247.9999999999999
 32
0.0
 13
1851.670840548085
 23
-247.9999999999999
 33
0.0
  0
MTEXT
  5
41E
330
417
100
AcDbEntity
  8
0
 62
     0
100
AcDbMText
 10
1851.670840548085
 20
2.000000000000313
 30
0.0
 40
0.18
 41
0.0
 71
     5
 72
     1
  1
\A1;500.0000
 73
     1
 44
1.0
1001
ACAD
1000
MTEXTBEGIN
1070
    73
1070
     1
1070
    44
1040
1.0
1070
    74
1070
     0
1000
MTEXTEND
  0
POINT
  5
41F
330
417
100
AcDbEntity
  8
DEFPOINTS
 62
     0
100
AcDbPoint
 10
2002.100000006998
 20
251.9999999999999
 30
0.0000000000002343
  0
POINT
  5
420
330
417
100
AcDbEntity
  8
DEFPOINTS
 62
     0
100
AcDbPoint
 10
2035.600000006998
 20
-248.0
 30
0.0000000000001806
  0
POINT
  5
421
330
417
100
AcDbEntity
  8
DEFPOINTS
 62
     0
100
AcDbPoint
 10
1851.670840548085
 20
-247.9999999999999
 30
0.0
  0
ENDBLK
  5
423
330
417
100
AcDbEntity
  8
0
100
AcDbBlockEnd
  0
BLOCK
  5
430
330
425
100
AcDbEntity
  8
0
100
AcDbBlockBegin
  2
*D9
 70
     1
 10
0.0
 20
0.0
 30
0.0
  3
*D9
  1

  0
LINE
  5
426
330
425
100
AcDbEntity
  8
0
 62
     0
100
AcDbLine
 10
-541.6374999950013
 20
260.250000005
 30
0.0
 11
-444.3218088526903
 21
260.250000005
 31
0.0
  0
LINE
  5
427
330
425
100
AcDbEntity
  8
0
 62
     0
100
AcDbLine
 10
-460.4374999949998
 20
-247.999999995
 30
0.0
 11
-444.3218088526903
 21
-247.9999999950001
 31
0.0
  0
LINE
  5
428
330
425
100
AcDbEntity
  8
0
 62
     0
100
AcDbLine
 10
-444.5018088526902
 20
260.0700000050001
 30
0.0
 11
-444.5018088526902
 21
6.305000005000031
 31
0.0
  0
LINE
  5
429
330
425
100
AcDbEntity
  8
0
 62
     0
100
AcDbLine
 10
-444.5018088526904
 20
-247.8199999950001
 30
0.0
 11
-444.5018088526902
 21
5.94500000500003
 31
0.0
  0
SOLID
  5
42A
330
425
100
AcDbEntity
  8
0
 62
     0
100
AcDbTrace
 10
-444.5318088526901
 20
260.0700000050001
 30
0.0
 11
-444.4718088526903
 21
260.0700000050001
 31
0.0
 12
-444.5018088526902
 22
260.250000005
 32
0.0
 13
-444.5018088526902
 23
260.250000005
 33
0.0
  0
SOLID
  5
42B
330
425
100
AcDbEntity
  8
0
 62
     0
100
AcDbTrace
 10
-444.5318088526901
 20
-247.8199999950001
 30
0.0
 11
-444.4718088526903
 21
-247.8199999950001
 31
0.0
 12
-444.5018088526904
 22
-247.9999999950001
 32
0.0
 13
-444.5018088526904
 23
-247.9999999950001
 33
0.0
  0
MTEXT
  5
42C
330
425
100
AcDbEntity
  8
0
 62
     0
100
AcDbMText
 10
-444.5018088526902
 20
6.125000004999959
 30
0.0
 40
0.18
 41
0.0
 71
     5
 72
     1
  1
\A1;508.2500
 73
     1
 44
1.0
1001
ACAD
1000
MTEXTBEGIN
1070
    73
1070
     1
1070
    44
1040
1.0
1070
    74
1070
     0
1000
MTEXTEND
  0
POINT
  5
42D
330
425
100
AcDbEntity
  8
DEFPOINTS
 62
     0
100
AcDbPoint
 10
-541.6999999950014
 20
260.250000005
 30
0.000000000000067
  0
POINT
  5
42E
330
425
100
AcDbEntity
  8
DEFPOINTS
 62
     0
100
AcDbPoint
 10
-460.4999999949998
 20
-247.999999995
 30
0.0000000000000139
  0
POINT
  5
42F
330
425
100
AcDbEntity
  8
DEFPOINTS
 62
     0
100
AcDbPoint
 10
-444.5018088526904
 20
-247.9999999950001
 30
0.0
  0
ENDBLK
  5
431
330
425
100
AcDbEntity
  8
0
100
AcDbBlockEnd
  0
BLOCK
  5
541
330
540
100
AcDbEntity
  8
0
100
AcDbBlockBegin
  2
*D10
 70
     1
 10
0.0
 20
0.0
 30
0.0
  3
*D10
  1

  0
LINE
  5
543
330
540
100
AcDbEntity
  8
0
 62
     0
370
    -2
100
AcDbLine
 10
852.600000006999
 20
-248.0625
 30
0.0
 11
852.600000006999
 21
-882.7353117974212
 31
0.0
  0
LINE
  5
544
330
540
100
AcDbEntity
  8
0
 62
     0
370
    -2
100
AcDbLine
 10
2035.600000006998
 20
-248.0625
 30
0.0
 11
2035.600000006998
 21
-882.7353117974212
 31
0.0
  0
LINE
  5
545
330
540
100
AcDbEntity
  8
0
 62
     0
370
    -2
100
AcDbLine
 10
852.7800000069989
 20
-882.5553117974214
 30
0.0
 11
1443.410000006998
 21
-882.5553117974214
 31
0.0
  0
LINE
  5
546
330
540
100
AcDbEntity
  8
0
 62
     0
370
    -2
100
AcDbLine
 10
2035.420000006998
 20
-882.5553117974214
 30
0.0
 11
1444.790000006998
 21
-882.5553117974214
 31
0.0
  0
SOLID
  5
547
330
540
100
AcDbEntity
  8
0
 62
     0
100
AcDbTrace
 10
852.7800000069989
 20
-882.5253117974213
 30
0.0
 11
852.7800000069989
 21
-882.5853117974212
 31
0.0
 12
852.600000006999
 22
-882.5553117974214
 32
0.0
 13
852.600000006999
 23
-882.5553117974214
 33
0.0
  0
SOLID
  5
548
330
540
100
AcDbEntity
  8
0
 62
     0
100
AcDbTrace
 10
2035.420000006998
 20
-882.5253117974213
 30
0.0
 11
2035.420000006998
 21
-882.5853117974212
 31
0.0
 12
2035.600000006998
 22
-882.5553117974214
 32
0.0
 13
2035.600000006998
 23
-882.5553117974214
 33
0.0
  0
MTEXT
  5
549
330
540
100
AcDbEntity
  8
0
 62
     0
100
AcDbMText
 10
1444.100000006998
 20
-882.5553117974214
 30
0.0
 40
0.18
 41
0.0
 71
     5
 72
     1
  1
\A1;1183.0000
 73
     1
 44
1.0
1001
ACAD
1000
MTEXTBEGIN
1070
    73
1070
     1
1070
    44
1040
1.0
1070
    74
1070
     0
1000
MTEXTEND
  0
POINT
  5
54A
330
540
100
AcDbEntity
  8
DEFPOINTS
 62
     0
100
AcDbPoint
 10
852.600000006999
 20
-248.0
 30
-0.0000000000000367
  0
POINT
  5
54B
330
540
100
AcDbEntity
  8
DEFPOINTS
 62
     0
100
AcDbPoint
 10
2035.600000006998
 20
-248.0
 30
0.0000000000001806
  0
POINT
  5
54C
330
540
100
AcDbEntity
  8
DEFPOINTS
 62
     0
100
AcDbPoint
 10
2035.600000006998
 20
-882.5553117974214
 30
0.0
  0
ENDBLK
  5
542
330
540
100
AcDbEntity
  8
0
100
AcDbBlockEnd
  0
BLOCK
  5
705
330
704
100
AcDbEntity
  8
0
100
AcDbBlockBegin
  2
*D12
 70
     1
 10
0.0
 20
0.0
 30
0.0
  3
*D12
  1

  0
LINE
  5
707
330
704
100
AcDbEntity
  8
0
 62
     0
370
    -2
100
AcDbLine
 10
1499.794778062438
 20
424.8596265893393
 30
0.0
 11
1499.794778062438
 21
379.6613760444873
 31
0.0
  0
LINE
  5
708
330
704
100
AcDbEntity
  8
0
 62
     0
370
    -2
100
AcDbLine
 10
1495.800090093292
 20
409.8143480832642
 30
0.0
 11
1495.800090093292
 21
379.6613760444873
 31
0.0
  0
LINE
  5
709
330
704
100
AcDbEntity
  8
0
 62
     0
370
    -2
100
AcDbLine
 10
1499.614778062438
 20
379.8413760444873
 30
0.0
 11
1498.337434077865
 21
379.8413760444873
 31
0.0
  0
LINE
  5
70A
330
704
100
AcDbEntity
  8
0
 62
     0
370
    -2
100
AcDbLine
 10
1495.980090093292
 20
379.8413760444873
 30
0.0
 11
1497.257434077865
 21
379.8413760444873
 31
0.0
  0
SOLID
  5
70B
330
704
100
AcDbEntity
  8
0
 62
     0
100
AcDbTrace
 10
1499.614778062438
 20
379.8713760444873
 30
0.0
 11
1499.614778062438
 21
379.8113760444874
 31
0.0
 12
1499.794778062438
 22
379.8413760444873
 32
0.0
 13
1499.794778062438
 23
379.8413760444873
 33
0.0
  0
SOLID
  5
70C
330
704
100
AcDbEntity
  8
0
 62
     0
100
AcDbTrace
 10
1495.980090093292
 20
379.8713760444873
 30
0.0
 11
1495.980090093292
 21
379.8113760444874
 31
0.0
 12
1495.800090093292
 22
379.8413760444873
 32
0.0
 13
1495.800090093292
 23
379.8413760444873
 33
0.0
  0
MTEXT
  5
70D
330
704
100
AcDbEntity
  8
0
 62
     0
100
AcDbMText
 10
1497.797434077865
 20
379.8413760444873
 30
0.0
 40
0.18
 41
0.0
 71
     5
 72
     1
  1
\A1;3.9947
 73
     1
 44
1.0
1001
ACAD
1000
MTEXTBEGIN
1070
    73
1070
     1
1070
    44
1040
1.0
1070
    74
1070
     0
1000
MTEXTEND
  0
POINT
  5
70E
330
704
100
AcDbEntity
  8
DEFPOINTS
 62
     0
100
AcDbPoint
 10
1499.794778062438
 20
424.9221265893392
 30
0.0
  0
POINT
  5
70F
330
704
100
AcDbEntity
  8
DEFPOINTS
 62
     0
100
AcDbPoint
 10
1495.800090093292
 20
409.8768480832642
 30
0.0
  0
POINT
  5
710
330
704
100
AcDbEntity
  8
DEFPOINTS
 62
     0
100
AcDbPoint
 10
1495.800090093292
 20
379.8413760444873
 30
0.0
  0
ENDBLK
  5
706
330
704
100
AcDbEntity
  8
0
100
AcDbBlockEnd
  0
BLOCK
  5
72A
330
729
100
AcDbEntity
  8
0
100
AcDbBlockBegin
  2
*D13
 70
     1
 10
0.0
 20
0.0
 30
0.0
  3
*D13
  1

  0
LINE
  5
72C
330
729
100
AcDbEntity
  8
0
 62
     0
370
    -2
100
AcDbLine
 10
1545.894932030798
 20
549.1560770060168
 30
0.0
 11
1548.495306702556
 21
549.1560770060168
 31
0.0
  0
LINE
  5
72D
330
729
100
AcDbEntity
  8
0
 62
     0
370
    -2
100
AcDbLine
 10
1545.894932030798
 20
544.1560770060168
 30
0.0
 11
1548.495306702556
 21
544.1560770060168
 31
0.0
  0
LINE
  5
72E
330
729
100
AcDbEntity
  8
0
 62
     0
370
    -2
100
AcDbLine
 10
1548.315306702556
 20
548.9760770060168
 30
0.0
 11
1548.315306702556
 21
546.8360770060168
 31
0.0
  0
LINE
  5
72F
330
729
100
AcDbEntity
  8
0
 62
     0
370
    -2
100
AcDbLine
 10
1548.315306702556
 20
544.3360770060167
 30
0.0
 11
1548.315306702556
 21
546.4760770060169
 31
0.0
  0
SOLID
  5
730
330
729
100
AcDbEntity
  8
0
 62
     0
100
AcDbTrace
 10
1548.285306702556
 20
548.9760770060168
 30
0.0
 11
1548.345306702556
 21
548.9760770060168
 31
0.0
 12
1548.315306702556
 22
549.1560770060168
 32
0.0
 13
1548.315306702556
 23
549.1560770060168
 33
0.0
  0
SOLID
  5
731
330
729
100
AcDbEntity
  8
0
 62
     0
100
AcDbTrace
 10
1548.285306702556
 20
544.3360770060167
 30
0.0
 11
1548.345306702556
 21
544.3360770060167
 31
0.0
 12
1548.315306702556
 22
544.1560770060168
 32
0.0
 13
1548.315306702556
 23
544.1560770060168
 33
0.0
  0
MTEXT
  5
732
330
729
100
AcDbEntity
  8
0
 62
     0
100
AcDbMText
 10
1548.315306702556
 20
546.656077006017
 30
0.0
 40
0.18
 41
0.0
 71
     5
 72
     1
  1
\A1;5.0000
 73
     1
 44
1.0
1001
ACAD
1000
MTEXTBEGIN
1070
    73
1070
     1
1070
    44
1040
1.0
1070
    74
1070
     0
1000
MTEXTEND
  0
POINT
  5
733
330
729
100
AcDbEntity
  8
DEFPOINTS
 62
     0
100
AcDbPoint
 10
1545.832432030798
 20
549.1560770060168
 30
0.0
  0
POINT
  5
734
330
729
100
AcDbEntity
  8
DEFPOINTS
 62
     0
100
AcDbPoint
 10
1545.832432030798
 20
544.1560770060168
 30
0.0
  0
POINT
  5
735
330
729
100
AcDbEntity
  8
DEFPOINTS
 62
     0
100
AcDbPoint
 10
1548.315306702556
 20
544.1560770060168
 30
0.0
  0
ENDBLK
  5
72B
330
729
100
AcDbEntity
  8
0
100
AcDbBlockEnd
  0
ENDSEC
  0
SECTION
  2
ENTITIES
  0
ARC
  5
5E7
330
1F
100
AcDbEntity
  8
Hewi
100
AcDbCircle
 10
1280.243504622678
 20
418.9629492713138
 30
0.0
 40
1.000000192457607
100
AcDbArc
 50
89.96445282763426
 51
180.0
  0
SPLINE
  5
5E8
330
1F
100
AcDbEntity
  8
Hewi
100
AcDbSpline
210
0.0
220
0.0
230
1.0
 70
    24
 71
     2
 72
     6
 73
     3
 74
     0
 42
0.0000000001
 43
0.0000000001
 40
0.0
 40
0.0
 40
0.0
 40
1.999411158340125
 40
1.999411158340125
 40
1.999411158340125
 10
1280.244125037938
 20
419.9629492713138
 30
0.0
 10
1281.243830617113
 20
419.9629492713138
 30
0.0
 10
1282.24353619626
 20
419.9629492713138
 30
0.0
  0
SPLINE
  5
5E9
330
1F
100
AcDbEntity
  8
Hewi
100
AcDbSpline
210
0.0
220
0.0
230
1.0
 70
    24
 71
     2
 72
     6
 73
     3
 74
     0
 42
0.0000000001
 43
0.0000000001
 40
0.0
 40
0.0
 40
0.0
 40
104.0000000133337
 40
104.0000000133337
 40
104.0000000133337
 10
1282.24353619626
 20
419.9629492713138
 30
0.0
 10
1334.243536202954
 20
419.9629492713138
 30
0.0
 10
1386.243536209618
 20
419.9629492713138
 30
0.0
  0
SPLINE
  5
5EA
330
1F
100
AcDbEntity
  8
Hewi
100
AcDbSpline
210
0.0
220
0.0
230
1.0
 70
    24
 71
     2
 72
     6
 73
     3
 74
     0
 42
0.0000000001
 43
0.0000000001
 40
0.0
 40
0.0
 40
0.0
 40
1.000000000000142
 40
1.000000000000142
 40
1.000000000000142
 10
1386.243536209618
 20
419.9629492713138
 30
0.0
 10
1386.243536209618
 20
419.4629492713138
 30
0.0
 10
1386.243536209618
 20
418.9629492713138
 30
0.0
  0
SPLINE
  5
5EB
330
1F
100
AcDbEntity
  8
Hewi
100
AcDbSpline
210
0.0
220
0.0
230
1.0
 70
    24
 71
     2
 72
     6
 73
     3
 74
     0
 42
0.0000000001
 43
0.0000000001
 40
0.0
 40
0.0
 40
0.0
 40
19.03073174653971
 40
19.03073174653971
 40
19.03073174653971
 10
1386.243536209618
 20
418.9629492713138
 30
0.0
 10
1386.243536209618
 20
409.4475833980541
 30
0.0
 10
1386.243536209618
 20
399.932217524809
 30
0.0
  0
SPLINE
  5
5EC
330
1F
100
AcDbEntity
  8
Hewi
100
AcDbSpline
210
0.0
220
0.0
230
1.0
 70
    24
 71
     2
 72
     6
 73
     3
 74
     0
 42
0.0000000001
 43
0.0000000001
 40
0.0
 40
0.0
 40
0.0
 40
1.000000000000025
 40
1.000000000000025
 40
1.000000000000025
 10
1386.243536209618
 20
400.9322175248089
 30
0.0
 10
1386.243536209618
 20
400.4322175248089
 30
0.0
 10
1386.243536209618
 20
399.932217524809
 30
0.0
  0
SPLINE
  5
5ED
330
1F
100
AcDbEntity
  8
Hewi
100
AcDbSpline
210
0.0
220
0.0
230
1.0
 70
    24
 71
     2
 72
     6
 73
     3
 74
     0
 42
0.0000000001
 43
0.0000000001
 40
0.0
 40
0.0
 40
0.0
 40
103.9999999962894
 40
103.9999999962894
 40
103.9999999962894
 10
1386.243536209618
 20
399.932217524809
 30
0.0
 10
1334.243536211466
 20
399.932217524809
 30
0.0
 10
1282.243536213344
 20
399.932217524809
 30
0.0
  0
SPLINE
  5
5EE
330
1F
100
AcDbEntity
  8
Hewi
100
AcDbSpline
210
0.0
220
0.0
230
1.0
 70
    24
 71
     2
 72
     6
 73
     3
 74
     0
 42
0.0000000001
 43
0.0000000001
 40
-2.000021190821178
 40
-2.000021190821178
 40
-2.000021190821178
 40
0.0
 40
0.0
 40
0.0
 10
1282.243536213344
 20
399.932217524809
 30
0.0
 10
1281.243525617919
 20
399.932217524809
 30
0.0
 10
1280.24351502251
 20
399.932217524809
 30
0.0
  0
ARC
  5
5EF
330
1F
100
AcDbEntity
  8
Hewi
100
AcDbCircle
 10
1280.24351502251
 20
400.9322226333461
 30
0.0
 40
1.000005108585068
100
AcDbArc
 50
180.0002926984521
 51
270.0
  0
SPLINE
  5
5F0
330
1F
100
AcDbEntity
  8
Hewi
100
AcDbSpline
210
0.0
220
0.0
230
1.0
 70
    12
 71
     2
 72
     6
 73
     3
 74
     0
 42
0.0000000001
 43
0.0000000001
 40
0.0
 40
0.0
 40
0.0
 40
19.03073174661838
 40
19.03073174661838
 40
19.03073174661838
 10
1279.243514078614
 20
400.9293365668563
 30
0.0
 41
1.0
 10
1279.243552005868
 20
409.4475833980541
 30
0.0
 41
0.999999999987599
 10
1279.243504430229
 20
418.9629492713138
 30
0.0
 41
1.0
  0
SPLINE
  5
5F1
330
1F
100
AcDbEntity
  8
Hewi
100
AcDbSpline
210
0.0
220
0.0
230
1.0
 70
    24
 71
     2
 72
     6
 73
     3
 74
     0
 42
0.0000000001
 43
0.0000000001
 40
6.292484519420442
 40
6.292484519420442
 40
6.292484519420442
 40
74.70168377392487
 40
74.70168377392487
 40
74.70168377392487
 10
1505.090178435177
 20
419.9629492713138
 30
0.0
 10
1539.294778062427
 20
419.9629492713138
 30
0.0
 10
1573.499377689692
 20
419.9629492713138
 30
0.0
  0
SPLINE
  5
5F2
330
1F
100
AcDbEntity
  8
Hewi
100
AcDbSpline
210
0.0
220
0.0
230
1.0
 70
    24
 71
     2
 72
     6
 73
     3
 74
     0
 42
0.0000000001
 43
0.0000000001
 40
74.70168377392487
 40
74.70168377392487
 40
74.70168377392487
 40
81.00000003598237
 40
81.00000003598237
 40
81.00000003598237
 10
1573.499377689692
 20
419.9629492713138
 30
0.0
 10
1576.648535820717
 20
419.9629492713138
 30
0.0
 10
1579.797693951757
 20
419.9629492713138
 30
0.0
  0
SPLINE
  5
5F3
330
1F
100
AcDbEntity
  8
Hewi
100
AcDbSpline
210
0.0
220
0.0
230
1.0
 70
    24
 71
     2
 72
     6
 73
     3
 74
     0
 42
0.0000000001
 43
0.0000000001
 40
0.0
 40
0.0
 40
0.0
 40
2.00002284060497
 40
2.00002284060497
 40
2.00002284060497
 10
1579.797693951757
 20
419.9629492713138
 30
0.0
 10
1580.797705372071
 20
419.9629521279421
 30
0.0
 10
1581.797716792356
 20
419.962954984614
 30
0.0
  0
ARC
  5
5F4
330
1F
100
AcDbEntity
  8
Hewi
100
AcDbCircle
 10
1581.797722505627
 20
418.9629492713138
 30
0.0
 40
1.000005713306683
100
AcDbArc
 50
0.0
 51
90.00032734465333
  0
SPLINE
  5
5F5
330
1F
100
AcDbEntity
  8
Hewi
100
AcDbSpline
210
0.0
220
0.0
230
1.0
 70
    12
 71
     2
 72
     6
 73
     3
 74
     0
 42
0.0000000001
 43
0.0000000001
 40
0.0
 40
0.0
 40
0.0
 40
19.03073174659693
 40
19.03073174659693
 40
19.03073174659693
 10
1582.797728218942
 20
418.9629492713138
 30
0.0
 41
1.0
 10
1582.797686448179
 20
409.4475833980977
 30
0.0
 41
0.9999999999972132
 10
1582.797689398099
 20
400.9315834928566
 30
0.0
 41
1.0
  0
SPLINE
  5
5F6
330
1F
100
AcDbEntity
  8
Hewi
100
AcDbSpline
210
0.0
220
0.0
230
1.0
 70
    12
 71
     2
 72
     8
 73
     5
 74
     0
 42
0.0000000001
 43
0.0000000001
 40
-1.570789397386509
 40
-1.570789397386509
 40
-1.570789397386509
 40
-0.7853905346723055
 40
-0.7853905346723055
 40
0.0
 40
0.0
 40
0.0
 10
1582.797689605843
 20
400.9322175248089
 30
0.0
 41
1.0
 10
1582.797685197238
 20
400.5180043455474
 30
0.0
 41
0.9238819964691655
 10
1582.504792903423
 20
400.2251107436022
 30
0.0
 41
1.0
 10
1582.211903231265
 20
399.932220015733
 30
0.0
 41
0.9238803383448443
 10
1581.797692494194
 20
399.932217524809
 30
0.0
 41
1.0
  0
SPLINE
  5
5F7
330
1F
100
AcDbEntity
  8
Hewi
100
AcDbSpline
210
0.0
220
0.0
230
1.0
 70
    24
 71
     2
 72
     6
 73
     3
 74
     0
 42
0.0000000001
 43
0.0000000001
 40
-1.99999709128474
 40
-1.99999709128474
 40
-1.99999709128474
 40
0.0
 40
0.0
 40
0.0
 10
1581.797692494194
 20
399.932217524809
 30
0.0
 10
1580.797693226533
 20
399.932217524809
 30
0.0
 10
1579.797693958888
 20
399.932217524809
 30
0.0
  0
SPLINE
  5
5F8
330
1F
100
AcDbEntity
  8
Hewi
100
AcDbSpline
210
0.0
220
0.0
230
1.0
 70
    24
 71
     2
 72
     6
 73
     3
 74
     0
 42
0.0000000001
 43
0.0000000001
 40
-81.00000003586988
 40
-81.00000003586988
 40
-81.00000003586988
 40
0.0
 40
0.0
 40
0.0
 10
1579.797693958888
 20
399.932217524809
 30
0.0
 10
1539.297693940974
 20
399.932217524809
 30
0.0
 10
1498.797693923017
 20
399.932217524809
 30
0.0
  0
SPLINE
  5
5F9
330
1F
100
AcDbEntity
  8
Hewi
100
AcDbSpline
210
0.0
220
0.0
230
1.0
 70
    24
 71
     2
 72
     6
 73
     3
 74
     0
 42
0.0000000001
 43
0.0000000001
 40
0.0
 40
0.0
 40
0.0
 40
1.999999986438922
 40
1.999999986438922
 40
1.999999986438922
 10
1498.797693923017
 20
399.932217524809
 30
0.0
 10
1497.797693929828
 20
399.932217524809
 30
0.0
 10
1496.797693936594
 20
399.932217524809
 30
0.0
  0
ARC
  5
5FA
330
1F
100
AcDbEntity
  8
Hewi
100
AcDbCircle
 10
1496.797693936594
 20
400.9322346664848
 30
0.0
 40
1.000017141703665
100
AcDbArc
 50
180.0009821306766
 51
270.0
  0
SPLINE
  5
5FB
330
1F
100
AcDbEntity
  8
Hewi
100
AcDbSpline
210
0.0
220
0.0
230
1.0
 70
    12
 71
     2
 72
     6
 73
     3
 74
     0
 42
0.0000000001
 43
0.0000000001
 40
0.0
 40
0.0
 40
0.0
 40
19.03073174655515
 40
19.03073174655515
 40
19.03073174655515
 10
1495.807736197184
 20
400.7907498338027
 30
0.0
 41
1.0
 10
1495.797697139616
 20
409.4475833980395
 30
0.0
 41
0.99999999999949
 10
1495.797698267681
 20
418.9629492713138
 30
0.0
 41
1.0
  0
SPLINE
  5
5FC
330
1F
100
AcDbEntity
  8
Hewi
100
AcDbSpline
210
0.0
220
0.0
230
1.0
 70
    12
 71
     2
 72
     8
 73
     5
 74
     0
 42
0.0000000001
 43
0.0000000001
 40
-1.570789397021418
 40
-1.570789397021418
 40
-1.570789397021418
 40
-0.7853905342525903
 40
-0.7853905342525903
 40
0.0
 40
0.0
 40
0.0
 10
1495.797698267681
 20
418.9629492713138
 30
0.0
 41
1.0
 10
1495.797702676416
 20
419.3771624505315
 30
0.0
 41
0.9238819966262063
 10
1496.090594970217
 20
419.6700560524914
 30
0.0
 41
1.0
 10
1496.383484642112
 20
419.9629467802587
 30
0.0
 41
0.9238803383768042
 10
1496.797695379068
 20
419.9629492713138
 30
0.0
 41
1.0
  0
SPLINE
  5
5FD
330
1F
100
AcDbEntity
  8
Hewi
100
AcDbSpline
210
0.0
220
0.0
230
1.0
 70
    24
 71
     2
 72
     6
 73
     3
 74
     0
 42
0.0000000001
 43
0.0000000001
 40
0.0
 40
0.0
 40
0.0
 40
1.999997092655917
 40
1.999997092655917
 40
1.999997092655917
 10
1496.797695379068
 20
419.9629492713138
 30
0.0
 10
1497.797694647426
 20
419.9629492713138
 30
0.0
 10
1498.79769391577
 20
419.9629492713138
 30
0.0
  0
SPLINE
  5
5FE
330
1F
100
AcDbEntity
  8
Hewi
100
AcDbSpline
210
0.0
220
0.0
230
1.0
 70
    24
 71
     2
 72
     6
 73
     3
 74
     0
 42
0.0000000001
 43
0.0000000001
 40
0.0
 40
0.0
 40
0.0
 40
6.292484519420442
 40
6.292484519420442
 40
6.292484519420442
 10
1498.79769391577
 20
419.9629492713138
 30
0.0
 10
1501.943936175481
 20
419.9629492713138
 30
0.0
 10
1505.090178435177
 20
419.9629492713138
 30
0.0
  0
SPLINE
  5
5FF
330
1F
100
AcDbEntity
  8
Hewi
100
AcDbSpline
210
0.0
220
0.0
230
1.0
 70
    12
 71
     2
 72
     6
 73
     3
 74
     0
 42
0.0000000001
 43
0.0000000001
 40
73.38677974471557
 40
73.38677974471557
 40
73.38677974471557
 40
103.9999999967687
 40
103.9999999967687
 40
103.9999999967687
 10
1496.931447679995
 20
312.8093009149306
 30
0.0
 41
0.9999999999999992
 10
1496.931447422717
 20
328.1159110409644
 30
0.0
 41
0.9999999999999994
 10
1496.931447722676
 20
343.4225211669836
 30
0.0
 41
1.0
  0
SPLINE
  5
600
330
1F
100
AcDbEntity
  8
Hewi
100
AcDbSpline
210
0.0
220
0.0
230
1.0
 70
    24
 71
     2
 72
     6
 73
     3
 74
     0
 42
0.0000000001
 43
0.0000000001
 40
0.0
 40
0.0
 40
0.0
 40
1.0
 40
1.0
 40
1.0
 10
1496.931447788684
 20
343.4225211669836
 30
0.0
 10
1497.431447788684
 20
343.4225211669836
 30
0.0
 10
1497.931447788683
 20
343.4225211669836
 30
0.0
  0
SPLINE
  5
601
330
1F
100
AcDbEntity
  8
Hewi
100
AcDbSpline
210
0.0
220
0.0
230
1.0
 70
    24
 71
     2
 72
     6
 73
     3
 74
     0
 42
0.0000000001
 43
0.0000000001
 40
-85.00000000000003
 40
-85.00000000000003
 40
-85.00000000000003
 40
0.0
 40
0.0
 40
0.0
 10
1497.931447788683
 20
343.4225211669836
 30
0.0
 10
1540.431447788684
 20
343.4225211669836
 30
0.0
 10
1582.931447788683
 20
343.4225211669836
 30
0.0
  0
SPLINE
  5
602
330
1F
100
AcDbEntity
  8
Hewi
100
AcDbSpline
210
0.0
220
0.0
230
1.0
 70
    24
 71
     2
 72
     6
 73
     3
 74
     0
 42
0.0000000001
 43
0.0000000001
 40
0.0
 40
0.0
 40
0.0
 40
0.9999999999998864
 40
0.9999999999998864
 40
0.9999999999998864
 10
1582.931447788683
 20
343.4225211669836
 30
0.0
 10
1583.431447786515
 20
343.4225211669836
 30
0.0
 10
1583.931447784303
 20
343.4225211669836
 30
0.0
  0
SPLINE
  5
603
330
1F
100
AcDbEntity
  8
Hewi
100
AcDbSpline
210
0.0
220
0.0
230
1.0
 70
    12
 71
     2
 72
     6
 73
     3
 74
     0
 42
0.0000000001
 43
0.0000000001
 40
-103.9999999967404
 40
-103.9999999967404
 40
-103.9999999967404
 40
-73.39391126838363
 40
-73.39391126838363
 40
-73.39391126838363
 10
1583.931447784303
 20
343.4225211669836
 30
0.0
 41
1.0
 10
1583.931445262282
 20
328.1194768028072
 30
0.0
 41
0.9999999999999641
 10
1583.931476074172
 20
247.0286485649995
 30
0.0
 41
0.9999999999999491
  0
SPLINE
  5
604
330
1F
100
AcDbEntity
  8
Hewi
100
AcDbSpline
210
0.0
220
0.0
230
1.0
 70
    12
 71
     2
 72
     6
 73
     3
 74
     0
 42
0.0000000001
 43
0.0000000001
 40
-7.606127405827683
 40
-7.606127405827683
 40
-7.606127405827683
 40
0.0
 40
0.0
 40
0.0
 10
1583.931476074172
 20
247.0286485649995
 30
0.0
 41
0.9999999999999833
 10
1583.931478933202
 20
243.2255848612113
 30
0.0
 41
0.9999999999999907
 10
1583.931482067291
 20
239.4225211573648
 30
0.0
 41
1.0
  0
SPLINE
  5
605
330
1F
100
AcDbEntity
  8
Hewi
100
AcDbSpline
210
0.0
220
0.0
230
1.0
 70
    12
 71
     2
 72
     8
 73
     5
 74
     0
 42
0.0000000001
 43
0.0000000001
 40
0.0
 40
0.0
 40
0.0
 40
2.356272720498345
 40
2.356272720498345
 40
4.71254544099669
 40
4.71254544099669
 40
4.71254544099669
 10
1583.931482067291
 20
239.4225211573648
 30
0.0
 41
1.0
 10
1583.93158250707
 20
238.1798249706481
 30
0.0
 41
0.9238639875635998
 10
1583.052863246124
 20
237.3011064428429
 30
0.0
 41
1.0
 10
1582.174143985237
 20
236.4223879150813
 30
0.0
 41
0.9238639875635998
 10
1580.931447811486
 20
236.4224893845967
 30
0.0
 41
1.0
  0
SPLINE
  5
606
330
1F
100
AcDbEntity
  8
Hewi
100
AcDbSpline
210
0.0
220
0.0
230
1.0
 70
    12
 71
     2
 72
     6
 73
     3
 74
     0
 42
0.0000000001
 43
0.0000000001
 40
-81.00000005629397
 40
-81.00000005629397
 40
-81.00000005629397
 40
-75.83428370762963
 40
-75.83428370762963
 40
-75.83428370762963
 10
1580.931447811486
 20
236.4224893845967
 30
0.0
 41
1.0
 10
1578.348589637164
 20
236.4224929194502
 30
0.0
 41
0.9999999999999021
 10
1545.431478096922
 20
236.422484260639
 30
0.0
 41
0.9999999999998168
  0
SPLINE
  5
607
330
1F
100
AcDbEntity
  8
Hewi
100
AcDbSpline
210
0.0
220
0.0
230
1.0
 70
    12
 71
     2
 72
     6
 73
     3
 74
     0
 42
0.0000000001
 43
0.0000000001
 40
-7.61241405513987
 40
-7.61241405513987
 40
-7.61241405513987
 40
0.0
 40
0.0
 40
0.0
 10
1507.543861810354
 20
236.4224733531592
 30
0.0
 41
0.9999999999997386
 10
1503.737654782777
 20
236.4224664811045
 30
0.0
 41
0.9999999999998555
 10
1499.931447755243
 20
236.4224583558826
 30
0.0
 41
1.0
  0
SPLINE
  5
608
330
1F
100
AcDbEntity
  8
Hewi
100
AcDbSpline
210
0.0
220
0.0
230
1.0
 70
    12
 71
     2
 72
     8
 73
     5
 74
     0
 42
0.0000000001
 43
0.0000000001
 40
0.0
 40
0.0
 40
0.0
 40
2.356259523267318
 40
2.356259523267318
 40
4.712519046534635
 40
4.712519046534635
 40
4.712519046534635
 10
1499.931447755243
 20
236.4224583558826
 30
0.0
 41
1.0
 10
1498.688761321686
 20
236.422391051834
 30
0.0
 41
0.9238670263845744
 10
1497.810059154424
 20
237.3011128951621
 30
0.0
 41
1.0
 10
1496.931356987177
 20
238.1798347384756
 30
0.0
 41
0.9238670263845744
 10
1496.931452115492
 20
239.4225211702142
 30
0.0
 41
1.0
  0
SPLINE
  5
609
330
1F
100
AcDbEntity
  8
Hewi
100
AcDbSpline
210
0.0
220
0.0
230
1.0
 70
    12
 71
     2
 72
     6
 73
     3
 74
     0
 42
0.0000000001
 43
0.0000000001
 40
0.0
 40
0.0
 40
0.0
 40
7.613215862521027
 40
7.613215862521027
 40
7.613215862521027
 10
1496.931452115492
 20
239.4225211702142
 30
0.0
 41
1.0
 10
1496.931451719331
 20
243.229129101499
 30
0.0
 41
1.0
 10
1496.931447679981
 20
312.8093009149161
 30
0.0
 41
0.9999999999999998
  0
ARC
  5
60A
330
1F
100
AcDbEntity
  8
Hewi
100
AcDbCircle
 10
1540.431465999256
 20
280.9224829226587
 30
0.0
 40
39.0
100
AcDbArc
 50
277.3659014052621
 51
262.6341297473326
  0
LWPOLYLINE
  5
621
330
1F
100
AcDbEntity
  8
Hewi
100
AcDbPolyline
 90
        4
 70
     1
 43
0.0
 10
1499.794778062438
 20
419.9629492713138
 10
1578.794778062438
 20
419.9629492713138
 10
1578.794778062438
 20
503.9629492713138
 10
1499.794778062438
 20
503.9629492713138
  0
LWPOLYLINE
  5
622
330
1F
100
AcDbEntity
  8
Hewi
100
AcDbPolyline
 90
        4
 70
     1
 43
0.0
 10
1524.294778062438
 20
518.9629492713138
 10
1554.294778062438
 20
518.9629492713138
 10
1554.294778062438
 20
553.9629492713138
 10
1524.294778062438
 20
553.9629492713138
  0
LWPOLYLINE
  5
623
330
1F
100
AcDbEntity
  8
Hewi
100
AcDbPolyline
 90
        4
 70
     1
 43
0.0
 10
1524.294778062438
 20
503.9629492713138
 10
1554.294778062438
 20
503.9629492713138
 10
1554.294778062438
 20
512.9629492713138
 10
1524.294778062438
 20
512.9629492713138
  0
LWPOLYLINE
  5
624
330
1F
100
AcDbEntity
  8
Hewi
100
AcDbPolyline
 90
        4
 70
     1
 43
0.0
 10
1526.794778062438
 20
512.9629492713138
 10
1551.794778062438
 20
512.9629492713138
 10
1551.794778062438
 20
518.9629492713138
 10
1526.794778062438
 20
518.9629492713138
  0
ARC
  5
626
330
1F
100
AcDbEntity
  8
Hewi
100
AcDbCircle
 10
1540.431465999256
 20
280.9224829226587
 30
0.0
 40
39.5
100
AcDbArc
 50
277.2721551309731
 51
262.727876021619
  0
ARC
  5
627
330
1F
100
AcDbEntity
  8
Hewi
100
AcDbCircle
 10
1540.431465999256
 20
280.9224829226587
 30
0.0
 40
15.0
100
AcDbArc
 50
289.4712362103863
 51
250.5287949422141
  0
LWPOLYLINE
  5
628
330
1F
100
AcDbEntity
  8
Hewi
100
AcDbPolyline
 90
        4
 70
     0
 43
0.0
 10
1535.431470077121
 20
265.9224815633711
 10
1535.431482310717
 20
220.9224815633727
 10
1545.431482310716
 20
220.9224842819494
 10
1545.431470077121
 20
265.9224842819479
  0
LINE
  5
629
330
1F
100
AcDbEntity
  8
Hewi
100
AcDbLine
 10
1545.431470077121
 20
265.9224842819479
 30
0.0
 11
1545.431469843904
 21
266.7803486582218
 31
0.0
  0
LINE
  5
62A
330
1F
100
AcDbEntity
  8
Hewi
100
AcDbLine
 10
1535.431470077121
 20
265.9224815633711
 30
0.0
 11
1535.431469843904
 21
266.780345939645
 31
0.0
  0
LWPOLYLINE
  5
6FE
330
1F
100
AcDbEntity
  8
Hewi
100
AcDbPolyline
 90
        4
 70
     1
 43
0.0
 10
1283.243520392522
 20
419.9629141987649
 10
1362.243520392522
 20
419.9629141987649
 10
1362.243520392522
 20
503.962914198765
 10
1283.243520392522
 20
503.962914198765
  0
LWPOLYLINE
  5
6FF
330
1F
100
AcDbEntity
  8
Hewi
100
AcDbPolyline
 90
        4
 70
     1
 43
0.0
 10
1307.743520392522
 20
518.962914198765
 10
1337.743520392522
 20
518.962914198765
 10
1337.743520392522
 20
553.962914198765
 10
1307.743520392522
 20
553.962914198765
  0
LWPOLYLINE
  5
700
330
1F
100
AcDbEntity
  8
Hewi
100
AcDbPolyline
 90
        4
 70
     1
 43
0.0
 10
1307.743520392522
 20
503.962914198765
 10
1337.743520392522
 20
503.962914198765
 10
1337.743520392522
 20
512.962914198765
 10
1307.743520392522
 20
512.962914198765
  0
LWPOLYLINE
  5
701
330
1F
100
AcDbEntity
  8
Hewi
100
AcDbPolyline
 90
        4
 70
     1
 43
0.0
 10
1310.243520392522
 20
512.962914198765
 10
1335.243520392522
 20
512.962914198765
 10
1335.243520392522
 20
518.962914198765
 10
1310.243520392522
 20
518.962914198765
  0
ARC
  5
713
330
1F
100
AcDbEntity
  8
Hewi
100
AcDbCircle
 10
1798.351883259205
 20
418.9629492713138
 30
0.0
 40
1.000000192457607
100
AcDbArc
 50
0.000000000000007
 51
90.03554717236573
  0
SPLINE
  5
714
330
1F
100
AcDbEntity
  8
Hewi
100
AcDbSpline
210
0.0
220
0.0
230
1.0
 70
    24
 71
     2
 72
     6
 73
     3
 74
     0
 42
0.0000000001
 43
0.0000000001
 40
0.0
 40
0.0
 40
0.0
 40
1.999411158340125
 40
1.999411158340125
 40
1.999411158340125
 10
1798.351262843945
 20
419.9629492713138
 30
0.0
 10
1797.35155726477
 20
419.9629492713138
 30
0.0
 10
1796.351851685624
 20
419.9629492713138
 30
0.0
  0
SPLINE
  5
715
330
1F
100
AcDbEntity
  8
Hewi
100
AcDbSpline
210
0.0
220
0.0
230
1.0
 70
    24
 71
     2
 72
     6
 73
     3
 74
     0
 42
0.0000000001
 43
0.0000000001
 40
0.0
 40
0.0
 40
0.0
 40
104.0000000133337
 40
104.0000000133337
 40
104.0000000133337
 10
1796.351851685624
 20
419.9629492713138
 30
0.0
 10
1744.35185167893
 20
419.9629492713138
 30
0.0
 10
1692.351851672265
 20
419.9629492713138
 30
0.0
  0
SPLINE
  5
716
330
1F
100
AcDbEntity
  8
Hewi
100
AcDbSpline
210
0.0
220
0.0
230
1.0
 70
    24
 71
     2
 72
     6
 73
     3
 74
     0
 42
0.0000000001
 43
0.0000000001
 40
0.0
 40
0.0
 40
0.0
 40
1.000000000000142
 40
1.000000000000142
 40
1.000000000000142
 10
1692.351851672265
 20
419.9629492713138
 30
0.0
 10
1692.351851672265
 20
419.4629492713138
 30
0.0
 10
1692.351851672265
 20
418.9629492713138
 30
0.0
  0
SPLINE
  5
717
330
1F
100
AcDbEntity
  8
Hewi
100
AcDbSpline
210
0.0
220
0.0
230
1.0
 70
    24
 71
     2
 72
     6
 73
     3
 74
     0
 42
0.0000000001
 43
0.0000000001
 40
0.0
 40
0.0
 40
0.0
 40
19.03073174653971
 40
19.03073174653971
 40
19.03073174653971
 10
1692.351851672265
 20
418.9629492713138
 30
0.0
 10
1692.351851672265
 20
409.4475833980541
 30
0.0
 10
1692.351851672265
 20
399.932217524809
 30
0.0
  0
SPLINE
  5
718
330
1F
100
AcDbEntity
  8
Hewi
100
AcDbSpline
210
0.0
220
0.0
230
1.0
 70
    24
 71
     2
 72
     6
 73
     3
 74
     0
 42
0.0000000001
 43
0.0000000001
 40
0.0
 40
0.0
 40
0.0
 40
1.000000000000025
 40
1.000000000000025
 40
1.000000000000025
 10
1692.351851672265
 20
400.9322175248089
 30
0.0
 10
1692.351851672265
 20
400.4322175248089
 30
0.0
 10
1692.351851672265
 20
399.932217524809
 30
0.0
  0
SPLINE
  5
719
330
1F
100
AcDbEntity
  8
Hewi
100
AcDbSpline
210
0.0
220
0.0
230
1.0
 70
    24
 71
     2
 72
     6
 73
     3
 74
     0
 42
0.0000000001
 43
0.0000000001
 40
0.0
 40
0.0
 40
0.0
 40
103.9999999962894
 40
103.9999999962894
 40
103.9999999962894
 10
1692.351851672265
 20
399.932217524809
 30
0.0
 10
1744.351851670417
 20
399.932217524809
 30
0.0
 10
1796.35185166854
 20
399.932217524809
 30
0.0
  0
SPLINE
  5
71A
330
1F
100
AcDbEntity
  8
Hewi
100
AcDbSpline
210
0.0
220
0.0
230
1.0
 70
    24
 71
     2
 72
     6
 73
     3
 74
     0
 42
0.0000000001
 43
0.0000000001
 40
-2.000021190821178
 40
-2.000021190821178
 40
-2.000021190821178
 40
0.0
 40
0.0
 40
0.0
 10
1796.35185166854
 20
399.932217524809
 30
0.0
 10
1797.351862263964
 20
399.932217524809
 30
0.0
 10
1798.351872859373
 20
399.932217524809
 30
0.0
  0
ARC
  5
71B
330
1F
100
AcDbEntity
  8
Hewi
100
AcDbCircle
 10
1798.351872859373
 20
400.9322226333461
 30
0.0
 40
1.000005108585068
100
AcDbArc
 50
270.0
 51
359.9997073015479
  0
SPLINE
  5
71C
330
1F
100
AcDbEntity
  8
Hewi
100
AcDbSpline
210
0.0
220
0.0
230
1.0
 70
    12
 71
     2
 72
     6
 73
     3
 74
     0
 42
0.0000000001
 43
0.0000000001
 40
0.0
 40
0.0
 40
0.0
 40
19.03073174661838
 40
19.03073174661838
 40
19.03073174661838
 10
1799.351873803269
 20
400.9293365668563
 30
0.0
 41
1.0
 10
1799.351835876015
 20
409.4475833980541
 30
0.0
 41
0.999999999987599
 10
1799.351883451654
 20
418.9629492713138
 30
0.0
 41
1.0
  0
LWPOLYLINE
  5
71D
330
1F
100
AcDbEntity
  8
Hewi
100
AcDbPolyline
 90
        4
 70
     1
 43
0.0
 10
1795.351867489361
 20
419.9629141987649
 10
1716.351867489361
 20
419.9629141987649
 10
1716.351867489361
 20
503.962914198765
 10
1795.351867489361
 20
503.962914198765
  0
LWPOLYLINE
  5
71E
330
1F
100
AcDbEntity
  8
Hewi
100
AcDbPolyline
 90
        4
 70
     1
 43
0.0
 10
1770.851867489361
 20
518.962914198765
 10
1740.851867489361
 20
518.962914198765
 10
1740.851867489361
 20
553.962914198765
 10
1770.851867489361
 20
553.962914198765
  0
LWPOLYLINE
  5
71F
330
1F
100
AcDbEntity
  8
Hewi
100
AcDbPolyline
 90
        4
 70
     1
 43
0.0
 10
1770.851867489361
 20
503.962914198765
 10
1740.851867489361
 20
503.962914198765
 10
1740.851867489361
 20
512.962914198765
 10
1770.851867489361
 20
512.962914198765
  0
LWPOLYLINE
  5
720
330
1F
100
AcDbEntity
  8
Hewi
100
AcDbPolyline
 90
        4
 70
     1
 43
0.0
 10
1768.351867489361
 20
512.962914198765
 10
1743.351867489361
 20
512.962914198765
 10
1743.351867489361
 20
518.962914198765
 10
1768.351867489361
 20
518.962914198765
  0
LWPOLYLINE
  5
722
330
1F
100
AcDbEntity
  8
Hewi
100
AcDbPolyline
 90
        4
 70
     1
 43
0.0
 10
1770.851867489361
 20
544.156041933468
 10
1815.851867489361
 20
544.156041933468
 10
1815.851867489361
 20
549.156041933468
 10
1770.851867489361
 20
549.156041933468
  0
LWPOLYLINE
  5
723
330
1F
100
AcDbEntity
  8
Hewi
100
AcDbPolyline
 90
        4
 70
     1
 43
0.0
 10
1307.743520392522
 20
544.156041933468
 10
1262.743520392522
 20
544.156041933468
 10
1262.743520392522
 20
549.156041933468
 10
1307.743520392522
 20
549.156041933468
  0
SPLINE
  5
724
330
1F
100
AcDbEntity
  8
Hewi
100
AcDbSpline
210
0.0
220
0.0
230
1.0
 70
    12
 71
     2
 72
     6
 73
     3
 74
     0
 42
0.0000000001
 43
0.0000000001
 40
-75.09798545242698
 40
-75.09798545242698
 40
-75.09798545242698
 40
-73.39301076863991
 40
-73.39301076863991
 40
-73.39301076863991
 10
1535.431478096923
 20
236.4224815445309
 30
0.0
 41
0.9999999999997928
 10
1523.139928752494
 20
236.4224781129928
 30
0.0
 41
0.9999999999997651
 10
1507.543861810325
 20
236.4224733531155
 30
0.0
 41
0.9999999999997386
  0
CIRCLE
  5
736
330
1F
100
AcDbEntity
  8
Hewi
100
AcDbCircle
 10
1539.294778062438
 20
546.6560770060168
 30
0.0
 40
2.5
  0
ENDSEC
  0
SECTION
  2
OBJECTS
  0
DICTIONARY
  5
C
330
0
100
AcDbDictionary
281
     1
  3
ACAD_CIP_PREVIOUS_PRODUCT_INFO
350
4A9
  3
ACAD_COLOR
350
489
  3
ACAD_DETAILVIEWSTYLE
350
4A3
  3
ACAD_GROUP
350
D
  3
ACAD_LAYOUT
350
1A
  3
ACAD_MATERIAL
350
457
  3
ACAD_MLEADERSTYLE
350
49E
  3
ACAD_MLINESTYLE
350
17
  3
ACAD_PLOTSETTINGS
350
19
  3
ACAD_PLOTSTYLENAME
350
217
  3
ACAD_SCALELIST
350
48C
  3
ACAD_SECTIONVIEWSTYLE
350
4A0
  3
ACAD_TABLESTYLE
350
48A
  3
ACAD_VISUALSTYLE
350
470
  3
ACDB_RECOMPOSE_DATA
350
738
  3
AcDbVariableDictionary
350
4B5
  3
DWGPROPS
350
739
  0
DICTIONARY
  5
555
330
2
100
AcDbDictionary
280
     1
281
     1
  3
ACAD_LAYERSTATES
360
556
  0
DICTIONARY
  5
4AD
330
10
100
AcDbDictionary
280
     1
281
     1
  3
ADSK_XREC_LAYER_RECONCILED
360
4AE
  0
DICTIONARY
  5
4AF
330
81
100
AcDbDictionary
280
     1
281
     1
  3
ADSK_XREC_LAYER_RECONCILED
360
4B0
  0
DICTIONARY
  5
4B1
330
3EE
100
AcDbDictionary
280
     1
281
     1
  3
ADSK_XREC_LAYER_RECONCILED
360
4B2
  0
DICTIONARY
  5
4B3
330
4AA
100
AcDbDictionary
280
     1
281
     1
  3
ADSK_XREC_LAYER_RECONCILED
360
4B4
  0
DICTIONARY
  5
211
330
1F
100
AcDbDictionary
281
     1
  3
ACAD_LAYOUTSELFREF
350
454
  3
ACAD_SORTENTS
350
712
  0
DICTIONARY
  5
20F
330
1B
100
AcDbDictionary
281
     1
  3
ACAD_LAYOUTSELFREF
350
453
  0
XRECORD
  5
4A9
102
{ACAD_REACTORS
330
C
102
}
330
C
100
AcDbXrecord
280
     1
300
ACDLT
300
2013
300
ACDLT_F_S
  0
DICTIONARY
  5
489
102
{ACAD_REACTORS
330
C
102
}
330
C
100
AcDbDictionary
281
     1
  0
DICTIONARY
  5
4A3
102
{ACAD_REACTORS
330
C
102
}
330
C
100
AcDbDictionary
281
     1
  3
Imperial24
350
4A4
  0
DICTIONARY
  5
D
102
{ACAD_REACTORS
330
C
102
}
330
C
100
AcDbDictionary
281
     1
  0
DICTIONARY
  5
1A
102
{ACAD_REACTORS
330
C
102
}
330
C
100
AcDbDictionary
281
     1
  3
Layout1
350
4A6
  3
Model
350
4A5
  0
DICTIONARY
  5
457
102
{ACAD_REACTORS
330
C
102
}
330
C
100
AcDbDictionary
281
     1
  3
ByBlock
350
460
  3
ByLayer
350
458
  3
Global
350
468
  0
DICTIONARY
  5
49E
102
{ACAD_REACTORS
330
C
102
}
330
C
100
AcDbDictionary
281
     1
  3
Standard
350
49F
  0
DICTIONARY
  5
17
102
{ACAD_REACTORS
330
C
102
}
330
C
100
AcDbDictionary
281
     1
  3
STANDARD
350
18
  0
DICTIONARY
  5
19
102
{ACAD_REACTORS
330
C
102
}
330
C
100
AcDbDictionary
281
     1
  0
ACDBDICTIONARYWDFLT
  5
217
102
{ACAD_REACTORS
330
C
102
}
330
C
100
AcDbDictionary
281
     1
  3
Normal
350
218
100
AcDbDictionaryWithDefault
340
218
  0
DICTIONARY
  5
48C
102
{ACAD_REACTORS
330
C
102
}
330
C
100
AcDbDictionary
281
     1
  3
A0
350
48D
  3
A1
350
48E
  3
A2
350
48F
  3
A3
350
490
  3
A4
350
491
  3
A5
350
492
  3
A6
350
493
  3
A7
350
494
  3
A8
350
495
  3
A9
350
496
  3
B0
350
497
  3
B1
350
498
  3
B2
350
499
  3
B3
350
49A
  3
B4
350
49B
  3
B5
350
49C
  3
B6
350
49D
  0
DICTIONARY
  5
4A0
102
{ACAD_REACTORS
330
C
102
}
330
C
100
AcDbDictionary
281
     1
  3
Imperial24
350
4A2
  0
DICTIONARY
  5
48A
102
{ACAD_REACTORS
330
C
102
}
330
C
100
AcDbDictionary
281
     1
  3
Standard
350
48B
  0
DICTIONARY
  5
470
102
{ACAD_REACTORS
330
C
102
}
330
C
100
AcDbDictionary
281
     1
  3
2dWireframe
350
476
  3
Basic
350
475
  3
Brighten
350
47C
  3
ColorChange
350
480
  3
Conceptual
350
479
  3
Dim
350
47B
  3
EdgeColorOff
350
488
  3
Facepattern
350
47F
  3
Flat
350
471
  3
FlatWithEdges
350
472
  3
Gouraud
350
473
  3
GouraudWithEdges
350
474
  3
Hidden
350
478
  3
JitterOff
350
486
  3
Linepattern
350
47E
  3
OverhangOff
350
487
  3
Realistic
350
47A
  3
Shaded
350
485
  3
Shaded with edges
350
484
  3
Shades of Gray
350
481
  3
Sketchy
350
482
  3
Thicken
350
47D
  3
Wireframe
350
477
  3
X-Ray
350
483
  0
XRECORD
  5
738
102
{ACAD_REACTORS
330
C
102
}
330
C
100
AcDbXrecord
280
     1
 90
        1
330
48B
  0
DICTIONARY
  5
4B5
102
{ACAD_REACTORS
330
C
102
}
330
C
100
AcDbDictionary
281
     1
  3
CANNOSCALE
350
4BA
  3
CMLEADERSTYLE
350
4B7
  3
CTABLESTYLE
350
4B6
  3
CVIEWDETAILSTYLE
350
4B8
  3
CVIEWSECTIONSTYLE
350
4B9
  3
DIMASSOC
350
62D
  3
INDEXCTL
350
62C
  3
SORTENTS
350
62B
  3
XCLIPFRAME
350
62E
  0
XRECORD
  5
739
102
{ACAD_REACTORS
330
C
102
}
330
C
100
AcDbXrecord
280
     1
  1
DWGPROPS COOKIE
  2

  3

  4

  6

  7

  8
kaschu
  9

300
=
301
=
302
=
303
=
304
=
305
=
306
=
307
=
308
=
309
=
 40
0.0157013310185185
 41
2451762.44744757
 42
2456770.549835521
  1

 90
        0
  0
DICTIONARY
  5
556
102
{ACAD_REACTORS
330
555
102
}
330
555
100
AcDbDictionary
281
     1
  0
XRECORD
  5
4AE
102
{ACAD_REACTORS
330
4AD
102
}
330
4AD
100
AcDbXrecord
280
     1
290
     1
  0
XRECORD
  5
4B0
102
{ACAD_REACTORS
330
4AF
102
}
330
4AF
100
AcDbXrecord
280
     1
290
     1
  0
XRECORD
  5
4B2
102
{ACAD_REACTORS
330
4B1
102
}
330
4B1
100
AcDbXrecord
280
     1
290
     1
  0
XRECORD
  5
4B4
102
{ACAD_REACTORS
330
4B3
102
}
330
4B3
100
AcDbXrecord
280
     1
290
     1
  0
XRECORD
  5
454
102
{ACAD_REACTORS
330
211
102
}
330
211
100
AcDbXrecord
280
     1
340
1F
  0
SORTENTSTABLE
  5
712
102
{ACAD_REACTORS
330
211
102
}
330
211
100
AcDbSortentsTable
330
1F
331
716
  5
717
331
624
  5
626
331
602
  5
603
331
5E7
  5
5E7
331
717
  5
718
331
603
  5
604
331
5E8
  5
5E8
331
718
  5
719
331
626
  5
628
331
604
  5
605
331
5E9
  5
5E9
331
719
  5
71A
331
627
  5
629
331
605
  5
606
331
5EA
  5
5EA
331
71A
  5
71B
331
628
  5
62A
331
606
  5
607
331
5EB
  5
5EB
331
71B
  5
71C
331
629
  5
6FB
331
607
  5
609
331
5EC
  5
5EC
331
71C
  5
71D
331
62A
  5
6FF
331
608
  5
60A
331
5ED
  5
5ED
331
71D
  5
71E
331
609
  5
621
331
5F8
  5
5F9
331
5EE
  5
5EE
331
71E
  5
71F
331
60A
  5
622
331
5F9
  5
5FA
331
5EF
  5
5EF
331
71F
  5
720
331
5FA
  5
5FB
331
5F0
  5
5F0
331
720
  5
722
331
6FE
  5
700
331
5FB
  5
5FC
331
5F1
  5
5F2
331
6FF
  5
701
331
5FC
  5
5FD
331
5F2
  5
5F3
331
722
  5
723
331
700
  5
702
331
5FD
  5
5FE
331
5F3
  5
5F4
331
723
  5
724
331
701
  5
713
331
5FE
  5
5FF
331
5F4
  5
5F5
331
713
  5
714
331
724
  5
608
331
621
  5
623
331
5FF
  5
600
331
5F5
  5
5F6
331
714
  5
715
331
622
  5
624
331
600
  5
601
331
5F6
  5
5F7
331
715
  5
716
331
623
  5
625
331
601
  5
602
331
5F7
  5
5F8
  0
XRECORD
  5
453
102
{ACAD_REACTORS
330
20F
102
}
330
20F
100
AcDbXrecord
280
     1
340
1B
  0
ACDBDETAILVIEWSTYLE
  5
4A4
102
{ACAD_REACTORS
330
4A3
102
}
330
4A3
100
AcDbModelDocViewStyle
 70
     0
  3
Imperial24
290
     0
100
AcDbDetailViewStyle
 70
     0
 71
     0
 90
        3
 71
     1
340
11
 40
0.24
340
0
 40
0.24
300

 40
0.36
280
     3
 71
     2
340
16
 90
       25
 71
     3
340
11
 40
0.24
 90
        1
 40
0.75
 90
        1
300
%<\AcVar ViewType \f "%tc1">% %<\AcVar ViewDetailId>%\PVARIA %<\AcVar ViewScale \f "%sn">%
 71
     4
340
16
 90
       25
340
16
 90
       25
280
     0
  0
LAYOUT
  5
4A6
102
{ACAD_XDICTIONARY
360
76D
102
}
102
{ACAD_REACTORS
330
1A
102
}
330
1A
100
AcDbPlotSettings
  1

  2
\\srvadruck01\MFSA15
  4

  6

 40
0.0
 41
0.0
 42
0.0
 43
0.0
 44
0.0
 45
0.0
 46
0.0
 47
0.0
 48
0.0
 49
0.0
140
0.0
141
0.0
142
1.0
143
1.0
 70
   688
 72
     0
 73
     0
 74
     5
  7

 75
    16
147
1.0
148
0.0
149
0.0
100
AcDbLayout
  1
Layout1
 70
     1
 71
     1
 10
0.0
 20
0.0
 11
12.0
 21
9.0
 12
0.0
 22
0.0
 32
0.0
 14
1.000000000000000E+20
 24
1.000000000000000E+20
 34
1.000000000000000E+20
 15
-1.000000000000000E+20
 25
-1.000000000000000E+20
 35
-1.000000000000000E+20
146
0.0
 13
0.0
 23
0.0
 33
0.0
 16
1.0
 26
0.0
 36
0.0
 17
0.0
 27
1.0
 37
0.0
 76
     0
330
1B
  0
LAYOUT
  5
4A5
102
{ACAD_XDICTIONARY
360
76B
102
}
102
{ACAD_REACTORS
330
1A
102
}
330
1A
100
AcDbPlotSettings
  1

  2
\\srvadruck01\MFSA15
  4

  6

 40
0.0
 41
0.0
 42
0.0
 43
0.0
 44
0.0
 45
0.0
 46
0.0
 47
0.0
 48
0.0
 49
0.0
140
0.0
141
0.0
142
1.0
143
1.0
 70
  1712
 72
     0
 73
     0
 74
     0
  7

 75
     0
147
1.0
148
0.0
149
0.0
100
AcDbLayout
  1
Model
 70
     1
 71
     0
 10
0.0
 20
0.0
 11
12.0
 21
9.0
 12
0.0
 22
0.0
 32
0.0
 14
0.0
 24
0.0
 34
0.0
 15
0.0
 25
0.0
 35
0.0
146
0.0
 13
0.0
 23
0.0
 33
0.0
 16
1.0
 26
0.0
 36
0.0
 17
0.0
 27
1.0
 37
0.0
 76
     0
330
1F
331
432
  0
MATERIAL
  5
460
102
{ACAD_XDICTIONARY
360
461
102
}
102
{ACAD_REACTORS
330
457
102
}
330
457
100
AcDbMaterial
  1
ByBlock
 72
     0
 43
0.0208333333333333
 43
0.0
 43
0.0
 43
0.0
 43
0.0
 43
0.0208333333333333
 43
0.0
 43
0.0
 43
0.0
 43
0.0
 43
1.0
 43
0.0
 43
0.0
 43
0.0
 43
0.0
 43
1.0
 77
     0
 47
0.0208333333333333
 47
0.0
 47
0.0
 47
0.0
 47
0.0
 47
0.0208333333333333
 47
0.0
 47
0.0
 47
0.0
 47
0.0
 47
1.0
 47
0.0
 47
0.0
 47
0.0
 47
0.0
 47
1.0
171
     0
 49
0.0208333333333333
 49
0.0
 49
0.0
 49
0.0
 49
0.0
 49
0.0208333333333333
 49
0.0
 49
0.0
 49
0.0
 49
0.0
 49
1.0
 49
0.0
 49
0.0
 49
0.0
 49
0.0
 49
1.0
175
     0
142
0.0208333333333333
142
0.0
142
0.0
142
0.0
142
0.0
142
0.0208333333333333
142
0.0
142
0.0
142
0.0
142
0.0
142
1.0
142
0.0
142
0.0
142
0.0
142
0.0
142
1.0
179
     0
144
0.0208333333333333
144
0.0
144
0.0
144
0.0
144
0.0
144
0.0208333333333333
144
0.0
144
0.0
144
0.0
144
0.0
144
1.0
144
0.0
144
0.0
144
0.0
144
0.0
144
1.0
147
0.0208333333333333
147
0.0
147
0.0
147
0.0
147
0.0
147
0.0208333333333333
147
0.0
147
0.0
147
0.0
147
0.0
147
1.0
147
0.0
147
0.0
147
0.0
147
0.0
147
1.0
  0
MATERIAL
  5
458
102
{ACAD_XDICTIONARY
360
459
102
}
102
{ACAD_REACTORS
330
457
102
}
330
457
100
AcDbMaterial
  1
ByLayer
 72
     0
 43
0.0208333333333333
 43
0.0
 43
0.0
 43
0.0
 43
0.0
 43
0.0208333333333333
 43
0.0
 43
0.0
 43
0.0
 43
0.0
 43
1.0
 43
0.0
 43
0.0
 43
0.0
 43
0.0
 43
1.0
 77
     0
 47
0.0208333333333333
 47
0.0
 47
0.0
 47
0.0
 47
0.0
 47
0.0208333333333333
 47
0.0
 47
0.0
 47
0.0
 47
0.0
 47
1.0
 47
0.0
 47
0.0
 47
0.0
 47
0.0
 47
1.0
171
     0
 49
0.0208333333333333
 49
0.0
 49
0.0
 49
0.0
 49
0.0
 49
0.0208333333333333
 49
0.0
 49
0.0
 49
0.0
 49
0.0
 49
1.0
 49
0.0
 49
0.0
 49
0.0
 49
0.0
 49
1.0
175
     0
142
0.0208333333333333
142
0.0
142
0.0
142
0.0
142
0.0
142
0.0208333333333333
142
0.0
142
0.0
142
0.0
142
0.0
142
1.0
142
0.0
142
0.0
142
0.0
142
0.0
142
1.0
179
     0
144
0.0208333333333333
144
0.0
144
0.0
144
0.0
144
0.0
144
0.0208333333333333
144
0.0
144
0.0
144
0.0
144
0.0
144
1.0
144
0.0
144
0.0
144
0.0
144
0.0
144
1.0
147
0.0208333333333333
147
0.0
147
0.0
147
0.0
147
0.0
147
0.0208333333333333
147
0.0
147
0.0
147
0.0
147
0.0
147
1.0
147
0.0
147
0.0
147
0.0
147
0.0
147
1.0
  0
MATERIAL
  5
468
102
{ACAD_XDICTIONARY
360
469
102
}
102
{ACAD_REACTORS
330
457
102
}
330
457
100
AcDbMaterial
  1
Global
 72
     0
 43
0.0208333333333333
 43
0.0
 43
0.0
 43
0.0
 43
0.0
 43
0.0208333333333333
 43
0.0
 43
0.0
 43
0.0
 43
0.0
 43
1.0
 43
0.0
 43
0.0
 43
0.0
 43
0.0
 43
1.0
 77
     0
 47
0.0208333333333333
 47
0.0
 47
0.0
 47
0.0
 47
0.0
 47
0.0208333333333333
 47
0.0
 47
0.0
 47
0.0
 47
0.0
 47
1.0
 47
0.0
 47
0.0
 47
0.0
 47
0.0
 47
1.0
171
     0
 49
0.0208333333333333
 49
0.0
 49
0.0
 49
0.0
 49
0.0
 49
0.0208333333333333
 49
0.0
 49
0.0
 49
0.0
 49
0.0
 49
1.0
 49
0.0
 49
0.0
 49
0.0
 49
0.0
 49
1.0
175
     0
142
0.0208333333333333
142
0.0
142
0.0
142
0.0
142
0.0
142
0.0208333333333333
142
0.0
142
0.0
142
0.0
142
0.0
142
1.0
142
0.0
142
0.0
142
0.0
142
0.0
142
1.0
179
     0
144
0.0208333333333333
144
0.0
144
0.0
144
0.0
144
0.0
144
0.0208333333333333
144
0.0
144
0.0
144
0.0
144
0.0
144
1.0
144
0.0
144
0.0
144
0.0
144
0.0
144
1.0
147
0.0208333333333333
147
0.0
147
0.0
147
0.0
147
0.0
147
0.0208333333333333
147
0.0
147
0.0
147
0.0
147
0.0
147
1.0
147
0.0
147
0.0
147
0.0
147
0.0
147
1.0
  0
MLEADERSTYLE
  5
49F
102
{ACAD_REACTORS
330
49E
102
}
330
49E
100
AcDbMLeaderStyle
170
     2
171
     1
172
     0
 90
        2
 40
0.0
 41
0.0
173
     1
 91
-1056964608
340
14
 92
       -2
290
     1
 42
0.09
291
     1
 43
0.36
  3
Standard
 44
0.18
300

342
11
174
     1
178
     6
175
     1
176
     0
 93
-1056964608
 45
0.18
292
     0
297
     0
 46
0.18
 94
-1056964608
 47
1.0
 49
1.0
140
1.0
293
     1
141
0.0
294
     1
177
     0
142
1.0
295
     0
296
     0
143
0.125
1001
ACAD_MLEADERVER
1070
     2
  0
MLINESTYLE
  5
18
102
{ACAD_REACTORS
330
17
102
}
330
17
100
AcDbMlineStyle
  2
STANDARD
 70
     0
  3

 62
   256
 51
90.0
 52
90.0
 71
     2
 49
0.5
 62
   256
  6
BYLAYER
 49
-0.5
 62
   256
  6
BYLAYER
  0
ACDBPLACEHOLDER
  5
218
102
{ACAD_REACTORS
330
217
102
}
330
217
  0
SCALE
  5
48D
102
{ACAD_REACTORS
330
48C
102
}
330
48C
100
AcDbScale
 70
     0
300
1:1
140
1.0
141
1.0
290
     1
  0
SCALE
  5
48E
102
{ACAD_REACTORS
330
48C
102
}
330
48C
100
AcDbScale
 70
     0
300
1/128" = 1'-0"
140
0.0078125
141
12.0
290
     0
  0
SCALE
  5
48F
102
{ACAD_REACTORS
330
48C
102
}
330
48C
100
AcDbScale
 70
     0
300
1/64" = 1'-0"
140
0.015625
141
12.0
290
     0
  0
SCALE
  5
490
102
{ACAD_REACTORS
330
48C
102
}
330
48C
100
AcDbScale
 70
     0
300
1/32" = 1'-0"
140
0.03125
141
12.0
290
     0
  0
SCALE
  5
491
102
{ACAD_REACTORS
330
48C
102
}
330
48C
100
AcDbScale
 70
     0
300
1/16" = 1'-0"
140
0.0625
141
12.0
290
     0
  0
SCALE
  5
492
102
{ACAD_REACTORS
330
48C
102
}
330
48C
100
AcDbScale
 70
     0
300
3/32" = 1'-0"
140
0.09375
141
12.0
290
     0
  0
SCALE
  5
493
102
{ACAD_REACTORS
330
48C
102
}
330
48C
100
AcDbScale
 70
     0
300
1/8" = 1'-0"
140
0.125
141
12.0
290
     0
  0
SCALE
  5
494
102
{ACAD_REACTORS
330
48C
102
}
330
48C
100
AcDbScale
 70
     0
300
3/16" = 1'-0"
140
0.1875
141
12.0
290
     0
  0
SCALE
  5
495
102
{ACAD_REACTORS
330
48C
102
}
330
48C
100
AcDbScale
 70
     0
300
1/4" = 1'-0"
140
0.25
141
12.0
290
     0
  0
SCALE
  5
496
102
{ACAD_REACTORS
330
48C
102
}
330
48C
100
AcDbScale
 70
     0
300
3/8" = 1'-0"
140
0.375
141
12.0
290
     0
  0
SCALE
  5
497
102
{ACAD_REACTORS
330
48C
102
}
330
48C
100
AcDbScale
 70
     0
300
1/2" = 1'-0"
140
0.5
141
12.0
290
     0
  0
SCALE
  5
498
102
{ACAD_REACTORS
330
48C
102
}
330
48C
100
AcDbScale
 70
     0
300
3/4" = 1'-0"
140
0.75
141
12.0
290
     0
  0
SCALE
  5
499
102
{ACAD_REACTORS
330
48C
102
}
330
48C
100
AcDbScale
 70
     0
300
1" = 1'-0"
140
1.0
141
12.0
290
     0
  0
SCALE
  5
49A
102
{ACAD_REACTORS
330
48C
102
}
330
48C
100
AcDbScale
 70
     0
300
1-1/2" = 1'-0"
140
1.5
141
12.0
290
     0
  0
SCALE
  5
49B
102
{ACAD_REACTORS
330
48C
102
}
330
48C
100
AcDbScale
 70
     0
300
3" = 1'-0"
140
3.0
141
12.0
290
     0
  0
SCALE
  5
49C
102
{ACAD_REACTORS
330
48C
102
}
330
48C
100
AcDbScale
 70
     0
300
6" = 1'-0"
140
6.0
141
12.0
290
     0
  0
SCALE
  5
49D
102
{ACAD_REACTORS
330
48C
102
}
330
48C
100
AcDbScale
 70
     0
300
1'-0" = 1'-0"
140
12.0
141
12.0
290
     0
  0
ACDBSECTIONVIEWSTYLE
  5
4A2
102
{ACAD_REACTORS
330
4A0
102
}
330
4A0
100
AcDbModelDocViewStyle
 70
     0
  3
Imperial24
290
     0
100
AcDbSectionViewStyle
 70
     0
 71
     0
 90
       78
 71
     1
340
11
 40
0.24
340
0
340
0
 40
0.24
300
I, O, Q, S, X, Z
 40
0.48
 90
        3
 40
0.18
 90
        1
 71
     2
340
4A1
 90
       25
340
16
 90
       50
 40
0.24
 40
0.0
 40
0.24
 71
     3
340
11
 40
0.24
 90
        1
 40
0.75
 90
        1
300
%<\AcVar ViewType \f "%tc1">% %<\AcVar ViewSectionStartId>%-%<\AcVar ViewSectionEndId>%\PVARIA %<\AcVar ViewScale \f "%sn">%
 71
     4
300
ANSI31
 40
1.0
 90
        0
290
     0
290
     0
 90
        6
 40
0.0
 40
1.570796326794896
 40
0.2617993877991494
 40
1.308996938995747
 40
-0.2617993877991494
 40
1.832595714594044
  0
TABLESTYLE
  5
48B
102
{ACAD_XDICTIONARY
360
4BD
102
}
102
{ACAD_REACTORS
330
48A
102
}
330
48A
100
AcDbTableStyle
  3
Standard
 70
     0
 71
     0
 40
0.06
 41
0.06
280
     0
281
     0
  7
STANDARD
140
0.18
170
     2
 62
     0
 63
     7
283
     0
274
    -2
284
     1
 64
     0
275
    -2
285
     1
 65
     0
276
    -2
286
     1
 66
     0
277
    -2
287
     1
 67
     0
278
    -2
288
     1
 68
     0
279
    -2
289
     1
 69
     0
  7
STANDARD
140
0.25
170
     5
 62
     0
 63
     7
283
     0
274
    -2
284
     1
 64
     0
275
    -2
285
     1
 65
     0
276
    -2
286
     1
 66
     0
277
    -2
287
     1
 67
     0
278
    -2
288
     1
 68
     0
279
    -2
289
     1
 69
     0
  7
STANDARD
140
0.18
170
     5
 62
     0
 63
     7
283
     0
274
    -2
284
     1
 64
     0
275
    -2
285
     1
 65
     0
276
    -2
286
     1
 66
     0
277
    -2
287
     1
 67
     0
278
    -2
288
     1
 68
     0
279
    -2
289
     1
 69
     0
  0
VISUALSTYLE
  5
476
102
{ACAD_XDICTIONARY
360
744
102
}
102
{ACAD_REACTORS
330
470
102
}
330
470
100
AcDbVisualStyle
  2

 70
     4
 71
     0
 72
     2
 73
     0
 90
        0
 40
-0.6
 41
-30.0
 62
     5
 63
     7
 74
     1
 91
        4
 64
     7
 65
   257
 75
     1
175
     1
 42
1.0
 92
        0
 66
   257
 43
1.0
 76
     1
 77
     6
 78
     2
 67
     7
 79
     5
170
     0
171
     0
290
     0
174
     0
 93
        1
 44
0.0
173
     0
291
     0
 45
0.0
1001
ACAD
1000
AcDbSavedByObjectVersion
1070
     0
  0
VISUALSTYLE
  5
475
102
{ACAD_XDICTIONARY
360
742
102
}
102
{ACAD_REACTORS
330
470
102
}
330
470
100
AcDbVisualStyle
  2

 70
     7
 71
     1
 72
     0
 73
     1
 90
        0
 40
-0.6
 41
-30.0
 62
     5
 63
     7
 74
     0
 91
        4
 64
     7
 65
   257
 75
     1
175
     1
 42
1.0
 92
        8
 66
     7
 43
1.0
 76
     1
 77
     6
 78
     2
 67
     7
 79
     5
170
     0
171
     0
290
     0
174
     0
 93
        1
 44
0.0
173
     0
291
     1
 45
0.0
1001
ACAD
1000
AcDbSavedByObjectVersion
1070
     0
  0
VISUALSTYLE
  5
47C
102
{ACAD_XDICTIONARY
360
750
102
}
102
{ACAD_REACTORS
330
470
102
}
330
470
100
AcDbVisualStyle
  2

 70
    12
 71
     2
 72
     2
 73
     0
 90
        0
 40
-0.6
 41
-30.0
 62
     5
 63
     7
 74
     1
 91
        4
 64
     7
 65
   257
 75
     1
175
     1
 42
1.0
 92
        8
 66
     7
 43
1.0
 76
     1
 77
     6
 78
     2
 67
     7
 79
     5
170
     0
171
     0
290
     0
174
     0
 93
        1
 44
50.0
173
     0
291
     1
 45
0.0
1001
ACAD
1000
AcDbSavedByObjectVersion
1070
     0
  0
VISUALSTYLE
  5
480
102
{ACAD_XDICTIONARY
360
758
102
}
102
{ACAD_REACTORS
330
470
102
}
330
470
100
AcDbVisualStyle
  2

 70
    16
 71
     2
 72
     2
 73
     3
 90
        0
 40
-0.6
 41
-30.0
 62
     5
 63
     8
 74
     1
 91
        4
 64
     7
 65
   257
 75
     1
175
     1
 42
1.0
 92
        8
 66
     8
 43
1.0
 76
     1
 77
     6
 78
     2
 67
     7
 79
     5
170
     0
171
     0
290
     0
174
     0
 93
        1
 44
0.0
173
     0
291
     1
 45
0.0
1001
ACAD
1000
AcDbSavedByObjectVersion
1070
     0
  0
VISUALSTYLE
  5
479
102
{ACAD_XDICTIONARY
360
74A
102
}
102
{ACAD_REACTORS
330
470
102
}
330
470
100
AcDbVisualStyle
  2

 70
     9
 71
     3
 72
     2
 73
     0
 90
        0
 40
-0.6
 41
-30.0
 62
     5
 63
     7
 74
     2
 91
        2
 64
     7
 65
   257
 75
     1
175
     1
 42
179.0
 92
        8
 66
     7
 43
1.0
 76
     1
 77
     6
 78
     2
 67
     7
 79
     3
170
     0
171
     0
290
     0
174
     0
 93
        1
 44
0.0
173
     0
291
     0
 45
0.0
1001
ACAD
1000
AcDbSavedByObjectVersion
1070
     0
  0
VISUALSTYLE
  5
47B
102
{ACAD_XDICTIONARY
360
74E
102
}
102
{ACAD_REACTORS
330
470
102
}
330
470
100
AcDbVisualStyle
  2

 70
    11
 71
     2
 72
     2
 73
     0
 90
        0
 40
-0.6
 41
-30.0
 62
     5
 63
     7
 74
     1
 91
        4
 64
     7
 65
   257
 75
     1
175
     1
 42
1.0
 92
        8
 66
     7
 43
1.0
 76
     1
 77
     6
 78
     2
 67
     7
 79
     5
170
     0
171
     0
290
     0
174
     0
 93
        1
 44
-50.0
173
     0
291
     1
 45
0.0
1001
ACAD
1000
AcDbSavedByObjectVersion
1070
     0
  0
VISUALSTYLE
  5
488
102
{ACAD_XDICTIONARY
360
768
102
}
102
{ACAD_REACTORS
330
470
102
}
330
470
100
AcDbVisualStyle
  2

 70
    22
 71
     2
 72
     2
 73
     0
 90
        0
 40
-0.6
 41
-30.0
 62
     5
 63
     7
 74
     1
 91
        4
 64
     7
 65
   257
 75
     1
175
     1
 42
1.0
 92
        8
 66
     7
 43
1.0
 76
     1
 77
     6
 78
     2
 67
     7
 79
     5
170
     0
171
     0
290
     0
174
     0
 93
        1
 44
0.0
173
     0
291
     1
 45
0.0
1001
ACAD
1000
AcDbSavedByObjectVersion
1070
     0
  0
VISUALSTYLE
  5
47F
102
{ACAD_XDICTIONARY
360
756
102
}
102
{ACAD_REACTORS
330
470
102
}
330
470
100
AcDbVisualStyle
  2

 70
    15
 71
     2
 72
     2
 73
     0
 90
        0
 40
-0.6
 41
-30.0
 62
     5
 63
     7
 74
     1
 91
        4
 64
     7
 65
   257
 75
     1
175
     1
 42
1.0
 92
        8
 66
     7
 43
1.0
 76
     1
 77
     6
 78
     2
 67
     7
 79
     5
170
     0
171
     0
290
     0
174
     0
 93
        1
 44
0.0
173
     0
291
     1
 45
0.0
1001
ACAD
1000
AcDbSavedByObjectVersion
1070
     0
  0
VISUALSTYLE
  5
471
102
{ACAD_XDICTIONARY
360
73A
102
}
102
{ACAD_REACTORS
330
470
102
}
330
470
100
AcDbVisualStyle
  2

 70
     0
 71
     2
 72
     1
 73
     1
 90
        2
 40
-0.6
 41
30.0
 62
     5
 63
     7
 74
     0
 91
        0
 64
     7
 65
   257
 75
     1
175
     1
 42
1.0
 92
        8
 66
     7
 43
1.0
 76
     1
 77
     6
 78
     2
 67
     7
 79
     5
170
     0
171
     0
290
     0
174
     0
 93
       13
 44
0.0
173
     0
291
     1
 45
0.0
1001
ACAD
1000
AcDbSavedByObjectVersion
1070
     0
  0
VISUALSTYLE
  5
472
102
{ACAD_XDICTIONARY
360
73C
102
}
102
{ACAD_REACTORS
330
470
102
}
330
470
100
AcDbVisualStyle
  2

 70
     1
 71
     2
 72
     1
 73
     1
 90
        2
 40
-0.6
 41
30.0
 62
     5
 63
     7
 74
     1
 91
        0
 64
     7
 65
   257
 75
     1
175
     1
 42
1.0
 92
        0
 66
   257
 43
1.0
 76
     1
 77
     6
 78
     2
 67
     7
 79
     5
170
     0
171
     0
290
     0
174
     0
 93
       13
 44
0.0
173
     0
291
     1
 45
0.0
1001
ACAD
1000
AcDbSavedByObjectVersion
1070
     0
  0
VISUALSTYLE
  5
473
102
{ACAD_XDICTIONARY
360
73E
102
}
102
{ACAD_REACTORS
330
470
102
}
330
470
100
AcDbVisualStyle
  2

 70
     2
 71
     2
 72
     2
 73
     1
 90
        2
 40
-0.6
 41
30.0
 62
     5
 63
     7
 74
     0
 91
        0
 64
     7
 65
   257
 75
     1
175
     1
 42
1.0
 92
        0
 66
     7
 43
1.0
 76
     1
 77
     6
 78
     2
 67
     7
 79
     5
170
     0
171
     0
290
     0
174
     0
 93
       13
 44
0.0
173
     0
291
     1
 45
0.0
1001
ACAD
1000
AcDbSavedByObjectVersion
1070
     0
  0
VISUALSTYLE
  5
474
102
{ACAD_XDICTIONARY
360
740
102
}
102
{ACAD_REACTORS
330
470
102
}
330
470
100
AcDbVisualStyle
  2

 70
     3
 71
     2
 72
     2
 73
     1
 90
        2
 40
-0.6
 41
30.0
 62
     5
 63
     7
 74
     1
 91
        0
 64
     7
 65
   257
 75
     1
175
     1
 42
1.0
 92
        0
 66
   257
 43
1.0
 76
     1
 77
     6
 78
     2
 67
     7
 79
     5
170
     0
171
     0
290
     0
174
     0
 93
       13
 44
0.0
173
     0
291
     1
 45
0.0
1001
ACAD
1000
AcDbSavedByObjectVersion
1070
     0
  0
VISUALSTYLE
  5
478
102
{ACAD_XDICTIONARY
360
748
102
}
102
{ACAD_REACTORS
330
470
102
}
330
470
100
AcDbVisualStyle
  2

 70
     6
 71
     1
 72
     2
 73
     2
 90
        0
 40
-0.6
 41
-30.0
 62
     5
 63
     7
 74
     2
 91
        2
 64
     7
 65
   257
 75
     2
175
     1
 42
40.0
 92
        0
 66
   257
 43
1.0
 76
     1
 77
     6
 78
     2
 67
     7
 79
     3
170
     0
171
     0
290
     0
174
     0
 93
        1
 44
0.0
173
     0
291
     0
 45
0.0
1001
ACAD
1000
AcDbSavedByObjectVersion
1070
     0
  0
VISUALSTYLE
  5
486
102
{ACAD_XDICTIONARY
360
764
102
}
102
{ACAD_REACTORS
330
470
102
}
330
470
100
AcDbVisualStyle
  2

 70
    20
 71
     2
 72
     2
 73
     0
 90
        0
 40
-0.6
 41
-30.0
 62
     5
 63
     7
 74
     1
 91
        4
 64
     7
 65
   257
 75
     1
175
     1
 42
1.0
 92
       10
 66
     7
 43
1.0
 76
     1
 77
     6
 78
     2
 67
     7
 79
     5
170
     0
171
     0
290
     0
174
     0
 93
        1
 44
0.0
173
     0
291
     1
 45
0.0
1001
ACAD
1000
AcDbSavedByObjectVersion
1070
     0
  0
VISUALSTYLE
  5
47E
102
{ACAD_XDICTIONARY
360
754
102
}
102
{ACAD_REACTORS
330
470
102
}
330
470
100
AcDbVisualStyle
  2

 70
    14
 71
     2
 72
     2
 73
     0
 90
        0
 40
-0.6
 41
-30.0
 62
     5
 63
     7
 74
     1
 91
        4
 64
     7
 65
   257
 75
     7
175
     7
 42
1.0
 92
        8
 66
     7
 43
1.0
 76
     1
 77
     6
 78
     2
 67
     7
 79
     5
170
     0
171
     0
290
     0
174
     0
 93
        1
 44
0.0
173
     0
291
     1
 45
0.0
1001
ACAD
1000
AcDbSavedByObjectVersion
1070
     0
  0
VISUALSTYLE
  5
487
102
{ACAD_XDICTIONARY
360
766
102
}
102
{ACAD_REACTORS
330
470
102
}
330
470
100
AcDbVisualStyle
  2

 70
    21
 71
     2
 72
     2
 73
     0
 90
        0
 40
-0.6
 41
-30.0
 62
     5
 63
     7
 74
     1
 91
        4
 64
     7
 65
   257
 75
     1
175
     1
 42
1.0
 92
        9
 66
     7
 43
1.0
 76
     1
 77
     6
 78
     2
 67
     7
 79
     5
170
     0
171
     0
290
     0
174
     0
 93
        1
 44
0.0
173
     0
291
     1
 45
0.0
1001
ACAD
1000
AcDbSavedByObjectVersion
1070
     0
  0
VISUALSTYLE
  5
47A
102
{ACAD_XDICTIONARY
360
74C
102
}
102
{ACAD_REACTORS
330
470
102
}
330
470
100
AcDbVisualStyle
  2

 70
     8
 71
     2
 72
     3
 73
     0
 90
        2
 40
-0.6
 41
30.0
 62
     5
 63
     7
 74
     0
 91
        0
 64
     7
 65
   257
 75
     1
175
     1
 42
1.0
 92
        8
 66
   257
 43
1.0
 76
     1
 77
     6
 78
     2
 67
     7
 79
     3
170
     0
171
     0
290
     0
174
     0
 93
       13
 44
0.0
173
     0
291
     0
 45
0.0
1001
ACAD
1000
AcDbSavedByObjectVersion
1070
     0
  0
VISUALSTYLE
  5
485
102
{ACAD_XDICTIONARY
360
762
102
}
102
{ACAD_REACTORS
330
470
102
}
330
470
100
AcDbVisualStyle
  2

 70
    27
 71
     2
 72
     2
 73
     1
 90
        2
 40
-0.6
 41
30.0
 62
     5
 63
     7
 74
     0
 91
        4
 64
     7
 65
   257
 75
     1
175
     1
 42
1.0
 92
        8
 66
   257
 43
1.0
 76
     1
 77
     6
 78
     2
 67
     8
 79
     3
170
     0
171
     0
290
     0
174
     0
 93
        5
 44
0.0
173
     0
291
     0
 45
0.0
1001
ACAD
1000
AcDbSavedByObjectVersion
1070
     0
  0
VISUALSTYLE
  5
484
102
{ACAD_XDICTIONARY
360
760
102
}
102
{ACAD_REACTORS
330
470
102
}
330
470
100
AcDbVisualStyle
  2

 70
    26
 71
     2
 72
     2
 73
     1
 90
        2
 40
-0.6
 41
30.0
 62
     5
 63
     7
 74
     1
 91
       10
 64
     7
 65
   257
 75
     2
175
     1
 42
1.0
 92
        8
 66
   257
 43
1.0
 76
     1
 77
     6
 78
     2
 67
     7
 79
     3
170
     0
171
     0
290
     0
174
     0
 93
        5
 44
0.0
173
     0
291
     0
 45
0.0
1001
ACAD
1000
AcDbSavedByObjectVersion
1070
     0
  0
VISUALSTYLE
  5
481
102
{ACAD_XDICTIONARY
360
75A
102
}
102
{ACAD_REACTORS
330
470
102
}
330
470
100
AcDbVisualStyle
  2

 70
    23
 71
     2
 72
     2
 73
     3
 90
        0
 40
-0.6
 41
-30.0
 62
     5
 63
     7
 74
     2
 91
        2
 64
     7
 65
     7
 75
     1
175
     1
 42
40.0
 92
        8
 66
     7
 43
1.0
 76
     1
 77
     6
 78
     2
 67
     7
 79
     3
170
     0
171
     0
290
     0
174
     0
 93
        1
 44
0.0
173
     0
291
     0
 45
0.0
1001
ACAD
1000
AcDbSavedByObjectVersion
1070
     0
  0
VISUALSTYLE
  5
482
102
{ACAD_XDICTIONARY
360
75C
102
}
102
{ACAD_REACTORS
330
470
102
}
330
470
100
AcDbVisualStyle
  2

 70
    24
 71
     1
 72
     2
 73
     2
 90
        0
 40
-0.6
 41
-30.0
 62
     5
 63
     7
 74
     2
 91
        2
 64
     7
 65
     7
 75
     1
175
     1
 42
40.0
 92
       11
 66
     7
 43
1.0
 76
     1
 77
     6
 78
     2
 67
     7
 79
     6
170
     0
171
     0
290
     0
174
     0
 93
        1
 44
0.0
173
     0
291
     0
 45
0.0
1001
ACAD
1000
AcDbSavedByObjectVersion
1070
     0
  0
VISUALSTYLE
  5
47D
102
{ACAD_XDICTIONARY
360
752
102
}
102
{ACAD_REACTORS
330
470
102
}
330
470
100
AcDbVisualStyle
  2

 70
    13
 71
     2
 72
     2
 73
     0
 90
        0
 40
-0.6
 41
-30.0
 62
     5
 63
     7
 74
     1
 91
        4
 64
     7
 65
   257
 75
     1
175
     1
 42
1.0
 92
       12
 66
     7
 43
1.0
 76
     1
 77
     6
 78
     2
 67
     7
 79
     5
170
     0
171
     0
290
     0
174
     0
 93
        1
 44
0.0
173
     0
291
     1
 45
0.0
1001
ACAD
1000
AcDbSavedByObjectVersion
1070
     0
  0
VISUALSTYLE
  5
477
102
{ACAD_XDICTIONARY
360
746
102
}
102
{ACAD_REACTORS
330
470
102
}
330
470
100
AcDbVisualStyle
  2

 70
     5
 71
     0
 72
     2
 73
     0
 90
        0
 40
-0.6
 41
-30.0
 62
     5
 63
     7
 74
     1
 91
        4
 64
     7
 65
   257
 75
     1
175
     1
 42
1.0
 92
        0
 66
   257
 43
1.0
 76
     1
 77
     6
 78
     2
 67
     7
 79
     3
170
     0
171
     0
290
     0
174
     0
 93
        1
 44
0.0
173
     0
291
     0
 45
0.0
1001
ACAD
1000
AcDbSavedByObjectVersion
1070
     0
  0
VISUALSTYLE
  5
483
102
{ACAD_XDICTIONARY
360
75E
102
}
102
{ACAD_REACTORS
330
470
102
}
330
470
100
AcDbVisualStyle
  2

 70
    25
 71
     2
 72
     2
 73
     1
 90
        1
 40
0.5
 41
-30.0
 62
     5
 63
     7
 74
     1
 91
        0
 64
     7
 65
   257
 75
     1
175
     1
 42
1.0
 92
        8
 66
     7
 43
1.0
 76
     1
 77
     6
 78
     2
 67
     7
 79
     3
170
     0
171
     0
290
     0
174
     0
 93
       13
 44
0.0
173
     0
291
     0
 45
0.0
1001
ACAD
1000
AcDbSavedByObjectVersion
1070
     0
  0
DICTIONARYVAR
  5
4BA
102
{ACAD_REACTORS
330
4B5
102
}
330
4B5
100
DictionaryVariables
280
     0
  1
1:1
  0
DICTIONARYVAR
  5
4B7
102
{ACAD_REACTORS
330
4B5
102
}
330
4B5
100
DictionaryVariables
280
     0
  1
STANDARD
  0
DICTIONARYVAR
  5
4B6
102
{ACAD_REACTORS
330
4B5
102
}
330
4B5
100
DictionaryVariables
280
     0
  1
STANDARD
  0
DICTIONARYVAR
  5
4B8
102
{ACAD_REACTORS
330
4B5
102
}
330
4B5
100
DictionaryVariables
280
     0
  1
Imperial24
  0
DICTIONARYVAR
  5
4B9
102
{ACAD_REACTORS
330
4B5
102
}
330
4B5
100
DictionaryVariables
280
     0
  1
Imperial24
  0
DICTIONARYVAR
  5
62D
102
{ACAD_REACTORS
330
4B5
102
}
330
4B5
100
DictionaryVariables
280
     0
  1
1
  0
DICTIONARYVAR
  5
62C
102
{ACAD_REACTORS
330
4B5
102
}
330
4B5
100
DictionaryVariables
280
     0
  1
0
  0
DICTIONARYVAR
  5
62B
102
{ACAD_REACTORS
330
4B5
102
}
330
4B5
100
DictionaryVariables
280
     0
  1
127
  0
DICTIONARYVAR
  5
62E
102
{ACAD_REACTORS
330
4B5
102
}
330
4B5
100
DictionaryVariables
280
     0
  1
2
  0
DICTIONARY
  5
76D
330
4A6
100
AcDbDictionary
280
     1
281
     1
  3
ACAD_XREC_ROUNDTRIP
360
76E
  0
DICTIONARY
  5
76B
330
4A5
100
AcDbDictionary
280
     1
281
     1
  3
ACAD_XREC_ROUNDTRIP
360
76C
  0
DICTIONARY
  5
461
330
460
100
AcDbDictionary
280
     1
281
     1
  3
ACAD_XREC_ROUNDTRIP
360
4C1
  3
BUMPTILE
360
463
  3
DIFFUSETILE
360
462
  3
OPACITYTILE
360
466
  3
REFLECTIONTILE
360
465
  3
REFRACTIONTILE
360
467
  3
SPECULARTILE
360
464
  0
DICTIONARY
  5
459
330
458
100
AcDbDictionary
280
     1
281
     1
  3
ACAD_XREC_ROUNDTRIP
360
4C0
  3
BUMPTILE
360
45B
  3
DIFFUSETILE
360
45A
  3
OPACITYTILE
360
45E
  3
REFLECTIONTILE
360
45D
  3
REFRACTIONTILE
360
45F
  3
SPECULARTILE
360
45C
  0
DICTIONARY
  5
469
330
468
100
AcDbDictionary
280
     1
281
     1
  3
ACAD_XREC_ROUNDTRIP
360
4C2
  3
BUMPTILE
360
46B
  3
DIFFUSETILE
360
46A
  3
OPACITYTILE
360
46E
  3
REFLECTIONTILE
360
46D
  3
REFRACTIONTILE
360
46F
  3
SPECULARTILE
360
46C
  0
DICTIONARY
  5
4BD
330
48B
100
AcDbDictionary
280
     1
281
     1
  3
ACAD_ROUNDTRIP_2008_TABLESTYLE_CELLSTYLEMAP
360
737
  3
ACAD_XREC_ROUNDTRIP
360
76A
  0
DICTIONARY
  5
744
330
476
100
AcDbDictionary
280
     1
281
     1
  3
ACAD_XREC_ROUNDTRIP
360
745
  0
DICTIONARY
  5
742
330
475
100
AcDbDictionary
280
     1
281
     1
  3
ACAD_XREC_ROUNDTRIP
360
743
  0
DICTIONARY
  5
750
330
47C
100
AcDbDictionary
280
     1
281
     1
  3
ACAD_XREC_ROUNDTRIP
360
751
  0
DICTIONARY
  5
758
330
480
100
AcDbDictionary
280
     1
281
     1
  3
ACAD_XREC_ROUNDTRIP
360
759
  0
DICTIONARY
  5
74A
330
479
100
AcDbDictionary
280
     1
281
     1
  3
ACAD_XREC_ROUNDTRIP
360
74B
  0
DICTIONARY
  5
74E
330
47B
100
AcDbDictionary
280
     1
281
     1
  3
ACAD_XREC_ROUNDTRIP
360
74F
  0
DICTIONARY
  5
768
330
488
100
AcDbDictionary
280
     1
281
     1
  3
ACAD_XREC_ROUNDTRIP
360
769
  0
DICTIONARY
  5
756
330
47F
100
AcDbDictionary
280
     1
281
     1
  3
ACAD_XREC_ROUNDTRIP
360
757
  0
DICTIONARY
  5
73A
330
471
100
AcDbDictionary
280
     1
281
     1
  3
ACAD_XREC_ROUNDTRIP
360
73B
  0
DICTIONARY
  5
73C
330
472
100
AcDbDictionary
280
     1
281
     1
  3
ACAD_XREC_ROUNDTRIP
360
73D
  0
DICTIONARY
  5
73E
330
473
100
AcDbDictionary
280
     1
281
     1
  3
ACAD_XREC_ROUNDTRIP
360
73F
  0
DICTIONARY
  5
740
330
474
100
AcDbDictionary
280
     1
281
     1
  3
ACAD_XREC_ROUNDTRIP
360
741
  0
DICTIONARY
  5
748
330
478
100
AcDbDictionary
280
     1
281
     1
  3
ACAD_XREC_ROUNDTRIP
360
749
  0
DICTIONARY
  5
764
330
486
100
AcDbDictionary
280
     1
281
     1
  3
ACAD_XREC_ROUNDTRIP
360
765
  0
DICTIONARY
  5
754
330
47E
100
AcDbDictionary
280
     1
281
     1
  3
ACAD_XREC_ROUNDTRIP
360
755
  0
DICTIONARY
  5
766
330
487
100
AcDbDictionary
280
     1
281
     1
  3
ACAD_XREC_ROUNDTRIP
360
767
  0
DICTIONARY
  5
74C
330
47A
100
AcDbDictionary
280
     1
281
     1
  3
ACAD_XREC_ROUNDTRIP
360
74D
  0
DICTIONARY
  5
762
330
485
100
AcDbDictionary
280
     1
281
     1
  3
ACAD_XREC_ROUNDTRIP
360
763
  0
DICTIONARY
  5
760
330
484
100
AcDbDictionary
280
     1
281
     1
  3
ACAD_XREC_ROUNDTRIP
360
761
  0
DICTIONARY
  5
75A
330
481
100
AcDbDictionary
280
     1
281
     1
  3
ACAD_XREC_ROUNDTRIP
360
75B
  0
DICTIONARY
  5
75C
330
482
100
AcDbDictionary
280
     1
281
     1
  3
ACAD_XREC_ROUNDTRIP
360
75D
  0
DICTIONARY
  5
752
330
47D
100
AcDbDictionary
280
     1
281
     1
  3
ACAD_XREC_ROUNDTRIP
360
753
  0
DICTIONARY
  5
746
330
477
100
AcDbDictionary
280
     1
281
     1
  3
ACAD_XREC_ROUNDTRIP
360
747
  0
DICTIONARY
  5
75E
330
483
100
AcDbDictionary
280
     1
281
     1
  3
ACAD_XREC_ROUNDTRIP
360
75F
  0
XRECORD
  5
76E
102
{ACAD_REACTORS
330
76D
102
}
330
76D
100
AcDbXrecord
280
     1
102
SHADEPLOT
 70
     0
102
SHADEPLOTRESLEVEL
 70
     2
102
SHADEPLOTCUSTOMDPI
 70
   300
  0
XRECORD
  5
76C
102
{ACAD_REACTORS
330
76B
102
}
330
76B
100
AcDbXrecord
280
     1
102
SHADEPLOT
 70
     0
102
SHADEPLOTRESLEVEL
 70
     2
102
SHADEPLOTCUSTOMDPI
 70
   300
  0
XRECORD
  5
4C1
102
{ACAD_REACTORS
330
461
102
}
330
461
100
AcDbXrecord
280
     1
102
MATERIAL
148
0.0
149
0.0
149
0.0
 93
        0
 94
      127
282
     0
 72
     0
 77
     0
171
     0
175
     0
179
     0
273
     0
  0
XRECORD
  5
463
102
{ACAD_REACTORS
330
461
102
}
330
461
100
AcDbXrecord
280
     1
270
     1
271
     1
  0
XRECORD
  5
462
102
{ACAD_REACTORS
330
461
102
}
330
461
100
AcDbXrecord
280
     1
270
     1
271
     1
  0
XRECORD
  5
466
102
{ACAD_REACTORS
330
461
102
}
330
461
100
AcDbXrecord
280
     1
270
     1
271
     1
  0
XRECORD
  5
465
102
{ACAD_REACTORS
330
461
102
}
330
461
100
AcDbXrecord
280
     1
270
     1
271
     1
  0
XRECORD
  5
467
102
{ACAD_REACTORS
330
461
102
}
330
461
100
AcDbXrecord
280
     1
270
     1
271
     1
  0
XRECORD
  5
464
102
{ACAD_REACTORS
330
461
102
}
330
461
100
AcDbXrecord
280
     1
270
     1
271
     1
  0
XRECORD
  5
4C0
102
{ACAD_REACTORS
330
459
102
}
330
459
100
AcDbXrecord
280
     1
102
MATERIAL
148
0.0
149
0.0
149
0.0
 93
        0
 94
      127
282
     0
 72
     0
 77
     0
171
     0
175
     0
179
     0
273
     0
  0
XRECORD
  5
45B
102
{ACAD_REACTORS
330
459
102
}
330
459
100
AcDbXrecord
280
     1
270
     1
271
     1
  0
XRECORD
  5
45A
102
{ACAD_REACTORS
330
459
102
}
330
459
100
AcDbXrecord
280
     1
270
     1
271
     1
  0
XRECORD
  5
45E
102
{ACAD_REACTORS
330
459
102
}
330
459
100
AcDbXrecord
280
     1
270
     1
271
     1
  0
XRECORD
  5
45D
102
{ACAD_REACTORS
330
459
102
}
330
459
100
AcDbXrecord
280
     1
270
     1
271
     1
  0
XRECORD
  5
45F
102
{ACAD_REACTORS
330
459
102
}
330
459
100
AcDbXrecord
280
     1
270
     1
271
     1
  0
XRECORD
  5
45C
102
{ACAD_REACTORS
330
459
102
}
330
459
100
AcDbXrecord
280
     1
270
     1
271
     1
  0
XRECORD
  5
4C2
102
{ACAD_REACTORS
330
469
102
}
330
469
100
AcDbXrecord
280
     1
102
MATERIAL
148
0.0
149
0.0
149
0.0
 93
        0
 94
      127
282
     0
 72
     0
 77
     0
171
     0
175
     0
179
     0
273
     0
  0
XRECORD
  5
46B
102
{ACAD_REACTORS
330
469
102
}
330
469
100
AcDbXrecord
280
     1
270
     1
271
     1
  0
XRECORD
  5
46A
102
{ACAD_REACTORS
330
469
102
}
330
469
100
AcDbXrecord
280
     1
270
     1
271
     1
  0
XRECORD
  5
46E
102
{ACAD_REACTORS
330
469
102
}
330
469
100
AcDbXrecord
280
     1
270
     1
271
     1
  0
XRECORD
  5
46D
102
{ACAD_REACTORS
330
469
102
}
330
469
100
AcDbXrecord
280
     1
270
     1
271
     1
  0
XRECORD
  5
46F
102
{ACAD_REACTORS
330
469
102
}
330
469
100
AcDbXrecord
280
     1
270
     1
271
     1
  0
XRECORD
  5
46C
102
{ACAD_REACTORS
330
469
102
}
330
469
100
AcDbXrecord
280
     1
270
     1
271
     1
  0
CELLSTYLEMAP
  5
737
102
{ACAD_REACTORS
330
4BD
102
}
330
4BD
100
AcDbCellStyleMap
 90
        3
300
CELLSTYLE
  1
TABLEFORMAT_BEGIN
 90
        5
170
     1
 91
        0
 92
    32768
 62
   257
 93
        1
300
CONTENTFORMAT
  1
CONTENTFORMAT_BEGIN
 90
        0
 91
        0
 92
      512
 93
        0
300

 40
0.0
140
1.0
 94
        5
 62
     0
340
11
144
0.25
309
CONTENTFORMAT_END
171
     1
301
MARGIN
  1
CELLMARGIN_BEGIN
 40
0.06
 40
0.06
 40
0.06
 40
0.06
 40
0.18
 40
0.18
309
CELLMARGIN_END
 94
        6
 95
        1
302
GRIDFORMAT
  1
GRIDFORMAT_BEGIN
 90
        0
 91
        1
 62
     0
 92
       -2
340
0
 93
        0
 40
0.045
309
GRIDFORMAT_END
 95
        2
302
GRIDFORMAT
  1
GRIDFORMAT_BEGIN
 90
        0
 91
        1
 62
     0
 92
       -2
340
0
 93
        0
 40
0.045
309
GRIDFORMAT_END
 95
        4
302
GRIDFORMAT
  1
GRIDFORMAT_BEGIN
 90
        0
 91
        1
 62
     0
 92
       -2
340
0
 93
        0
 40
0.045
309
GRIDFORMAT_END
 95
        8
302
GRIDFORMAT
  1
GRIDFORMAT_BEGIN
 90
        0
 91
        1
 62
     0
 92
       -2
340
0
 93
        0
 40
0.045
309
GRIDFORMAT_END
 95
       16
302
GRIDFORMAT
  1
GRIDFORMAT_BEGIN
 90
        0
 91
        1
 62
     0
 92
       -2
340
0
 93
        0
 40
0.045
309
GRIDFORMAT_END
 95
       32
302
GRIDFORMAT
  1
GRIDFORMAT_BEGIN
 90
        0
 91
        1
 62
     0
 92
       -2
340
0
 93
        0
 40
0.045
309
GRIDFORMAT_END
309
TABLEFORMAT_END
  1
CELLSTYLE_BEGIN
 90
        1
 91
        1
300
_TITLE
309
CELLSTYLE_END
300
CELLSTYLE
  1
TABLEFORMAT_BEGIN
 90
        5
170
     1
 91
        0
 92
        0
 62
   257
 93
        1
300
CONTENTFORMAT
  1
CONTENTFORMAT_BEGIN
 90
        0
 91
        0
 92
      512
 93
        0
300

 40
0.0
140
1.0
 94
        5
 62
     0
340
11
144
0.18
309
CONTENTFORMAT_END
171
     1
301
MARGIN
  1
CELLMARGIN_BEGIN
 40
0.06
 40
0.06
 40
0.06
 40
0.06
 40
0.18
 40
0.18
309
CELLMARGIN_END
 94
        6
 95
        1
302
GRIDFORMAT
  1
GRIDFORMAT_BEGIN
 90
        0
 91
        1
 62
     0
 92
       -2
340
0
 93
        0
 40
0.045
309
GRIDFORMAT_END
 95
        2
302
GRIDFORMAT
  1
GRIDFORMAT_BEGIN
 90
        0
 91
        1
 62
     0
 92
       -2
340
0
 93
        0
 40
0.045
309
GRIDFORMAT_END
 95
        4
302
GRIDFORMAT
  1
GRIDFORMAT_BEGIN
 90
        0
 91
        1
 62
     0
 92
       -2
340
0
 93
        0
 40
0.045
309
GRIDFORMAT_END
 95
        8
302
GRIDFORMAT
  1
GRIDFORMAT_BEGIN
 90
        0
 91
        1
 62
     0
 92
       -2
340
0
 93
        0
 40
0.045
309
GRIDFORMAT_END
 95
       16
302
GRIDFORMAT
  1
GRIDFORMAT_BEGIN
 90
        0
 91
        1
 62
     0
 92
       -2
340
0
 93
        0
 40
0.045
309
GRIDFORMAT_END
 95
       32
302
GRIDFORMAT
  1
GRIDFORMAT_BEGIN
 90
        0
 91
        1
 62
     0
 92
       -2
340
0
 93
        0
 40
0.045
309
GRIDFORMAT_END
309
TABLEFORMAT_END
  1
CELLSTYLE_BEGIN
 90
        2
 91
        1
300
_HEADER
309
CELLSTYLE_END
300
CELLSTYLE
  1
TABLEFORMAT_BEGIN
 90
        5
170
     1
 91
        0
 92
        0
 62
   257
 93
        1
300
CONTENTFORMAT
  1
CONTENTFORMAT_BEGIN
 90
        0
 91
        0
 92
      512
 93
        0
300

 40
0.0
140
1.0
 94
        2
 62
     0
340
11
144
0.18
309
CONTENTFORMAT_END
171
     1
301
MARGIN
  1
CELLMARGIN_BEGIN
 40
0.06
 40
0.06
 40
0.06
 40
0.06
 40
0.18
 40
0.18
309
CELLMARGIN_END
 94
        6
 95
        1
302
GRIDFORMAT
  1
GRIDFORMAT_BEGIN
 90
        0
 91
        1
 62
     0
 92
       -2
340
0
 93
        0
 40
0.045
309
GRIDFORMAT_END
 95
        2
302
GRIDFORMAT
  1
GRIDFORMAT_BEGIN
 90
        0
 91
        1
 62
     0
 92
       -2
340
0
 93
        0
 40
0.045
309
GRIDFORMAT_END
 95
        4
302
GRIDFORMAT
  1
GRIDFORMAT_BEGIN
 90
        0
 91
        1
 62
     0
 92
       -2
340
0
 93
        0
 40
0.045
309
GRIDFORMAT_END
 95
        8
302
GRIDFORMAT
  1
GRIDFORMAT_BEGIN
 90
        0
 91
        1
 62
     0
 92
       -2
340
0
 93
        0
 40
0.045
309
GRIDFORMAT_END
 95
       16
302
GRIDFORMAT
  1
GRIDFORMAT_BEGIN
 90
        0
 91
        1
 62
     0
 92
       -2
340
0
 93
        0
 40
0.045
309
GRIDFORMAT_END
 95
       32
302
GRIDFORMAT
  1
GRIDFORMAT_BEGIN
 90
        0
 91
        1
 62
     0
 92
       -2
340
0
 93
        0
 40
0.045
309
GRIDFORMAT_END
309
TABLEFORMAT_END
  1
CELLSTYLE_BEGIN
 90
        3
 91
        2
300
_DATA
309
CELLSTYLE_END
  0
XRECORD
  5
76A
102
{ACAD_REACTORS
330
4BD
102
}
330
4BD
100
AcDbXrecord
280
     1
102
ACAD_ROUNDTRIP_PRE2007_TABLESTYLE
 90
      512
 91
        0
  1

 92
      512
 93
        0
  2

 94
      512
 95
        0
  3

  0
XRECORD
  5
745
102
{ACAD_REACTORS
330
744
102
}
330
744
100
AcDbXrecord
280
     1
102
RTVSPost2010Prop28
280
     1
102
RTVSPost2010PropOp28
 70
     1
102
RTVSPost2010Prop29
280
     1
102
RTVSPost2010PropOp29
 70
     1
102
RTVSPost2010Prop30
280
     0
102
RTVSPost2010PropOp30
 70
     1
102
RTVSPost2010Prop31
280
     0
102
RTVSPost2010PropOp31
 70
     1
102
RTVSPost2010Prop32
280
     0
102
RTVSPost2010PropOp32
 70
     1
102
RTVSPost2010Prop33
280
     0
102
RTVSPost2010PropOp33
 70
     1
102
RTVSPost2010Prop34
280
     0
102
RTVSPost2010PropOp34
 70
     1
102
RTVSPost2010Prop35
280
     0
102
RTVSPost2010PropOp35
 70
     1
102
RTVSPost2010Prop36
280
     0
102
RTVSPost2010PropOp36
 70
     1
102
RTVSPost2010Prop37
 90
       50
102
RTVSPost2010PropOp37
 70
     1
102
RTVSPost2010Prop38
140
0.0
102
RTVSPost2010PropOp38
 70
     1
102
RTVSPost2010Prop39
140
1.0
102
RTVSPost2010PropOp39
 70
     1
102
RTVSPost2010Prop40
 90
        0
102
RTVSPost2010PropOp40
 70
     1
102
RTVSPost2010Prop41ColorIndex
 90
       18
102
RTVSPost2010Prop41ColorRGB
 90
        0
102
RTVSPost2010PropOp41
 70
     1
102
RTVSPost2010Prop42
 90
       50
102
RTVSPost2010PropOp42
 70
     1
102
RTVSPost2010Prop43
 90
        3
102
RTVSPost2010PropOp43
 70
     1
102
RTVSPost2010Prop44ColorIndex
 90
        5
102
RTVSPost2010Prop44ColorRGB
 90
      255
102
RTVSPost2010PropOp44
 70
     1
102
RTVSPost2010Prop45
280
     0
102
RTVSPost2010PropOp45
 70
     1
102
RTVSPost2010Prop46
 90
       50
102
RTVSPost2010PropOp46
 70
     1
102
RTVSPost2010Prop47
 90
       50
102
RTVSPost2010PropOp47
 70
     1
102
RTVSPost2010Prop48
 90
       50
102
RTVSPost2010PropOp48
 70
     1
102
RTVSPost2010Prop49
280
     0
102
RTVSPost2010PropOp49
 70
     1
102
RTVSPost2010Prop50
 90
       50
102
RTVSPost2010PropOp50
 70
     1
102
RTVSPost2010Prop51ColorIndex
 90
      256
102
RTVSPost2010Prop51ColorRGB
 90
-16777216
102
RTVSPost2010PropOp51
 70
     0
102
RTVSPost2010Prop52
140
1.0
102
RTVSPost2010PropOp52
 70
     0
102
RTVSPost2010Prop53
 90
        2
102
RTVSPost2010PropOp53
 70
     1
102
RTVSPost2010Prop54
  1
strokes_ogs.tif
102
RTVSPost2010PropOp54
 70
     1
102
RTVSPost2010Prop55
280
     0
102
RTVSPost2010PropOp55
 70
     1
102
RTVSPost2010Prop56
140
1.0
102
RTVSPost2010PropOp56
 70
     1
102
RTVSPost2010Prop57
140
1.0
102
RTVSPost2010PropOp57
 70
     1
102
RTVSPropertyOp0
 70
     1
102
RTVSPropertyOp1
 70
     1
102
RTVSPropertyOp2
 70
     1
102
RTVSPropertyOp3
 70
     1
102
RTVSPropertyOp4
 70
     1
102
RTVSPropertyOp5
 70
     1
102
RTVSPropertyOp6
 70
     1
102
RTVSPropertyOp7
 70
     1
102
RTVSPropertyOp8
 70
     1
102
RTVSPropertyOp9
 70
     1
102
RTVSPropertyOp10
 70
     1
102
RTVSPropertyOp11
 70
     1
102
RTVSPropertyOp12
 70
     1
102
RTVSPropertyOp13
 70
     1
102
RTVSPropertyOp14
 70
     1
102
RTVSPropertyOp15
 70
     1
102
RTVSPropertyOp16
 70
     1
102
RTVSPropertyOp17
 70
     1
102
RTVSPropertyOp18
 70
     1
102
RTVSPropertyOp19
 70
     1
102
RTVSPropertyOp20
 70
     1
102
RTVSPropertyOp21
 70
     1
102
RTVSPropertyOp22
 70
     1
102
RTVSPropertyOp23
 70
     1
102
RTVSPropertyOp24
 70
     1
102
RTVSPropertyOp25
 70
     1
102
RTVSPropertyOp26
 70
     1
102
RTVSPropertyOp27
 70
     1
102
RTVSPropertyOp28
 70
     1
102
RTVSPropertyOp29
 70
     1
102
RTVSPropertyOp30
 70
     1
102
RTVSPropertyOp31
 70
     1
102
RTVSPropertyOp32
 70
     1
102
RTVSPropertyOp33
 70
     1
102
RTVSPropertyOp34
 70
     1
102
RTVSPropertyOp35
 70
     1
102
RTVSPropertyOp36
 70
     1
102
RTVSPropertyOp37
 70
     1
102
RTVSPropertyOp38
 70
     1
102
RTVSPropertyOp39
 70
     1
102
RTVSPropertyOp40
 70
     1
102
RTVSPropertyOp41
 70
     1
102
RTVSPropertyOp42
 70
     1
102
RTVSPropertyOp43
 70
     1
102
RTVSPropertyOp44
 70
     1
102
RTVSPropertyOp45
 70
     1
102
RTVSPropertyOp46
 70
     1
102
RTVSPropertyOp47
 70
     1
102
RTVSPropertyOp48
 70
     1
102
RTVSPropertyOp49
 70
     1
102
RTVSPropertyOp50
 70
     1
102
RTVSPropertyOp51
 70
     0
102
RTVSPropertyOp52
 70
     0
102
RTVSPropertyOp53
 70
     1
102
RTVSPropertyOp54
 70
     1
102
RTVSPropertyOp55
 70
     1
102
RTVSPropertyOp56
 70
     1
102
RTVSPropertyOp57
 70
     1
102
RTVSPropertyOp58
 70
     1
102
RTVSPropertyOp59
 70
     1
102
RTVSPropertyOp60
 70
     1
102
RTVSPropertyOp61
 70
     1
102
RTVSPropertyOp62
 70
     1
  0
XRECORD
  5
743
102
{ACAD_REACTORS
330
742
102
}
330
742
100
AcDbXrecord
280
     1
102
RTVSPost2010Prop28
280
     0
102
RTVSPost2010PropOp28
 70
     1
102
RTVSPost2010Prop29
280
     1
102
RTVSPost2010PropOp29
 70
     1
102
RTVSPost2010Prop30
280
     1
102
RTVSPost2010PropOp30
 70
     1
102
RTVSPost2010Prop31
280
     0
102
RTVSPost2010PropOp31
 70
     1
102
RTVSPost2010Prop32
280
     0
102
RTVSPost2010PropOp32
 70
     1
102
RTVSPost2010Prop33
280
     0
102
RTVSPost2010PropOp33
 70
     1
102
RTVSPost2010Prop34
280
     0
102
RTVSPost2010PropOp34
 70
     1
102
RTVSPost2010Prop35
280
     0
102
RTVSPost2010PropOp35
 70
     1
102
RTVSPost2010Prop36
280
     0
102
RTVSPost2010PropOp36
 70
     1
102
RTVSPost2010Prop37
 90
       50
102
RTVSPost2010PropOp37
 70
     1
102
RTVSPost2010Prop38
140
0.0
102
RTVSPost2010PropOp38
 70
     1
102
RTVSPost2010Prop39
140
1.0
102
RTVSPost2010PropOp39
 70
     1
102
RTVSPost2010Prop40
 90
        0
102
RTVSPost2010PropOp40
 70
     1
102
RTVSPost2010Prop41ColorIndex
 90
       18
102
RTVSPost2010Prop41ColorRGB
 90
        0
102
RTVSPost2010PropOp41
 70
     1
102
RTVSPost2010Prop42
 90
       50
102
RTVSPost2010PropOp42
 70
     1
102
RTVSPost2010Prop43
 90
        3
102
RTVSPost2010PropOp43
 70
     1
102
RTVSPost2010Prop44ColorIndex
 90
        5
102
RTVSPost2010Prop44ColorRGB
 90
      255
102
RTVSPost2010PropOp44
 70
     1
102
RTVSPost2010Prop45
280
     0
102
RTVSPost2010PropOp45
 70
     1
102
RTVSPost2010Prop46
 90
       50
102
RTVSPost2010PropOp46
 70
     1
102
RTVSPost2010Prop47
 90
       50
102
RTVSPost2010PropOp47
 70
     1
102
RTVSPost2010Prop48
 90
       50
102
RTVSPost2010PropOp48
 70
     1
102
RTVSPost2010Prop49
280
     0
102
RTVSPost2010PropOp49
 70
     1
102
RTVSPost2010Prop50
 90
       50
102
RTVSPost2010PropOp50
 70
     1
102
RTVSPost2010Prop51ColorIndex
 90
      256
102
RTVSPost2010Prop51ColorRGB
 90
-16777216
102
RTVSPost2010PropOp51
 70
     0
102
RTVSPost2010Prop52
140
1.0
102
RTVSPost2010PropOp52
 70
     0
102
RTVSPost2010Prop53
 90
        2
102
RTVSPost2010PropOp53
 70
     1
102
RTVSPost2010Prop54
  1
strokes_ogs.tif
102
RTVSPost2010PropOp54
 70
     1
102
RTVSPost2010Prop55
280
     0
102
RTVSPost2010PropOp55
 70
     1
102
RTVSPost2010Prop56
140
1.0
102
RTVSPost2010PropOp56
 70
     1
102
RTVSPost2010Prop57
140
1.0
102
RTVSPost2010PropOp57
 70
     1
102
RTVSPropertyOp0
 70
     1
102
RTVSPropertyOp1
 70
     1
102
RTVSPropertyOp2
 70
     1
102
RTVSPropertyOp3
 70
     1
102
RTVSPropertyOp4
 70
     1
102
RTVSPropertyOp5
 70
     1
102
RTVSPropertyOp6
 70
     1
102
RTVSPropertyOp7
 70
     1
102
RTVSPropertyOp8
 70
     1
102
RTVSPropertyOp9
 70
     1
102
RTVSPropertyOp10
 70
     1
102
RTVSPropertyOp11
 70
     1
102
RTVSPropertyOp12
 70
     1
102
RTVSPropertyOp13
 70
     1
102
RTVSPropertyOp14
 70
     1
102
RTVSPropertyOp15
 70
     1
102
RTVSPropertyOp16
 70
     1
102
RTVSPropertyOp17
 70
     1
102
RTVSPropertyOp18
 70
     1
102
RTVSPropertyOp19
 70
     1
102
RTVSPropertyOp20
 70
     1
102
RTVSPropertyOp21
 70
     1
102
RTVSPropertyOp22
 70
     1
102
RTVSPropertyOp23
 70
     1
102
RTVSPropertyOp24
 70
     1
102
RTVSPropertyOp25
 70
     1
102
RTVSPropertyOp26
 70
     1
102
RTVSPropertyOp27
 70
     1
102
RTVSPropertyOp28
 70
     1
102
RTVSPropertyOp29
 70
     1
102
RTVSPropertyOp30
 70
     1
102
RTVSPropertyOp31
 70
     1
102
RTVSPropertyOp32
 70
     1
102
RTVSPropertyOp33
 70
     1
102
RTVSPropertyOp34
 70
     1
102
RTVSPropertyOp35
 70
     1
102
RTVSPropertyOp36
 70
     1
102
RTVSPropertyOp37
 70
     1
102
RTVSPropertyOp38
 70
     1
102
RTVSPropertyOp39
 70
     1
102
RTVSPropertyOp40
 70
     1
102
RTVSPropertyOp41
 70
     1
102
RTVSPropertyOp42
 70
     1
102
RTVSPropertyOp43
 70
     1
102
RTVSPropertyOp44
 70
     1
102
RTVSPropertyOp45
 70
     1
102
RTVSPropertyOp46
 70
     1
102
RTVSPropertyOp47
 70
     1
102
RTVSPropertyOp48
 70
     1
102
RTVSPropertyOp49
 70
     1
102
RTVSPropertyOp50
 70
     1
102
RTVSPropertyOp51
 70
     0
102
RTVSPropertyOp52
 70
     0
102
RTVSPropertyOp53
 70
     1
102
RTVSPropertyOp54
 70
     1
102
RTVSPropertyOp55
 70
     1
102
RTVSPropertyOp56
 70
     1
102
RTVSPropertyOp57
 70
     1
102
RTVSPropertyOp58
 70
     1
102
RTVSPropertyOp59
 70
     1
102
RTVSPropertyOp60
 70
     1
102
RTVSPropertyOp61
 70
     1
102
RTVSPropertyOp62
 70
     1
  0
XRECORD
  5
751
102
{ACAD_REACTORS
330
750
102
}
330
750
100
AcDbXrecord
280
     1
102
RTVSPost2010Prop28
280
     0
102
RTVSPost2010PropOp28
 70
     1
102
RTVSPost2010Prop29
280
     1
102
RTVSPost2010PropOp29
 70
     1
102
RTVSPost2010Prop30
280
     1
102
RTVSPost2010PropOp30
 70
     1
102
RTVSPost2010Prop31
280
     0
102
RTVSPost2010PropOp31
 70
     1
102
RTVSPost2010Prop32
280
     0
102
RTVSPost2010PropOp32
 70
     1
102
RTVSPost2010Prop33
280
     0
102
RTVSPost2010PropOp33
 70
     1
102
RTVSPost2010Prop34
280
     0
102
RTVSPost2010PropOp34
 70
     1
102
RTVSPost2010Prop35
280
     0
102
RTVSPost2010PropOp35
 70
     1
102
RTVSPost2010Prop36
280
     0
102
RTVSPost2010PropOp36
 70
     1
102
RTVSPost2010Prop37
 90
       50
102
RTVSPost2010PropOp37
 70
     1
102
RTVSPost2010Prop38
140
0.0
102
RTVSPost2010PropOp38
 70
     1
102
RTVSPost2010Prop39
140
1.0
102
RTVSPost2010PropOp39
 70
     1
102
RTVSPost2010Prop40
 90
        0
102
RTVSPost2010PropOp40
 70
     1
102
RTVSPost2010Prop41ColorIndex
 90
       18
102
RTVSPost2010Prop41ColorRGB
 90
        0
102
RTVSPost2010PropOp41
 70
     1
102
RTVSPost2010Prop42
 90
       50
102
RTVSPost2010PropOp42
 70
     1
102
RTVSPost2010Prop43
 90
        3
102
RTVSPost2010PropOp43
 70
     1
102
RTVSPost2010Prop44ColorIndex
 90
        5
102
RTVSPost2010Prop44ColorRGB
 90
      255
102
RTVSPost2010PropOp44
 70
     1
102
RTVSPost2010Prop45
280
     0
102
RTVSPost2010PropOp45
 70
     1
102
RTVSPost2010Prop46
 90
       50
102
RTVSPost2010PropOp46
 70
     1
102
RTVSPost2010Prop47
 90
       50
102
RTVSPost2010PropOp47
 70
     1
102
RTVSPost2010Prop48
 90
       50
102
RTVSPost2010PropOp48
 70
     1
102
RTVSPost2010Prop49
280
     0
102
RTVSPost2010PropOp49
 70
     1
102
RTVSPost2010Prop50
 90
       50
102
RTVSPost2010PropOp50
 70
     1
102
RTVSPost2010Prop51ColorIndex
 90
      256
102
RTVSPost2010Prop51ColorRGB
 90
-16777216
102
RTVSPost2010PropOp51
 70
     0
102
RTVSPost2010Prop52
140
1.0
102
RTVSPost2010PropOp52
 70
     0
102
RTVSPost2010Prop53
 90
        2
102
RTVSPost2010PropOp53
 70
     1
102
RTVSPost2010Prop54
  1
strokes_ogs.tif
102
RTVSPost2010PropOp54
 70
     1
102
RTVSPost2010Prop55
280
     0
102
RTVSPost2010PropOp55
 70
     1
102
RTVSPost2010Prop56
140
1.0
102
RTVSPost2010PropOp56
 70
     1
102
RTVSPost2010Prop57
140
1.0
102
RTVSPost2010PropOp57
 70
     1
102
RTVSPropertyOp0
 70
     1
102
RTVSPropertyOp1
 70
     1
102
RTVSPropertyOp2
 70
     1
102
RTVSPropertyOp3
 70
     1
102
RTVSPropertyOp4
 70
     1
102
RTVSPropertyOp5
 70
     1
102
RTVSPropertyOp6
 70
     1
102
RTVSPropertyOp7
 70
     1
102
RTVSPropertyOp8
 70
     1
102
RTVSPropertyOp9
 70
     1
102
RTVSPropertyOp10
 70
     1
102
RTVSPropertyOp11
 70
     1
102
RTVSPropertyOp12
 70
     1
102
RTVSPropertyOp13
 70
     1
102
RTVSPropertyOp14
 70
     1
102
RTVSPropertyOp15
 70
     1
102
RTVSPropertyOp16
 70
     1
102
RTVSPropertyOp17
 70
     1
102
RTVSPropertyOp18
 70
     1
102
RTVSPropertyOp19
 70
     1
102
RTVSPropertyOp20
 70
     1
102
RTVSPropertyOp21
 70
     1
102
RTVSPropertyOp22
 70
     1
102
RTVSPropertyOp23
 70
     1
102
RTVSPropertyOp24
 70
     1
102
RTVSPropertyOp25
 70
     1
102
RTVSPropertyOp26
 70
     1
102
RTVSPropertyOp27
 70
     1
102
RTVSPropertyOp28
 70
     1
102
RTVSPropertyOp29
 70
     1
102
RTVSPropertyOp30
 70
     1
102
RTVSPropertyOp31
 70
     1
102
RTVSPropertyOp32
 70
     1
102
RTVSPropertyOp33
 70
     1
102
RTVSPropertyOp34
 70
     1
102
RTVSPropertyOp35
 70
     1
102
RTVSPropertyOp36
 70
     1
102
RTVSPropertyOp37
 70
     1
102
RTVSPropertyOp38
 70
     1
102
RTVSPropertyOp39
 70
     1
102
RTVSPropertyOp40
 70
     1
102
RTVSPropertyOp41
 70
     1
102
RTVSPropertyOp42
 70
     1
102
RTVSPropertyOp43
 70
     1
102
RTVSPropertyOp44
 70
     1
102
RTVSPropertyOp45
 70
     1
102
RTVSPropertyOp46
 70
     1
102
RTVSPropertyOp47
 70
     1
102
RTVSPropertyOp48
 70
     1
102
RTVSPropertyOp49
 70
     1
102
RTVSPropertyOp50
 70
     1
102
RTVSPropertyOp51
 70
     0
102
RTVSPropertyOp52
 70
     0
102
RTVSPropertyOp53
 70
     1
102
RTVSPropertyOp54
 70
     1
102
RTVSPropertyOp55
 70
     1
102
RTVSPropertyOp56
 70
     1
102
RTVSPropertyOp57
 70
     1
102
RTVSPropertyOp58
 70
     1
102
RTVSPropertyOp59
 70
     1
102
RTVSPropertyOp60
 70
     1
102
RTVSPropertyOp61
 70
     1
102
RTVSPropertyOp62
 70
     1
  0
XRECORD
  5
759
102
{ACAD_REACTORS
330
758
102
}
330
758
100
AcDbXrecord
280
     1
102
RTVSPost2010Prop28
280
     0
102
RTVSPost2010PropOp28
 70
     1
102
RTVSPost2010Prop29
280
     1
102
RTVSPost2010PropOp29
 70
     1
102
RTVSPost2010Prop30
280
     1
102
RTVSPost2010PropOp30
 70
     1
102
RTVSPost2010Prop31
280
     0
102
RTVSPost2010PropOp31
 70
     1
102
RTVSPost2010Prop32
280
     0
102
RTVSPost2010PropOp32
 70
     1
102
RTVSPost2010Prop33
280
     0
102
RTVSPost2010PropOp33
 70
     1
102
RTVSPost2010Prop34
280
     0
102
RTVSPost2010PropOp34
 70
     1
102
RTVSPost2010Prop35
280
     0
102
RTVSPost2010PropOp35
 70
     1
102
RTVSPost2010Prop36
280
     0
102
RTVSPost2010PropOp36
 70
     1
102
RTVSPost2010Prop37
 90
       50
102
RTVSPost2010PropOp37
 70
     1
102
RTVSPost2010Prop38
140
0.0
102
RTVSPost2010PropOp38
 70
     1
102
RTVSPost2010Prop39
140
1.0
102
RTVSPost2010PropOp39
 70
     1
102
RTVSPost2010Prop40
 90
        0
102
RTVSPost2010PropOp40
 70
     1
102
RTVSPost2010Prop41ColorIndex
 90
       18
102
RTVSPost2010Prop41ColorRGB
 90
        0
102
RTVSPost2010PropOp41
 70
     1
102
RTVSPost2010Prop42
 90
       50
102
RTVSPost2010PropOp42
 70
     1
102
RTVSPost2010Prop43
 90
        3
102
RTVSPost2010PropOp43
 70
     1
102
RTVSPost2010Prop44ColorIndex
 90
        5
102
RTVSPost2010Prop44ColorRGB
 90
      255
102
RTVSPost2010PropOp44
 70
     1
102
RTVSPost2010Prop45
280
     0
102
RTVSPost2010PropOp45
 70
     1
102
RTVSPost2010Prop46
 90
       50
102
RTVSPost2010PropOp46
 70
     1
102
RTVSPost2010Prop47
 90
       50
102
RTVSPost2010PropOp47
 70
     1
102
RTVSPost2010Prop48
 90
       50
102
RTVSPost2010PropOp48
 70
     1
102
RTVSPost2010Prop49
280
     0
102
RTVSPost2010PropOp49
 70
     1
102
RTVSPost2010Prop50
 90
       50
102
RTVSPost2010PropOp50
 70
     1
102
RTVSPost2010Prop51ColorIndex
 90
      256
102
RTVSPost2010Prop51ColorRGB
 90
-16777216
102
RTVSPost2010PropOp51
 70
     0
102
RTVSPost2010Prop52
140
1.0
102
RTVSPost2010PropOp52
 70
     0
102
RTVSPost2010Prop53
 90
        2
102
RTVSPost2010PropOp53
 70
     1
102
RTVSPost2010Prop54
  1
strokes_ogs.tif
102
RTVSPost2010PropOp54
 70
     1
102
RTVSPost2010Prop55
280
     0
102
RTVSPost2010PropOp55
 70
     1
102
RTVSPost2010Prop56
140
1.0
102
RTVSPost2010PropOp56
 70
     1
102
RTVSPost2010Prop57
140
1.0
102
RTVSPost2010PropOp57
 70
     1
102
RTVSPropertyOp0
 70
     1
102
RTVSPropertyOp1
 70
     1
102
RTVSPropertyOp2
 70
     1
102
RTVSPropertyOp3
 70
     1
102
RTVSPropertyOp4
 70
     1
102
RTVSPropertyOp5
 70
     1
102
RTVSPropertyOp6
 70
     1
102
RTVSPropertyOp7
 70
     1
102
RTVSPropertyOp8
 70
     1
102
RTVSPropertyOp9
 70
     1
102
RTVSPropertyOp10
 70
     1
102
RTVSPropertyOp11
 70
     1
102
RTVSPropertyOp12
 70
     1
102
RTVSPropertyOp13
 70
     1
102
RTVSPropertyOp14
 70
     1
102
RTVSPropertyOp15
 70
     1
102
RTVSPropertyOp16
 70
     1
102
RTVSPropertyOp17
 70
     1
102
RTVSPropertyOp18
 70
     1
102
RTVSPropertyOp19
 70
     1
102
RTVSPropertyOp20
 70
     1
102
RTVSPropertyOp21
 70
     1
102
RTVSPropertyOp22
 70
     1
102
RTVSPropertyOp23
 70
     1
102
RTVSPropertyOp24
 70
     1
102
RTVSPropertyOp25
 70
     1
102
RTVSPropertyOp26
 70
     1
102
RTVSPropertyOp27
 70
     1
102
RTVSPropertyOp28
 70
     1
102
RTVSPropertyOp29
 70
     1
102
RTVSPropertyOp30
 70
     1
102
RTVSPropertyOp31
 70
     1
102
RTVSPropertyOp32
 70
     1
102
RTVSPropertyOp33
 70
     1
102
RTVSPropertyOp34
 70
     1
102
RTVSPropertyOp35
 70
     1
102
RTVSPropertyOp36
 70
     1
102
RTVSPropertyOp37
 70
     1
102
RTVSPropertyOp38
 70
     1
102
RTVSPropertyOp39
 70
     1
102
RTVSPropertyOp40
 70
     1
102
RTVSPropertyOp41
 70
     1
102
RTVSPropertyOp42
 70
     1
102
RTVSPropertyOp43
 70
     1
102
RTVSPropertyOp44
 70
     1
102
RTVSPropertyOp45
 70
     1
102
RTVSPropertyOp46
 70
     1
102
RTVSPropertyOp47
 70
     1
102
RTVSPropertyOp48
 70
     1
102
RTVSPropertyOp49
 70
     1
102
RTVSPropertyOp50
 70
     1
102
RTVSPropertyOp51
 70
     0
102
RTVSPropertyOp52
 70
     0
102
RTVSPropertyOp53
 70
     1
102
RTVSPropertyOp54
 70
     1
102
RTVSPropertyOp55
 70
     1
102
RTVSPropertyOp56
 70
     1
102
RTVSPropertyOp57
 70
     1
102
RTVSPropertyOp58
 70
     1
102
RTVSPropertyOp59
 70
     1
102
RTVSPropertyOp60
 70
     1
102
RTVSPropertyOp61
 70
     1
102
RTVSPropertyOp62
 70
     1
  0
XRECORD
  5
74B
102
{ACAD_REACTORS
330
74A
102
}
330
74A
100
AcDbXrecord
280
     1
102
RTVSPost2010Prop28
280
     0
102
RTVSPost2010PropOp28
 70
     1
102
RTVSPost2010Prop29
280
     1
102
RTVSPost2010PropOp29
 70
     1
102
RTVSPost2010Prop30
280
     1
102
RTVSPost2010PropOp30
 70
     1
102
RTVSPost2010Prop31
280
     0
102
RTVSPost2010PropOp31
 70
     1
102
RTVSPost2010Prop32
280
     0
102
RTVSPost2010PropOp32
 70
     1
102
RTVSPost2010Prop33
280
     0
102
RTVSPost2010PropOp33
 70
     1
102
RTVSPost2010Prop34
280
     0
102
RTVSPost2010PropOp34
 70
     1
102
RTVSPost2010Prop35
280
     0
102
RTVSPost2010PropOp35
 70
     1
102
RTVSPost2010Prop36
280
     0
102
RTVSPost2010PropOp36
 70
     1
102
RTVSPost2010Prop37
 90
       50
102
RTVSPost2010PropOp37
 70
     1
102
RTVSPost2010Prop38
140
0.0
102
RTVSPost2010PropOp38
 70
     1
102
RTVSPost2010Prop39
140
1.0
102
RTVSPost2010PropOp39
 70
     1
102
RTVSPost2010Prop40
 90
        0
102
RTVSPost2010PropOp40
 70
     1
102
RTVSPost2010Prop41ColorIndex
 90
       18
102
RTVSPost2010Prop41ColorRGB
 90
        0
102
RTVSPost2010PropOp41
 70
     1
102
RTVSPost2010Prop42
 90
       50
102
RTVSPost2010PropOp42
 70
     1
102
RTVSPost2010Prop43
 90
        3
102
RTVSPost2010PropOp43
 70
     1
102
RTVSPost2010Prop44ColorIndex
 90
        5
102
RTVSPost2010Prop44ColorRGB
 90
      255
102
RTVSPost2010PropOp44
 70
     1
102
RTVSPost2010Prop45
280
     0
102
RTVSPost2010PropOp45
 70
     1
102
RTVSPost2010Prop46
 90
       50
102
RTVSPost2010PropOp46
 70
     1
102
RTVSPost2010Prop47
 90
       50
102
RTVSPost2010PropOp47
 70
     1
102
RTVSPost2010Prop48
 90
       50
102
RTVSPost2010PropOp48
 70
     1
102
RTVSPost2010Prop49
280
     0
102
RTVSPost2010PropOp49
 70
     1
102
RTVSPost2010Prop50
 90
       50
102
RTVSPost2010PropOp50
 70
     1
102
RTVSPost2010Prop51ColorIndex
 90
      256
102
RTVSPost2010Prop51ColorRGB
 90
-16777216
102
RTVSPost2010PropOp51
 70
     0
102
RTVSPost2010Prop52
140
1.0
102
RTVSPost2010PropOp52
 70
     0
102
RTVSPost2010Prop53
 90
        2
102
RTVSPost2010PropOp53
 70
     1
102
RTVSPost2010Prop54
  1
strokes_ogs.tif
102
RTVSPost2010PropOp54
 70
     1
102
RTVSPost2010Prop55
280
     0
102
RTVSPost2010PropOp55
 70
     1
102
RTVSPost2010Prop56
140
1.0
102
RTVSPost2010PropOp56
 70
     1
102
RTVSPost2010Prop57
140
1.0
102
RTVSPost2010PropOp57
 70
     1
102
RTVSPropertyOp0
 70
     1
102
RTVSPropertyOp1
 70
     1
102
RTVSPropertyOp2
 70
     1
102
RTVSPropertyOp3
 70
     1
102
RTVSPropertyOp4
 70
     1
102
RTVSPropertyOp5
 70
     1
102
RTVSPropertyOp6
 70
     1
102
RTVSPropertyOp7
 70
     1
102
RTVSPropertyOp8
 70
     1
102
RTVSPropertyOp9
 70
     1
102
RTVSPropertyOp10
 70
     1
102
RTVSPropertyOp11
 70
     1
102
RTVSPropertyOp12
 70
     1
102
RTVSPropertyOp13
 70
     1
102
RTVSPropertyOp14
 70
     1
102
RTVSPropertyOp15
 70
     1
102
RTVSPropertyOp16
 70
     1
102
RTVSPropertyOp17
 70
     1
102
RTVSPropertyOp18
 70
     1
102
RTVSPropertyOp19
 70
     1
102
RTVSPropertyOp20
 70
     1
102
RTVSPropertyOp21
 70
     1
102
RTVSPropertyOp22
 70
     1
102
RTVSPropertyOp23
 70
     1
102
RTVSPropertyOp24
 70
     1
102
RTVSPropertyOp25
 70
     1
102
RTVSPropertyOp26
 70
     1
102
RTVSPropertyOp27
 70
     1
102
RTVSPropertyOp28
 70
     1
102
RTVSPropertyOp29
 70
     1
102
RTVSPropertyOp30
 70
     1
102
RTVSPropertyOp31
 70
     1
102
RTVSPropertyOp32
 70
     1
102
RTVSPropertyOp33
 70
     1
102
RTVSPropertyOp34
 70
     1
102
RTVSPropertyOp35
 70
     1
102
RTVSPropertyOp36
 70
     1
102
RTVSPropertyOp37
 70
     1
102
RTVSPropertyOp38
 70
     1
102
RTVSPropertyOp39
 70
     1
102
RTVSPropertyOp40
 70
     1
102
RTVSPropertyOp41
 70
     1
102
RTVSPropertyOp42
 70
     1
102
RTVSPropertyOp43
 70
     1
102
RTVSPropertyOp44
 70
     1
102
RTVSPropertyOp45
 70
     1
102
RTVSPropertyOp46
 70
     1
102
RTVSPropertyOp47
 70
     1
102
RTVSPropertyOp48
 70
     1
102
RTVSPropertyOp49
 70
     1
102
RTVSPropertyOp50
 70
     1
102
RTVSPropertyOp51
 70
     0
102
RTVSPropertyOp52
 70
     0
102
RTVSPropertyOp53
 70
     1
102
RTVSPropertyOp54
 70
     1
102
RTVSPropertyOp55
 70
     1
102
RTVSPropertyOp56
 70
     1
102
RTVSPropertyOp57
 70
     1
102
RTVSPropertyOp58
 70
     1
102
RTVSPropertyOp59
 70
     1
102
RTVSPropertyOp60
 70
     1
102
RTVSPropertyOp61
 70
     1
102
RTVSPropertyOp62
 70
     1
  0
XRECORD
  5
74F
102
{ACAD_REACTORS
330
74E
102
}
330
74E
100
AcDbXrecord
280
     1
102
RTVSPost2010Prop28
280
     0
102
RTVSPost2010PropOp28
 70
     1
102
RTVSPost2010Prop29
280
     1
102
RTVSPost2010PropOp29
 70
     1
102
RTVSPost2010Prop30
280
     1
102
RTVSPost2010PropOp30
 70
     1
102
RTVSPost2010Prop31
280
     0
102
RTVSPost2010PropOp31
 70
     1
102
RTVSPost2010Prop32
280
     0
102
RTVSPost2010PropOp32
 70
     1
102
RTVSPost2010Prop33
280
     0
102
RTVSPost2010PropOp33
 70
     1
102
RTVSPost2010Prop34
280
     0
102
RTVSPost2010PropOp34
 70
     1
102
RTVSPost2010Prop35
280
     0
102
RTVSPost2010PropOp35
 70
     1
102
RTVSPost2010Prop36
280
     0
102
RTVSPost2010PropOp36
 70
     1
102
RTVSPost2010Prop37
 90
       50
102
RTVSPost2010PropOp37
 70
     1
102
RTVSPost2010Prop38
140
0.0
102
RTVSPost2010PropOp38
 70
     1
102
RTVSPost2010Prop39
140
1.0
102
RTVSPost2010PropOp39
 70
     1
102
RTVSPost2010Prop40
 90
        0
102
RTVSPost2010PropOp40
 70
     1
102
RTVSPost2010Prop41ColorIndex
 90
       18
102
RTVSPost2010Prop41ColorRGB
 90
        0
102
RTVSPost2010PropOp41
 70
     1
102
RTVSPost2010Prop42
 90
       50
102
RTVSPost2010PropOp42
 70
     1
102
RTVSPost2010Prop43
 90
        3
102
RTVSPost2010PropOp43
 70
     1
102
RTVSPost2010Prop44ColorIndex
 90
        5
102
RTVSPost2010Prop44ColorRGB
 90
      255
102
RTVSPost2010PropOp44
 70
     1
102
RTVSPost2010Prop45
280
     0
102
RTVSPost2010PropOp45
 70
     1
102
RTVSPost2010Prop46
 90
       50
102
RTVSPost2010PropOp46
 70
     1
102
RTVSPost2010Prop47
 90
       50
102
RTVSPost2010PropOp47
 70
     1
102
RTVSPost2010Prop48
 90
       50
102
RTVSPost2010PropOp48
 70
     1
102
RTVSPost2010Prop49
280
     0
102
RTVSPost2010PropOp49
 70
     1
102
RTVSPost2010Prop50
 90
       50
102
RTVSPost2010PropOp50
 70
     1
102
RTVSPost2010Prop51ColorIndex
 90
      256
102
RTVSPost2010Prop51ColorRGB
 90
-16777216
102
RTVSPost2010PropOp51
 70
     0
102
RTVSPost2010Prop52
140
1.0
102
RTVSPost2010PropOp52
 70
     0
102
RTVSPost2010Prop53
 90
        2
102
RTVSPost2010PropOp53
 70
     1
102
RTVSPost2010Prop54
  1
strokes_ogs.tif
102
RTVSPost2010PropOp54
 70
     1
102
RTVSPost2010Prop55
280
     0
102
RTVSPost2010PropOp55
 70
     1
102
RTVSPost2010Prop56
140
1.0
102
RTVSPost2010PropOp56
 70
     1
102
RTVSPost2010Prop57
140
1.0
102
RTVSPost2010PropOp57
 70
     1
102
RTVSPropertyOp0
 70
     1
102
RTVSPropertyOp1
 70
     1
102
RTVSPropertyOp2
 70
     1
102
RTVSPropertyOp3
 70
     1
102
RTVSPropertyOp4
 70
     1
102
RTVSPropertyOp5
 70
     1
102
RTVSPropertyOp6
 70
     1
102
RTVSPropertyOp7
 70
     1
102
RTVSPropertyOp8
 70
     1
102
RTVSPropertyOp9
 70
     1
102
RTVSPropertyOp10
 70
     1
102
RTVSPropertyOp11
 70
     1
102
RTVSPropertyOp12
 70
     1
102
RTVSPropertyOp13
 70
     1
102
RTVSPropertyOp14
 70
     1
102
RTVSPropertyOp15
 70
     1
102
RTVSPropertyOp16
 70
     1
102
RTVSPropertyOp17
 70
     1
102
RTVSPropertyOp18
 70
     1
102
RTVSPropertyOp19
 70
     1
102
RTVSPropertyOp20
 70
     1
102
RTVSPropertyOp21
 70
     1
102
RTVSPropertyOp22
 70
     1
102
RTVSPropertyOp23
 70
     1
102
RTVSPropertyOp24
 70
     1
102
RTVSPropertyOp25
 70
     1
102
RTVSPropertyOp26
 70
     1
102
RTVSPropertyOp27
 70
     1
102
RTVSPropertyOp28
 70
     1
102
RTVSPropertyOp29
 70
     1
102
RTVSPropertyOp30
 70
     1
102
RTVSPropertyOp31
 70
     1
102
RTVSPropertyOp32
 70
     1
102
RTVSPropertyOp33
 70
     1
102
RTVSPropertyOp34
 70
     1
102
RTVSPropertyOp35
 70
     1
102
RTVSPropertyOp36
 70
     1
102
RTVSPropertyOp37
 70
     1
102
RTVSPropertyOp38
 70
     1
102
RTVSPropertyOp39
 70
     1
102
RTVSPropertyOp40
 70
     1
102
RTVSPropertyOp41
 70
     1
102
RTVSPropertyOp42
 70
     1
102
RTVSPropertyOp43
 70
     1
102
RTVSPropertyOp44
 70
     1
102
RTVSPropertyOp45
 70
     1
102
RTVSPropertyOp46
 70
     1
102
RTVSPropertyOp47
 70
     1
102
RTVSPropertyOp48
 70
     1
102
RTVSPropertyOp49
 70
     1
102
RTVSPropertyOp50
 70
     1
102
RTVSPropertyOp51
 70
     0
102
RTVSPropertyOp52
 70
     0
102
RTVSPropertyOp53
 70
     1
102
RTVSPropertyOp54
 70
     1
102
RTVSPropertyOp55
 70
     1
102
RTVSPropertyOp56
 70
     1
102
RTVSPropertyOp57
 70
     1
102
RTVSPropertyOp58
 70
     1
102
RTVSPropertyOp59
 70
     1
102
RTVSPropertyOp60
 70
     1
102
RTVSPropertyOp61
 70
     1
102
RTVSPropertyOp62
 70
     1
  0
XRECORD
  5
769
102
{ACAD_REACTORS
330
768
102
}
330
768
100
AcDbXrecord
280
     1
102
RTVSPost2010Prop28
280
     0
102
RTVSPost2010PropOp28
 70
     1
102
RTVSPost2010Prop29
280
     1
102
RTVSPost2010PropOp29
 70
     1
102
RTVSPost2010Prop30
280
     1
102
RTVSPost2010PropOp30
 70
     1
102
RTVSPost2010Prop31
280
     0
102
RTVSPost2010PropOp31
 70
     1
102
RTVSPost2010Prop32
280
     0
102
RTVSPost2010PropOp32
 70
     1
102
RTVSPost2010Prop33
280
     0
102
RTVSPost2010PropOp33
 70
     1
102
RTVSPost2010Prop34
280
     0
102
RTVSPost2010PropOp34
 70
     1
102
RTVSPost2010Prop35
280
     0
102
RTVSPost2010PropOp35
 70
     1
102
RTVSPost2010Prop36
280
     0
102
RTVSPost2010PropOp36
 70
     1
102
RTVSPost2010Prop37
 90
       50
102
RTVSPost2010PropOp37
 70
     0
102
RTVSPost2010Prop38
140
0.0
102
RTVSPost2010PropOp38
 70
     0
102
RTVSPost2010Prop39
140
1.0
102
RTVSPost2010PropOp39
 70
     0
102
RTVSPost2010Prop40
 90
        0
102
RTVSPost2010PropOp40
 70
     0
102
RTVSPost2010Prop41ColorIndex
 90
       18
102
RTVSPost2010Prop41ColorRGB
 90
        0
102
RTVSPost2010PropOp41
 70
     0
102
RTVSPost2010Prop42
 90
       50
102
RTVSPost2010PropOp42
 70
     0
102
RTVSPost2010Prop43
 90
        3
102
RTVSPost2010PropOp43
 70
     0
102
RTVSPost2010Prop44ColorIndex
 90
        5
102
RTVSPost2010Prop44ColorRGB
 90
      255
102
RTVSPost2010PropOp44
 70
     0
102
RTVSPost2010Prop45
280
     0
102
RTVSPost2010PropOp45
 70
     1
102
RTVSPost2010Prop46
 90
       50
102
RTVSPost2010PropOp46
 70
     0
102
RTVSPost2010Prop47
 90
       50
102
RTVSPost2010PropOp47
 70
     0
102
RTVSPost2010Prop48
 90
       50
102
RTVSPost2010PropOp48
 70
     0
102
RTVSPost2010Prop49
280
     0
102
RTVSPost2010PropOp49
 70
     1
102
RTVSPost2010Prop50
 90
       50
102
RTVSPost2010PropOp50
 70
     0
102
RTVSPost2010Prop51ColorIndex
 90
      256
102
RTVSPost2010Prop51ColorRGB
 90
-16777216
102
RTVSPost2010PropOp51
 70
     0
102
RTVSPost2010Prop52
140
1.0
102
RTVSPost2010PropOp52
 70
     0
102
RTVSPost2010Prop53
 90
        2
102
RTVSPost2010PropOp53
 70
     0
102
RTVSPost2010Prop54
  1
strokes_ogs.tif
102
RTVSPost2010PropOp54
 70
     0
102
RTVSPost2010Prop55
280
     0
102
RTVSPost2010PropOp55
 70
     1
102
RTVSPost2010Prop56
140
1.0
102
RTVSPost2010PropOp56
 70
     0
102
RTVSPost2010Prop57
140
1.0
102
RTVSPost2010PropOp57
 70
     0
102
RTVSPropertyOp0
 70
     0
102
RTVSPropertyOp1
 70
     0
102
RTVSPropertyOp2
 70
     0
102
RTVSPropertyOp3
 70
     0
102
RTVSPropertyOp4
 70
     0
102
RTVSPropertyOp5
 70
     0
102
RTVSPropertyOp6
 70
     0
102
RTVSPropertyOp7
 70
     0
102
RTVSPropertyOp8
 70
     0
102
RTVSPropertyOp9
 70
     0
102
RTVSPropertyOp10
 70
     0
102
RTVSPropertyOp11
 70
     0
102
RTVSPropertyOp12
 70
     0
102
RTVSPropertyOp13
 70
     0
102
RTVSPropertyOp14
 70
     2
102
RTVSPropertyOp15
 70
     0
102
RTVSPropertyOp16
 70
     0
102
RTVSPropertyOp17
 70
     0
102
RTVSPropertyOp18
 70
     0
102
RTVSPropertyOp19
 70
     0
102
RTVSPropertyOp20
 70
     0
102
RTVSPropertyOp21
 70
     0
102
RTVSPropertyOp22
 70
     0
102
RTVSPropertyOp23
 70
     0
102
RTVSPropertyOp24
 70
     0
102
RTVSPropertyOp25
 70
     0
102
RTVSPropertyOp26
 70
     0
102
RTVSPropertyOp27
 70
     0
102
RTVSPropertyOp28
 70
     1
102
RTVSPropertyOp29
 70
     1
102
RTVSPropertyOp30
 70
     1
102
RTVSPropertyOp31
 70
     1
102
RTVSPropertyOp32
 70
     1
102
RTVSPropertyOp33
 70
     1
102
RTVSPropertyOp34
 70
     1
102
RTVSPropertyOp35
 70
     1
102
RTVSPropertyOp36
 70
     1
102
RTVSPropertyOp37
 70
     0
102
RTVSPropertyOp38
 70
     0
102
RTVSPropertyOp39
 70
     0
102
RTVSPropertyOp40
 70
     0
102
RTVSPropertyOp41
 70
     0
102
RTVSPropertyOp42
 70
     0
102
RTVSPropertyOp43
 70
     0
102
RTVSPropertyOp44
 70
     0
102
RTVSPropertyOp45
 70
     1
102
RTVSPropertyOp46
 70
     0
102
RTVSPropertyOp47
 70
     0
102
RTVSPropertyOp48
 70
     0
102
RTVSPropertyOp49
 70
     1
102
RTVSPropertyOp50
 70
     0
102
RTVSPropertyOp51
 70
     0
102
RTVSPropertyOp52
 70
     0
102
RTVSPropertyOp53
 70
     0
102
RTVSPropertyOp54
 70
     0
102
RTVSPropertyOp55
 70
     1
102
RTVSPropertyOp56
 70
     0
102
RTVSPropertyOp57
 70
     0
102
RTVSPropertyOp58
 70
     0
102
RTVSPropertyOp59
 70
     0
102
RTVSPropertyOp60
 70
     0
102
RTVSPropertyOp61
 70
     0
102
RTVSPropertyOp62
 70
     0
  0
XRECORD
  5
757
102
{ACAD_REACTORS
330
756
102
}
330
756
100
AcDbXrecord
280
     1
102
RTVSPost2010Prop28
280
     0
102
RTVSPost2010PropOp28
 70
     1
102
RTVSPost2010Prop29
280
     1
102
RTVSPost2010PropOp29
 70
     1
102
RTVSPost2010Prop30
280
     1
102
RTVSPost2010PropOp30
 70
     1
102
RTVSPost2010Prop31
280
     0
102
RTVSPost2010PropOp31
 70
     1
102
RTVSPost2010Prop32
280
     0
102
RTVSPost2010PropOp32
 70
     1
102
RTVSPost2010Prop33
280
     0
102
RTVSPost2010PropOp33
 70
     1
102
RTVSPost2010Prop34
280
     0
102
RTVSPost2010PropOp34
 70
     1
102
RTVSPost2010Prop35
280
     0
102
RTVSPost2010PropOp35
 70
     1
102
RTVSPost2010Prop36
280
     0
102
RTVSPost2010PropOp36
 70
     1
102
RTVSPost2010Prop37
 90
       50
102
RTVSPost2010PropOp37
 70
     1
102
RTVSPost2010Prop38
140
0.0
102
RTVSPost2010PropOp38
 70
     1
102
RTVSPost2010Prop39
140
1.0
102
RTVSPost2010PropOp39
 70
     1
102
RTVSPost2010Prop40
 90
        0
102
RTVSPost2010PropOp40
 70
     1
102
RTVSPost2010Prop41ColorIndex
 90
       18
102
RTVSPost2010Prop41ColorRGB
 90
        0
102
RTVSPost2010PropOp41
 70
     1
102
RTVSPost2010Prop42
 90
       50
102
RTVSPost2010PropOp42
 70
     1
102
RTVSPost2010Prop43
 90
        3
102
RTVSPost2010PropOp43
 70
     1
102
RTVSPost2010Prop44ColorIndex
 90
        5
102
RTVSPost2010Prop44ColorRGB
 90
      255
102
RTVSPost2010PropOp44
 70
     1
102
RTVSPost2010Prop45
280
     0
102
RTVSPost2010PropOp45
 70
     1
102
RTVSPost2010Prop46
 90
       50
102
RTVSPost2010PropOp46
 70
     1
102
RTVSPost2010Prop47
 90
       50
102
RTVSPost2010PropOp47
 70
     1
102
RTVSPost2010Prop48
 90
       50
102
RTVSPost2010PropOp48
 70
     1
102
RTVSPost2010Prop49
280
     0
102
RTVSPost2010PropOp49
 70
     1
102
RTVSPost2010Prop50
 90
       50
102
RTVSPost2010PropOp50
 70
     1
102
RTVSPost2010Prop51ColorIndex
 90
      256
102
RTVSPost2010Prop51ColorRGB
 90
-16777216
102
RTVSPost2010PropOp51
 70
     0
102
RTVSPost2010Prop52
140
1.0
102
RTVSPost2010PropOp52
 70
     0
102
RTVSPost2010Prop53
 90
        2
102
RTVSPost2010PropOp53
 70
     1
102
RTVSPost2010Prop54
  1
strokes_ogs.tif
102
RTVSPost2010PropOp54
 70
     1
102
RTVSPost2010Prop55
280
     0
102
RTVSPost2010PropOp55
 70
     1
102
RTVSPost2010Prop56
140
1.0
102
RTVSPost2010PropOp56
 70
     1
102
RTVSPost2010Prop57
140
1.0
102
RTVSPost2010PropOp57
 70
     1
102
RTVSPropertyOp0
 70
     1
102
RTVSPropertyOp1
 70
     1
102
RTVSPropertyOp2
 70
     1
102
RTVSPropertyOp3
 70
     1
102
RTVSPropertyOp4
 70
     1
102
RTVSPropertyOp5
 70
     1
102
RTVSPropertyOp6
 70
     1
102
RTVSPropertyOp7
 70
     1
102
RTVSPropertyOp8
 70
     1
102
RTVSPropertyOp9
 70
     1
102
RTVSPropertyOp10
 70
     1
102
RTVSPropertyOp11
 70
     1
102
RTVSPropertyOp12
 70
     1
102
RTVSPropertyOp13
 70
     1
102
RTVSPropertyOp14
 70
     1
102
RTVSPropertyOp15
 70
     1
102
RTVSPropertyOp16
 70
     1
102
RTVSPropertyOp17
 70
     1
102
RTVSPropertyOp18
 70
     1
102
RTVSPropertyOp19
 70
     1
102
RTVSPropertyOp20
 70
     1
102
RTVSPropertyOp21
 70
     1
102
RTVSPropertyOp22
 70
     1
102
RTVSPropertyOp23
 70
     1
102
RTVSPropertyOp24
 70
     1
102
RTVSPropertyOp25
 70
     1
102
RTVSPropertyOp26
 70
     1
102
RTVSPropertyOp27
 70
     1
102
RTVSPropertyOp28
 70
     1
102
RTVSPropertyOp29
 70
     1
102
RTVSPropertyOp30
 70
     1
102
RTVSPropertyOp31
 70
     1
102
RTVSPropertyOp32
 70
     1
102
RTVSPropertyOp33
 70
     1
102
RTVSPropertyOp34
 70
     1
102
RTVSPropertyOp35
 70
     1
102
RTVSPropertyOp36
 70
     1
102
RTVSPropertyOp37
 70
     1
102
RTVSPropertyOp38
 70
     1
102
RTVSPropertyOp39
 70
     1
102
RTVSPropertyOp40
 70
     1
102
RTVSPropertyOp41
 70
     1
102
RTVSPropertyOp42
 70
     1
102
RTVSPropertyOp43
 70
     1
102
RTVSPropertyOp44
 70
     1
102
RTVSPropertyOp45
 70
     1
102
RTVSPropertyOp46
 70
     1
102
RTVSPropertyOp47
 70
     1
102
RTVSPropertyOp48
 70
     1
102
RTVSPropertyOp49
 70
     1
102
RTVSPropertyOp50
 70
     1
102
RTVSPropertyOp51
 70
     0
102
RTVSPropertyOp52
 70
     0
102
RTVSPropertyOp53
 70
     1
102
RTVSPropertyOp54
 70
     1
102
RTVSPropertyOp55
 70
     1
102
RTVSPropertyOp56
 70
     1
102
RTVSPropertyOp57
 70
     1
102
RTVSPropertyOp58
 70
     1
102
RTVSPropertyOp59
 70
     1
102
RTVSPropertyOp60
 70
     1
102
RTVSPropertyOp61
 70
     1
102
RTVSPropertyOp62
 70
     1
  0
XRECORD
  5
73B
102
{ACAD_REACTORS
330
73A
102
}
330
73A
100
AcDbXrecord
280
     1
102
RTVSPost2010Prop28
280
     0
102
RTVSPost2010PropOp28
 70
     1
102
RTVSPost2010Prop29
280
     1
102
RTVSPost2010PropOp29
 70
     1
102
RTVSPost2010Prop30
280
     1
102
RTVSPost2010PropOp30
 70
     1
102
RTVSPost2010Prop31
280
     0
102
RTVSPost2010PropOp31
 70
     1
102
RTVSPost2010Prop32
280
     0
102
RTVSPost2010PropOp32
 70
     1
102
RTVSPost2010Prop33
280
     0
102
RTVSPost2010PropOp33
 70
     1
102
RTVSPost2010Prop34
280
     0
102
RTVSPost2010PropOp34
 70
     1
102
RTVSPost2010Prop35
280
     0
102
RTVSPost2010PropOp35
 70
     1
102
RTVSPost2010Prop36
280
     0
102
RTVSPost2010PropOp36
 70
     1
102
RTVSPost2010Prop37
 90
       50
102
RTVSPost2010PropOp37
 70
     1
102
RTVSPost2010Prop38
140
0.0
102
RTVSPost2010PropOp38
 70
     1
102
RTVSPost2010Prop39
140
1.0
102
RTVSPost2010PropOp39
 70
     1
102
RTVSPost2010Prop40
 90
        0
102
RTVSPost2010PropOp40
 70
     1
102
RTVSPost2010Prop41ColorIndex
 90
       18
102
RTVSPost2010Prop41ColorRGB
 90
        0
102
RTVSPost2010PropOp41
 70
     1
102
RTVSPost2010Prop42
 90
       50
102
RTVSPost2010PropOp42
 70
     1
102
RTVSPost2010Prop43
 90
        3
102
RTVSPost2010PropOp43
 70
     1
102
RTVSPost2010Prop44ColorIndex
 90
        5
102
RTVSPost2010Prop44ColorRGB
 90
      255
102
RTVSPost2010PropOp44
 70
     1
102
RTVSPost2010Prop45
280
     0
102
RTVSPost2010PropOp45
 70
     1
102
RTVSPost2010Prop46
 90
       50
102
RTVSPost2010PropOp46
 70
     1
102
RTVSPost2010Prop47
 90
       50
102
RTVSPost2010PropOp47
 70
     1
102
RTVSPost2010Prop48
 90
       50
102
RTVSPost2010PropOp48
 70
     1
102
RTVSPost2010Prop49
280
     0
102
RTVSPost2010PropOp49
 70
     1
102
RTVSPost2010Prop50
 90
       50
102
RTVSPost2010PropOp50
 70
     1
102
RTVSPost2010Prop51ColorIndex
 90
      256
102
RTVSPost2010Prop51ColorRGB
 90
-16777216
102
RTVSPost2010PropOp51
 70
     0
102
RTVSPost2010Prop52
140
1.0
102
RTVSPost2010PropOp52
 70
     0
102
RTVSPost2010Prop53
 90
        2
102
RTVSPost2010PropOp53
 70
     1
102
RTVSPost2010Prop54
  1
strokes_ogs.tif
102
RTVSPost2010PropOp54
 70
     1
102
RTVSPost2010Prop55
280
     0
102
RTVSPost2010PropOp55
 70
     1
102
RTVSPost2010Prop56
140
1.0
102
RTVSPost2010PropOp56
 70
     1
102
RTVSPost2010Prop57
140
1.0
102
RTVSPost2010PropOp57
 70
     1
102
RTVSPropertyOp0
 70
     1
102
RTVSPropertyOp1
 70
     1
102
RTVSPropertyOp2
 70
     1
102
RTVSPropertyOp3
 70
     1
102
RTVSPropertyOp4
 70
     1
102
RTVSPropertyOp5
 70
     1
102
RTVSPropertyOp6
 70
     1
102
RTVSPropertyOp7
 70
     1
102
RTVSPropertyOp8
 70
     1
102
RTVSPropertyOp9
 70
     1
102
RTVSPropertyOp10
 70
     1
102
RTVSPropertyOp11
 70
     1
102
RTVSPropertyOp12
 70
     1
102
RTVSPropertyOp13
 70
     1
102
RTVSPropertyOp14
 70
     1
102
RTVSPropertyOp15
 70
     1
102
RTVSPropertyOp16
 70
     1
102
RTVSPropertyOp17
 70
     1
102
RTVSPropertyOp18
 70
     1
102
RTVSPropertyOp19
 70
     1
102
RTVSPropertyOp20
 70
     1
102
RTVSPropertyOp21
 70
     1
102
RTVSPropertyOp22
 70
     1
102
RTVSPropertyOp23
 70
     1
102
RTVSPropertyOp24
 70
     1
102
RTVSPropertyOp25
 70
     1
102
RTVSPropertyOp26
 70
     1
102
RTVSPropertyOp27
 70
     1
102
RTVSPropertyOp28
 70
     1
102
RTVSPropertyOp29
 70
     1
102
RTVSPropertyOp30
 70
     1
102
RTVSPropertyOp31
 70
     1
102
RTVSPropertyOp32
 70
     1
102
RTVSPropertyOp33
 70
     1
102
RTVSPropertyOp34
 70
     1
102
RTVSPropertyOp35
 70
     1
102
RTVSPropertyOp36
 70
     1
102
RTVSPropertyOp37
 70
     1
102
RTVSPropertyOp38
 70
     1
102
RTVSPropertyOp39
 70
     1
102
RTVSPropertyOp40
 70
     1
102
RTVSPropertyOp41
 70
     1
102
RTVSPropertyOp42
 70
     1
102
RTVSPropertyOp43
 70
     1
102
RTVSPropertyOp44
 70
     1
102
RTVSPropertyOp45
 70
     1
102
RTVSPropertyOp46
 70
     1
102
RTVSPropertyOp47
 70
     1
102
RTVSPropertyOp48
 70
     1
102
RTVSPropertyOp49
 70
     1
102
RTVSPropertyOp50
 70
     1
102
RTVSPropertyOp51
 70
     0
102
RTVSPropertyOp52
 70
     0
102
RTVSPropertyOp53
 70
     1
102
RTVSPropertyOp54
 70
     1
102
RTVSPropertyOp55
 70
     1
102
RTVSPropertyOp56
 70
     1
102
RTVSPropertyOp57
 70
     1
102
RTVSPropertyOp58
 70
     1
102
RTVSPropertyOp59
 70
     1
102
RTVSPropertyOp60
 70
     1
102
RTVSPropertyOp61
 70
     1
102
RTVSPropertyOp62
 70
     1
  0
XRECORD
  5
73D
102
{ACAD_REACTORS
330
73C
102
}
330
73C
100
AcDbXrecord
280
     1
102
RTVSPost2010Prop28
280
     0
102
RTVSPost2010PropOp28
 70
     1
102
RTVSPost2010Prop29
280
     1
102
RTVSPost2010PropOp29
 70
     1
102
RTVSPost2010Prop30
280
     1
102
RTVSPost2010PropOp30
 70
     1
102
RTVSPost2010Prop31
280
     0
102
RTVSPost2010PropOp31
 70
     1
102
RTVSPost2010Prop32
280
     0
102
RTVSPost2010PropOp32
 70
     1
102
RTVSPost2010Prop33
280
     0
102
RTVSPost2010PropOp33
 70
     1
102
RTVSPost2010Prop34
280
     0
102
RTVSPost2010PropOp34
 70
     1
102
RTVSPost2010Prop35
280
     0
102
RTVSPost2010PropOp35
 70
     1
102
RTVSPost2010Prop36
280
     0
102
RTVSPost2010PropOp36
 70
     1
102
RTVSPost2010Prop37
 90
       50
102
RTVSPost2010PropOp37
 70
     1
102
RTVSPost2010Prop38
140
0.0
102
RTVSPost2010PropOp38
 70
     1
102
RTVSPost2010Prop39
140
1.0
102
RTVSPost2010PropOp39
 70
     1
102
RTVSPost2010Prop40
 90
        0
102
RTVSPost2010PropOp40
 70
     1
102
RTVSPost2010Prop41ColorIndex
 90
       18
102
RTVSPost2010Prop41ColorRGB
 90
        0
102
RTVSPost2010PropOp41
 70
     1
102
RTVSPost2010Prop42
 90
       50
102
RTVSPost2010PropOp42
 70
     1
102
RTVSPost2010Prop43
 90
        3
102
RTVSPost2010PropOp43
 70
     1
102
RTVSPost2010Prop44ColorIndex
 90
        5
102
RTVSPost2010Prop44ColorRGB
 90
      255
102
RTVSPost2010PropOp44
 70
     1
102
RTVSPost2010Prop45
280
     0
102
RTVSPost2010PropOp45
 70
     1
102
RTVSPost2010Prop46
 90
       50
102
RTVSPost2010PropOp46
 70
     1
102
RTVSPost2010Prop47
 90
       50
102
RTVSPost2010PropOp47
 70
     1
102
RTVSPost2010Prop48
 90
       50
102
RTVSPost2010PropOp48
 70
     1
102
RTVSPost2010Prop49
280
     0
102
RTVSPost2010PropOp49
 70
     1
102
RTVSPost2010Prop50
 90
       50
102
RTVSPost2010PropOp50
 70
     1
102
RTVSPost2010Prop51ColorIndex
 90
      256
102
RTVSPost2010Prop51ColorRGB
 90
-16777216
102
RTVSPost2010PropOp51
 70
     0
102
RTVSPost2010Prop52
140
1.0
102
RTVSPost2010PropOp52
 70
     0
102
RTVSPost2010Prop53
 90
        2
102
RTVSPost2010PropOp53
 70
     1
102
RTVSPost2010Prop54
  1
strokes_ogs.tif
102
RTVSPost2010PropOp54
 70
     1
102
RTVSPost2010Prop55
280
     0
102
RTVSPost2010PropOp55
 70
     1
102
RTVSPost2010Prop56
140
1.0
102
RTVSPost2010PropOp56
 70
     1
102
RTVSPost2010Prop57
140
1.0
102
RTVSPost2010PropOp57
 70
     1
102
RTVSPropertyOp0
 70
     1
102
RTVSPropertyOp1
 70
     1
102
RTVSPropertyOp2
 70
     1
102
RTVSPropertyOp3
 70
     1
102
RTVSPropertyOp4
 70
     1
102
RTVSPropertyOp5
 70
     1
102
RTVSPropertyOp6
 70
     1
102
RTVSPropertyOp7
 70
     1
102
RTVSPropertyOp8
 70
     1
102
RTVSPropertyOp9
 70
     1
102
RTVSPropertyOp10
 70
     1
102
RTVSPropertyOp11
 70
     1
102
RTVSPropertyOp12
 70
     1
102
RTVSPropertyOp13
 70
     1
102
RTVSPropertyOp14
 70
     1
102
RTVSPropertyOp15
 70
     1
102
RTVSPropertyOp16
 70
     1
102
RTVSPropertyOp17
 70
     1
102
RTVSPropertyOp18
 70
     1
102
RTVSPropertyOp19
 70
     1
102
RTVSPropertyOp20
 70
     1
102
RTVSPropertyOp21
 70
     1
102
RTVSPropertyOp22
 70
     1
102
RTVSPropertyOp23
 70
     1
102
RTVSPropertyOp24
 70
     1
102
RTVSPropertyOp25
 70
     1
102
RTVSPropertyOp26
 70
     1
102
RTVSPropertyOp27
 70
     1
102
RTVSPropertyOp28
 70
     1
102
RTVSPropertyOp29
 70
     1
102
RTVSPropertyOp30
 70
     1
102
RTVSPropertyOp31
 70
     1
102
RTVSPropertyOp32
 70
     1
102
RTVSPropertyOp33
 70
     1
102
RTVSPropertyOp34
 70
     1
102
RTVSPropertyOp35
 70
     1
102
RTVSPropertyOp36
 70
     1
102
RTVSPropertyOp37
 70
     1
102
RTVSPropertyOp38
 70
     1
102
RTVSPropertyOp39
 70
     1
102
RTVSPropertyOp40
 70
     1
102
RTVSPropertyOp41
 70
     1
102
RTVSPropertyOp42
 70
     1
102
RTVSPropertyOp43
 70
     1
102
RTVSPropertyOp44
 70
     1
102
RTVSPropertyOp45
 70
     1
102
RTVSPropertyOp46
 70
     1
102
RTVSPropertyOp47
 70
     1
102
RTVSPropertyOp48
 70
     1
102
RTVSPropertyOp49
 70
     1
102
RTVSPropertyOp50
 70
     1
102
RTVSPropertyOp51
 70
     0
102
RTVSPropertyOp52
 70
     0
102
RTVSPropertyOp53
 70
     1
102
RTVSPropertyOp54
 70
     1
102
RTVSPropertyOp55
 70
     1
102
RTVSPropertyOp56
 70
     1
102
RTVSPropertyOp57
 70
     1
102
RTVSPropertyOp58
 70
     1
102
RTVSPropertyOp59
 70
     1
102
RTVSPropertyOp60
 70
     1
102
RTVSPropertyOp61
 70
     1
102
RTVSPropertyOp62
 70
     1
  0
XRECORD
  5
73F
102
{ACAD_REACTORS
330
73E
102
}
330
73E
100
AcDbXrecord
280
     1
102
RTVSPost2010Prop28
280
     0
102
RTVSPost2010PropOp28
 70
     1
102
RTVSPost2010Prop29
280
     1
102
RTVSPost2010PropOp29
 70
     1
102
RTVSPost2010Prop30
280
     1
102
RTVSPost2010PropOp30
 70
     1
102
RTVSPost2010Prop31
280
     0
102
RTVSPost2010PropOp31
 70
     1
102
RTVSPost2010Prop32
280
     0
102
RTVSPost2010PropOp32
 70
     1
102
RTVSPost2010Prop33
280
     0
102
RTVSPost2010PropOp33
 70
     1
102
RTVSPost2010Prop34
280
     0
102
RTVSPost2010PropOp34
 70
     1
102
RTVSPost2010Prop35
280
     0
102
RTVSPost2010PropOp35
 70
     1
102
RTVSPost2010Prop36
280
     0
102
RTVSPost2010PropOp36
 70
     1
102
RTVSPost2010Prop37
 90
       50
102
RTVSPost2010PropOp37
 70
     1
102
RTVSPost2010Prop38
140
0.0
102
RTVSPost2010PropOp38
 70
     1
102
RTVSPost2010Prop39
140
1.0
102
RTVSPost2010PropOp39
 70
     1
102
RTVSPost2010Prop40
 90
        0
102
RTVSPost2010PropOp40
 70
     1
102
RTVSPost2010Prop41ColorIndex
 90
       18
102
RTVSPost2010Prop41ColorRGB
 90
        0
102
RTVSPost2010PropOp41
 70
     1
102
RTVSPost2010Prop42
 90
       50
102
RTVSPost2010PropOp42
 70
     1
102
RTVSPost2010Prop43
 90
        3
102
RTVSPost2010PropOp43
 70
     1
102
RTVSPost2010Prop44ColorIndex
 90
        5
102
RTVSPost2010Prop44ColorRGB
 90
      255
102
RTVSPost2010PropOp44
 70
     1
102
RTVSPost2010Prop45
280
     0
102
RTVSPost2010PropOp45
 70
     1
102
RTVSPost2010Prop46
 90
       50
102
RTVSPost2010PropOp46
 70
     1
102
RTVSPost2010Prop47
 90
       50
102
RTVSPost2010PropOp47
 70
     1
102
RTVSPost2010Prop48
 90
       50
102
RTVSPost2010PropOp48
 70
     1
102
RTVSPost2010Prop49
280
     0
102
RTVSPost2010PropOp49
 70
     1
102
RTVSPost2010Prop50
 90
       50
102
RTVSPost2010PropOp50
 70
     1
102
RTVSPost2010Prop51ColorIndex
 90
      256
102
RTVSPost2010Prop51ColorRGB
 90
-16777216
102
RTVSPost2010PropOp51
 70
     0
102
RTVSPost2010Prop52
140
1.0
102
RTVSPost2010PropOp52
 70
     0
102
RTVSPost2010Prop53
 90
        2
102
RTVSPost2010PropOp53
 70
     1
102
RTVSPost2010Prop54
  1
strokes_ogs.tif
102
RTVSPost2010PropOp54
 70
     1
102
RTVSPost2010Prop55
280
     0
102
RTVSPost2010PropOp55
 70
     1
102
RTVSPost2010Prop56
140
1.0
102
RTVSPost2010PropOp56
 70
     1
102
RTVSPost2010Prop57
140
1.0
102
RTVSPost2010PropOp57
 70
     1
102
RTVSPropertyOp0
 70
     1
102
RTVSPropertyOp1
 70
     1
102
RTVSPropertyOp2
 70
     1
102
RTVSPropertyOp3
 70
     1
102
RTVSPropertyOp4
 70
     1
102
RTVSPropertyOp5
 70
     1
102
RTVSPropertyOp6
 70
     1
102
RTVSPropertyOp7
 70
     1
102
RTVSPropertyOp8
 70
     1
102
RTVSPropertyOp9
 70
     1
102
RTVSPropertyOp10
 70
     1
102
RTVSPropertyOp11
 70
     1
102
RTVSPropertyOp12
 70
     1
102
RTVSPropertyOp13
 70
     1
102
RTVSPropertyOp14
 70
     1
102
RTVSPropertyOp15
 70
     1
102
RTVSPropertyOp16
 70
     1
102
RTVSPropertyOp17
 70
     1
102
RTVSPropertyOp18
 70
     1
102
RTVSPropertyOp19
 70
     1
102
RTVSPropertyOp20
 70
     1
102
RTVSPropertyOp21
 70
     1
102
RTVSPropertyOp22
 70
     1
102
RTVSPropertyOp23
 70
     1
102
RTVSPropertyOp24
 70
     1
102
RTVSPropertyOp25
 70
     1
102
RTVSPropertyOp26
 70
     1
102
RTVSPropertyOp27
 70
     1
102
RTVSPropertyOp28
 70
     1
102
RTVSPropertyOp29
 70
     1
102
RTVSPropertyOp30
 70
     1
102
RTVSPropertyOp31
 70
     1
102
RTVSPropertyOp32
 70
     1
102
RTVSPropertyOp33
 70
     1
102
RTVSPropertyOp34
 70
     1
102
RTVSPropertyOp35
 70
     1
102
RTVSPropertyOp36
 70
     1
102
RTVSPropertyOp37
 70
     1
102
RTVSPropertyOp38
 70
     1
102
RTVSPropertyOp39
 70
     1
102
RTVSPropertyOp40
 70
     1
102
RTVSPropertyOp41
 70
     1
102
RTVSPropertyOp42
 70
     1
102
RTVSPropertyOp43
 70
     1
102
RTVSPropertyOp44
 70
     1
102
RTVSPropertyOp45
 70
     1
102
RTVSPropertyOp46
 70
     1
102
RTVSPropertyOp47
 70
     1
102
RTVSPropertyOp48
 70
     1
102
RTVSPropertyOp49
 70
     1
102
RTVSPropertyOp50
 70
     1
102
RTVSPropertyOp51
 70
     0
102
RTVSPropertyOp52
 70
     0
102
RTVSPropertyOp53
 70
     1
102
RTVSPropertyOp54
 70
     1
102
RTVSPropertyOp55
 70
     1
102
RTVSPropertyOp56
 70
     1
102
RTVSPropertyOp57
 70
     1
102
RTVSPropertyOp58
 70
     1
102
RTVSPropertyOp59
 70
     1
102
RTVSPropertyOp60
 70
     1
102
RTVSPropertyOp61
 70
     1
102
RTVSPropertyOp62
 70
     1
  0
XRECORD
  5
741
102
{ACAD_REACTORS
330
740
102
}
330
740
100
AcDbXrecord
280
     1
102
RTVSPost2010Prop28
280
     0
102
RTVSPost2010PropOp28
 70
     1
102
RTVSPost2010Prop29
280
     1
102
RTVSPost2010PropOp29
 70
     1
102
RTVSPost2010Prop30
280
     1
102
RTVSPost2010PropOp30
 70
     1
102
RTVSPost2010Prop31
280
     0
102
RTVSPost2010PropOp31
 70
     1
102
RTVSPost2010Prop32
280
     0
102
RTVSPost2010PropOp32
 70
     1
102
RTVSPost2010Prop33
280
     0
102
RTVSPost2010PropOp33
 70
     1
102
RTVSPost2010Prop34
280
     0
102
RTVSPost2010PropOp34
 70
     1
102
RTVSPost2010Prop35
280
     0
102
RTVSPost2010PropOp35
 70
     1
102
RTVSPost2010Prop36
280
     0
102
RTVSPost2010PropOp36
 70
     1
102
RTVSPost2010Prop37
 90
       50
102
RTVSPost2010PropOp37
 70
     1
102
RTVSPost2010Prop38
140
0.0
102
RTVSPost2010PropOp38
 70
     1
102
RTVSPost2010Prop39
140
1.0
102
RTVSPost2010PropOp39
 70
     1
102
RTVSPost2010Prop40
 90
        0
102
RTVSPost2010PropOp40
 70
     1
102
RTVSPost2010Prop41ColorIndex
 90
       18
102
RTVSPost2010Prop41ColorRGB
 90
        0
102
RTVSPost2010PropOp41
 70
     1
102
RTVSPost2010Prop42
 90
       50
102
RTVSPost2010PropOp42
 70
     1
102
RTVSPost2010Prop43
 90
        3
102
RTVSPost2010PropOp43
 70
     1
102
RTVSPost2010Prop44ColorIndex
 90
        5
102
RTVSPost2010Prop44ColorRGB
 90
      255
102
RTVSPost2010PropOp44
 70
     1
102
RTVSPost2010Prop45
280
     0
102
RTVSPost2010PropOp45
 70
     1
102
RTVSPost2010Prop46
 90
       50
102
RTVSPost2010PropOp46
 70
     1
102
RTVSPost2010Prop47
 90
       50
102
RTVSPost2010PropOp47
 70
     1
102
RTVSPost2010Prop48
 90
       50
102
RTVSPost2010PropOp48
 70
     1
102
RTVSPost2010Prop49
280
     0
102
RTVSPost2010PropOp49
 70
     1
102
RTVSPost2010Prop50
 90
       50
102
RTVSPost2010PropOp50
 70
     1
102
RTVSPost2010Prop51ColorIndex
 90
      256
102
RTVSPost2010Prop51ColorRGB
 90
-16777216
102
RTVSPost2010PropOp51
 70
     0
102
RTVSPost2010Prop52
140
1.0
102
RTVSPost2010PropOp52
 70
     0
102
RTVSPost2010Prop53
 90
        2
102
RTVSPost2010PropOp53
 70
     1
102
RTVSPost2010Prop54
  1
strokes_ogs.tif
102
RTVSPost2010PropOp54
 70
     1
102
RTVSPost2010Prop55
280
     0
102
RTVSPost2010PropOp55
 70
     1
102
RTVSPost2010Prop56
140
1.0
102
RTVSPost2010PropOp56
 70
     1
102
RTVSPost2010Prop57
140
1.0
102
RTVSPost2010PropOp57
 70
     1
102
RTVSPropertyOp0
 70
     1
102
RTVSPropertyOp1
 70
     1
102
RTVSPropertyOp2
 70
     1
102
RTVSPropertyOp3
 70
     1
102
RTVSPropertyOp4
 70
     1
102
RTVSPropertyOp5
 70
     1
102
RTVSPropertyOp6
 70
     1
102
RTVSPropertyOp7
 70
     1
102
RTVSPropertyOp8
 70
     1
102
RTVSPropertyOp9
 70
     1
102
RTVSPropertyOp10
 70
     1
102
RTVSPropertyOp11
 70
     1
102
RTVSPropertyOp12
 70
     1
102
RTVSPropertyOp13
 70
     1
102
RTVSPropertyOp14
 70
     1
102
RTVSPropertyOp15
 70
     1
102
RTVSPropertyOp16
 70
     1
102
RTVSPropertyOp17
 70
     1
102
RTVSPropertyOp18
 70
     1
102
RTVSPropertyOp19
 70
     1
102
RTVSPropertyOp20
 70
     1
102
RTVSPropertyOp21
 70
     1
102
RTVSPropertyOp22
 70
     1
102
RTVSPropertyOp23
 70
     1
102
RTVSPropertyOp24
 70
     1
102
RTVSPropertyOp25
 70
     1
102
RTVSPropertyOp26
 70
     1
102
RTVSPropertyOp27
 70
     1
102
RTVSPropertyOp28
 70
     1
102
RTVSPropertyOp29
 70
     1
102
RTVSPropertyOp30
 70
     1
102
RTVSPropertyOp31
 70
     1
102
RTVSPropertyOp32
 70
     1
102
RTVSPropertyOp33
 70
     1
102
RTVSPropertyOp34
 70
     1
102
RTVSPropertyOp35
 70
     1
102
RTVSPropertyOp36
 70
     1
102
RTVSPropertyOp37
 70
     1
102
RTVSPropertyOp38
 70
     1
102
RTVSPropertyOp39
 70
     1
102
RTVSPropertyOp40
 70
     1
102
RTVSPropertyOp41
 70
     1
102
RTVSPropertyOp42
 70
     1
102
RTVSPropertyOp43
 70
     1
102
RTVSPropertyOp44
 70
     1
102
RTVSPropertyOp45
 70
     1
102
RTVSPropertyOp46
 70
     1
102
RTVSPropertyOp47
 70
     1
102
RTVSPropertyOp48
 70
     1
102
RTVSPropertyOp49
 70
     1
102
RTVSPropertyOp50
 70
     1
102
RTVSPropertyOp51
 70
     0
102
RTVSPropertyOp52
 70
     0
102
RTVSPropertyOp53
 70
     1
102
RTVSPropertyOp54
 70
     1
102
RTVSPropertyOp55
 70
     1
102
RTVSPropertyOp56
 70
     1
102
RTVSPropertyOp57
 70
     1
102
RTVSPropertyOp58
 70
     1
102
RTVSPropertyOp59
 70
     1
102
RTVSPropertyOp60
 70
     1
102
RTVSPropertyOp61
 70
     1
102
RTVSPropertyOp62
 70
     1
  0
XRECORD
  5
749
102
{ACAD_REACTORS
330
748
102
}
330
748
100
AcDbXrecord
280
     1
102
RTVSPost2010Prop28
280
     0
102
RTVSPost2010PropOp28
 70
     1
102
RTVSPost2010Prop29
280
     1
102
RTVSPost2010PropOp29
 70
     1
102
RTVSPost2010Prop30
280
     1
102
RTVSPost2010PropOp30
 70
     1
102
RTVSPost2010Prop31
280
     0
102
RTVSPost2010PropOp31
 70
     1
102
RTVSPost2010Prop32
280
     0
102
RTVSPost2010PropOp32
 70
     1
102
RTVSPost2010Prop33
280
     0
102
RTVSPost2010PropOp33
 70
     1
102
RTVSPost2010Prop34
280
     0
102
RTVSPost2010PropOp34
 70
     1
102
RTVSPost2010Prop35
280
     0
102
RTVSPost2010PropOp35
 70
     1
102
RTVSPost2010Prop36
280
     0
102
RTVSPost2010PropOp36
 70
     1
102
RTVSPost2010Prop37
 90
       50
102
RTVSPost2010PropOp37
 70
     1
102
RTVSPost2010Prop38
140
0.0
102
RTVSPost2010PropOp38
 70
     1
102
RTVSPost2010Prop39
140
1.0
102
RTVSPost2010PropOp39
 70
     1
102
RTVSPost2010Prop40
 90
        0
102
RTVSPost2010PropOp40
 70
     1
102
RTVSPost2010Prop41ColorIndex
 90
       18
102
RTVSPost2010Prop41ColorRGB
 90
        0
102
RTVSPost2010PropOp41
 70
     1
102
RTVSPost2010Prop42
 90
       50
102
RTVSPost2010PropOp42
 70
     1
102
RTVSPost2010Prop43
 90
        3
102
RTVSPost2010PropOp43
 70
     1
102
RTVSPost2010Prop44ColorIndex
 90
        5
102
RTVSPost2010Prop44ColorRGB
 90
      255
102
RTVSPost2010PropOp44
 70
     1
102
RTVSPost2010Prop45
280
     0
102
RTVSPost2010PropOp45
 70
     1
102
RTVSPost2010Prop46
 90
       50
102
RTVSPost2010PropOp46
 70
     1
102
RTVSPost2010Prop47
 90
       50
102
RTVSPost2010PropOp47
 70
     1
102
RTVSPost2010Prop48
 90
       50
102
RTVSPost2010PropOp48
 70
     1
102
RTVSPost2010Prop49
280
     0
102
RTVSPost2010PropOp49
 70
     1
102
RTVSPost2010Prop50
 90
       50
102
RTVSPost2010PropOp50
 70
     1
102
RTVSPost2010Prop51ColorIndex
 90
      256
102
RTVSPost2010Prop51ColorRGB
 90
-16777216
102
RTVSPost2010PropOp51
 70
     0
102
RTVSPost2010Prop52
140
1.0
102
RTVSPost2010PropOp52
 70
     0
102
RTVSPost2010Prop53
 90
        2
102
RTVSPost2010PropOp53
 70
     1
102
RTVSPost2010Prop54
  1
strokes_ogs.tif
102
RTVSPost2010PropOp54
 70
     1
102
RTVSPost2010Prop55
280
     0
102
RTVSPost2010PropOp55
 70
     1
102
RTVSPost2010Prop56
140
1.0
102
RTVSPost2010PropOp56
 70
     1
102
RTVSPost2010Prop57
140
1.0
102
RTVSPost2010PropOp57
 70
     1
102
RTVSPropertyOp0
 70
     1
102
RTVSPropertyOp1
 70
     1
102
RTVSPropertyOp2
 70
     1
102
RTVSPropertyOp3
 70
     1
102
RTVSPropertyOp4
 70
     1
102
RTVSPropertyOp5
 70
     1
102
RTVSPropertyOp6
 70
     1
102
RTVSPropertyOp7
 70
     1
102
RTVSPropertyOp8
 70
     1
102
RTVSPropertyOp9
 70
     1
102
RTVSPropertyOp10
 70
     1
102
RTVSPropertyOp11
 70
     1
102
RTVSPropertyOp12
 70
     1
102
RTVSPropertyOp13
 70
     1
102
RTVSPropertyOp14
 70
     1
102
RTVSPropertyOp15
 70
     1
102
RTVSPropertyOp16
 70
     1
102
RTVSPropertyOp17
 70
     1
102
RTVSPropertyOp18
 70
     1
102
RTVSPropertyOp19
 70
     1
102
RTVSPropertyOp20
 70
     1
102
RTVSPropertyOp21
 70
     1
102
RTVSPropertyOp22
 70
     1
102
RTVSPropertyOp23
 70
     1
102
RTVSPropertyOp24
 70
     1
102
RTVSPropertyOp25
 70
     1
102
RTVSPropertyOp26
 70
     1
102
RTVSPropertyOp27
 70
     1
102
RTVSPropertyOp28
 70
     1
102
RTVSPropertyOp29
 70
     1
102
RTVSPropertyOp30
 70
     1
102
RTVSPropertyOp31
 70
     1
102
RTVSPropertyOp32
 70
     1
102
RTVSPropertyOp33
 70
     1
102
RTVSPropertyOp34
 70
     1
102
RTVSPropertyOp35
 70
     1
102
RTVSPropertyOp36
 70
     1
102
RTVSPropertyOp37
 70
     1
102
RTVSPropertyOp38
 70
     1
102
RTVSPropertyOp39
 70
     1
102
RTVSPropertyOp40
 70
     1
102
RTVSPropertyOp41
 70
     1
102
RTVSPropertyOp42
 70
     1
102
RTVSPropertyOp43
 70
     1
102
RTVSPropertyOp44
 70
     1
102
RTVSPropertyOp45
 70
     1
102
RTVSPropertyOp46
 70
     1
102
RTVSPropertyOp47
 70
     1
102
RTVSPropertyOp48
 70
     1
102
RTVSPropertyOp49
 70
     1
102
RTVSPropertyOp50
 70
     1
102
RTVSPropertyOp51
 70
     0
102
RTVSPropertyOp52
 70
     0
102
RTVSPropertyOp53
 70
     1
102
RTVSPropertyOp54
 70
     1
102
RTVSPropertyOp55
 70
     1
102
RTVSPropertyOp56
 70
     1
102
RTVSPropertyOp57
 70
     1
102
RTVSPropertyOp58
 70
     1
102
RTVSPropertyOp59
 70
     1
102
RTVSPropertyOp60
 70
     1
102
RTVSPropertyOp61
 70
     1
102
RTVSPropertyOp62
 70
     1
  0
XRECORD
  5
765
102
{ACAD_REACTORS
330
764
102
}
330
764
100
AcDbXrecord
280
     1
102
RTVSPost2010Prop28
280
     0
102
RTVSPost2010PropOp28
 70
     1
102
RTVSPost2010Prop29
280
     1
102
RTVSPost2010PropOp29
 70
     1
102
RTVSPost2010Prop30
280
     1
102
RTVSPost2010PropOp30
 70
     1
102
RTVSPost2010Prop31
280
     0
102
RTVSPost2010PropOp31
 70
     1
102
RTVSPost2010Prop32
280
     0
102
RTVSPost2010PropOp32
 70
     1
102
RTVSPost2010Prop33
280
     0
102
RTVSPost2010PropOp33
 70
     1
102
RTVSPost2010Prop34
280
     0
102
RTVSPost2010PropOp34
 70
     1
102
RTVSPost2010Prop35
280
     0
102
RTVSPost2010PropOp35
 70
     1
102
RTVSPost2010Prop36
280
     0
102
RTVSPost2010PropOp36
 70
     1
102
RTVSPost2010Prop37
 90
       50
102
RTVSPost2010PropOp37
 70
     0
102
RTVSPost2010Prop38
140
0.0
102
RTVSPost2010PropOp38
 70
     0
102
RTVSPost2010Prop39
140
1.0
102
RTVSPost2010PropOp39
 70
     0
102
RTVSPost2010Prop40
 90
        0
102
RTVSPost2010PropOp40
 70
     0
102
RTVSPost2010Prop41ColorIndex
 90
       18
102
RTVSPost2010Prop41ColorRGB
 90
        0
102
RTVSPost2010PropOp41
 70
     0
102
RTVSPost2010Prop42
 90
       50
102
RTVSPost2010PropOp42
 70
     0
102
RTVSPost2010Prop43
 90
        3
102
RTVSPost2010PropOp43
 70
     0
102
RTVSPost2010Prop44ColorIndex
 90
        5
102
RTVSPost2010Prop44ColorRGB
 90
      255
102
RTVSPost2010PropOp44
 70
     0
102
RTVSPost2010Prop45
280
     0
102
RTVSPost2010PropOp45
 70
     1
102
RTVSPost2010Prop46
 90
       50
102
RTVSPost2010PropOp46
 70
     0
102
RTVSPost2010Prop47
 90
       50
102
RTVSPost2010PropOp47
 70
     0
102
RTVSPost2010Prop48
 90
       50
102
RTVSPost2010PropOp48
 70
     0
102
RTVSPost2010Prop49
280
     0
102
RTVSPost2010PropOp49
 70
     1
102
RTVSPost2010Prop50
 90
       50
102
RTVSPost2010PropOp50
 70
     0
102
RTVSPost2010Prop51ColorIndex
 90
      256
102
RTVSPost2010Prop51ColorRGB
 90
-16777216
102
RTVSPost2010PropOp51
 70
     0
102
RTVSPost2010Prop52
140
1.0
102
RTVSPost2010PropOp52
 70
     0
102
RTVSPost2010Prop53
 90
        2
102
RTVSPost2010PropOp53
 70
     0
102
RTVSPost2010Prop54
  1
strokes_ogs.tif
102
RTVSPost2010PropOp54
 70
     0
102
RTVSPost2010Prop55
280
     0
102
RTVSPost2010PropOp55
 70
     1
102
RTVSPost2010Prop56
140
1.0
102
RTVSPost2010PropOp56
 70
     0
102
RTVSPost2010Prop57
140
1.0
102
RTVSPost2010PropOp57
 70
     0
102
RTVSPropertyOp0
 70
     0
102
RTVSPropertyOp1
 70
     0
102
RTVSPropertyOp2
 70
     0
102
RTVSPropertyOp3
 70
     0
102
RTVSPropertyOp4
 70
     0
102
RTVSPropertyOp5
 70
     0
102
RTVSPropertyOp6
 70
     0
102
RTVSPropertyOp7
 70
     0
102
RTVSPropertyOp8
 70
     0
102
RTVSPropertyOp9
 70
     0
102
RTVSPropertyOp10
 70
     0
102
RTVSPropertyOp11
 70
     0
102
RTVSPropertyOp12
 70
     0
102
RTVSPropertyOp13
 70
     0
102
RTVSPropertyOp14
 70
     2
102
RTVSPropertyOp15
 70
     0
102
RTVSPropertyOp16
 70
     0
102
RTVSPropertyOp17
 70
     0
102
RTVSPropertyOp18
 70
     0
102
RTVSPropertyOp19
 70
     0
102
RTVSPropertyOp20
 70
     0
102
RTVSPropertyOp21
 70
     0
102
RTVSPropertyOp22
 70
     0
102
RTVSPropertyOp23
 70
     0
102
RTVSPropertyOp24
 70
     0
102
RTVSPropertyOp25
 70
     0
102
RTVSPropertyOp26
 70
     0
102
RTVSPropertyOp27
 70
     0
102
RTVSPropertyOp28
 70
     1
102
RTVSPropertyOp29
 70
     1
102
RTVSPropertyOp30
 70
     1
102
RTVSPropertyOp31
 70
     1
102
RTVSPropertyOp32
 70
     1
102
RTVSPropertyOp33
 70
     1
102
RTVSPropertyOp34
 70
     1
102
RTVSPropertyOp35
 70
     1
102
RTVSPropertyOp36
 70
     1
102
RTVSPropertyOp37
 70
     0
102
RTVSPropertyOp38
 70
     0
102
RTVSPropertyOp39
 70
     0
102
RTVSPropertyOp40
 70
     0
102
RTVSPropertyOp41
 70
     0
102
RTVSPropertyOp42
 70
     0
102
RTVSPropertyOp43
 70
     0
102
RTVSPropertyOp44
 70
     0
102
RTVSPropertyOp45
 70
     1
102
RTVSPropertyOp46
 70
     0
102
RTVSPropertyOp47
 70
     0
102
RTVSPropertyOp48
 70
     0
102
RTVSPropertyOp49
 70
     1
102
RTVSPropertyOp50
 70
     0
102
RTVSPropertyOp51
 70
     0
102
RTVSPropertyOp52
 70
     0
102
RTVSPropertyOp53
 70
     0
102
RTVSPropertyOp54
 70
     0
102
RTVSPropertyOp55
 70
     1
102
RTVSPropertyOp56
 70
     0
102
RTVSPropertyOp57
 70
     0
102
RTVSPropertyOp58
 70
     0
102
RTVSPropertyOp59
 70
     0
102
RTVSPropertyOp60
 70
     0
102
RTVSPropertyOp61
 70
     0
102
RTVSPropertyOp62
 70
     0
  0
XRECORD
  5
755
102
{ACAD_REACTORS
330
754
102
}
330
754
100
AcDbXrecord
280
     1
102
RTVSPost2010Prop28
280
     0
102
RTVSPost2010PropOp28
 70
     1
102
RTVSPost2010Prop29
280
     1
102
RTVSPost2010PropOp29
 70
     1
102
RTVSPost2010Prop30
280
     1
102
RTVSPost2010PropOp30
 70
     1
102
RTVSPost2010Prop31
280
     0
102
RTVSPost2010PropOp31
 70
     1
102
RTVSPost2010Prop32
280
     0
102
RTVSPost2010PropOp32
 70
     1
102
RTVSPost2010Prop33
280
     0
102
RTVSPost2010PropOp33
 70
     1
102
RTVSPost2010Prop34
280
     0
102
RTVSPost2010PropOp34
 70
     1
102
RTVSPost2010Prop35
280
     0
102
RTVSPost2010PropOp35
 70
     1
102
RTVSPost2010Prop36
280
     0
102
RTVSPost2010PropOp36
 70
     1
102
RTVSPost2010Prop37
 90
       50
102
RTVSPost2010PropOp37
 70
     1
102
RTVSPost2010Prop38
140
0.0
102
RTVSPost2010PropOp38
 70
     1
102
RTVSPost2010Prop39
140
1.0
102
RTVSPost2010PropOp39
 70
     1
102
RTVSPost2010Prop40
 90
        0
102
RTVSPost2010PropOp40
 70
     1
102
RTVSPost2010Prop41ColorIndex
 90
       18
102
RTVSPost2010Prop41ColorRGB
 90
        0
102
RTVSPost2010PropOp41
 70
     1
102
RTVSPost2010Prop42
 90
       50
102
RTVSPost2010PropOp42
 70
     1
102
RTVSPost2010Prop43
 90
        3
102
RTVSPost2010PropOp43
 70
     1
102
RTVSPost2010Prop44ColorIndex
 90
        5
102
RTVSPost2010Prop44ColorRGB
 90
      255
102
RTVSPost2010PropOp44
 70
     1
102
RTVSPost2010Prop45
280
     0
102
RTVSPost2010PropOp45
 70
     1
102
RTVSPost2010Prop46
 90
       50
102
RTVSPost2010PropOp46
 70
     1
102
RTVSPost2010Prop47
 90
       50
102
RTVSPost2010PropOp47
 70
     1
102
RTVSPost2010Prop48
 90
       50
102
RTVSPost2010PropOp48
 70
     1
102
RTVSPost2010Prop49
280
     0
102
RTVSPost2010PropOp49
 70
     1
102
RTVSPost2010Prop50
 90
       50
102
RTVSPost2010PropOp50
 70
     1
102
RTVSPost2010Prop51ColorIndex
 90
      256
102
RTVSPost2010Prop51ColorRGB
 90
-16777216
102
RTVSPost2010PropOp51
 70
     0
102
RTVSPost2010Prop52
140
1.0
102
RTVSPost2010PropOp52
 70
     0
102
RTVSPost2010Prop53
 90
        2
102
RTVSPost2010PropOp53
 70
     1
102
RTVSPost2010Prop54
  1
strokes_ogs.tif
102
RTVSPost2010PropOp54
 70
     1
102
RTVSPost2010Prop55
280
     0
102
RTVSPost2010PropOp55
 70
     1
102
RTVSPost2010Prop56
140
1.0
102
RTVSPost2010PropOp56
 70
     1
102
RTVSPost2010Prop57
140
1.0
102
RTVSPost2010PropOp57
 70
     1
102
RTVSPropertyOp0
 70
     1
102
RTVSPropertyOp1
 70
     1
102
RTVSPropertyOp2
 70
     1
102
RTVSPropertyOp3
 70
     1
102
RTVSPropertyOp4
 70
     1
102
RTVSPropertyOp5
 70
     1
102
RTVSPropertyOp6
 70
     1
102
RTVSPropertyOp7
 70
     1
102
RTVSPropertyOp8
 70
     1
102
RTVSPropertyOp9
 70
     1
102
RTVSPropertyOp10
 70
     1
102
RTVSPropertyOp11
 70
     1
102
RTVSPropertyOp12
 70
     1
102
RTVSPropertyOp13
 70
     1
102
RTVSPropertyOp14
 70
     1
102
RTVSPropertyOp15
 70
     1
102
RTVSPropertyOp16
 70
     1
102
RTVSPropertyOp17
 70
     1
102
RTVSPropertyOp18
 70
     1
102
RTVSPropertyOp19
 70
     1
102
RTVSPropertyOp20
 70
     1
102
RTVSPropertyOp21
 70
     1
102
RTVSPropertyOp22
 70
     1
102
RTVSPropertyOp23
 70
     1
102
RTVSPropertyOp24
 70
     1
102
RTVSPropertyOp25
 70
     1
102
RTVSPropertyOp26
 70
     1
102
RTVSPropertyOp27
 70
     1
102
RTVSPropertyOp28
 70
     1
102
RTVSPropertyOp29
 70
     1
102
RTVSPropertyOp30
 70
     1
102
RTVSPropertyOp31
 70
     1
102
RTVSPropertyOp32
 70
     1
102
RTVSPropertyOp33
 70
     1
102
RTVSPropertyOp34
 70
     1
102
RTVSPropertyOp35
 70
     1
102
RTVSPropertyOp36
 70
     1
102
RTVSPropertyOp37
 70
     1
102
RTVSPropertyOp38
 70
     1
102
RTVSPropertyOp39
 70
     1
102
RTVSPropertyOp40
 70
     1
102
RTVSPropertyOp41
 70
     1
102
RTVSPropertyOp42
 70
     1
102
RTVSPropertyOp43
 70
     1
102
RTVSPropertyOp44
 70
     1
102
RTVSPropertyOp45
 70
     1
102
RTVSPropertyOp46
 70
     1
102
RTVSPropertyOp47
 70
     1
102
RTVSPropertyOp48
 70
     1
102
RTVSPropertyOp49
 70
     1
102
RTVSPropertyOp50
 70
     1
102
RTVSPropertyOp51
 70
     0
102
RTVSPropertyOp52
 70
     0
102
RTVSPropertyOp53
 70
     1
102
RTVSPropertyOp54
 70
     1
102
RTVSPropertyOp55
 70
     1
102
RTVSPropertyOp56
 70
     1
102
RTVSPropertyOp57
 70
     1
102
RTVSPropertyOp58
 70
     1
102
RTVSPropertyOp59
 70
     1
102
RTVSPropertyOp60
 70
     1
102
RTVSPropertyOp61
 70
     1
102
RTVSPropertyOp62
 70
     1
  0
XRECORD
  5
767
102
{ACAD_REACTORS
330
766
102
}
330
766
100
AcDbXrecord
280
     1
102
RTVSPost2010Prop28
280
     0
102
RTVSPost2010PropOp28
 70
     1
102
RTVSPost2010Prop29
280
     1
102
RTVSPost2010PropOp29
 70
     1
102
RTVSPost2010Prop30
280
     1
102
RTVSPost2010PropOp30
 70
     1
102
RTVSPost2010Prop31
280
     0
102
RTVSPost2010PropOp31
 70
     1
102
RTVSPost2010Prop32
280
     0
102
RTVSPost2010PropOp32
 70
     1
102
RTVSPost2010Prop33
280
     0
102
RTVSPost2010PropOp33
 70
     1
102
RTVSPost2010Prop34
280
     0
102
RTVSPost2010PropOp34
 70
     1
102
RTVSPost2010Prop35
280
     0
102
RTVSPost2010PropOp35
 70
     1
102
RTVSPost2010Prop36
280
     0
102
RTVSPost2010PropOp36
 70
     1
102
RTVSPost2010Prop37
 90
       50
102
RTVSPost2010PropOp37
 70
     0
102
RTVSPost2010Prop38
140
0.0
102
RTVSPost2010PropOp38
 70
     0
102
RTVSPost2010Prop39
140
1.0
102
RTVSPost2010PropOp39
 70
     0
102
RTVSPost2010Prop40
 90
        0
102
RTVSPost2010PropOp40
 70
     0
102
RTVSPost2010Prop41ColorIndex
 90
       18
102
RTVSPost2010Prop41ColorRGB
 90
        0
102
RTVSPost2010PropOp41
 70
     0
102
RTVSPost2010Prop42
 90
       50
102
RTVSPost2010PropOp42
 70
     0
102
RTVSPost2010Prop43
 90
        3
102
RTVSPost2010PropOp43
 70
     0
102
RTVSPost2010Prop44ColorIndex
 90
        5
102
RTVSPost2010Prop44ColorRGB
 90
      255
102
RTVSPost2010PropOp44
 70
     0
102
RTVSPost2010Prop45
280
     0
102
RTVSPost2010PropOp45
 70
     1
102
RTVSPost2010Prop46
 90
       50
102
RTVSPost2010PropOp46
 70
     0
102
RTVSPost2010Prop47
 90
       50
102
RTVSPost2010PropOp47
 70
     0
102
RTVSPost2010Prop48
 90
       50
102
RTVSPost2010PropOp48
 70
     0
102
RTVSPost2010Prop49
280
     0
102
RTVSPost2010PropOp49
 70
     1
102
RTVSPost2010Prop50
 90
       50
102
RTVSPost2010PropOp50
 70
     0
102
RTVSPost2010Prop51ColorIndex
 90
      256
102
RTVSPost2010Prop51ColorRGB
 90
-16777216
102
RTVSPost2010PropOp51
 70
     0
102
RTVSPost2010Prop52
140
1.0
102
RTVSPost2010PropOp52
 70
     0
102
RTVSPost2010Prop53
 90
        2
102
RTVSPost2010PropOp53
 70
     0
102
RTVSPost2010Prop54
  1
strokes_ogs.tif
102
RTVSPost2010PropOp54
 70
     0
102
RTVSPost2010Prop55
280
     0
102
RTVSPost2010PropOp55
 70
     1
102
RTVSPost2010Prop56
140
1.0
102
RTVSPost2010PropOp56
 70
     0
102
RTVSPost2010Prop57
140
1.0
102
RTVSPost2010PropOp57
 70
     0
102
RTVSPropertyOp0
 70
     0
102
RTVSPropertyOp1
 70
     0
102
RTVSPropertyOp2
 70
     0
102
RTVSPropertyOp3
 70
     0
102
RTVSPropertyOp4
 70
     0
102
RTVSPropertyOp5
 70
     0
102
RTVSPropertyOp6
 70
     0
102
RTVSPropertyOp7
 70
     0
102
RTVSPropertyOp8
 70
     0
102
RTVSPropertyOp9
 70
     0
102
RTVSPropertyOp10
 70
     0
102
RTVSPropertyOp11
 70
     0
102
RTVSPropertyOp12
 70
     0
102
RTVSPropertyOp13
 70
     0
102
RTVSPropertyOp14
 70
     2
102
RTVSPropertyOp15
 70
     0
102
RTVSPropertyOp16
 70
     0
102
RTVSPropertyOp17
 70
     0
102
RTVSPropertyOp18
 70
     0
102
RTVSPropertyOp19
 70
     0
102
RTVSPropertyOp20
 70
     0
102
RTVSPropertyOp21
 70
     0
102
RTVSPropertyOp22
 70
     0
102
RTVSPropertyOp23
 70
     0
102
RTVSPropertyOp24
 70
     0
102
RTVSPropertyOp25
 70
     0
102
RTVSPropertyOp26
 70
     0
102
RTVSPropertyOp27
 70
     0
102
RTVSPropertyOp28
 70
     1
102
RTVSPropertyOp29
 70
     1
102
RTVSPropertyOp30
 70
     1
102
RTVSPropertyOp31
 70
     1
102
RTVSPropertyOp32
 70
     1
102
RTVSPropertyOp33
 70
     1
102
RTVSPropertyOp34
 70
     1
102
RTVSPropertyOp35
 70
     1
102
RTVSPropertyOp36
 70
     1
102
RTVSPropertyOp37
 70
     0
102
RTVSPropertyOp38
 70
     0
102
RTVSPropertyOp39
 70
     0
102
RTVSPropertyOp40
 70
     0
102
RTVSPropertyOp41
 70
     0
102
RTVSPropertyOp42
 70
     0
102
RTVSPropertyOp43
 70
     0
102
RTVSPropertyOp44
 70
     0
102
RTVSPropertyOp45
 70
     1
102
RTVSPropertyOp46
 70
     0
102
RTVSPropertyOp47
 70
     0
102
RTVSPropertyOp48
 70
     0
102
RTVSPropertyOp49
 70
     1
102
RTVSPropertyOp50
 70
     0
102
RTVSPropertyOp51
 70
     0
102
RTVSPropertyOp52
 70
     0
102
RTVSPropertyOp53
 70
     0
102
RTVSPropertyOp54
 70
     0
102
RTVSPropertyOp55
 70
     1
102
RTVSPropertyOp56
 70
     0
102
RTVSPropertyOp57
 70
     0
102
RTVSPropertyOp58
 70
     0
102
RTVSPropertyOp59
 70
     0
102
RTVSPropertyOp60
 70
     0
102
RTVSPropertyOp61
 70
     0
102
RTVSPropertyOp62
 70
     0
  0
XRECORD
  5
74D
102
{ACAD_REACTORS
330
74C
102
}
330
74C
100
AcDbXrecord
280
     1
102
RTVSPost2010Prop28
280
     0
102
RTVSPost2010PropOp28
 70
     1
102
RTVSPost2010Prop29
280
     1
102
RTVSPost2010PropOp29
 70
     1
102
RTVSPost2010Prop30
280
     1
102
RTVSPost2010PropOp30
 70
     1
102
RTVSPost2010Prop31
280
     0
102
RTVSPost2010PropOp31
 70
     1
102
RTVSPost2010Prop32
280
     0
102
RTVSPost2010PropOp32
 70
     1
102
RTVSPost2010Prop33
280
     0
102
RTVSPost2010PropOp33
 70
     1
102
RTVSPost2010Prop34
280
     0
102
RTVSPost2010PropOp34
 70
     1
102
RTVSPost2010Prop35
280
     0
102
RTVSPost2010PropOp35
 70
     1
102
RTVSPost2010Prop36
280
     0
102
RTVSPost2010PropOp36
 70
     1
102
RTVSPost2010Prop37
 90
       50
102
RTVSPost2010PropOp37
 70
     1
102
RTVSPost2010Prop38
140
0.0
102
RTVSPost2010PropOp38
 70
     1
102
RTVSPost2010Prop39
140
1.0
102
RTVSPost2010PropOp39
 70
     1
102
RTVSPost2010Prop40
 90
        0
102
RTVSPost2010PropOp40
 70
     1
102
RTVSPost2010Prop41ColorIndex
 90
       18
102
RTVSPost2010Prop41ColorRGB
 90
        0
102
RTVSPost2010PropOp41
 70
     1
102
RTVSPost2010Prop42
 90
       50
102
RTVSPost2010PropOp42
 70
     1
102
RTVSPost2010Prop43
 90
        3
102
RTVSPost2010PropOp43
 70
     1
102
RTVSPost2010Prop44ColorIndex
 90
        5
102
RTVSPost2010Prop44ColorRGB
 90
      255
102
RTVSPost2010PropOp44
 70
     1
102
RTVSPost2010Prop45
280
     0
102
RTVSPost2010PropOp45
 70
     1
102
RTVSPost2010Prop46
 90
       50
102
RTVSPost2010PropOp46
 70
     1
102
RTVSPost2010Prop47
 90
       50
102
RTVSPost2010PropOp47
 70
     1
102
RTVSPost2010Prop48
 90
       50
102
RTVSPost2010PropOp48
 70
     1
102
RTVSPost2010Prop49
280
     0
102
RTVSPost2010PropOp49
 70
     1
102
RTVSPost2010Prop50
 90
       50
102
RTVSPost2010PropOp50
 70
     1
102
RTVSPost2010Prop51ColorIndex
 90
      256
102
RTVSPost2010Prop51ColorRGB
 90
-16777216
102
RTVSPost2010PropOp51
 70
     0
102
RTVSPost2010Prop52
140
1.0
102
RTVSPost2010PropOp52
 70
     0
102
RTVSPost2010Prop53
 90
        2
102
RTVSPost2010PropOp53
 70
     1
102
RTVSPost2010Prop54
  1
strokes_ogs.tif
102
RTVSPost2010PropOp54
 70
     1
102
RTVSPost2010Prop55
280
     0
102
RTVSPost2010PropOp55
 70
     1
102
RTVSPost2010Prop56
140
1.0
102
RTVSPost2010PropOp56
 70
     1
102
RTVSPost2010Prop57
140
1.0
102
RTVSPost2010PropOp57
 70
     1
102
RTVSPropertyOp0
 70
     1
102
RTVSPropertyOp1
 70
     1
102
RTVSPropertyOp2
 70
     1
102
RTVSPropertyOp3
 70
     1
102
RTVSPropertyOp4
 70
     1
102
RTVSPropertyOp5
 70
     1
102
RTVSPropertyOp6
 70
     1
102
RTVSPropertyOp7
 70
     1
102
RTVSPropertyOp8
 70
     1
102
RTVSPropertyOp9
 70
     1
102
RTVSPropertyOp10
 70
     1
102
RTVSPropertyOp11
 70
     1
102
RTVSPropertyOp12
 70
     1
102
RTVSPropertyOp13
 70
     1
102
RTVSPropertyOp14
 70
     1
102
RTVSPropertyOp15
 70
     1
102
RTVSPropertyOp16
 70
     1
102
RTVSPropertyOp17
 70
     1
102
RTVSPropertyOp18
 70
     1
102
RTVSPropertyOp19
 70
     1
102
RTVSPropertyOp20
 70
     1
102
RTVSPropertyOp21
 70
     1
102
RTVSPropertyOp22
 70
     1
102
RTVSPropertyOp23
 70
     1
102
RTVSPropertyOp24
 70
     1
102
RTVSPropertyOp25
 70
     1
102
RTVSPropertyOp26
 70
     1
102
RTVSPropertyOp27
 70
     1
102
RTVSPropertyOp28
 70
     1
102
RTVSPropertyOp29
 70
     1
102
RTVSPropertyOp30
 70
     1
102
RTVSPropertyOp31
 70
     1
102
RTVSPropertyOp32
 70
     1
102
RTVSPropertyOp33
 70
     1
102
RTVSPropertyOp34
 70
     1
102
RTVSPropertyOp35
 70
     1
102
RTVSPropertyOp36
 70
     1
102
RTVSPropertyOp37
 70
     1
102
RTVSPropertyOp38
 70
     1
102
RTVSPropertyOp39
 70
     1
102
RTVSPropertyOp40
 70
     1
102
RTVSPropertyOp41
 70
     1
102
RTVSPropertyOp42
 70
     1
102
RTVSPropertyOp43
 70
     1
102
RTVSPropertyOp44
 70
     1
102
RTVSPropertyOp45
 70
     1
102
RTVSPropertyOp46
 70
     1
102
RTVSPropertyOp47
 70
     1
102
RTVSPropertyOp48
 70
     1
102
RTVSPropertyOp49
 70
     1
102
RTVSPropertyOp50
 70
     1
102
RTVSPropertyOp51
 70
     0
102
RTVSPropertyOp52
 70
     0
102
RTVSPropertyOp53
 70
     1
102
RTVSPropertyOp54
 70
     1
102
RTVSPropertyOp55
 70
     1
102
RTVSPropertyOp56
 70
     1
102
RTVSPropertyOp57
 70
     1
102
RTVSPropertyOp58
 70
     1
102
RTVSPropertyOp59
 70
     1
102
RTVSPropertyOp60
 70
     1
102
RTVSPropertyOp61
 70
     1
102
RTVSPropertyOp62
 70
     1
  0
XRECORD
  5
763
102
{ACAD_REACTORS
330
762
102
}
330
762
100
AcDbXrecord
280
     1
102
RTVSPost2010Prop28
280
     0
102
RTVSPost2010PropOp28
 70
     1
102
RTVSPost2010Prop29
280
     1
102
RTVSPost2010PropOp29
 70
     1
102
RTVSPost2010Prop30
280
     1
102
RTVSPost2010PropOp30
 70
     1
102
RTVSPost2010Prop31
280
     0
102
RTVSPost2010PropOp31
 70
     1
102
RTVSPost2010Prop32
280
     0
102
RTVSPost2010PropOp32
 70
     1
102
RTVSPost2010Prop33
280
     0
102
RTVSPost2010PropOp33
 70
     1
102
RTVSPost2010Prop34
280
     0
102
RTVSPost2010PropOp34
 70
     1
102
RTVSPost2010Prop35
280
     0
102
RTVSPost2010PropOp35
 70
     1
102
RTVSPost2010Prop36
280
     0
102
RTVSPost2010PropOp36
 70
     1
102
RTVSPost2010Prop37
 90
       50
102
RTVSPost2010PropOp37
 70
     1
102
RTVSPost2010Prop38
140
0.0
102
RTVSPost2010PropOp38
 70
     1
102
RTVSPost2010Prop39
140
1.0
102
RTVSPost2010PropOp39
 70
     1
102
RTVSPost2010Prop40
 90
        0
102
RTVSPost2010PropOp40
 70
     1
102
RTVSPost2010Prop41ColorIndex
 90
       18
102
RTVSPost2010Prop41ColorRGB
 90
        0
102
RTVSPost2010PropOp41
 70
     1
102
RTVSPost2010Prop42
 90
       50
102
RTVSPost2010PropOp42
 70
     1
102
RTVSPost2010Prop43
 90
        3
102
RTVSPost2010PropOp43
 70
     1
102
RTVSPost2010Prop44ColorIndex
 90
        5
102
RTVSPost2010Prop44ColorRGB
 90
      255
102
RTVSPost2010PropOp44
 70
     1
102
RTVSPost2010Prop45
280
     0
102
RTVSPost2010PropOp45
 70
     1
102
RTVSPost2010Prop46
 90
       50
102
RTVSPost2010PropOp46
 70
     1
102
RTVSPost2010Prop47
 90
       50
102
RTVSPost2010PropOp47
 70
     1
102
RTVSPost2010Prop48
 90
       50
102
RTVSPost2010PropOp48
 70
     1
102
RTVSPost2010Prop49
280
     0
102
RTVSPost2010PropOp49
 70
     1
102
RTVSPost2010Prop50
 90
       50
102
RTVSPost2010PropOp50
 70
     1
102
RTVSPost2010Prop51ColorIndex
 90
      256
102
RTVSPost2010Prop51ColorRGB
 90
-16777216
102
RTVSPost2010PropOp51
 70
     0
102
RTVSPost2010Prop52
140
1.0
102
RTVSPost2010PropOp52
 70
     0
102
RTVSPost2010Prop53
 90
        2
102
RTVSPost2010PropOp53
 70
     1
102
RTVSPost2010Prop54
  1
strokes_ogs.tif
102
RTVSPost2010PropOp54
 70
     1
102
RTVSPost2010Prop55
280
     0
102
RTVSPost2010PropOp55
 70
     1
102
RTVSPost2010Prop56
140
1.0
102
RTVSPost2010PropOp56
 70
     1
102
RTVSPost2010Prop57
140
1.0
102
RTVSPost2010PropOp57
 70
     1
102
RTVSPropertyOp0
 70
     1
102
RTVSPropertyOp1
 70
     1
102
RTVSPropertyOp2
 70
     1
102
RTVSPropertyOp3
 70
     1
102
RTVSPropertyOp4
 70
     1
102
RTVSPropertyOp5
 70
     1
102
RTVSPropertyOp6
 70
     1
102
RTVSPropertyOp7
 70
     1
102
RTVSPropertyOp8
 70
     1
102
RTVSPropertyOp9
 70
     1
102
RTVSPropertyOp10
 70
     1
102
RTVSPropertyOp11
 70
     1
102
RTVSPropertyOp12
 70
     1
102
RTVSPropertyOp13
 70
     1
102
RTVSPropertyOp14
 70
     1
102
RTVSPropertyOp15
 70
     1
102
RTVSPropertyOp16
 70
     1
102
RTVSPropertyOp17
 70
     1
102
RTVSPropertyOp18
 70
     1
102
RTVSPropertyOp19
 70
     1
102
RTVSPropertyOp20
 70
     1
102
RTVSPropertyOp21
 70
     1
102
RTVSPropertyOp22
 70
     1
102
RTVSPropertyOp23
 70
     1
102
RTVSPropertyOp24
 70
     1
102
RTVSPropertyOp25
 70
     1
102
RTVSPropertyOp26
 70
     1
102
RTVSPropertyOp27
 70
     1
102
RTVSPropertyOp28
 70
     1
102
RTVSPropertyOp29
 70
     1
102
RTVSPropertyOp30
 70
     1
102
RTVSPropertyOp31
 70
     1
102
RTVSPropertyOp32
 70
     1
102
RTVSPropertyOp33
 70
     1
102
RTVSPropertyOp34
 70
     1
102
RTVSPropertyOp35
 70
     1
102
RTVSPropertyOp36
 70
     1
102
RTVSPropertyOp37
 70
     1
102
RTVSPropertyOp38
 70
     1
102
RTVSPropertyOp39
 70
     1
102
RTVSPropertyOp40
 70
     1
102
RTVSPropertyOp41
 70
     1
102
RTVSPropertyOp42
 70
     1
102
RTVSPropertyOp43
 70
     1
102
RTVSPropertyOp44
 70
     1
102
RTVSPropertyOp45
 70
     1
102
RTVSPropertyOp46
 70
     1
102
RTVSPropertyOp47
 70
     1
102
RTVSPropertyOp48
 70
     1
102
RTVSPropertyOp49
 70
     1
102
RTVSPropertyOp50
 70
     1
102
RTVSPropertyOp51
 70
     0
102
RTVSPropertyOp52
 70
     0
102
RTVSPropertyOp53
 70
     1
102
RTVSPropertyOp54
 70
     1
102
RTVSPropertyOp55
 70
     1
102
RTVSPropertyOp56
 70
     1
102
RTVSPropertyOp57
 70
     1
102
RTVSPropertyOp58
 70
     1
102
RTVSPropertyOp59
 70
     1
102
RTVSPropertyOp60
 70
     1
102
RTVSPropertyOp61
 70
     1
102
RTVSPropertyOp62
 70
     1
  0
XRECORD
  5
761
102
{ACAD_REACTORS
330
760
102
}
330
760
100
AcDbXrecord
280
     1
102
RTVSPost2010Prop28
280
     0
102
RTVSPost2010PropOp28
 70
     1
102
RTVSPost2010Prop29
280
     1
102
RTVSPost2010PropOp29
 70
     1
102
RTVSPost2010Prop30
280
     1
102
RTVSPost2010PropOp30
 70
     1
102
RTVSPost2010Prop31
280
     0
102
RTVSPost2010PropOp31
 70
     1
102
RTVSPost2010Prop32
280
     0
102
RTVSPost2010PropOp32
 70
     1
102
RTVSPost2010Prop33
280
     0
102
RTVSPost2010PropOp33
 70
     1
102
RTVSPost2010Prop34
280
     0
102
RTVSPost2010PropOp34
 70
     1
102
RTVSPost2010Prop35
280
     0
102
RTVSPost2010PropOp35
 70
     1
102
RTVSPost2010Prop36
280
     0
102
RTVSPost2010PropOp36
 70
     1
102
RTVSPost2010Prop37
 90
       50
102
RTVSPost2010PropOp37
 70
     1
102
RTVSPost2010Prop38
140
0.0
102
RTVSPost2010PropOp38
 70
     1
102
RTVSPost2010Prop39
140
1.0
102
RTVSPost2010PropOp39
 70
     1
102
RTVSPost2010Prop40
 90
        0
102
RTVSPost2010PropOp40
 70
     1
102
RTVSPost2010Prop41ColorIndex
 90
       18
102
RTVSPost2010Prop41ColorRGB
 90
        0
102
RTVSPost2010PropOp41
 70
     1
102
RTVSPost2010Prop42
 90
       50
102
RTVSPost2010PropOp42
 70
     1
102
RTVSPost2010Prop43
 90
        3
102
RTVSPost2010PropOp43
 70
     1
102
RTVSPost2010Prop44ColorIndex
 90
        5
102
RTVSPost2010Prop44ColorRGB
 90
      255
102
RTVSPost2010PropOp44
 70
     1
102
RTVSPost2010Prop45
280
     0
102
RTVSPost2010PropOp45
 70
     1
102
RTVSPost2010Prop46
 90
       50
102
RTVSPost2010PropOp46
 70
     1
102
RTVSPost2010Prop47
 90
       50
102
RTVSPost2010PropOp47
 70
     1
102
RTVSPost2010Prop48
 90
       50
102
RTVSPost2010PropOp48
 70
     1
102
RTVSPost2010Prop49
280
     0
102
RTVSPost2010PropOp49
 70
     1
102
RTVSPost2010Prop50
 90
       50
102
RTVSPost2010PropOp50
 70
     1
102
RTVSPost2010Prop51ColorIndex
 90
      256
102
RTVSPost2010Prop51ColorRGB
 90
-16777216
102
RTVSPost2010PropOp51
 70
     0
102
RTVSPost2010Prop52
140
1.0
102
RTVSPost2010PropOp52
 70
     0
102
RTVSPost2010Prop53
 90
        2
102
RTVSPost2010PropOp53
 70
     1
102
RTVSPost2010Prop54
  1
strokes_ogs.tif
102
RTVSPost2010PropOp54
 70
     1
102
RTVSPost2010Prop55
280
     0
102
RTVSPost2010PropOp55
 70
     1
102
RTVSPost2010Prop56
140
1.0
102
RTVSPost2010PropOp56
 70
     1
102
RTVSPost2010Prop57
140
1.0
102
RTVSPost2010PropOp57
 70
     1
102
RTVSPropertyOp0
 70
     1
102
RTVSPropertyOp1
 70
     1
102
RTVSPropertyOp2
 70
     1
102
RTVSPropertyOp3
 70
     1
102
RTVSPropertyOp4
 70
     1
102
RTVSPropertyOp5
 70
     1
102
RTVSPropertyOp6
 70
     1
102
RTVSPropertyOp7
 70
     1
102
RTVSPropertyOp8
 70
     1
102
RTVSPropertyOp9
 70
     1
102
RTVSPropertyOp10
 70
     1
102
RTVSPropertyOp11
 70
     1
102
RTVSPropertyOp12
 70
     1
102
RTVSPropertyOp13
 70
     1
102
RTVSPropertyOp14
 70
     1
102
RTVSPropertyOp15
 70
     1
102
RTVSPropertyOp16
 70
     1
102
RTVSPropertyOp17
 70
     1
102
RTVSPropertyOp18
 70
     1
102
RTVSPropertyOp19
 70
     1
102
RTVSPropertyOp20
 70
     1
102
RTVSPropertyOp21
 70
     1
102
RTVSPropertyOp22
 70
     1
102
RTVSPropertyOp23
 70
     1
102
RTVSPropertyOp24
 70
     1
102
RTVSPropertyOp25
 70
     1
102
RTVSPropertyOp26
 70
     1
102
RTVSPropertyOp27
 70
     1
102
RTVSPropertyOp28
 70
     1
102
RTVSPropertyOp29
 70
     1
102
RTVSPropertyOp30
 70
     1
102
RTVSPropertyOp31
 70
     1
102
RTVSPropertyOp32
 70
     1
102
RTVSPropertyOp33
 70
     1
102
RTVSPropertyOp34
 70
     1
102
RTVSPropertyOp35
 70
     1
102
RTVSPropertyOp36
 70
     1
102
RTVSPropertyOp37
 70
     1
102
RTVSPropertyOp38
 70
     1
102
RTVSPropertyOp39
 70
     1
102
RTVSPropertyOp40
 70
     1
102
RTVSPropertyOp41
 70
     1
102
RTVSPropertyOp42
 70
     1
102
RTVSPropertyOp43
 70
     1
102
RTVSPropertyOp44
 70
     1
102
RTVSPropertyOp45
 70
     1
102
RTVSPropertyOp46
 70
     1
102
RTVSPropertyOp47
 70
     1
102
RTVSPropertyOp48
 70
     1
102
RTVSPropertyOp49
 70
     1
102
RTVSPropertyOp50
 70
     1
102
RTVSPropertyOp51
 70
     0
102
RTVSPropertyOp52
 70
     0
102
RTVSPropertyOp53
 70
     1
102
RTVSPropertyOp54
 70
     1
102
RTVSPropertyOp55
 70
     1
102
RTVSPropertyOp56
 70
     1
102
RTVSPropertyOp57
 70
     1
102
RTVSPropertyOp58
 70
     1
102
RTVSPropertyOp59
 70
     1
102
RTVSPropertyOp60
 70
     1
102
RTVSPropertyOp61
 70
     1
102
RTVSPropertyOp62
 70
     1
  0
XRECORD
  5
75B
102
{ACAD_REACTORS
330
75A
102
}
330
75A
100
AcDbXrecord
280
     1
102
RTVSPost2010Prop28
280
     0
102
RTVSPost2010PropOp28
 70
     1
102
RTVSPost2010Prop29
280
     1
102
RTVSPost2010PropOp29
 70
     1
102
RTVSPost2010Prop30
280
     1
102
RTVSPost2010PropOp30
 70
     1
102
RTVSPost2010Prop31
280
     0
102
RTVSPost2010PropOp31
 70
     1
102
RTVSPost2010Prop32
280
     0
102
RTVSPost2010PropOp32
 70
     1
102
RTVSPost2010Prop33
280
     0
102
RTVSPost2010PropOp33
 70
     1
102
RTVSPost2010Prop34
280
     0
102
RTVSPost2010PropOp34
 70
     1
102
RTVSPost2010Prop35
280
     0
102
RTVSPost2010PropOp35
 70
     1
102
RTVSPost2010Prop36
280
     0
102
RTVSPost2010PropOp36
 70
     1
102
RTVSPost2010Prop37
 90
       50
102
RTVSPost2010PropOp37
 70
     1
102
RTVSPost2010Prop38
140
0.0
102
RTVSPost2010PropOp38
 70
     1
102
RTVSPost2010Prop39
140
1.0
102
RTVSPost2010PropOp39
 70
     1
102
RTVSPost2010Prop40
 90
        0
102
RTVSPost2010PropOp40
 70
     1
102
RTVSPost2010Prop41ColorIndex
 90
       18
102
RTVSPost2010Prop41ColorRGB
 90
        0
102
RTVSPost2010PropOp41
 70
     1
102
RTVSPost2010Prop42
 90
       50
102
RTVSPost2010PropOp42
 70
     1
102
RTVSPost2010Prop43
 90
        3
102
RTVSPost2010PropOp43
 70
     1
102
RTVSPost2010Prop44ColorIndex
 90
        5
102
RTVSPost2010Prop44ColorRGB
 90
      255
102
RTVSPost2010PropOp44
 70
     1
102
RTVSPost2010Prop45
280
     0
102
RTVSPost2010PropOp45
 70
     1
102
RTVSPost2010Prop46
 90
       50
102
RTVSPost2010PropOp46
 70
     1
102
RTVSPost2010Prop47
 90
       50
102
RTVSPost2010PropOp47
 70
     1
102
RTVSPost2010Prop48
 90
       50
102
RTVSPost2010PropOp48
 70
     1
102
RTVSPost2010Prop49
280
     0
102
RTVSPost2010PropOp49
 70
     1
102
RTVSPost2010Prop50
 90
       50
102
RTVSPost2010PropOp50
 70
     1
102
RTVSPost2010Prop51ColorIndex
 90
      256
102
RTVSPost2010Prop51ColorRGB
 90
-16777216
102
RTVSPost2010PropOp51
 70
     0
102
RTVSPost2010Prop52
140
1.0
102
RTVSPost2010PropOp52
 70
     0
102
RTVSPost2010Prop53
 90
        2
102
RTVSPost2010PropOp53
 70
     1
102
RTVSPost2010Prop54
  1
strokes_ogs.tif
102
RTVSPost2010PropOp54
 70
     1
102
RTVSPost2010Prop55
280
     0
102
RTVSPost2010PropOp55
 70
     1
102
RTVSPost2010Prop56
140
1.0
102
RTVSPost2010PropOp56
 70
     1
102
RTVSPost2010Prop57
140
1.0
102
RTVSPost2010PropOp57
 70
     1
102
RTVSPropertyOp0
 70
     1
102
RTVSPropertyOp1
 70
     1
102
RTVSPropertyOp2
 70
     1
102
RTVSPropertyOp3
 70
     1
102
RTVSPropertyOp4
 70
     1
102
RTVSPropertyOp5
 70
     1
102
RTVSPropertyOp6
 70
     1
102
RTVSPropertyOp7
 70
     1
102
RTVSPropertyOp8
 70
     1
102
RTVSPropertyOp9
 70
     1
102
RTVSPropertyOp10
 70
     1
102
RTVSPropertyOp11
 70
     1
102
RTVSPropertyOp12
 70
     1
102
RTVSPropertyOp13
 70
     1
102
RTVSPropertyOp14
 70
     1
102
RTVSPropertyOp15
 70
     1
102
RTVSPropertyOp16
 70
     1
102
RTVSPropertyOp17
 70
     1
102
RTVSPropertyOp18
 70
     1
102
RTVSPropertyOp19
 70
     1
102
RTVSPropertyOp20
 70
     1
102
RTVSPropertyOp21
 70
     1
102
RTVSPropertyOp22
 70
     1
102
RTVSPropertyOp23
 70
     1
102
RTVSPropertyOp24
 70
     1
102
RTVSPropertyOp25
 70
     1
102
RTVSPropertyOp26
 70
     1
102
RTVSPropertyOp27
 70
     1
102
RTVSPropertyOp28
 70
     1
102
RTVSPropertyOp29
 70
     1
102
RTVSPropertyOp30
 70
     1
102
RTVSPropertyOp31
 70
     1
102
RTVSPropertyOp32
 70
     1
102
RTVSPropertyOp33
 70
     1
102
RTVSPropertyOp34
 70
     1
102
RTVSPropertyOp35
 70
     1
102
RTVSPropertyOp36
 70
     1
102
RTVSPropertyOp37
 70
     1
102
RTVSPropertyOp38
 70
     1
102
RTVSPropertyOp39
 70
     1
102
RTVSPropertyOp40
 70
     1
102
RTVSPropertyOp41
 70
     1
102
RTVSPropertyOp42
 70
     1
102
RTVSPropertyOp43
 70
     1
102
RTVSPropertyOp44
 70
     1
102
RTVSPropertyOp45
 70
     1
102
RTVSPropertyOp46
 70
     1
102
RTVSPropertyOp47
 70
     1
102
RTVSPropertyOp48
 70
     1
102
RTVSPropertyOp49
 70
     1
102
RTVSPropertyOp50
 70
     1
102
RTVSPropertyOp51
 70
     0
102
RTVSPropertyOp52
 70
     0
102
RTVSPropertyOp53
 70
     1
102
RTVSPropertyOp54
 70
     1
102
RTVSPropertyOp55
 70
     1
102
RTVSPropertyOp56
 70
     1
102
RTVSPropertyOp57
 70
     1
102
RTVSPropertyOp58
 70
     1
102
RTVSPropertyOp59
 70
     1
102
RTVSPropertyOp60
 70
     1
102
RTVSPropertyOp61
 70
     1
102
RTVSPropertyOp62
 70
     1
  0
XRECORD
  5
75D
102
{ACAD_REACTORS
330
75C
102
}
330
75C
100
AcDbXrecord
280
     1
102
RTVSPost2010Prop28
280
     0
102
RTVSPost2010PropOp28
 70
     1
102
RTVSPost2010Prop29
280
     1
102
RTVSPost2010PropOp29
 70
     1
102
RTVSPost2010Prop30
280
     1
102
RTVSPost2010PropOp30
 70
     1
102
RTVSPost2010Prop31
280
     0
102
RTVSPost2010PropOp31
 70
     1
102
RTVSPost2010Prop32
280
     0
102
RTVSPost2010PropOp32
 70
     1
102
RTVSPost2010Prop33
280
     0
102
RTVSPost2010PropOp33
 70
     1
102
RTVSPost2010Prop34
280
     0
102
RTVSPost2010PropOp34
 70
     1
102
RTVSPost2010Prop35
280
     0
102
RTVSPost2010PropOp35
 70
     1
102
RTVSPost2010Prop36
280
     0
102
RTVSPost2010PropOp36
 70
     1
102
RTVSPost2010Prop37
 90
       50
102
RTVSPost2010PropOp37
 70
     1
102
RTVSPost2010Prop38
140
0.0
102
RTVSPost2010PropOp38
 70
     1
102
RTVSPost2010Prop39
140
1.0
102
RTVSPost2010PropOp39
 70
     1
102
RTVSPost2010Prop40
 90
        0
102
RTVSPost2010PropOp40
 70
     1
102
RTVSPost2010Prop41ColorIndex
 90
       18
102
RTVSPost2010Prop41ColorRGB
 90
        0
102
RTVSPost2010PropOp41
 70
     1
102
RTVSPost2010Prop42
 90
       50
102
RTVSPost2010PropOp42
 70
     1
102
RTVSPost2010Prop43
 90
        3
102
RTVSPost2010PropOp43
 70
     1
102
RTVSPost2010Prop44ColorIndex
 90
        5
102
RTVSPost2010Prop44ColorRGB
 90
      255
102
RTVSPost2010PropOp44
 70
     1
102
RTVSPost2010Prop45
280
     0
102
RTVSPost2010PropOp45
 70
     1
102
RTVSPost2010Prop46
 90
       50
102
RTVSPost2010PropOp46
 70
     1
102
RTVSPost2010Prop47
 90
       50
102
RTVSPost2010PropOp47
 70
     1
102
RTVSPost2010Prop48
 90
       50
102
RTVSPost2010PropOp48
 70
     1
102
RTVSPost2010Prop49
280
     0
102
RTVSPost2010PropOp49
 70
     1
102
RTVSPost2010Prop50
 90
       50
102
RTVSPost2010PropOp50
 70
     1
102
RTVSPost2010Prop51ColorIndex
 90
      256
102
RTVSPost2010Prop51ColorRGB
 90
-16777216
102
RTVSPost2010PropOp51
 70
     0
102
RTVSPost2010Prop52
140
1.0
102
RTVSPost2010PropOp52
 70
     0
102
RTVSPost2010Prop53
 90
        2
102
RTVSPost2010PropOp53
 70
     1
102
RTVSPost2010Prop54
  1
strokes_ogs.tif
102
RTVSPost2010PropOp54
 70
     1
102
RTVSPost2010Prop55
280
     0
102
RTVSPost2010PropOp55
 70
     1
102
RTVSPost2010Prop56
140
1.0
102
RTVSPost2010PropOp56
 70
     1
102
RTVSPost2010Prop57
140
1.0
102
RTVSPost2010PropOp57
 70
     1
102
RTVSPropertyOp0
 70
     1
102
RTVSPropertyOp1
 70
     1
102
RTVSPropertyOp2
 70
     1
102
RTVSPropertyOp3
 70
     1
102
RTVSPropertyOp4
 70
     1
102
RTVSPropertyOp5
 70
     1
102
RTVSPropertyOp6
 70
     1
102
RTVSPropertyOp7
 70
     1
102
RTVSPropertyOp8
 70
     1
102
RTVSPropertyOp9
 70
     1
102
RTVSPropertyOp10
 70
     1
102
RTVSPropertyOp11
 70
     1
102
RTVSPropertyOp12
 70
     1
102
RTVSPropertyOp13
 70
     1
102
RTVSPropertyOp14
 70
     1
102
RTVSPropertyOp15
 70
     1
102
RTVSPropertyOp16
 70
     1
102
RTVSPropertyOp17
 70
     1
102
RTVSPropertyOp18
 70
     1
102
RTVSPropertyOp19
 70
     1
102
RTVSPropertyOp20
 70
     1
102
RTVSPropertyOp21
 70
     1
102
RTVSPropertyOp22
 70
     1
102
RTVSPropertyOp23
 70
     1
102
RTVSPropertyOp24
 70
     1
102
RTVSPropertyOp25
 70
     1
102
RTVSPropertyOp26
 70
     1
102
RTVSPropertyOp27
 70
     1
102
RTVSPropertyOp28
 70
     1
102
RTVSPropertyOp29
 70
     1
102
RTVSPropertyOp30
 70
     1
102
RTVSPropertyOp31
 70
     1
102
RTVSPropertyOp32
 70
     1
102
RTVSPropertyOp33
 70
     1
102
RTVSPropertyOp34
 70
     1
102
RTVSPropertyOp35
 70
     1
102
RTVSPropertyOp36
 70
     1
102
RTVSPropertyOp37
 70
     1
102
RTVSPropertyOp38
 70
     1
102
RTVSPropertyOp39
 70
     1
102
RTVSPropertyOp40
 70
     1
102
RTVSPropertyOp41
 70
     1
102
RTVSPropertyOp42
 70
     1
102
RTVSPropertyOp43
 70
     1
102
RTVSPropertyOp44
 70
     1
102
RTVSPropertyOp45
 70
     1
102
RTVSPropertyOp46
 70
     1
102
RTVSPropertyOp47
 70
     1
102
RTVSPropertyOp48
 70
     1
102
RTVSPropertyOp49
 70
     1
102
RTVSPropertyOp50
 70
     1
102
RTVSPropertyOp51
 70
     0
102
RTVSPropertyOp52
 70
     0
102
RTVSPropertyOp53
 70
     1
102
RTVSPropertyOp54
 70
     1
102
RTVSPropertyOp55
 70
     1
102
RTVSPropertyOp56
 70
     1
102
RTVSPropertyOp57
 70
     1
102
RTVSPropertyOp58
 70
     1
102
RTVSPropertyOp59
 70
     1
102
RTVSPropertyOp60
 70
     1
102
RTVSPropertyOp61
 70
     1
102
RTVSPropertyOp62
 70
     1
  0
XRECORD
  5
753
102
{ACAD_REACTORS
330
752
102
}
330
752
100
AcDbXrecord
280
     1
102
RTVSPost2010Prop28
280
     0
102
RTVSPost2010PropOp28
 70
     1
102
RTVSPost2010Prop29
280
     1
102
RTVSPost2010PropOp29
 70
     1
102
RTVSPost2010Prop30
280
     1
102
RTVSPost2010PropOp30
 70
     1
102
RTVSPost2010Prop31
280
     0
102
RTVSPost2010PropOp31
 70
     1
102
RTVSPost2010Prop32
280
     0
102
RTVSPost2010PropOp32
 70
     1
102
RTVSPost2010Prop33
280
     0
102
RTVSPost2010PropOp33
 70
     1
102
RTVSPost2010Prop34
280
     0
102
RTVSPost2010PropOp34
 70
     1
102
RTVSPost2010Prop35
280
     0
102
RTVSPost2010PropOp35
 70
     1
102
RTVSPost2010Prop36
280
     0
102
RTVSPost2010PropOp36
 70
     1
102
RTVSPost2010Prop37
 90
       50
102
RTVSPost2010PropOp37
 70
     1
102
RTVSPost2010Prop38
140
0.0
102
RTVSPost2010PropOp38
 70
     1
102
RTVSPost2010Prop39
140
1.0
102
RTVSPost2010PropOp39
 70
     1
102
RTVSPost2010Prop40
 90
        0
102
RTVSPost2010PropOp40
 70
     1
102
RTVSPost2010Prop41ColorIndex
 90
       18
102
RTVSPost2010Prop41ColorRGB
 90
        0
102
RTVSPost2010PropOp41
 70
     1
102
RTVSPost2010Prop42
 90
       50
102
RTVSPost2010PropOp42
 70
     1
102
RTVSPost2010Prop43
 90
        3
102
RTVSPost2010PropOp43
 70
     1
102
RTVSPost2010Prop44ColorIndex
 90
        5
102
RTVSPost2010Prop44ColorRGB
 90
      255
102
RTVSPost2010PropOp44
 70
     1
102
RTVSPost2010Prop45
280
     0
102
RTVSPost2010PropOp45
 70
     1
102
RTVSPost2010Prop46
 90
       50
102
RTVSPost2010PropOp46
 70
     1
102
RTVSPost2010Prop47
 90
       50
102
RTVSPost2010PropOp47
 70
     1
102
RTVSPost2010Prop48
 90
       50
102
RTVSPost2010PropOp48
 70
     1
102
RTVSPost2010Prop49
280
     0
102
RTVSPost2010PropOp49
 70
     1
102
RTVSPost2010Prop50
 90
       50
102
RTVSPost2010PropOp50
 70
     1
102
RTVSPost2010Prop51ColorIndex
 90
      256
102
RTVSPost2010Prop51ColorRGB
 90
-16777216
102
RTVSPost2010PropOp51
 70
     0
102
RTVSPost2010Prop52
140
1.0
102
RTVSPost2010PropOp52
 70
     0
102
RTVSPost2010Prop53
 90
        2
102
RTVSPost2010PropOp53
 70
     1
102
RTVSPost2010Prop54
  1
strokes_ogs.tif
102
RTVSPost2010PropOp54
 70
     1
102
RTVSPost2010Prop55
280
     0
102
RTVSPost2010PropOp55
 70
     1
102
RTVSPost2010Prop56
140
1.0
102
RTVSPost2010PropOp56
 70
     1
102
RTVSPost2010Prop57
140
1.0
102
RTVSPost2010PropOp57
 70
     1
102
RTVSPropertyOp0
 70
     1
102
RTVSPropertyOp1
 70
     1
102
RTVSPropertyOp2
 70
     1
102
RTVSPropertyOp3
 70
     1
102
RTVSPropertyOp4
 70
     1
102
RTVSPropertyOp5
 70
     1
102
RTVSPropertyOp6
 70
     1
102
RTVSPropertyOp7
 70
     1
102
RTVSPropertyOp8
 70
     1
102
RTVSPropertyOp9
 70
     1
102
RTVSPropertyOp10
 70
     1
102
RTVSPropertyOp11
 70
     1
102
RTVSPropertyOp12
 70
     1
102
RTVSPropertyOp13
 70
     1
102
RTVSPropertyOp14
 70
     1
102
RTVSPropertyOp15
 70
     1
102
RTVSPropertyOp16
 70
     1
102
RTVSPropertyOp17
 70
     1
102
RTVSPropertyOp18
 70
     1
102
RTVSPropertyOp19
 70
     1
102
RTVSPropertyOp20
 70
     1
102
RTVSPropertyOp21
 70
     1
102
RTVSPropertyOp22
 70
     1
102
RTVSPropertyOp23
 70
     1
102
RTVSPropertyOp24
 70
     1
102
RTVSPropertyOp25
 70
     1
102
RTVSPropertyOp26
 70
     1
102
RTVSPropertyOp27
 70
     1
102
RTVSPropertyOp28
 70
     1
102
RTVSPropertyOp29
 70
     1
102
RTVSPropertyOp30
 70
     1
102
RTVSPropertyOp31
 70
     1
102
RTVSPropertyOp32
 70
     1
102
RTVSPropertyOp33
 70
     1
102
RTVSPropertyOp34
 70
     1
102
RTVSPropertyOp35
 70
     1
102
RTVSPropertyOp36
 70
     1
102
RTVSPropertyOp37
 70
     1
102
RTVSPropertyOp38
 70
     1
102
RTVSPropertyOp39
 70
     1
102
RTVSPropertyOp40
 70
     1
102
RTVSPropertyOp41
 70
     1
102
RTVSPropertyOp42
 70
     1
102
RTVSPropertyOp43
 70
     1
102
RTVSPropertyOp44
 70
     1
102
RTVSPropertyOp45
 70
     1
102
RTVSPropertyOp46
 70
     1
102
RTVSPropertyOp47
 70
     1
102
RTVSPropertyOp48
 70
     1
102
RTVSPropertyOp49
 70
     1
102
RTVSPropertyOp50
 70
     1
102
RTVSPropertyOp51
 70
     0
102
RTVSPropertyOp52
 70
     0
102
RTVSPropertyOp53
 70
     1
102
RTVSPropertyOp54
 70
     1
102
RTVSPropertyOp55
 70
     1
102
RTVSPropertyOp56
 70
     1
102
RTVSPropertyOp57
 70
     1
102
RTVSPropertyOp58
 70
     1
102
RTVSPropertyOp59
 70
     1
102
RTVSPropertyOp60
 70
     1
102
RTVSPropertyOp61
 70
     1
102
RTVSPropertyOp62
 70
     1
  0
XRECORD
  5
747
102
{ACAD_REACTORS
330
746
102
}
330
746
100
AcDbXrecord
280
     1
102
RTVSPost2010Prop28
280
     0
102
RTVSPost2010PropOp28
 70
     1
102
RTVSPost2010Prop29
280
     1
102
RTVSPost2010PropOp29
 70
     1
102
RTVSPost2010Prop30
280
     1
102
RTVSPost2010PropOp30
 70
     1
102
RTVSPost2010Prop31
280
     0
102
RTVSPost2010PropOp31
 70
     1
102
RTVSPost2010Prop32
280
     0
102
RTVSPost2010PropOp32
 70
     1
102
RTVSPost2010Prop33
280
     0
102
RTVSPost2010PropOp33
 70
     1
102
RTVSPost2010Prop34
280
     0
102
RTVSPost2010PropOp34
 70
     1
102
RTVSPost2010Prop35
280
     0
102
RTVSPost2010PropOp35
 70
     1
102
RTVSPost2010Prop36
280
     0
102
RTVSPost2010PropOp36
 70
     1
102
RTVSPost2010Prop37
 90
       50
102
RTVSPost2010PropOp37
 70
     1
102
RTVSPost2010Prop38
140
0.0
102
RTVSPost2010PropOp38
 70
     1
102
RTVSPost2010Prop39
140
1.0
102
RTVSPost2010PropOp39
 70
     1
102
RTVSPost2010Prop40
 90
        0
102
RTVSPost2010PropOp40
 70
     1
102
RTVSPost2010Prop41ColorIndex
 90
       18
102
RTVSPost2010Prop41ColorRGB
 90
        0
102
RTVSPost2010PropOp41
 70
     1
102
RTVSPost2010Prop42
 90
       50
102
RTVSPost2010PropOp42
 70
     1
102
RTVSPost2010Prop43
 90
        3
102
RTVSPost2010PropOp43
 70
     1
102
RTVSPost2010Prop44ColorIndex
 90
        5
102
RTVSPost2010Prop44ColorRGB
 90
      255
102
RTVSPost2010PropOp44
 70
     1
102
RTVSPost2010Prop45
280
     0
102
RTVSPost2010PropOp45
 70
     1
102
RTVSPost2010Prop46
 90
       50
102
RTVSPost2010PropOp46
 70
     1
102
RTVSPost2010Prop47
 90
       50
102
RTVSPost2010PropOp47
 70
     1
102
RTVSPost2010Prop48
 90
       50
102
RTVSPost2010PropOp48
 70
     1
102
RTVSPost2010Prop49
280
     0
102
RTVSPost2010PropOp49
 70
     1
102
RTVSPost2010Prop50
 90
       50
102
RTVSPost2010PropOp50
 70
     1
102
RTVSPost2010Prop51ColorIndex
 90
      256
102
RTVSPost2010Prop51ColorRGB
 90
-16777216
102
RTVSPost2010PropOp51
 70
     0
102
RTVSPost2010Prop52
140
1.0
102
RTVSPost2010PropOp52
 70
     0
102
RTVSPost2010Prop53
 90
        2
102
RTVSPost2010PropOp53
 70
     1
102
RTVSPost2010Prop54
  1
strokes_ogs.tif
102
RTVSPost2010PropOp54
 70
     1
102
RTVSPost2010Prop55
280
     0
102
RTVSPost2010PropOp55
 70
     1
102
RTVSPost2010Prop56
140
1.0
102
RTVSPost2010PropOp56
 70
     1
102
RTVSPost2010Prop57
140
1.0
102
RTVSPost2010PropOp57
 70
     1
102
RTVSPropertyOp0
 70
     1
102
RTVSPropertyOp1
 70
     1
102
RTVSPropertyOp2
 70
     1
102
RTVSPropertyOp3
 70
     1
102
RTVSPropertyOp4
 70
     1
102
RTVSPropertyOp5
 70
     1
102
RTVSPropertyOp6
 70
     1
102
RTVSPropertyOp7
 70
     1
102
RTVSPropertyOp8
 70
     1
102
RTVSPropertyOp9
 70
     1
102
RTVSPropertyOp10
 70
     1
102
RTVSPropertyOp11
 70
     1
102
RTVSPropertyOp12
 70
     1
102
RTVSPropertyOp13
 70
     1
102
RTVSPropertyOp14
 70
     1
102
RTVSPropertyOp15
 70
     1
102
RTVSPropertyOp16
 70
     1
102
RTVSPropertyOp17
 70
     1
102
RTVSPropertyOp18
 70
     1
102
RTVSPropertyOp19
 70
     1
102
RTVSPropertyOp20
 70
     1
102
RTVSPropertyOp21
 70
     1
102
RTVSPropertyOp22
 70
     1
102
RTVSPropertyOp23
 70
     1
102
RTVSPropertyOp24
 70
     1
102
RTVSPropertyOp25
 70
     1
102
RTVSPropertyOp26
 70
     1
102
RTVSPropertyOp27
 70
     1
102
RTVSPropertyOp28
 70
     1
102
RTVSPropertyOp29
 70
     1
102
RTVSPropertyOp30
 70
     1
102
RTVSPropertyOp31
 70
     1
102
RTVSPropertyOp32
 70
     1
102
RTVSPropertyOp33
 70
     1
102
RTVSPropertyOp34
 70
     1
102
RTVSPropertyOp35
 70
     1
102
RTVSPropertyOp36
 70
     1
102
RTVSPropertyOp37
 70
     1
102
RTVSPropertyOp38
 70
     1
102
RTVSPropertyOp39
 70
     1
102
RTVSPropertyOp40
 70
     1
102
RTVSPropertyOp41
 70
     1
102
RTVSPropertyOp42
 70
     1
102
RTVSPropertyOp43
 70
     1
102
RTVSPropertyOp44
 70
     1
102
RTVSPropertyOp45
 70
     1
102
RTVSPropertyOp46
 70
     1
102
RTVSPropertyOp47
 70
     1
102
RTVSPropertyOp48
 70
     1
102
RTVSPropertyOp49
 70
     1
102
RTVSPropertyOp50
 70
     1
102
RTVSPropertyOp51
 70
     0
102
RTVSPropertyOp52
 70
     0
102
RTVSPropertyOp53
 70
     1
102
RTVSPropertyOp54
 70
     1
102
RTVSPropertyOp55
 70
     1
102
RTVSPropertyOp56
 70
     1
102
RTVSPropertyOp57
 70
     1
102
RTVSPropertyOp58
 70
     1
102
RTVSPropertyOp59
 70
     1
102
RTVSPropertyOp60
 70
     1
102
RTVSPropertyOp61
 70
     1
102
RTVSPropertyOp62
 70
     1
  0
XRECORD
  5
75F
102
{ACAD_REACTORS
330
75E
102
}
330
75E
100
AcDbXrecord
280
     1
102
RTVSPost2010Prop28
280
     0
102
RTVSPost2010PropOp28
 70
     1
102
RTVSPost2010Prop29
280
     1
102
RTVSPost2010PropOp29
 70
     1
102
RTVSPost2010Prop30
280
     1
102
RTVSPost2010PropOp30
 70
     1
102
RTVSPost2010Prop31
280
     0
102
RTVSPost2010PropOp31
 70
     1
102
RTVSPost2010Prop32
280
     0
102
RTVSPost2010PropOp32
 70
     1
102
RTVSPost2010Prop33
280
     0
102
RTVSPost2010PropOp33
 70
     1
102
RTVSPost2010Prop34
280
     0
102
RTVSPost2010PropOp34
 70
     1
102
RTVSPost2010Prop35
280
     0
102
RTVSPost2010PropOp35
 70
     1
102
RTVSPost2010Prop36
280
     0
102
RTVSPost2010PropOp36
 70
     1
102
RTVSPost2010Prop37
 90
       50
102
RTVSPost2010PropOp37
 70
     1
102
RTVSPost2010Prop38
140
0.0
102
RTVSPost2010PropOp38
 70
     1
102
RTVSPost2010Prop39
140
1.0
102
RTVSPost2010PropOp39
 70
     1
102
RTVSPost2010Prop40
 90
        0
102
RTVSPost2010PropOp40
 70
     1
102
RTVSPost2010Prop41ColorIndex
 90
       18
102
RTVSPost2010Prop41ColorRGB
 90
        0
102
RTVSPost2010PropOp41
 70
     1
102
RTVSPost2010Prop42
 90
       50
102
RTVSPost2010PropOp42
 70
     1
102
RTVSPost2010Prop43
 90
        3
102
RTVSPost2010PropOp43
 70
     1
102
RTVSPost2010Prop44ColorIndex
 90
        5
102
RTVSPost2010Prop44ColorRGB
 90
      255
102
RTVSPost2010PropOp44
 70
     1
102
RTVSPost2010Prop45
280
     0
102
RTVSPost2010PropOp45
 70
     1
102
RTVSPost2010Prop46
 90
       50
102
RTVSPost2010PropOp46
 70
     1
102
RTVSPost2010Prop47
 90
       50
102
RTVSPost2010PropOp47
 70
     1
102
RTVSPost2010Prop48
 90
       50
102
RTVSPost2010PropOp48
 70
     1
102
RTVSPost2010Prop49
280
     0
102
RTVSPost2010PropOp49
 70
     1
102
RTVSPost2010Prop50
 90
       50
102
RTVSPost2010PropOp50
 70
     1
102
RTVSPost2010Prop51ColorIndex
 90
      256
102
RTVSPost2010Prop51ColorRGB
 90
-16777216
102
RTVSPost2010PropOp51
 70
     0
102
RTVSPost2010Prop52
140
1.0
102
RTVSPost2010PropOp52
 70
     0
102
RTVSPost2010Prop53
 90
        2
102
RTVSPost2010PropOp53
 70
     1
102
RTVSPost2010Prop54
  1
strokes_ogs.tif
102
RTVSPost2010PropOp54
 70
     1
102
RTVSPost2010Prop55
280
     0
102
RTVSPost2010PropOp55
 70
     1
102
RTVSPost2010Prop56
140
1.0
102
RTVSPost2010PropOp56
 70
     1
102
RTVSPost2010Prop57
140
1.0
102
RTVSPost2010PropOp57
 70
     1
102
RTVSPropertyOp0
 70
     1
102
RTVSPropertyOp1
 70
     1
102
RTVSPropertyOp2
 70
     1
102
RTVSPropertyOp3
 70
     1
102
RTVSPropertyOp4
 70
     1
102
RTVSPropertyOp5
 70
     1
102
RTVSPropertyOp6
 70
     1
102
RTVSPropertyOp7
 70
     1
102
RTVSPropertyOp8
 70
     1
102
RTVSPropertyOp9
 70
     1
102
RTVSPropertyOp10
 70
     1
102
RTVSPropertyOp11
 70
     1
102
RTVSPropertyOp12
 70
     1
102
RTVSPropertyOp13
 70
     1
102
RTVSPropertyOp14
 70
     1
102
RTVSPropertyOp15
 70
     1
102
RTVSPropertyOp16
 70
     1
102
RTVSPropertyOp17
 70
     1
102
RTVSPropertyOp18
 70
     1
102
RTVSPropertyOp19
 70
     1
102
RTVSPropertyOp20
 70
     1
102
RTVSPropertyOp21
 70
     1
102
RTVSPropertyOp22
 70
     1
102
RTVSPropertyOp23
 70
     1
102
RTVSPropertyOp24
 70
     1
102
RTVSPropertyOp25
 70
     1
102
RTVSPropertyOp26
 70
     1
102
RTVSPropertyOp27
 70
     1
102
RTVSPropertyOp28
 70
     1
102
RTVSPropertyOp29
 70
     1
102
RTVSPropertyOp30
 70
     1
102
RTVSPropertyOp31
 70
     1
102
RTVSPropertyOp32
 70
     1
102
RTVSPropertyOp33
 70
     1
102
RTVSPropertyOp34
 70
     1
102
RTVSPropertyOp35
 70
     1
102
RTVSPropertyOp36
 70
     1
102
RTVSPropertyOp37
 70
     1
102
RTVSPropertyOp38
 70
     1
102
RTVSPropertyOp39
 70
     1
102
RTVSPropertyOp40
 70
     1
102
RTVSPropertyOp41
 70
     1
102
RTVSPropertyOp42
 70
     1
102
RTVSPropertyOp43
 70
     1
102
RTVSPropertyOp44
 70
     1
102
RTVSPropertyOp45
 70
     1
102
RTVSPropertyOp46
 70
     1
102
RTVSPropertyOp47
 70
     1
102
RTVSPropertyOp48
 70
     1
102
RTVSPropertyOp49
 70
     1
102
RTVSPropertyOp50
 70
     1
102
RTVSPropertyOp51
 70
     0
102
RTVSPropertyOp52
 70
     0
102
RTVSPropertyOp53
 70
     1
102
RTVSPropertyOp54
 70
     1
102
RTVSPropertyOp55
 70
     1
102
RTVSPropertyOp56
 70
     1
102
RTVSPropertyOp57
 70
     1
102
RTVSPropertyOp58
 70
     1
102
RTVSPropertyOp59
 70
     1
102
RTVSPropertyOp60
 70
     1
102
RTVSPropertyOp61
 70
     1
102
RTVSPropertyOp62
 70
     1
  0
ENDSEC
  0
EOF
