  0
SECTION
  2
HEADER
  9
$ACADVER
  1
AC1015
  9
$ACADMAINTVER
 70
    20
  9
$DWGCODEPAGE
  3
ANSI_1252
  9
$INSBASE
 10
0.0
 20
0.0
 30
0.0
  9
$EXTMIN
 10
-78582.82289895209
 20
-74886.51830939468
 30
0.0
  9
$EXTMAX
 10
-77589.69964137139
 20
-74416.74225461767
 30
0.0
  9
$LIMMIN
 10
0.0
 20
0.0
  9
$LIMMAX
 10
1189.0
 20
841.0
  9
$ORTHOMODE
 70
     1
  9
$REGENMODE
 70
     1
  9
$FILLMODE
 70
     1
  9
$QTEXTMODE
 70
     0
  9
$MIRRTEXT
 70
     1
  9
$LTSCALE
 40
1.0
  9
$ATTMODE
 70
     1
  9
$TEXTSIZE
 40
30.0
  9
$TRACEWID
 40
1.0
  9
$TEXTSTYLE
  7
ROMANS
  9
$CLAYER
  8
0
  9
$CELTYPE
  6
BYLAYER
  9
$CECOLOR
 62
   256
  9
$CELTSCALE
 40
1.0
  9
$DISPSILH
 70
     0
  9
$DIMSCALE
 40
1.0
  9
$DIMASZ
 40
30.0
  9
$DIMEXO
 40
0.0
  9
$DIMDLI
 40
3.75
  9
$DIMRND
 40
0.0
  9
$DIMDLE
 40
0.0
  9
$DIMEXE
 40
10.0
  9
$DIMTP
 40
0.0
  9
$DIMTM
 40
0.0
  9
$DIMTXT
 40
30.0
  9
$DIMCEN
 40
2.5
  9
$DIMTSZ
 40
0.0
  9
$DIMTOL
 70
     0
  9
$DIMLIM
 70
     0
  9
$DIMTIH
 70
     0
  9
$DIMTOH
 70
     0
  9
$DIMSE1
 70
     0
  9
$DIMSE2
 70
     0
  9
$DIMTAD
 70
     1
  9
$DIMZIN
 70
     0
  9
$DIMBLK
  1

  9
$DIMASO
 70
     1
  9
$DIMSHO
 70
     1
  9
$DIMPOST
  1

  9
$DIMAPOST
  1

  9
$DIMALT
 70
     0
  9
$DIMALTD
 70
     2
  9
$DIMALTF
 40
25.4
  9
$DIMLFAC
 40
1.0
  9
$DIMTOFL
 70
     1
  9
$DIMTVP
 40
0.0
  9
$DIMTIX
 70
     0
  9
$DIMSOXD
 70
     0
  9
$DIMSAH
 70
     0
  9
$DIMBLK1
  1

  9
$DIMBLK2
  1

  9
$DIMSTYLE
  2
STANDARD
  9
$DIMCLRD
 70
     0
  9
$DIMCLRE
 70
     0
  9
$DIMCLRT
 70
     0
  9
$DIMTFAC
 40
1.0
  9
$DIMGAP
 40
10.0
  9
$DIMJUST
 70
     0
  9
$DIMSD1
 70
     0
  9
$DIMSD2
 70
     0
  9
$DIMTOLJ
 70
     1
  9
$DIMTZIN
 70
     0
  9
$DIMALTZ
 70
     0
  9
$DIMALTTZ
 70
     0
  9
$DIMUPT
 70
     0
  9
$DIMDEC
 70
     0
  9
$DIMTDEC
 70
     0
  9
$DIMALTU
 70
     2
  9
$DIMALTTD
 70
     2
  9
$DIMTXSTY
  7
STANDARD
  9
$DIMAUNIT
 70
     0
  9
$DIMADEC
 70
     0
  9
$DIMALTRND
 40
0.0
  9
$DIMAZIN
 70
     0
  9
$DIMDSEP
 70
    46
  9
$DIMATFIT
 70
     3
  9
$DIMFRAC
 70
     0
  9
$DIMLDRBLK
  1

  9
$DIMLUNIT
 70
     2
  9
$DIMLWD
 70
    -2
  9
$DIMLWE
 70
    -2
  9
$DIMTMOVE
 70
     0
  9
$LUNITS
 70
     2
  9
$LUPREC
 70
     4
  9
$SKETCHINC
 40
1.0
  9
$FILLETRAD
 40
0.0
  9
$AUNITS
 70
     0
  9
$AUPREC
 70
     0
  9
$MENU
  1
C:\ACADR13\WIN\SUPPORT\ACADFULL
  9
$ELEVATION
 40
0.0
  9
$PELEVATION
 40
0.0
  9
$THICKNESS
 40
0.0
  9
$LIMCHECK
 70
     0
  9
$CHAMFERA
 40
10.0
  9
$CHAMFERB
 40
10.0
  9
$CHAMFERC
 40
0.0
  9
$CHAMFERD
 40
0.0
  9
$SKPOLY
 70
     0
  9
$TDCREATE
 40
2450382.434570139
  9
$TDUCREATE
 40
2450382.351236806
  9
$TDUPDATE
 40
2455058.420164792
  9
$TDUUPDATE
 40
2455058.336831458
  9
$TDINDWG
 40
0.7856574769
  9
$TDUSRTIMER
 40
0.7856560185
  9
$USRTIMER
 70
     1
  9
$ANGBASE
 50
0.0
  9
$ANGDIR
 70
     0
  9
$PDMODE
 70
     0
  9
$PDSIZE
 40
0.0
  9
$PLINEWID
 40
0.0
  9
$SPLFRAME
 70
     0
  9
$SPLINETYPE
 70
     6
  9
$SPLINESEGS
 70
     8
  9
$HANDSEED
  5
3CC08
  9
$SURFTAB1
 70
     6
  9
$SURFTAB2
 70
     6
  9
$SURFTYPE
 70
     6
  9
$SURFU
 70
     6
  9
$SURFV
 70
     6
  9
$UCSBASE
  2

  9
$UCSNAME
  2

  9
$UCSORG
 10
0.0
 20
0.0
 30
0.0
  9
$UCSXDIR
 10
1.0
 20
0.0
 30
0.0
  9
$UCSYDIR
 10
0.0
 20
1.0
 30
0.0
  9
$UCSORTHOREF
  2

  9
$UCSORTHOVIEW
 70
     0
  9
$UCSORGTOP
 10
0.0
 20
0.0
 30
0.0
  9
$UCSORGBOTTOM
 10
0.0
 20
0.0
 30
0.0
  9
$UCSORGLEFT
 10
0.0
 20
0.0
 30
0.0
  9
$UCSORGRIGHT
 10
0.0
 20
0.0
 30
0.0
  9
$UCSORGFRONT
 10
0.0
 20
0.0
 30
0.0
  9
$UCSORGBACK
 10
0.0
 20
0.0
 30
0.0
  9
$PUCSBASE
  2

  9
$PUCSNAME
  2

  9
$PUCSORG
 10
0.0
 20
0.0
 30
0.0
  9
$PUCSXDIR
 10
1.0
 20
0.0
 30
0.0
  9
$PUCSYDIR
 10
0.0
 20
1.0
 30
0.0
  9
$PUCSORTHOREF
  2

  9
$PUCSORTHOVIEW
 70
     0
  9
$PUCSORGTOP
 10
0.0
 20
0.0
 30
0.0
  9
$PUCSORGBOTTOM
 10
0.0
 20
0.0
 30
0.0
  9
$PUCSORGLEFT
 10
0.0
 20
0.0
 30
0.0
  9
$PUCSORGRIGHT
 10
0.0
 20
0.0
 30
0.0
  9
$PUCSORGFRONT
 10
0.0
 20
0.0
 30
0.0
  9
$PUCSORGBACK
 10
0.0
 20
0.0
 30
0.0
  9
$USERI1
 70
     0
  9
$USERI2
 70
     0
  9
$USERI3
 70
     0
  9
$USERI4
 70
     0
  9
$USERI5
 70
     0
  9
$USERR1
 40
0.0
  9
$USERR2
 40
0.0
  9
$USERR3
 40
0.0
  9
$USERR4
 40
0.0
  9
$USERR5
 40
0.0
  9
$WORLDVIEW
 70
     1
  9
$SHADEDGE
 70
     3
  9
$SHADEDIF
 70
    70
  9
$TILEMODE
 70
     1
  9
$MAXACTVP
 70
    16
  9
$PINSBASE
 10
0.0
 20
0.0
 30
0.0
  9
$PLIMCHECK
 70
     0
  9
$PEXTMIN
 10
12.55000000000001
 20
41.32999999999998
 30
0.0
  9
$PEXTMAX
 10
195.5499999999999
 20
284.67
 30
0.0
  9
$PLIMMIN
 10
-0.0980265521206203
 20
-3.678311471965383
  9
$PLIMMAX
 10
207.2988188848241
 20
289.6460551372062
  9
$UNITMODE
 70
     0
  9
$VISRETAIN
 70
     0
  9
$PLINEGEN
 70
     0
  9
$PSLTSCALE
 70
     1
  9
$TREEDEPTH
 70
  3020
  9
$CMLSTYLE
  2
STANDARD
  9
$CMLJUST
 70
     0
  9
$CMLSCALE
 40
1.0
  9
$PROXYGRAPHICS
 70
     1
  9
$MEASUREMENT
 70
     0
  9
$CELWEIGHT
370
    -1
  9
$ENDCAPS
280
     0
  9
$JOINSTYLE
280
     0
  9
$LWDISPLAY
290
     0
  9
$INSUNITS
 70
     0
  9
$HYPERLINKBASE
  1

  9
$STYLESHEET
  1

  9
$XEDIT
290
     1
  9
$CEPSNTYPE
380
     0
  9
$PSTYLEMODE
290
     1
  9
$FINGERPRINTGUID
  2
{408A79E2-F00F-47E2-9806-578BB6257B10}
  9
$VERSIONGUID
  2
{2715FCFE-EFF0-426F-A19A-B0AC9002CA62}
  9
$EXTNAMES
290
     1
  9
$PSVPSCALE
 40
0.0
  9
$OLESTARTUP
290
     0
  0
ENDSEC
  0
SECTION
  2
CLASSES
  0
CLASS
  1
DICTIONARYVAR
  2
AcDbDictionaryVar
  3
ObjectDBX Classes
 90
        0
280
     0
281
     0
  0
CLASS
  1
ACDBDICTIONARYWDFLT
  2
AcDbDictionaryWithDefault
  3
ObjectDBX Classes
 90
        0
280
     0
281
     0
  0
CLASS
  1
ACDBPLACEHOLDER
  2
AcDbPlaceHolder
  3
ObjectDBX Classes
 90
        0
280
     0
281
     0
  0
CLASS
  1
LAYOUT
  2
AcDbLayout
  3
ObjectDBX Classes
 90
        0
280
     0
281
     0
  0
CLASS
  1
MATERIAL
  2
AcDbMaterial
  3
ObjectDBX Classes
 90
     1024
280
     0
281
     0
  0
CLASS
  1
VISUALSTYLE
  2
AcDbVisualStyle
  3
ObjectDBX Classes
 90
     4095
280
     0
281
     0
  0
CLASS
  1
TABLESTYLE
  2
AcDbTableStyle
  3
ObjectDBX Classes
 90
     4095
280
     0
281
     0
  0
CLASS
  1
SORTENTSTABLE
  2
AcDbSortentsTable
  3
ObjectDBX Classes
 90
        0
280
     0
281
     0
  0
ENDSEC
  0
SECTION
  2
TABLES
  0
TABLE
  2
VPORT
  5
8
330
0
100
AcDbSymbolTable
 70
     1
  0
VPORT
  5
39C01
330
8
100
AcDbSymbolTableRecord
100
AcDbViewportTableRecord
  2
*Active
 70
     0
 10
0.0
 20
0.0
 11
1.0
 21
1.0
 12
-77910.25681064932
 22
-74870.34979645383
 13
0.0
 23
0.0
 14
10.0
 24
10.0
 15
10.0
 25
10.0
 16
0.0
 26
0.0
 36
1.0
 17
0.0
 27
0.0
 37
0.0
 40
839.1579463918752
 41
1.611036339165545
 42
50.0
 43
0.0
 44
0.0
 50
0.0
 51
0.0
 71
     0
 72
 20000
 73
     1
 74
     1
 75
     0
 76
     0
 77
     0
 78
     0
281
     0
 65
     1
110
0.0
120
0.0
130
0.0
111
1.0
121
0.0
131
0.0
112
0.0
122
1.0
132
0.0
 79
     0
146
0.0
  0
ENDTAB
  0
TABLE
  2
LTYPE
  5
5
330
0
100
AcDbSymbolTable
 70
     1
  0
LTYPE
  5
14
330
5
100
AcDbSymbolTableRecord
100
AcDbLinetypeTableRecord
  2
BYBLOCK
 70
     0
  3

 72
    65
 73
     0
 40
0.0
  0
LTYPE
  5
15
330
5
100
AcDbSymbolTableRecord
100
AcDbLinetypeTableRecord
  2
BYLAYER
 70
     0
  3

 72
    65
 73
     0
 40
0.0
  0
LTYPE
  5
16
330
5
100
AcDbSymbolTableRecord
100
AcDbLinetypeTableRecord
  2
CONTINUOUS
 70
     0
  3
Solid line
 72
    65
 73
     0
 40
0.0
  0
ENDTAB
  0
TABLE
  2
LAYER
  5
2
102
{ACAD_XDICTIONARY
360
39C3D
102
}
330
0
100
AcDbSymbolTable
 70
     3
  0
LAYER
  5
F
330
2
100
AcDbSymbolTableRecord
100
AcDbLayerTableRecord
  2
0
 70
     0
 62
     7
  6
CONTINUOUS
370
    -3
390
39BF2
  0
LAYER
  5
3FD
330
2
100
AcDbSymbolTableRecord
100
AcDbLayerTableRecord
  2
DEFPOINTS
 70
     0
 62
     7
  6
CONTINUOUS
290
     0
370
    -3
390
39BF2
  0
LAYER
  5
3CAA4
330
2
100
AcDbSymbolTableRecord
100
AcDbLayerTableRecord
  2
HEWI
 70
     0
 62
     7
  6
CONTINUOUS
370
    -3
390
39BF2
  0
ENDTAB
  0
TABLE
  2
STYLE
  5
3
330
0
100
AcDbSymbolTable
 70
     2
  0
STYLE
  5
10
330
3
100
AcDbSymbolTableRecord
100
AcDbTextStyleTableRecord
  2
STANDARD
 70
     0
 40
0.0
 41
1.0
 50
0.0
 71
     0
 42
2.5
  3
ISOCP
  4

  0
STYLE
  5
3F
330
3
100
AcDbSymbolTableRecord
100
AcDbTextStyleTableRecord
  2
ROMANS
 70
     0
 40
0.0
 41
0.8
 50
0.0
 71
     0
 42
30.0
  3
romans.shx
  4

  0
ENDTAB
  0
TABLE
  2
VIEW
  5
6
330
0
100
AcDbSymbolTable
 70
     0
  0
ENDTAB
  0
TABLE
  2
UCS
  5
7
330
0
100
AcDbSymbolTable
 70
     0
  0
ENDTAB
  0
TABLE
  2
APPID
  5
9
330
0
100
AcDbSymbolTable
 70
     5
  0
APPID
  5
11
330
9
100
AcDbSymbolTableRecord
100
AcDbRegAppTableRecord
  2
ACAD
 70
     0
  0
APPID
  5
36496
330
9
100
AcDbSymbolTableRecord
100
AcDbRegAppTableRecord
  2
ACADIGES
 70
     0
  0
APPID
  5
36497
330
9
100
AcDbSymbolTableRecord
100
AcDbRegAppTableRecord
  2
AUTOCAD_POSTSCRIPT_FIGURE
 70
     0
  0
APPID
  5
3A910
330
9
100
AcDbSymbolTableRecord
100
AcDbRegAppTableRecord
  2
ACAD_PSEXT
 70
     0
  0
APPID
  5
3AB52
330
9
100
AcDbSymbolTableRecord
100
AcDbRegAppTableRecord
  2
AcAecLayerStandard
 70
     0
  0
ENDTAB
  0
TABLE
  2
DIMSTYLE
  5
A
330
0
100
AcDbSymbolTable
 70
     1
100
AcDbDimStyleTable
 71
     1
340
1D
  0
DIMSTYLE
105
1D
330
A
100
AcDbSymbolTableRecord
100
AcDbDimStyleTableRecord
  2
STANDARD
 70
     0
340
10
  0
ENDTAB
  0
TABLE
  2
BLOCK_RECORD
  5
1
330
0
100
AcDbSymbolTable
 70
    18
  0
BLOCK_RECORD
  5
1A
102
{ACAD_XDICTIONARY
360
3B151
102
}
330
1
100
AcDbSymbolTableRecord
100
AcDbBlockTableRecord
  2
*MODEL_SPACE
340
39BF5
  0
BLOCK_RECORD
  5
17
330
1
100
AcDbSymbolTableRecord
100
AcDbBlockTableRecord
  2
*PAPER_SPACE
340
39BF6
  0
BLOCK_RECORD
  5
3CAB6
330
1
100
AcDbSymbolTableRecord
100
AcDbBlockTableRecord
  2
*D0
340
0
  0
BLOCK_RECORD
  5
3CAC5
330
1
100
AcDbSymbolTableRecord
100
AcDbBlockTableRecord
  2
*D1
340
0
  0
BLOCK_RECORD
  5
3CADF
330
1
100
AcDbSymbolTableRecord
100
AcDbBlockTableRecord
  2
*D2
340
0
  0
BLOCK_RECORD
  5
3CAEC
330
1
100
AcDbSymbolTableRecord
100
AcDbBlockTableRecord
  2
*D3
340
0
  0
BLOCK_RECORD
  5
3CAF9
330
1
100
AcDbSymbolTableRecord
100
AcDbBlockTableRecord
  2
*D4
340
0
  0
BLOCK_RECORD
  5
3CB08
330
1
100
AcDbSymbolTableRecord
100
AcDbBlockTableRecord
  2
*D5
340
0
  0
BLOCK_RECORD
  5
3CB17
330
1
100
AcDbSymbolTableRecord
100
AcDbBlockTableRecord
  2
*D6
340
0
  0
BLOCK_RECORD
  5
3CB26
330
1
100
AcDbSymbolTableRecord
100
AcDbBlockTableRecord
  2
*D7
340
0
  0
BLOCK_RECORD
  5
3CB35
330
1
100
AcDbSymbolTableRecord
100
AcDbBlockTableRecord
  2
*D8
340
0
  0
BLOCK_RECORD
  5
3CB54
330
1
100
AcDbSymbolTableRecord
100
AcDbBlockTableRecord
  2
*D9
340
0
  0
BLOCK_RECORD
  5
3CB70
330
1
100
AcDbSymbolTableRecord
100
AcDbBlockTableRecord
  2
*D10
340
0
  0
BLOCK_RECORD
  5
3CB7F
330
1
100
AcDbSymbolTableRecord
100
AcDbBlockTableRecord
  2
*D11
340
0
  0
BLOCK_RECORD
  5
3CB8E
330
1
100
AcDbSymbolTableRecord
100
AcDbBlockTableRecord
  2
*D12
340
0
  0
BLOCK_RECORD
  5
3CB9B
330
1
100
AcDbSymbolTableRecord
100
AcDbBlockTableRecord
  2
*D13
340
0
  0
BLOCK_RECORD
  5
3CBB7
330
1
100
AcDbSymbolTableRecord
100
AcDbBlockTableRecord
  2
*D14
340
0
  0
BLOCK_RECORD
  5
3CBC4
330
1
100
AcDbSymbolTableRecord
100
AcDbBlockTableRecord
  2
*D15
340
0
  0
BLOCK_RECORD
  5
3CBE3
330
1
100
AcDbSymbolTableRecord
100
AcDbBlockTableRecord
  2
*D16
340
0
  0
BLOCK_RECORD
  5
3CBF2
330
1
100
AcDbSymbolTableRecord
100
AcDbBlockTableRecord
  2
*D17
340
0
  0
ENDTAB
  0
ENDSEC
  0
SECTION
  2
BLOCKS
  0
BLOCK
  5
1B
330
1A
100
AcDbEntity
  8
0
100
AcDbBlockBegin
  2
*MODEL_SPACE
 70
     0
 10
0.0
 20
0.0
 30
0.0
  3
*MODEL_SPACE
  1

  0
ENDBLK
  5
1C
330
1A
100
AcDbEntity
  8
0
100
AcDbBlockEnd
  0
BLOCK
  5
18
330
17
100
AcDbEntity
 67
     1
  8
0
100
AcDbBlockBegin
  2
*PAPER_SPACE
 70
     0
 10
0.0
 20
0.0
 30
0.0
  3
*PAPER_SPACE
  1

  0
ENDBLK
  5
19
330
17
100
AcDbEntity
 67
     1
  8
0
100
AcDbBlockEnd
  0
BLOCK
  5
3CAC2
330
3CAB6
100
AcDbEntity
  8
0
100
AcDbBlockBegin
  2
*D0
 70
     1
 10
0.0
 20
0.0
 30
0.0
  3
*D0
  1

  0
LINE
  5
3CAB7
330
3CAB6
100
AcDbEntity
  8
0
 62
     0
370
    -2
100
AcDbLine
 10
-77825.83700011731
 20
-74532.09343057517
 30
0.0
 11
-78130.57439538697
 21
-74532.09343057517
 31
0.0
  0
LINE
  5
3CAB8
330
3CAB6
100
AcDbEntity
  8
0
 62
     0
370
    -2
100
AcDbLine
 10
-77825.83700011731
 20
-74560.09343057517
 30
0.0
 11
-78130.57439538697
 21
-74560.09343057517
 31
0.0
  0
LINE
  5
3CAB9
330
3CAB6
100
AcDbEntity
  8
0
 62
     0
370
    -2
100
AcDbLine
 10
-78120.57439538697
 20
-74502.09343057517
 30
0.0
 11
-78120.57439538697
 21
-74472.09343057517
 31
0.0
  0
LINE
  5
3CABA
330
3CAB6
100
AcDbEntity
  8
0
 62
     0
370
    -2
100
AcDbLine
 10
-78120.57439538697
 20
-74590.09343057517
 30
0.0
 11
-78120.57439538697
 21
-74673.8552415988
 31
0.0
  0
LINE
  5
3CABB
330
3CAB6
100
AcDbEntity
  8
0
 62
     0
370
    -2
100
AcDbLine
 10
-78120.57439538697
 20
-74532.09343057517
 30
0.0
 11
-78120.57439538697
 21
-74560.09343057517
 31
0.0
  0
SOLID
  5
3CABC
330
3CAB6
100
AcDbEntity
  8
0
 62
     0
100
AcDbTrace
 10
-78125.57439538696
 20
-74502.09343057517
 30
0.0
 11
-78115.57439538697
 21
-74502.09343057517
 31
0.0
 12
-78120.57439538697
 22
-74532.09343057517
 32
0.0
 13
-78120.57439538697
 23
-74532.09343057517
 33
0.0
  0
SOLID
  5
3CABD
330
3CAB6
100
AcDbEntity
  8
0
 62
     0
100
AcDbTrace
 10
-78125.57439538696
 20
-74590.09343057517
 30
0.0
 11
-78115.57439538697
 21
-74590.09343057517
 31
0.0
 12
-78120.57439538697
 22
-74560.09343057517
 32
0.0
 13
-78120.57439538697
 23
-74560.09343057517
 33
0.0
  0
MTEXT
  5
3CABE
330
3CAB6
100
AcDbEntity
  8
0
 62
     0
100
AcDbMText
 10
-78145.57734814286
 20
-74646.97433608701
 30
0.0
 40
30.0
 41
0.0
 71
     5
 72
     1
  1
\A1;28
 11
0.0000000000000001
 21
1.0
 31
0.0
 73
     1
 44
1.0
1001
ACAD
1000
MTEXTBEGIN
1070
    73
1070
     1
1070
    44
1040
1.0
1070
    74
1070
     0
1000
MTEXTEND
  0
POINT
  5
3CABF
330
3CAB6
100
AcDbEntity
  8
DEFPOINTS
 62
     0
100
AcDbPoint
 10
-77825.83700011731
 20
-74532.09343057517
 30
0.0
  0
POINT
  5
3CAC0
330
3CAB6
100
AcDbEntity
  8
DEFPOINTS
 62
     0
100
AcDbPoint
 10
-77825.83700011731
 20
-74560.09343057517
 30
0.0
  0
POINT
  5
3CAC1
330
3CAB6
100
AcDbEntity
  8
DEFPOINTS
 62
     0
100
AcDbPoint
 10
-78120.57439538697
 20
-74560.09343057517
 30
0.0
  0
ENDBLK
  5
3CAC3
330
3CAB6
100
AcDbEntity
  8
0
100
AcDbBlockEnd
  0
BLOCK
  5
3CACF
330
3CAC5
100
AcDbEntity
  8
0
100
AcDbBlockBegin
  2
*D1
 70
     1
 10
0.0
 20
0.0
 30
0.0
  3
*D1
  1

  0
LINE
  5
3CAD5
330
3CAC5
100
AcDbEntity
  8
0
 62
     0
370
    -2
100
AcDbLine
 10
-78025.83700011829
 20
-74754.51828743532
 30
0.0
 11
-78025.83700011829
 21
-74705.66300795048
 31
0.0
  0
LINE
  5
3CAD6
330
3CAC5
100
AcDbEntity
  8
0
 62
     0
370
    -2
100
AcDbLine
 10
-77724.83700011552
 20
-74754.51828677817
 30
0.0
 11
-77724.83700011552
 21
-74705.66300795048
 31
0.0
  0
LINE
  5
3CAD7
330
3CAC5
100
AcDbEntity
  8
0
 62
     0
370
    -2
100
AcDbLine
 10
-77995.83700011829
 20
-74715.66300795045
 30
0.0
 11
-77754.83700011553
 21
-74715.66300795045
 31
0.0
  0
SOLID
  5
3CAD8
330
3CAC5
100
AcDbEntity
  8
0
 62
     0
100
AcDbTrace
 10
-77995.83700011829
 20
-74710.66300795048
 30
0.0
 11
-77995.83700011829
 21
-74720.66300795048
 31
0.0
 12
-78025.83700011829
 22
-74715.66300795045
 32
0.0
 13
-78025.83700011829
 23
-74715.66300795045
 33
0.0
  0
SOLID
  5
3CAD9
330
3CAC5
100
AcDbEntity
  8
0
 62
     0
100
AcDbTrace
 10
-77754.83700011553
 20
-74710.66300795048
 30
0.0
 11
-77754.83700011553
 21
-74720.66300795048
 31
0.0
 12
-77724.83700011552
 22
-74715.66300795045
 32
0.0
 13
-77724.83700011552
 23
-74715.66300795045
 33
0.0
  0
MTEXT
  5
3CADA
330
3CAC5
100
AcDbEntity
  8
0
 62
     0
100
AcDbMText
 10
-77875.33700011691
 20
-74690.66300795049
 30
0.0
 40
30.0
 41
0.0
 71
     5
 72
     1
  1
\A1;301
 73
     1
 44
1.0
1001
ACAD
1000
MTEXTBEGIN
1070
    73
1070
     1
1070
    44
1040
1.0
1070
    74
1070
     0
1000
MTEXTEND
  0
POINT
  5
3CADB
330
3CAC5
100
AcDbEntity
  8
DEFPOINTS
 62
     0
100
AcDbPoint
 10
-78025.83700011829
 20
-74754.51828743532
 30
0.0
  0
POINT
  5
3CADC
330
3CAC5
100
AcDbEntity
  8
DEFPOINTS
 62
     0
100
AcDbPoint
 10
-77724.83700011552
 20
-74754.51828677817
 30
0.0
  0
POINT
  5
3CADD
330
3CAC5
100
AcDbEntity
  8
DEFPOINTS
 62
     0
100
AcDbPoint
 10
-77724.83700011552
 20
-74715.66300795045
 30
0.0
  0
ENDBLK
  5
3CAD0
330
3CAC5
100
AcDbEntity
  8
0
100
AcDbBlockEnd
  0
BLOCK
  5
3CAE9
330
3CADF
100
AcDbEntity
  8
0
100
AcDbBlockBegin
  2
*D2
 70
     1
 10
0.0
 20
0.0
 30
0.0
  3
*D2
  1

  0
LINE
  5
3CAE0
330
3CADF
100
AcDbEntity
  8
0
 62
     0
370
    -2
100
AcDbLine
 10
-78039.83700533188
 20
-74546.09343057517
 30
0.0
 11
-78039.83700533188
 21
-74489.47904948878
 31
0.0
  0
LINE
  5
3CAE1
330
3CADF
100
AcDbEntity
  8
0
 62
     0
370
    -2
100
AcDbLine
 10
-77711.83699652034
 20
-74546.09346660452
 30
0.0
 11
-77711.83699652034
 21
-74489.47904948878
 31
0.0
  0
LINE
  5
3CAE2
330
3CADF
100
AcDbEntity
  8
0
 62
     0
370
    -2
100
AcDbLine
 10
-78009.83700533188
 20
-74499.47904948879
 30
0.0
 11
-77741.83699652034
 21
-74499.47904948879
 31
0.0
  0
SOLID
  5
3CAE3
330
3CADF
100
AcDbEntity
  8
0
 62
     0
100
AcDbTrace
 10
-78009.83700533188
 20
-74494.47904948878
 30
0.0
 11
-78009.83700533188
 21
-74504.47904948878
 31
0.0
 12
-78039.83700533188
 22
-74499.47904948879
 32
0.0
 13
-78039.83700533188
 23
-74499.47904948879
 33
0.0
  0
SOLID
  5
3CAE4
330
3CADF
100
AcDbEntity
  8
0
 62
     0
100
AcDbTrace
 10
-77741.83699652034
 20
-74494.47904948878
 30
0.0
 11
-77741.83699652034
 21
-74504.47904948878
 31
0.0
 12
-77711.83699652034
 22
-74499.47904948879
 32
0.0
 13
-77711.83699652034
 23
-74499.47904948879
 33
0.0
  0
MTEXT
  5
3CAE5
330
3CADF
100
AcDbEntity
  8
0
 62
     0
100
AcDbMText
 10
-77875.83700092612
 20
-74474.47609673288
 30
0.0
 40
30.0
 41
0.0
 71
     5
 72
     1
  1
\A1;328
 73
     1
 44
1.0
1001
ACAD
1000
MTEXTBEGIN
1070
    73
1070
     1
1070
    44
1040
1.0
1070
    74
1070
     0
1000
MTEXTEND
  0
POINT
  5
3CAE6
330
3CADF
100
AcDbEntity
  8
DEFPOINTS
 62
     0
100
AcDbPoint
 10
-78039.83700533188
 20
-74546.09343057517
 30
0.0
  0
POINT
  5
3CAE7
330
3CADF
100
AcDbEntity
  8
DEFPOINTS
 62
     0
100
AcDbPoint
 10
-77711.83699652034
 20
-74546.09346660452
 30
0.0
  0
POINT
  5
3CAE8
330
3CADF
100
AcDbEntity
  8
DEFPOINTS
 62
     0
100
AcDbPoint
 10
-77711.83699652034
 20
-74499.47904948879
 30
0.0
  0
ENDBLK
  5
3CAEA
330
3CADF
100
AcDbEntity
  8
0
100
AcDbBlockEnd
  0
BLOCK
  5
3CAF6
330
3CAEC
100
AcDbEntity
  8
0
100
AcDbBlockBegin
  2
*D3
 70
     1
 10
0.0
 20
0.0
 30
0.0
  3
*D3
  1

  0
LINE
  5
3CAED
330
3CAEC
100
AcDbEntity
  8
0
 62
     0
370
    -2
100
AcDbLine
 10
-78039.83700533184
 20
-74546.09355682415
 30
0.0
 11
-78039.83700533184
 21
-74491.79841968737
 31
0.0
  0
LINE
  5
3CAEE
330
3CAEC
100
AcDbEntity
  8
0
 62
     0
370
    -2
100
AcDbLine
 10
-77714.83699652036
 20
-74546.09359251874
 30
0.0
 11
-77714.83699652036
 21
-74491.79841968737
 31
0.0
  0
LINE
  5
3CAEF
330
3CAEC
100
AcDbEntity
  8
0
 62
     0
370
    -2
100
AcDbLine
 10
-78009.83700533182
 20
-74501.79841968737
 30
0.0
 11
-77744.83699652036
 21
-74501.79841968737
 31
0.0
  0
SOLID
  5
3CAF0
330
3CAEC
100
AcDbEntity
  8
0
 62
     0
100
AcDbTrace
 10
-78009.83700533182
 20
-74496.79841968738
 30
0.0
 11
-78009.83700533182
 21
-74506.79841968737
 31
0.0
 12
-78039.83700533184
 22
-74501.79841968737
 32
0.0
 13
-78039.83700533184
 23
-74501.79841968737
 33
0.0
  0
SOLID
  5
3CAF1
330
3CAEC
100
AcDbEntity
  8
0
 62
     0
100
AcDbTrace
 10
-77744.83699652036
 20
-74496.79841968738
 30
0.0
 11
-77744.83699652036
 21
-74506.79841968737
 31
0.0
 12
-77714.83699652036
 22
-74501.79841968737
 32
0.0
 13
-77714.83699652036
 23
-74501.79841968737
 33
0.0
  0
MTEXT
  5
3CAF2
330
3CAEC
100
AcDbEntity
  8
0
 62
     0
100
AcDbMText
 10
-77877.33700092609
 20
-74476.79546693146
 30
0.0
 40
30.0
 41
0.0
 71
     5
 72
     1
  1
\A1;325
 73
     1
 44
1.0
1001
ACAD
1000
MTEXTBEGIN
1070
    73
1070
     1
1070
    44
1040
1.0
1070
    74
1070
     0
1000
MTEXTEND
  0
POINT
  5
3CAF3
330
3CAEC
100
AcDbEntity
  8
DEFPOINTS
 62
     0
100
AcDbPoint
 10
-78039.83700533184
 20
-74546.09355682415
 30
0.0
  0
POINT
  5
3CAF4
330
3CAEC
100
AcDbEntity
  8
DEFPOINTS
 62
     0
100
AcDbPoint
 10
-77714.83699652036
 20
-74546.09359251874
 30
0.0
  0
POINT
  5
3CAF5
330
3CAEC
100
AcDbEntity
  8
DEFPOINTS
 62
     0
100
AcDbPoint
 10
-77714.83699652036
 20
-74501.79841968737
 30
0.0
  0
ENDBLK
  5
3CAF7
330
3CAEC
100
AcDbEntity
  8
0
100
AcDbBlockEnd
  0
BLOCK
  5
3CB05
330
3CAF9
100
AcDbEntity
  8
0
100
AcDbBlockBegin
  2
*D4
 70
     1
 10
0.0
 20
0.0
 30
0.0
  3
*D4
  1

  0
LINE
  5
3CAFA
330
3CAF9
100
AcDbEntity
  8
0
 62
     0
370
    -2
100
AcDbLine
 10
-77864.16521979449
 20
-74532.09343057517
 30
0.0
 11
-77836.06719168392
 21
-74532.09343057517
 31
0.0
  0
LINE
  5
3CAFB
330
3CAF9
100
AcDbEntity
  8
0
 62
     0
370
    -2
100
AcDbLine
 10
-77864.16521979448
 20
-74560.09343057517
 30
0.0
 11
-77836.06719168392
 21
-74560.09343057517
 31
0.0
  0
LINE
  5
3CAFC
330
3CAF9
100
AcDbEntity
  8
0
 62
     0
370
    -2
100
AcDbLine
 10
-77846.06719168392
 20
-74502.09343057517
 30
0.0
 11
-77846.06719168392
 21
-74472.09343057517
 31
0.0
  0
LINE
  5
3CAFD
330
3CAF9
100
AcDbEntity
  8
0
 62
     0
370
    -2
100
AcDbLine
 10
-77846.06719168392
 20
-74590.09343057517
 30
0.0
 11
-77846.06719168392
 21
-74673.8552415988
 31
0.0
  0
LINE
  5
3CAFE
330
3CAF9
100
AcDbEntity
  8
0
 62
     0
370
    -2
100
AcDbLine
 10
-77846.06719168392
 20
-74532.09343057517
 30
0.0
 11
-77846.06719168392
 21
-74560.09343057517
 31
0.0
  0
SOLID
  5
3CAFF
330
3CAF9
100
AcDbEntity
  8
0
 62
     0
100
AcDbTrace
 10
-77851.06719168392
 20
-74502.09343057517
 30
0.0
 11
-77841.06719168392
 21
-74502.09343057517
 31
0.0
 12
-77846.06719168392
 22
-74532.09343057517
 32
0.0
 13
-77846.06719168392
 23
-74532.09343057517
 33
0.0
  0
SOLID
  5
3CB00
330
3CAF9
100
AcDbEntity
  8
0
 62
     0
100
AcDbTrace
 10
-77851.06719168392
 20
-74590.09343057517
 30
0.0
 11
-77841.06719168392
 21
-74590.09343057517
 31
0.0
 12
-77846.06719168392
 22
-74560.09343057517
 32
0.0
 13
-77846.06719168392
 23
-74560.09343057517
 33
0.0
  0
MTEXT
  5
3CB01
330
3CAF9
100
AcDbEntity
  8
0
 62
     0
100
AcDbMText
 10
-77871.07014443981
 20
-74646.97433608701
 30
0.0
 40
30.0
 41
0.0
 71
     5
 72
     1
  1
\A1;28
 11
0.0000000000000001
 21
1.0
 31
0.0
 73
     1
 44
1.0
1001
ACAD
1000
MTEXTBEGIN
1070
    73
1070
     1
1070
    44
1040
1.0
1070
    74
1070
     0
1000
MTEXTEND
  0
POINT
  5
3CB02
330
3CAF9
100
AcDbEntity
  8
DEFPOINTS
 62
     0
100
AcDbPoint
 10
-77864.16521979449
 20
-74532.09343057517
 30
0.0
  0
POINT
  5
3CB03
330
3CAF9
100
AcDbEntity
  8
DEFPOINTS
 62
     0
100
AcDbPoint
 10
-77864.16521979448
 20
-74560.09343057517
 30
0.0
  0
POINT
  5
3CB04
330
3CAF9
100
AcDbEntity
  8
DEFPOINTS
 62
     0
100
AcDbPoint
 10
-77846.06719168392
 20
-74560.09343057517
 30
0.0
  0
ENDBLK
  5
3CB06
330
3CAF9
100
AcDbEntity
  8
0
100
AcDbBlockEnd
  0
BLOCK
  5
3CB14
330
3CB08
100
AcDbEntity
  8
0
100
AcDbBlockBegin
  2
*D5
 70
     1
 10
0.0
 20
0.0
 30
0.0
  3
*D5
  1

  0
LINE
  5
3CB09
330
3CB08
100
AcDbEntity
  8
0
 62
     0
370
    -2
100
AcDbLine
 10
-78026.83700011384
 20
-74754.51828635716
 30
0.0
 11
-78115.72246615005
 21
-74754.51828635716
 31
0.0
  0
LINE
  5
3CB0A
330
3CB08
100
AcDbEntity
  8
0
 62
     0
370
    -2
100
AcDbLine
 10
-78026.83699171049
 20
-74826.51830208872
 30
0.0
 11
-78115.72246615005
 21
-74826.51830208872
 31
0.0
  0
LINE
  5
3CB0B
330
3CB08
100
AcDbEntity
  8
0
 62
     0
370
    -2
100
AcDbLine
 10
-78105.72246615008
 20
-74724.51828635715
 30
0.0
 11
-78105.72246615008
 21
-74694.51828635715
 31
0.0
  0
LINE
  5
3CB0C
330
3CB08
100
AcDbEntity
  8
0
 62
     0
370
    -2
100
AcDbLine
 10
-78105.72246615008
 20
-74856.51830208872
 30
0.0
 11
-78105.72246615008
 21
-74886.51830208872
 31
0.0
  0
LINE
  5
3CB0D
330
3CB08
100
AcDbEntity
  8
0
 62
     0
370
    -2
100
AcDbLine
 10
-78105.72246615008
 20
-74754.51828635716
 30
0.0
 11
-78105.72246615008
 21
-74826.51830208872
 31
0.0
  0
SOLID
  5
3CB0E
330
3CB08
100
AcDbEntity
  8
0
 62
     0
100
AcDbTrace
 10
-78110.72246615005
 20
-74724.51828635715
 30
0.0
 11
-78100.72246615005
 21
-74724.51828635715
 31
0.0
 12
-78105.72246615008
 22
-74754.51828635716
 32
0.0
 13
-78105.72246615008
 23
-74754.51828635716
 33
0.0
  0
SOLID
  5
3CB0F
330
3CB08
100
AcDbEntity
  8
0
 62
     0
100
AcDbTrace
 10
-78110.72246615005
 20
-74856.51830208872
 30
0.0
 11
-78100.72246615005
 21
-74856.51830208872
 31
0.0
 12
-78105.72246615008
 22
-74826.51830208872
 32
0.0
 13
-78105.72246615008
 23
-74826.51830208872
 33
0.0
  0
MTEXT
  5
3CB10
330
3CB08
100
AcDbEntity
  8
0
 62
     0
100
AcDbMText
 10
-78130.72541890596
 20
-74790.51829422296
 30
0.0
 40
30.0
 41
0.0
 71
     5
 72
     1
  1
\A1;72
 11
0.0000000000000001
 21
1.0
 31
0.0
 73
     1
 44
1.0
1001
ACAD
1000
MTEXTBEGIN
1070
    73
1070
     1
1070
    44
1040
1.0
1070
    74
1070
     0
1000
MTEXTEND
  0
POINT
  5
3CB11
330
3CB08
100
AcDbEntity
  8
DEFPOINTS
 62
     0
100
AcDbPoint
 10
-78026.83700011384
 20
-74754.51828635716
 30
0.0
  0
POINT
  5
3CB12
330
3CB08
100
AcDbEntity
  8
DEFPOINTS
 62
     0
100
AcDbPoint
 10
-78026.83699171049
 20
-74826.51830208872
 30
0.0
  0
POINT
  5
3CB13
330
3CB08
100
AcDbEntity
  8
DEFPOINTS
 62
     0
100
AcDbPoint
 10
-78105.72246615008
 20
-74826.51830208872
 30
0.0
  0
ENDBLK
  5
3CB15
330
3CB08
100
AcDbEntity
  8
0
100
AcDbBlockEnd
  0
BLOCK
  5
3CB23
330
3CB17
100
AcDbEntity
  8
0
100
AcDbBlockBegin
  2
*D6
 70
     1
 10
0.0
 20
0.0
 30
0.0
  3
*D6
  1

  0
LINE
  5
3CB18
330
3CB17
100
AcDbEntity
  8
0
 62
     0
370
    -2
100
AcDbLine
 10
-78039.83700097604
 20
-74781.45751600413
 30
0.0
 11
-78039.83700097604
 21
-74696.47810558567
 31
0.0
  0
LINE
  5
3CB19
330
3CB17
100
AcDbEntity
  8
0
 62
     0
370
    -2
100
AcDbLine
 10
-78014.83699976008
 20
-74777.51829378793
 30
0.0
 11
-78014.83699976008
 21
-74696.47810558567
 31
0.0
  0
LINE
  5
3CB1A
330
3CB17
100
AcDbEntity
  8
0
 62
     0
370
    -2
100
AcDbLine
 10
-78069.83700097604
 20
-74706.47810558567
 30
0.0
 11
-78099.83700097604
 21
-74706.47810558567
 31
0.0
  0
LINE
  5
3CB1B
330
3CB17
100
AcDbEntity
  8
0
 62
     0
370
    -2
100
AcDbLine
 10
-77984.83699976006
 20
-74706.47810558567
 30
0.0
 11
-77899.83254804933
 21
-74706.47810558567
 31
0.0
  0
LINE
  5
3CB1C
330
3CB17
100
AcDbEntity
  8
0
 62
     0
370
    -2
100
AcDbLine
 10
-78039.83700097604
 20
-74706.47810558567
 30
0.0
 11
-78014.83699976008
 21
-74706.47810558567
 31
0.0
  0
SOLID
  5
3CB1D
330
3CB17
100
AcDbEntity
  8
0
 62
     0
100
AcDbTrace
 10
-78069.83700097604
 20
-74701.47810558567
 30
0.0
 11
-78069.83700097604
 21
-74711.47810558568
 31
0.0
 12
-78039.83700097604
 22
-74706.47810558567
 32
0.0
 13
-78039.83700097604
 23
-74706.47810558567
 33
0.0
  0
SOLID
  5
3CB1E
330
3CB17
100
AcDbEntity
  8
0
 62
     0
100
AcDbTrace
 10
-77984.83699976006
 20
-74701.47810558567
 30
0.0
 11
-77984.83699976006
 21
-74711.47810558568
 31
0.0
 12
-78014.83699976008
 22
-74706.47810558567
 32
0.0
 13
-78014.83699976008
 23
-74706.47810558567
 33
0.0
  0
MTEXT
  5
3CB1F
330
3CB17
100
AcDbEntity
  8
0
 62
     0
100
AcDbMText
 10
-77927.3347739047
 20
-74681.47515282976
 30
0.0
 40
30.0
 41
0.0
 71
     5
 72
     1
  1
\A1;25
 73
     1
 44
1.0
1001
ACAD
1000
MTEXTBEGIN
1070
    73
1070
     1
1070
    44
1040
1.0
1070
    74
1070
     0
1000
MTEXTEND
  0
POINT
  5
3CB20
330
3CB17
100
AcDbEntity
  8
DEFPOINTS
 62
     0
100
AcDbPoint
 10
-78039.83700097604
 20
-74781.45751600413
 30
0.0
  0
POINT
  5
3CB21
330
3CB17
100
AcDbEntity
  8
DEFPOINTS
 62
     0
100
AcDbPoint
 10
-78014.83699976008
 20
-74777.51829378793
 30
0.0
  0
POINT
  5
3CB22
330
3CB17
100
AcDbEntity
  8
DEFPOINTS
 62
     0
100
AcDbPoint
 10
-78014.83699976008
 20
-74706.47810558567
 30
0.0
  0
ENDBLK
  5
3CB24
330
3CB17
100
AcDbEntity
  8
0
100
AcDbBlockEnd
  0
BLOCK
  5
3CB32
330
3CB26
100
AcDbEntity
  8
0
100
AcDbBlockBegin
  2
*D7
 70
     1
 10
0.0
 20
0.0
 30
0.0
  3
*D7
  1

  0
LINE
  5
3CB27
330
3CB26
100
AcDbEntity
  8
0
 62
     0
370
    -2
100
AcDbLine
 10
-78213.45196464285
 20
-74546.09343057517
 30
0.0
 11
-78213.45196464285
 21
-74619.22797220136
 31
0.0
  0
LINE
  5
3CB28
330
3CB26
100
AcDbEntity
  8
0
 62
     0
370
    -2
100
AcDbLine
 10
-78141.45195942739
 20
-74546.09343057517
 30
0.0
 11
-78141.45195942739
 21
-74619.22797220136
 31
0.0
  0
LINE
  5
3CB29
330
3CB26
100
AcDbEntity
  8
0
 62
     0
370
    -2
100
AcDbLine
 10
-78243.45196464285
 20
-74609.22797220137
 30
0.0
 11
-78273.45196464285
 21
-74609.22797220137
 31
0.0
  0
LINE
  5
3CB2A
330
3CB26
100
AcDbEntity
  8
0
 62
     0
370
    -2
100
AcDbLine
 10
-78111.45195942739
 20
-74609.22797220137
 30
0.0
 11
-78081.45195942739
 21
-74609.22797220137
 31
0.0
  0
LINE
  5
3CB2B
330
3CB26
100
AcDbEntity
  8
0
 62
     0
370
    -2
100
AcDbLine
 10
-78213.45196464285
 20
-74609.22797220137
 30
0.0
 11
-78141.45195942739
 21
-74609.22797220137
 31
0.0
  0
SOLID
  5
3CB2C
330
3CB26
100
AcDbEntity
  8
0
 62
     0
100
AcDbTrace
 10
-78243.45196464285
 20
-74604.22797220136
 30
0.0
 11
-78243.45196464285
 21
-74614.22797220136
 31
0.0
 12
-78213.45196464285
 22
-74609.22797220137
 32
0.0
 13
-78213.45196464285
 23
-74609.22797220137
 33
0.0
  0
SOLID
  5
3CB2D
330
3CB26
100
AcDbEntity
  8
0
 62
     0
100
AcDbTrace
 10
-78111.45195942739
 20
-74604.22797220136
 30
0.0
 11
-78111.45195942739
 21
-74614.22797220136
 31
0.0
 12
-78141.45195942739
 22
-74609.22797220137
 32
0.0
 13
-78141.45195942739
 23
-74609.22797220137
 33
0.0
  0
MTEXT
  5
3CB2E
330
3CB26
100
AcDbEntity
  8
0
 62
     0
100
AcDbMText
 10
-78177.45196203512
 20
-74584.22501944546
 30
0.0
 40
30.0
 41
0.0
 71
     5
 72
     1
  1
\A1;72
 73
     1
 44
1.0
1001
ACAD
1000
MTEXTBEGIN
1070
    73
1070
     1
1070
    44
1040
1.0
1070
    74
1070
     0
1000
MTEXTEND
  0
POINT
  5
3CB2F
330
3CB26
100
AcDbEntity
  8
DEFPOINTS
 62
     0
100
AcDbPoint
 10
-78213.45196464285
 20
-74546.09343057517
 30
0.0
  0
POINT
  5
3CB30
330
3CB26
100
AcDbEntity
  8
DEFPOINTS
 62
     0
100
AcDbPoint
 10
-78141.45195942739
 20
-74546.09343057517
 30
0.0
  0
POINT
  5
3CB31
330
3CB26
100
AcDbEntity
  8
DEFPOINTS
 62
     0
100
AcDbPoint
 10
-78141.45195942739
 20
-74609.22797220137
 30
0.0
  0
ENDBLK
  5
3CB33
330
3CB26
100
AcDbEntity
  8
0
100
AcDbBlockEnd
  0
BLOCK
  5
3CB41
330
3CB35
100
AcDbEntity
  8
0
100
AcDbBlockBegin
  2
*D8
 70
     1
 10
0.0
 20
0.0
 30
0.0
  3
*D8
  1

  0
LINE
  5
3CB36
330
3CB35
100
AcDbEntity
  8
0
 62
     0
370
    -2
100
AcDbLine
 10
-78184.05478760716
 20
-74535.09343057517
 30
0.0
 11
-78164.56125663209
 21
-74535.09343057517
 31
0.0
  0
LINE
  5
3CB37
330
3CB35
100
AcDbEntity
  8
0
 62
     0
370
    -2
100
AcDbLine
 10
-78184.05442739767
 20
-74560.09305022371
 30
0.0
 11
-78164.56125663209
 21
-74560.09305022371
 31
0.0
  0
LINE
  5
3CB38
330
3CB35
100
AcDbEntity
  8
0
 62
     0
370
    -2
100
AcDbLine
 10
-78174.56125663209
 20
-74505.09343057517
 30
0.0
 11
-78174.56125663209
 21
-74475.09343057517
 31
0.0
  0
LINE
  5
3CB39
330
3CB35
100
AcDbEntity
  8
0
 62
     0
370
    -2
100
AcDbLine
 10
-78174.56125663209
 20
-74590.09305022371
 30
0.0
 11
-78174.56125663209
 21
-74675.09750193448
 31
0.0
  0
LINE
  5
3CB3A
330
3CB35
100
AcDbEntity
  8
0
 62
     0
370
    -2
100
AcDbLine
 10
-78174.56125663209
 20
-74535.09343057517
 30
0.0
 11
-78174.56125663209
 21
-74560.09305022371
 31
0.0
  0
SOLID
  5
3CB3B
330
3CB35
100
AcDbEntity
  8
0
 62
     0
100
AcDbTrace
 10
-78179.56125663209
 20
-74505.09343057517
 30
0.0
 11
-78169.56125663209
 21
-74505.09343057517
 31
0.0
 12
-78174.56125663209
 22
-74535.09343057517
 32
0.0
 13
-78174.56125663209
 23
-74535.09343057517
 33
0.0
  0
SOLID
  5
3CB3C
330
3CB35
100
AcDbEntity
  8
0
 62
     0
100
AcDbTrace
 10
-78179.56125663209
 20
-74590.09305022371
 30
0.0
 11
-78169.56125663209
 21
-74590.09305022371
 31
0.0
 12
-78174.56125663209
 22
-74560.09305022371
 32
0.0
 13
-78174.56125663209
 23
-74560.09305022371
 33
0.0
  0
MTEXT
  5
3CB3D
330
3CB35
100
AcDbEntity
  8
0
 62
     0
100
AcDbMText
 10
-78199.56420938797
 20
-74647.59527607911
 30
0.0
 40
30.0
 41
0.0
 71
     5
 72
     1
  1
\A1;25
 11
0.0000000000000001
 21
1.0
 31
0.0
 73
     1
 44
1.0
1001
ACAD
1000
MTEXTBEGIN
1070
    73
1070
     1
1070
    44
1040
1.0
1070
    74
1070
     0
1000
MTEXTEND
  0
POINT
  5
3CB3E
330
3CB35
100
AcDbEntity
  8
DEFPOINTS
 62
     0
100
AcDbPoint
 10
-78184.05478760716
 20
-74535.09343057517
 30
0.0
  0
POINT
  5
3CB3F
330
3CB35
100
AcDbEntity
  8
DEFPOINTS
 62
     0
100
AcDbPoint
 10
-78184.05442739767
 20
-74560.09305022371
 30
0.0
  0
POINT
  5
3CB40
330
3CB35
100
AcDbEntity
  8
DEFPOINTS
 62
     0
100
AcDbPoint
 10
-78174.56125663209
 20
-74560.09305022371
 30
0.0
  0
ENDBLK
  5
3CB42
330
3CB35
100
AcDbEntity
  8
0
100
AcDbBlockEnd
  0
BLOCK
  5
3CB5E
330
3CB54
100
AcDbEntity
  8
0
100
AcDbBlockBegin
  2
*D9
 70
     1
 10
0.0
 20
0.0
 30
0.0
  3
*D9
  1

  0
LINE
  5
3CB55
330
3CB54
100
AcDbEntity
  8
0
 62
     0
370
    -2
100
AcDbLine
 10
-78346.2261985043
 20
-74547.59145628447
 30
0.0
 11
-78346.2261985043
 21
-74478.94825313822
 31
0.0
  0
LINE
  5
3CB56
330
3CB54
100
AcDbEntity
  8
0
 62
     0
370
    -2
100
AcDbLine
 10
-77721.22619268522
 20
-74547.59183304711
 30
0.0
 11
-77721.22619268522
 21
-74478.94825313822
 31
0.0
  0
LINE
  5
3CB57
330
3CB54
100
AcDbEntity
  8
0
 62
     0
370
    -2
100
AcDbLine
 10
-78316.2261985043
 20
-74488.94825313822
 30
0.0
 11
-77751.22619268524
 21
-74488.94825313822
 31
0.0
  0
SOLID
  5
3CB58
330
3CB54
100
AcDbEntity
  8
0
 62
     0
100
AcDbTrace
 10
-78316.2261985043
 20
-74483.94825313823
 30
0.0
 11
-78316.2261985043
 21
-74493.94825313822
 31
0.0
 12
-78346.2261985043
 22
-74488.94825313822
 32
0.0
 13
-78346.2261985043
 23
-74488.94825313822
 33
0.0
  0
SOLID
  5
3CB59
330
3CB54
100
AcDbEntity
  8
0
 62
     0
100
AcDbTrace
 10
-77751.22619268524
 20
-74483.94825313823
 30
0.0
 11
-77751.22619268524
 21
-74493.94825313822
 31
0.0
 12
-77721.22619268522
 22
-74488.94825313822
 32
0.0
 13
-77721.22619268522
 23
-74488.94825313822
 33
0.0
  0
MTEXT
  5
3CB5A
330
3CB54
100
AcDbEntity
  8
0
 62
     0
100
AcDbMText
 10
-78033.72619559476
 20
-74463.94530038231
 30
0.0
 40
30.0
 41
0.0
 71
     5
 72
     1
  1
\A1;625
 73
     1
 44
1.0
1001
ACAD
1000
MTEXTBEGIN
1070
    73
1070
     1
1070
    44
1040
1.0
1070
    74
1070
     0
1000
MTEXTEND
  0
POINT
  5
3CB5B
330
3CB54
100
AcDbEntity
  8
DEFPOINTS
 62
     0
100
AcDbPoint
 10
-78346.2261985043
 20
-74547.59145628447
 30
0.0
  0
POINT
  5
3CB5C
330
3CB54
100
AcDbEntity
  8
DEFPOINTS
 62
     0
100
AcDbPoint
 10
-77721.22619268522
 20
-74547.59183304711
 30
0.0
  0
POINT
  5
3CB5D
330
3CB54
100
AcDbEntity
  8
DEFPOINTS
 62
     0
100
AcDbPoint
 10
-77721.22619268522
 20
-74488.94825313822
 30
0.0
  0
ENDBLK
  5
3CB5F
330
3CB54
100
AcDbEntity
  8
0
100
AcDbBlockEnd
  0
BLOCK
  5
3CB7C
330
3CB70
100
AcDbEntity
  8
0
100
AcDbBlockBegin
  2
*D10
 70
     1
 10
0.0
 20
0.0
 30
0.0
  3
*D10
  1

  0
LINE
  5
3CB71
330
3CB70
100
AcDbEntity
  8
0
 62
     0
370
    -2
100
AcDbLine
 10
-78333.22619519746
 20
-74754.51828635718
 30
0.0
 11
-78406.92371685562
 21
-74754.51828635718
 31
0.0
  0
LINE
  5
3CB72
330
3CB70
100
AcDbEntity
  8
0
 62
     0
370
    -2
100
AcDbLine
 10
-78333.22618740313
 20
-74826.51830213313
 30
0.0
 11
-78406.92371685562
 21
-74826.51830213313
 31
0.0
  0
LINE
  5
3CB73
330
3CB70
100
AcDbEntity
  8
0
 62
     0
370
    -2
100
AcDbLine
 10
-78396.92371685563
 20
-74724.51828635718
 30
0.0
 11
-78396.92371685563
 21
-74694.51828635718
 31
0.0
  0
LINE
  5
3CB74
330
3CB70
100
AcDbEntity
  8
0
 62
     0
370
    -2
100
AcDbLine
 10
-78396.92371685563
 20
-74856.51830213313
 30
0.0
 11
-78396.92371685563
 21
-74886.51830213313
 31
0.0
  0
LINE
  5
3CB75
330
3CB70
100
AcDbEntity
  8
0
 62
     0
370
    -2
100
AcDbLine
 10
-78396.92371685563
 20
-74754.51828635718
 30
0.0
 11
-78396.92371685563
 21
-74826.51830213313
 31
0.0
  0
SOLID
  5
3CB76
330
3CB70
100
AcDbEntity
  8
0
 62
     0
100
AcDbTrace
 10
-78401.92371685565
 20
-74724.51828635718
 30
0.0
 11
-78391.92371685562
 21
-74724.51828635718
 31
0.0
 12
-78396.92371685563
 22
-74754.51828635718
 32
0.0
 13
-78396.92371685563
 23
-74754.51828635718
 33
0.0
  0
SOLID
  5
3CB77
330
3CB70
100
AcDbEntity
  8
0
 62
     0
100
AcDbTrace
 10
-78401.92371685565
 20
-74856.51830213313
 30
0.0
 11
-78391.92371685562
 21
-74856.51830213313
 31
0.0
 12
-78396.92371685563
 22
-74826.51830213313
 32
0.0
 13
-78396.92371685563
 23
-74826.51830213313
 33
0.0
  0
MTEXT
  5
3CB78
330
3CB70
100
AcDbEntity
  8
0
 62
     0
100
AcDbMText
 10
-78421.92666961152
 20
-74790.51829424516
 30
0.0
 40
30.0
 41
0.0
 71
     5
 72
     1
  1
\A1;72
 11
0.0000000000000001
 21
1.0
 31
0.0
 73
     1
 44
1.0
1001
ACAD
1000
MTEXTBEGIN
1070
    73
1070
     1
1070
    44
1040
1.0
1070
    74
1070
     0
1000
MTEXTEND
  0
POINT
  5
3CB79
330
3CB70
100
AcDbEntity
  8
DEFPOINTS
 62
     0
100
AcDbPoint
 10
-78333.22619519746
 20
-74754.51828635718
 30
0.0
  0
POINT
  5
3CB7A
330
3CB70
100
AcDbEntity
  8
DEFPOINTS
 62
     0
100
AcDbPoint
 10
-78333.22618740313
 20
-74826.51830213313
 30
0.0
  0
POINT
  5
3CB7B
330
3CB70
100
AcDbEntity
  8
DEFPOINTS
 62
     0
100
AcDbPoint
 10
-78396.92371685563
 20
-74826.51830213313
 30
0.0
  0
ENDBLK
  5
3CB7D
330
3CB70
100
AcDbEntity
  8
0
100
AcDbBlockEnd
  0
BLOCK
  5
3CB8B
330
3CB7F
100
AcDbEntity
  8
0
100
AcDbBlockBegin
  2
*D11
 70
     1
 10
0.0
 20
0.0
 30
0.0
  3
*D11
  1

  0
LINE
  5
3CB80
330
3CB7F
100
AcDbEntity
  8
0
 62
     0
370
    -2
100
AcDbLine
 10
-78180.726194962
 20
-74801.5183002352
 30
0.0
 11
-78125.77155979507
 21
-74801.5183002352
 31
0.0
  0
LINE
  5
3CB81
330
3CB7F
100
AcDbEntity
  8
0
 62
     0
370
    -2
100
AcDbLine
 10
-78180.72619484722
 20
-74826.51829536862
 30
0.0
 11
-78125.77155979507
 21
-74826.51829536862
 31
0.0
  0
LINE
  5
3CB82
330
3CB7F
100
AcDbEntity
  8
0
 62
     0
370
    -2
100
AcDbLine
 10
-78135.77155979507
 20
-74771.5183002352
 30
0.0
 11
-78135.77155979507
 21
-74741.5183002352
 31
0.0
  0
LINE
  5
3CB83
330
3CB7F
100
AcDbEntity
  8
0
 62
     0
370
    -2
100
AcDbLine
 10
-78135.77155979507
 20
-74856.51829536862
 30
0.0
 11
-78135.77155979507
 21
-74941.52274707937
 31
0.0
  0
LINE
  5
3CB84
330
3CB7F
100
AcDbEntity
  8
0
 62
     0
370
    -2
100
AcDbLine
 10
-78135.77155979507
 20
-74801.5183002352
 30
0.0
 11
-78135.77155979507
 21
-74826.51829536862
 31
0.0
  0
SOLID
  5
3CB85
330
3CB7F
100
AcDbEntity
  8
0
 62
     0
100
AcDbTrace
 10
-78140.77155979507
 20
-74771.5183002352
 30
0.0
 11
-78130.77155979507
 21
-74771.5183002352
 31
0.0
 12
-78135.77155979507
 22
-74801.5183002352
 32
0.0
 13
-78135.77155979507
 23
-74801.5183002352
 33
0.0
  0
SOLID
  5
3CB86
330
3CB7F
100
AcDbEntity
  8
0
 62
     0
100
AcDbTrace
 10
-78140.77155979507
 20
-74856.51829536862
 30
0.0
 11
-78130.77155979507
 21
-74856.51829536862
 31
0.0
 12
-78135.77155979507
 22
-74826.51829536862
 32
0.0
 13
-78135.77155979507
 23
-74826.51829536862
 33
0.0
  0
MTEXT
  5
3CB87
330
3CB7F
100
AcDbEntity
  8
0
 62
     0
100
AcDbMText
 10
-78160.77451255099
 20
-74914.02052122401
 30
0.0
 40
30.0
 41
0.0
 71
     5
 72
     1
  1
\A1;25
 11
0.0000000000000001
 21
1.0
 31
0.0
 73
     1
 44
1.0
1001
ACAD
1000
MTEXTBEGIN
1070
    73
1070
     1
1070
    44
1040
1.0
1070
    74
1070
     0
1000
MTEXTEND
  0
POINT
  5
3CB88
330
3CB7F
100
AcDbEntity
  8
DEFPOINTS
 62
     0
100
AcDbPoint
 10
-78180.726194962
 20
-74801.5183002352
 30
0.0
  0
POINT
  5
3CB89
330
3CB7F
100
AcDbEntity
  8
DEFPOINTS
 62
     0
100
AcDbPoint
 10
-78180.72619484722
 20
-74826.51829536862
 30
0.0
  0
POINT
  5
3CB8A
330
3CB7F
100
AcDbEntity
  8
DEFPOINTS
 62
     0
100
AcDbPoint
 10
-78135.77155979507
 20
-74826.51829536862
 30
0.0
  0
ENDBLK
  5
3CB8C
330
3CB7F
100
AcDbEntity
  8
0
100
AcDbBlockEnd
  0
BLOCK
  5
3CB98
330
3CB8E
100
AcDbEntity
  8
0
100
AcDbBlockBegin
  2
*D12
 70
     1
 10
0.0
 20
0.0
 30
0.0
  3
*D12
  1

  0
LINE
  5
3CB8F
330
3CB8E
100
AcDbEntity
  8
0
 62
     0
370
    -2
100
AcDbLine
 10
-78333.22619939546
 20
-74754.51828635718
 30
0.0
 11
-78333.22619939546
 21
-74681.81490675389
 31
0.0
  0
LINE
  5
3CB90
330
3CB8E
100
AcDbEntity
  8
0
 62
     0
370
    -2
100
AcDbLine
 10
-77731.22619519916
 20
-74754.51828677817
 30
0.0
 11
-77731.22619519916
 21
-74681.81490675389
 31
0.0
  0
LINE
  5
3CB91
330
3CB8E
100
AcDbEntity
  8
0
 62
     0
370
    -2
100
AcDbLine
 10
-78303.22619939546
 20
-74691.81490675389
 30
0.0
 11
-77761.22619519915
 21
-74691.81490675389
 31
0.0
  0
SOLID
  5
3CB92
330
3CB8E
100
AcDbEntity
  8
0
 62
     0
100
AcDbTrace
 10
-78303.22619939546
 20
-74686.81490675389
 30
0.0
 11
-78303.22619939546
 21
-74696.81490675389
 31
0.0
 12
-78333.22619939546
 22
-74691.81490675389
 32
0.0
 13
-78333.22619939546
 23
-74691.81490675389
 33
0.0
  0
SOLID
  5
3CB93
330
3CB8E
100
AcDbEntity
  8
0
 62
     0
100
AcDbTrace
 10
-77761.22619519915
 20
-74686.81490675389
 30
0.0
 11
-77761.22619519915
 21
-74696.81490675389
 31
0.0
 12
-77731.22619519916
 22
-74691.81490675389
 32
0.0
 13
-77731.22619519916
 23
-74691.81490675389
 33
0.0
  0
MTEXT
  5
3CB94
330
3CB8E
100
AcDbEntity
  8
0
 62
     0
100
AcDbMText
 10
-78032.22619729732
 20
-74666.81195399798
 30
0.0
 40
30.0
 41
0.0
 71
     5
 72
     1
  1
\A1;602
 73
     1
 44
1.0
1001
ACAD
1000
MTEXTBEGIN
1070
    73
1070
     1
1070
    44
1040
1.0
1070
    74
1070
     0
1000
MTEXTEND
  0
POINT
  5
3CB95
330
3CB8E
100
AcDbEntity
  8
DEFPOINTS
 62
     0
100
AcDbPoint
 10
-78333.22619939546
 20
-74754.51828635718
 30
0.0
  0
POINT
  5
3CB96
330
3CB8E
100
AcDbEntity
  8
DEFPOINTS
 62
     0
100
AcDbPoint
 10
-77731.22619519916
 20
-74754.51828677817
 30
0.0
  0
POINT
  5
3CB97
330
3CB8E
100
AcDbEntity
  8
DEFPOINTS
 62
     0
100
AcDbPoint
 10
-77731.22619519916
 20
-74691.81490675389
 30
0.0
  0
ENDBLK
  5
3CB99
330
3CB8E
100
AcDbEntity
  8
0
100
AcDbBlockEnd
  0
BLOCK
  5
3CBA5
330
3CB9B
100
AcDbEntity
  8
0
100
AcDbBlockBegin
  2
*D13
 70
     1
 10
0.0
 20
0.0
 30
0.0
  3
*D13
  1

  0
LINE
  5
3CB9C
330
3CB9B
100
AcDbEntity
  8
0
 62
     0
370
    -2
100
AcDbLine
 10
-78333.22619519746
 20
-74754.51828635718
 30
0.0
 11
-78333.22619519746
 21
-74692.64556913309
 31
0.0
  0
LINE
  5
3CB9D
330
3CB9B
100
AcDbEntity
  8
0
 62
     0
370
    -2
100
AcDbLine
 10
-77733.22619519915
 20
-74754.51828677817
 30
0.0
 11
-77733.22619519915
 21
-74692.64556913309
 31
0.0
  0
LINE
  5
3CB9E
330
3CB9B
100
AcDbEntity
  8
0
 62
     0
370
    -2
100
AcDbLine
 10
-78303.22619519747
 20
-74702.64556913312
 30
0.0
 11
-77763.22619519915
 21
-74702.64556913312
 31
0.0
  0
SOLID
  5
3CB9F
330
3CB9B
100
AcDbEntity
  8
0
 62
     0
100
AcDbTrace
 10
-78303.22619519747
 20
-74697.64556913309
 30
0.0
 11
-78303.22619519747
 21
-74707.64556913309
 31
0.0
 12
-78333.22619519746
 22
-74702.64556913312
 32
0.0
 13
-78333.22619519746
 23
-74702.64556913312
 33
0.0
  0
SOLID
  5
3CBA0
330
3CB9B
100
AcDbEntity
  8
0
 62
     0
100
AcDbTrace
 10
-77763.22619519915
 20
-74697.64556913309
 30
0.0
 11
-77763.22619519915
 21
-74707.64556913309
 31
0.0
 12
-77733.22619519915
 22
-74702.64556913312
 32
0.0
 13
-77733.22619519915
 23
-74702.64556913312
 33
0.0
  0
MTEXT
  5
3CBA1
330
3CB9B
100
AcDbEntity
  8
0
 62
     0
100
AcDbMText
 10
-78033.22619519831
 20
-74677.64556913309
 30
0.0
 40
30.0
 41
0.0
 71
     5
 72
     1
  1
\A1;600
 73
     1
 44
1.0
1001
ACAD
1000
MTEXTBEGIN
1070
    73
1070
     1
1070
    44
1040
1.0
1070
    74
1070
     0
1000
MTEXTEND
  0
POINT
  5
3CBA2
330
3CB9B
100
AcDbEntity
  8
DEFPOINTS
 62
     0
100
AcDbPoint
 10
-78333.22619519746
 20
-74754.51828635718
 30
0.0
  0
POINT
  5
3CBA3
330
3CB9B
100
AcDbEntity
  8
DEFPOINTS
 62
     0
100
AcDbPoint
 10
-77733.22619519915
 20
-74754.51828677817
 30
0.0
  0
POINT
  5
3CBA4
330
3CB9B
100
AcDbEntity
  8
DEFPOINTS
 62
     0
100
AcDbPoint
 10
-77733.22619519915
 20
-74702.64556913312
 30
0.0
  0
ENDBLK
  5
3CBA6
330
3CB9B
100
AcDbEntity
  8
0
100
AcDbBlockEnd
  0
BLOCK
  5
3CBC1
330
3CBB7
100
AcDbEntity
  8
0
100
AcDbBlockBegin
  2
*D14
 70
     1
 10
0.0
 20
0.0
 30
0.0
  3
*D14
  1

  0
LINE
  5
3CBD0
330
3CBB7
100
AcDbEntity
  8
0
 62
     0
370
    -2
100
AcDbLine
 10
-78346.2261985043
 20
-74547.59145628446
 30
0.0
 11
-78346.2261985043
 21
-74446.7452073736
 31
0.0
  0
LINE
  5
3CBD1
330
3CBB7
100
AcDbEntity
  8
0
 62
     0
370
    -2
100
AcDbLine
 10
-77723.22619268532
 20
-74547.59133907606
 30
0.0
 11
-77723.22619268532
 21
-74446.7452073736
 31
0.0
  0
LINE
  5
3CBD2
330
3CBB7
100
AcDbEntity
  8
0
 62
     0
370
    -2
100
AcDbLine
 10
-78316.2261985043
 20
-74456.74520737361
 30
0.0
 11
-77753.22619268532
 21
-74456.74520737361
 31
0.0
  0
SOLID
  5
3CBD3
330
3CBB7
100
AcDbEntity
  8
0
 62
     0
100
AcDbTrace
 10
-78316.2261985043
 20
-74451.7452073736
 30
0.0
 11
-78316.2261985043
 21
-74461.7452073736
 31
0.0
 12
-78346.2261985043
 22
-74456.74520737361
 32
0.0
 13
-78346.2261985043
 23
-74456.74520737361
 33
0.0
  0
SOLID
  5
3CBD4
330
3CBB7
100
AcDbEntity
  8
0
 62
     0
100
AcDbTrace
 10
-77753.22619268532
 20
-74451.7452073736
 30
0.0
 11
-77753.22619268532
 21
-74461.7452073736
 31
0.0
 12
-77723.22619268532
 22
-74456.74520737361
 32
0.0
 13
-77723.22619268532
 23
-74456.74520737361
 33
0.0
  0
MTEXT
  5
3CBD5
330
3CBB7
100
AcDbEntity
  8
0
 62
     0
100
AcDbMText
 10
-78034.72619559482
 20
-74431.7422546177
 30
0.0
 40
30.0
 41
0.0
 71
     5
 72
     1
  1
\A1;623.00
 73
     1
 44
1.0
1001
ACAD
1000
MTEXTBEGIN
1070
    73
1070
     1
1070
    44
1040
1.0
1070
    74
1070
     0
1000
MTEXTEND
  0
POINT
  5
3CBD6
330
3CBB7
100
AcDbEntity
  8
DEFPOINTS
 62
     0
100
AcDbPoint
 10
-78346.2261985043
 20
-74547.59145628446
 30
0.0
  0
POINT
  5
3CBD7
330
3CBB7
100
AcDbEntity
  8
DEFPOINTS
 62
     0
100
AcDbPoint
 10
-77723.22619268532
 20
-74547.59133907606
 30
0.0
  0
POINT
  5
3CBD8
330
3CBB7
100
AcDbEntity
  8
DEFPOINTS
 62
     0
100
AcDbPoint
 10
-77723.22619268532
 20
-74456.74520737361
 30
0.0
  0
ENDBLK
  5
3CBC2
330
3CBB7
100
AcDbEntity
  8
0
100
AcDbBlockEnd
  0
BLOCK
  5
3CBCE
330
3CBC4
100
AcDbEntity
  8
0
100
AcDbBlockBegin
  2
*D15
 70
     1
 10
0.0
 20
0.0
 30
0.0
  3
*D15
  1

  0
LINE
  5
3CBD9
330
3CBC4
100
AcDbEntity
  8
0
 62
     0
370
    -2
100
AcDbLine
 10
-78346.22619843287
 20
-74789.01828744507
 30
0.0
 11
-78346.22619843287
 21
-74694.5558541105
 31
0.0
  0
LINE
  5
3CBDA
330
3CBC4
100
AcDbEntity
  8
0
 62
     0
370
    -2
100
AcDbLine
 10
-77720.2261932184
 20
-74789.01828744155
 30
0.0
 11
-77720.2261932184
 21
-74694.5558541105
 31
0.0
  0
LINE
  5
3CBDB
330
3CBC4
100
AcDbEntity
  8
0
 62
     0
370
    -2
100
AcDbLine
 10
-78316.22619843287
 20
-74704.5558541105
 30
0.0
 11
-77750.2261932184
 21
-74704.5558541105
 31
0.0
  0
SOLID
  5
3CBDC
330
3CBC4
100
AcDbEntity
  8
0
 62
     0
100
AcDbTrace
 10
-78316.22619843287
 20
-74699.55585411049
 30
0.0
 11
-78316.22619843287
 21
-74709.5558541105
 31
0.0
 12
-78346.22619843287
 22
-74704.5558541105
 32
0.0
 13
-78346.22619843287
 23
-74704.5558541105
 33
0.0
  0
SOLID
  5
3CBDD
330
3CBC4
100
AcDbEntity
  8
0
 62
     0
100
AcDbTrace
 10
-77750.2261932184
 20
-74699.55585411049
 30
0.0
 11
-77750.2261932184
 21
-74709.5558541105
 31
0.0
 12
-77720.2261932184
 22
-74704.5558541105
 32
0.0
 13
-77720.2261932184
 23
-74704.5558541105
 33
0.0
  0
MTEXT
  5
3CBDE
330
3CBC4
100
AcDbEntity
  8
0
 62
     0
100
AcDbMText
 10
-78033.22619582564
 20
-74679.55290135459
 30
0.0
 40
30.0
 41
0.0
 71
     5
 72
     1
  1
\A1;626.00
 73
     1
 44
1.0
1001
ACAD
1000
MTEXTBEGIN
1070
    73
1070
     1
1070
    44
1040
1.0
1070
    74
1070
     0
1000
MTEXTEND
  0
POINT
  5
3CBDF
330
3CBC4
100
AcDbEntity
  8
DEFPOINTS
 62
     0
100
AcDbPoint
 10
-78346.22619843287
 20
-74789.01828744507
 30
0.0
  0
POINT
  5
3CBE0
330
3CBC4
100
AcDbEntity
  8
DEFPOINTS
 62
     0
100
AcDbPoint
 10
-77720.2261932184
 20
-74789.01828744155
 30
0.0
  0
POINT
  5
3CBE1
330
3CBC4
100
AcDbEntity
  8
DEFPOINTS
 62
     0
100
AcDbPoint
 10
-77720.2261932184
 20
-74704.5558541105
 30
0.0
  0
ENDBLK
  5
3CBCF
330
3CBC4
100
AcDbEntity
  8
0
100
AcDbBlockEnd
  0
BLOCK
  5
3CBEF
330
3CBE3
100
AcDbEntity
  8
0
100
AcDbBlockBegin
  2
*D16
 70
     1
 10
0.0
 20
0.0
 30
0.0
  3
*D16
  1

  0
LINE
  5
3CBE4
330
3CBE3
100
AcDbEntity
  8
0
 62
     0
370
    -2
100
AcDbLine
 10
-77783.93217815667
 20
-74826.51830939468
 30
0.0
 11
-77589.69964137139
 21
-74826.51830939468
 31
0.0
  0
LINE
  5
3CBE5
330
3CBE3
100
AcDbEntity
  8
0
 62
     0
370
    -2
100
AcDbLine
 10
-77734.22619519915
 20
-74754.51828677817
 30
0.0
 11
-77589.69964137139
 21
-74754.51828677817
 31
0.0
  0
LINE
  5
3CBE6
330
3CBE3
100
AcDbEntity
  8
0
 62
     0
370
    -2
100
AcDbLine
 10
-77599.69964137139
 20
-74856.51830939469
 30
0.0
 11
-77599.69964137139
 21
-74886.51830939468
 31
0.0
  0
LINE
  5
3CBE7
330
3CBE3
100
AcDbEntity
  8
0
 62
     0
370
    -2
100
AcDbLine
 10
-77599.69964137139
 20
-74724.51828677817
 30
0.0
 11
-77599.69964137139
 21
-74694.51828677817
 31
0.0
  0
LINE
  5
3CBE8
330
3CBE3
100
AcDbEntity
  8
0
 62
     0
370
    -2
100
AcDbLine
 10
-77599.69964137139
 20
-74826.51830939468
 30
0.0
 11
-77599.69964137139
 21
-74754.51828677817
 31
0.0
  0
SOLID
  5
3CBE9
330
3CBE3
100
AcDbEntity
  8
0
 62
     0
100
AcDbTrace
 10
-77604.69964137139
 20
-74856.51830939469
 30
0.0
 11
-77594.6996413714
 21
-74856.51830939469
 31
0.0
 12
-77599.69964137139
 22
-74826.51830939468
 32
0.0
 13
-77599.69964137139
 23
-74826.51830939468
 33
0.0
  0
SOLID
  5
3CBEA
330
3CBE3
100
AcDbEntity
  8
0
 62
     0
100
AcDbTrace
 10
-77604.69964137139
 20
-74724.51828677817
 30
0.0
 11
-77594.6996413714
 21
-74724.51828677817
 31
0.0
 12
-77599.69964137139
 22
-74754.51828677817
 32
0.0
 13
-77599.69964137139
 23
-74754.51828677817
 33
0.0
  0
MTEXT
  5
3CBEB
330
3CBE3
100
AcDbEntity
  8
0
 62
     0
100
AcDbMText
 10
-77624.70259412729
 20
-74790.51829808645
 30
0.0
 40
30.0
 41
0.0
 71
     5
 72
     1
  1
\A1;72
 11
0.0000000000000001
 21
1.0
 31
0.0
 73
     1
 44
1.0
1001
ACAD
1000
MTEXTBEGIN
1070
    73
1070
     1
1070
    44
1040
1.0
1070
    74
1070
     0
1000
MTEXTEND
  0
POINT
  5
3CBEC
330
3CBE3
100
AcDbEntity
  8
DEFPOINTS
 62
     0
100
AcDbPoint
 10
-77783.93217815667
 20
-74826.51830939468
 30
0.0
  0
POINT
  5
3CBED
330
3CBE3
100
AcDbEntity
  8
DEFPOINTS
 62
     0
100
AcDbPoint
 10
-77734.22619519915
 20
-74754.51828677817
 30
0.0
  0
POINT
  5
3CBEE
330
3CBE3
100
AcDbEntity
  8
DEFPOINTS
 62
     0
100
AcDbPoint
 10
-77599.69964137139
 20
-74754.51828677817
 30
0.0
  0
ENDBLK
  5
3CBF0
330
3CBE3
100
AcDbEntity
  8
0
100
AcDbBlockEnd
  0
BLOCK
  5
3CBFE
330
3CBF2
100
AcDbEntity
  8
0
100
AcDbBlockBegin
  2
*D17
 70
     1
 10
0.0
 20
0.0
 30
0.0
  3
*D17
  1

  0
LINE
  5
3CBF3
330
3CBF2
100
AcDbEntity
  8
0
 62
     0
370
    -2
100
AcDbLine
 10
-78482.34115451848
 20
-74535.09343057517
 30
0.0
 11
-78553.53709474787
 21
-74535.09343057517
 31
0.0
  0
LINE
  5
3CBF4
330
3CBF2
100
AcDbEntity
  8
0
 62
     0
370
    -2
100
AcDbLine
 10
-78482.34079431069
 20
-74560.09293347333
 30
0.0
 11
-78553.53709474787
 21
-74560.09293347333
 31
0.0
  0
LINE
  5
3CBF5
330
3CBF2
100
AcDbEntity
  8
0
 62
     0
370
    -2
100
AcDbLine
 10
-78543.53709474787
 20
-74505.09343057517
 30
0.0
 11
-78543.53709474787
 21
-74475.09343057517
 31
0.0
  0
LINE
  5
3CBF6
330
3CBF2
100
AcDbEntity
  8
0
 62
     0
370
    -2
100
AcDbLine
 10
-78543.53709474787
 20
-74590.09293347333
 30
0.0
 11
-78543.53709474787
 21
-74675.09738518408
 31
0.0
  0
LINE
  5
3CBF7
330
3CBF2
100
AcDbEntity
  8
0
 62
     0
370
    -2
100
AcDbLine
 10
-78543.53709474787
 20
-74535.09343057517
 30
0.0
 11
-78543.53709474787
 21
-74560.09293347333
 31
0.0
  0
SOLID
  5
3CBF8
330
3CBF2
100
AcDbEntity
  8
0
 62
     0
100
AcDbTrace
 10
-78548.53709474786
 20
-74505.09343057517
 30
0.0
 11
-78538.53709474787
 21
-74505.09343057517
 31
0.0
 12
-78543.53709474787
 22
-74535.09343057517
 32
0.0
 13
-78543.53709474787
 23
-74535.09343057517
 33
0.0
  0
SOLID
  5
3CBF9
330
3CBF2
100
AcDbEntity
  8
0
 62
     0
100
AcDbTrace
 10
-78548.53709474786
 20
-74590.09293347333
 30
0.0
 11
-78538.53709474787
 21
-74590.09293347333
 31
0.0
 12
-78543.53709474787
 22
-74560.09293347333
 32
0.0
 13
-78543.53709474787
 23
-74560.09293347333
 33
0.0
  0
MTEXT
  5
3CBFA
330
3CBF2
100
AcDbEntity
  8
0
 62
     0
100
AcDbMText
 10
-78568.54004750376
 20
-74647.59515932872
 30
0.0
 40
30.0
 41
0.0
 71
     5
 72
     1
  1
\A1;25
 11
0.0000000000000001
 21
1.0
 31
0.0
 73
     1
 44
1.0
1001
ACAD
1000
MTEXTBEGIN
1070
    73
1070
     1
1070
    44
1040
1.0
1070
    74
1070
     0
1000
MTEXTEND
  0
POINT
  5
3CBFB
330
3CBF2
100
AcDbEntity
  8
DEFPOINTS
 62
     0
100
AcDbPoint
 10
-78482.34115451848
 20
-74535.09343057517
 30
0.0
  0
POINT
  5
3CBFC
330
3CBF2
100
AcDbEntity
  8
DEFPOINTS
 62
     0
100
AcDbPoint
 10
-78482.34079431069
 20
-74560.09293347333
 30
0.0
  0
POINT
  5
3CBFD
330
3CBF2
100
AcDbEntity
  8
DEFPOINTS
 62
     0
100
AcDbPoint
 10
-78543.53709474787
 20
-74560.09293347333
 30
0.0
  0
ENDBLK
  5
3CBFF
330
3CBF2
100
AcDbEntity
  8
0
100
AcDbBlockEnd
  0
ENDSEC
  0
SECTION
  2
ENTITIES
  0
SPLINE
  5
3CA64
330
1A
100
AcDbEntity
  8
HEWI
100
AcDbSpline
210
0.0
220
0.0
230
1.0
 70
     8
 71
     2
 72
     6
 73
     3
 74
     0
 42
0.0000000001
 43
0.0000000001
 40
0.0
 40
0.0
 40
0.0
 40
25.99999999999909
 40
25.99999999999909
 40
25.99999999999909
 10
-78321.22619519303
 20
-74747.51828274031
 30
0.0
 10
-78332.22619520192
 20
-74747.51828743531
 30
0.0
 10
-78345.22619520194
 20
-74747.51828743531
 30
0.0
  0
SPLINE
  5
3CA65
330
1A
100
AcDbEntity
  8
HEWI
100
AcDbSpline
210
0.0
220
0.0
230
1.0
 70
    24
 71
     2
 72
     6
 73
     3
 74
     0
 42
0.0000000001
 43
0.0000000001
 40
0.0
 40
0.0
 40
0.0
 40
0.9990058067055544
 40
0.9990058067055544
 40
0.9990058067055544
 10
-78345.22619520194
 20
-74747.51828743531
 30
0.0
 10
-78345.72619519747
 20
-74747.51828743531
 30
0.0
 10
-78346.22619519302
 20
-74747.51828743531
 30
0.0
  0
SPLINE
  5
3CA66
330
1A
100
AcDbEntity
  8
HEWI
100
AcDbSpline
210
0.0
220
0.0
230
1.0
 70
    12
 71
     2
 72
     6
 73
     3
 74
     0
 42
0.0000000001
 43
0.0000000001
 40
0.0
 40
0.0
 40
0.0
 40
69.00000001948168
 40
69.00000001948168
 40
69.00000001948168
 10
-78346.22619519302
 20
-74747.51828743531
 30
0.0
 41
1.0
 10
-78346.22618871396
 20
-74789.01828744504
 30
0.0
 41
0.9999999999998411
 10
-78346.22622111045
 20
-74823.51828745477
 30
0.0
 41
1.0
  0
SPLINE
  5
3CA67
330
1A
100
AcDbEntity
  8
HEWI
100
AcDbSpline
210
0.0
220
0.0
230
1.0
 70
    12
 71
     2
 72
     8
 73
     5
 74
     0
 42
0.0000000001
 43
0.0000000001
 40
0.0
 40
0.0
 40
0.0
 40
2.356264979575601
 40
2.356264979575601
 40
4.712529959147389
 40
4.712529959147389
 40
4.712529959147389
 10
-78346.22622111045
 20
-74823.51828745477
 30
0.0
 41
1.0
 10
-78346.22632347068
 20
-74824.76098003878
 30
0.0
 41
0.9238634492288737
 10
-78345.34760563435
 20
-74825.6396949146
 30
0.0
 41
1.0
 10
-78344.46888779805
 20
-74826.51840979043
 30
0.0
 41
0.9238634492289971
 10
-78343.22619521437
 20
-74826.51830329079
 30
0.0
 41
0.9999999999997536
  0
SPLINE
  5
3CA68
330
1A
100
AcDbEntity
  8
HEWI
100
AcDbSpline
210
0.0
220
0.0
230
1.0
 70
    12
 71
     2
 72
     6
 73
     3
 74
     0
 42
0.0000000001
 43
0.0000000001
 40
0.0
 40
0.0
 40
0.0
 40
322.0071084978713
 40
322.0071084978713
 40
322.0071084978713
 10
-78343.22619521437
 20
-74826.51830329079
 30
0.0
 41
1.0
 10
-78182.22264096544
 20
-74826.51828337404
 30
0.0
 41
0.9999999999999914
 10
-77723.22602591134
 20
-74826.51831320062
 30
0.0
 41
0.999999999999996
  0
SPLINE
  5
3CA69
330
1A
100
AcDbEntity
  8
HEWI
100
AcDbSpline
210
0.0
220
0.0
230
1.0
 70
    12
 71
     2
 72
    12
 73
     9
 74
     0
 42
0.0000000001
 43
0.0000000001
 40
0.0
 40
0.0
 40
0.0
 40
1.081355769544572
 40
1.081355769544572
 40
2.356173053229834
 40
2.356173053229834
 40
3.630943515214466
 40
3.630943515214466
 40
4.712320205791459
 40
4.712320205791459
 40
4.712320205791459
 10
-77724.22619518246
 20
-74826.51831333043
 30
0.0
 41
0.9999999999996196
 10
-77723.67964452013
 20
-74826.51790953775
 30
0.0
 41
0.9839595101881439
 10
-77723.16802212897
 20
-74826.32565887217
 30
0.0
 41
1.0
 10
-77722.56269926393
 20
-74826.09691278537
 30
0.0
 41
0.9776820454573304
 10
-77722.10478112127
 20
-74825.63969126591
 30
0.0
 41
1.0
 10
-77721.64759067813
 20
-74825.18177725636
 30
0.0
 41
0.9776845577072876
 10
-77721.41885674964
 20
-74824.57647639612
 30
0.0
 41
1.0
 10
-77721.22658411053
 20
-74824.0648497872
 30
0.0
 41
0.9839565426201659
 10
-77721.2261793863
 20
-74823.51828744775
 30
0.0
 41
1.0
  0
SPLINE
  5
3CA6A
330
1A
100
AcDbEntity
  8
HEWI
100
AcDbSpline
210
0.0
220
0.0
230
1.0
 70
    12
 71
     2
 72
     6
 73
     3
 74
     0
 42
0.0000000001
 43
0.0000000001
 40
0.0
 40
0.0
 40
0.0
 40
69.0000000124505
 40
69.0000000124505
 40
69.0000000124505
 10
-77721.2261793863
 20
-74823.51828744775
 30
0.0
 41
1.0
 10
-77721.22619914547
 20
-74789.01828744151
 30
0.0
 41
0.9999999999999408
 10
-77721.22619519637
 20
-74747.51828743531
 30
0.0
 41
1.0
  0
SPLINE
  5
3CA6B
330
1A
100
AcDbEntity
  8
HEWI
100
AcDbSpline
210
0.0
220
0.0
230
1.0
 70
    24
 71
     2
 72
     6
 73
     3
 74
     0
 42
0.0000000001
 43
0.0000000001
 40
0.0
 40
0.0
 40
0.0
 40
1.0
 40
1.0
 40
1.0
 10
-77721.22619519637
 20
-74747.51828743531
 30
0.0
 10
-77721.72619519918
 20
-74747.51828743531
 30
0.0
 10
-77722.22619520191
 20
-74747.51828743531
 30
0.0
  0
SPLINE
  5
3CA6C
330
1A
100
AcDbEntity
  8
HEWI
100
AcDbSpline
210
0.0
220
0.0
230
1.0
 70
     8
 71
     2
 72
     6
 73
     3
 74
     0
 42
0.0000000001
 43
0.0000000001
 40
0.0
 40
0.0
 40
0.0
 40
26.0
 40
26.0
 40
26.0
 10
-77722.22619520191
 20
-74747.51828743531
 30
0.0
 10
-77735.22619520192
 20
-74747.51828743531
 30
0.0
 10
-77746.22619519638
 20
-74747.51828457362
 30
0.0
  0
SPLINE
  5
3CA6D
330
1A
100
AcDbEntity
  8
HEWI
100
AcDbSpline
210
0.0
220
0.0
230
1.0
 70
    24
 71
     2
 72
     6
 73
     3
 74
     0
 42
0.0000000001
 43
0.0000000001
 40
0.0
 40
0.0
 40
0.0
 40
1.0
 40
1.0
 40
1.0
 10
-77745.22619535557
 20
-74747.51828713632
 30
0.0
 10
-77745.72619535557
 20
-74747.51828713632
 30
0.0
 10
-77746.22619535557
 20
-74747.51828713629
 30
0.0
  0
SPLINE
  5
3CA6E
330
1A
100
AcDbEntity
  8
HEWI
100
AcDbSpline
210
0.0
220
0.0
230
1.0
 70
     8
 71
     2
 72
     6
 73
     3
 74
     0
 42
0.0000000001
 43
0.0000000001
 40
0.0
 40
0.0
 40
0.0
 40
43.00000000000037
 40
43.00000000000037
 40
43.00000000000037
 10
-77746.22619551477
 20
-74747.51828969895
 30
0.0
 10
-77746.22619535557
 20
-74776.01828713632
 30
0.0
 10
-77746.22619535557
 20
-74797.51828713632
 30
0.0
  0
SPLINE
  5
3CA6F
330
1A
100
AcDbEntity
  8
HEWI
100
AcDbSpline
210
0.0
220
0.0
230
1.0
 70
    12
 71
     2
 72
     8
 73
     5
 74
     0
 42
0.0000000001
 43
0.0000000001
 40
0.0
 40
0.0
 40
0.0
 40
0.785417774742287
 40
0.785417774742287
 40
1.570835549484573
 40
1.570835549484573
 40
1.570835549484573
 10
-77746.22619503881
 20
-74800.51830001178
 30
0.0
 41
1.0
 10
-77746.22615718746
 20
-74800.93252925168
 30
0.0
 41
0.9238620471494344
 10
-77746.51906149317
 20
-74801.22543355743
 30
0.0
 41
1.0
 10
-77746.81196579887
 20
-74801.51833786316
 30
0.0
 41
0.9238620471494344
 10
-77747.2261950388
 20
-74801.51830001179
 30
0.0
 41
1.0
  0
SPLINE
  5
3CA71
330
1A
100
AcDbEntity
  8
HEWI
100
AcDbSpline
210
0.0
220
0.0
230
1.0
 70
    12
 71
     2
 72
     8
 73
     5
 74
     0
 42
0.0000000001
 43
0.0000000001
 40
0.0
 40
0.0
 40
0.0
 40
0.7854177747426096
 40
0.7854177747426096
 40
1.570835549485219
 40
1.570835549485219
 40
1.570835549485219
 10
-78320.22619460677
 20
-74801.5183006305
 30
0.0
 41
1.0
 10
-78320.64042384669
 20
-74801.51833848188
 30
0.0
 41
0.9238620471493172
 10
-78320.93332815241
 20
-74801.22543417612
 30
0.0
 41
1.0
 10
-78321.22623245815
 20
-74800.93252987039
 30
0.0
 41
0.9238620471493172
 10
-78321.22619460677
 20
-74800.5183006305
 30
0.0
 41
1.0
  0
SPLINE
  5
3CA72
330
1A
100
AcDbEntity
  8
HEWI
100
AcDbSpline
210
0.0
220
0.0
230
1.0
 70
     8
 71
     2
 72
     6
 73
     3
 74
     0
 42
0.0000000001
 43
0.0000000001
 40
0.0
 40
0.0
 40
0.0
 40
43.00000000000014
 40
43.00000000000014
 40
43.00000000000014
 10
-78321.22619460677
 20
-74800.51830063047
 30
0.0
 10
-78321.22619492981
 20
-74776.01828694536
 30
0.0
 10
-78321.22619492981
 20
-74747.51828694535
 30
0.0
  0
SPLINE
  5
3CA73
330
1A
100
AcDbEntity
  8
HEWI
100
AcDbSpline
210
0.0
220
0.0
230
1.0
 70
    24
 71
     2
 72
     6
 73
     3
 74
     0
 42
0.0000000001
 43
0.0000000001
 40
0.0
 40
0.0
 40
0.0
 40
1.000000000000909
 40
1.000000000000909
 40
1.000000000000909
 10
-78321.22619492981
 20
-74747.51828694535
 30
0.0
 10
-78321.72619492981
 20
-74747.51828694535
 30
0.0
 10
-78322.22619492981
 20
-74747.51828694535
 30
0.0
  0
SPLINE
  5
3CA74
330
1A
100
AcDbEntity
  8
HEWI
100
AcDbSpline
210
0.0
220
0.0
230
1.0
 70
    12
 71
     2
 72
     6
 73
     3
 74
     0
 42
0.0000000001
 43
0.0000000001
 40
0.0
 40
0.0
 40
0.0
 40
26.00000000002713
 40
26.00000000002713
 40
26.00000000002713
 10
-78346.22621356767
 20
-74536.08948199375
 30
0.0
 41
1.0
 10
-78346.22618476871
 20
-74546.09343057517
 30
0.0
 41
0.9999999999971027
 10
-78346.22621101206
 20
-74559.09343057517
 30
0.0
 41
1.0
  0
SPLINE
  5
3CA75
330
1A
100
AcDbEntity
  8
HEWI
100
AcDbSpline
210
0.0
220
0.0
230
1.0
 70
    12
 71
     2
 72
     8
 73
     5
 74
     0
 42
0.0000000001
 43
0.0000000001
 40
0.0
 40
0.0
 40
0.0
 40
0.7853889924635534
 40
0.7853889924635534
 40
1.570820684875215
 40
1.570820684875215
 40
1.570820684875215
 10
-78346.22621101206
 20
-74559.09343057517
 30
0.0
 41
1.0
 10
-78346.22625968012
 20
-74559.5076472035
 30
0.0
 41
0.92385362838485
 10
-78345.93335905553
 20
-74559.80053735636
 30
0.0
 41
1.0
 10
-78345.64044686242
 20
-74560.09343566597
 30
0.0
 41
0.9238817156773432
 10
-78345.22621628339
 20
-74560.09343057517
 30
0.0
 41
1.0
  0
SPLINE
  5
3CA76
330
1A
100
AcDbEntity
  8
HEWI
100
AcDbSpline
210
0.0
220
0.0
230
1.0
 70
    24
 71
     2
 72
     6
 73
     3
 74
     0
 42
0.0000000001
 43
0.0000000001
 40
0.0
 40
0.0
 40
0.0
 40
2.000021071876175
 40
2.000021071876175
 40
2.000021071876175
 10
-78345.22621628339
 20
-74560.09343057517
 30
0.0
 10
-78344.22620574746
 20
-74560.09343057517
 30
0.0
 10
-78343.22619521152
 20
-74560.09343057517
 30
0.0
  0
SPLINE
  5
3CA77
330
1A
100
AcDbEntity
  8
HEWI
100
AcDbSpline
210
0.0
220
0.0
230
1.0
 70
    24
 71
     2
 72
     6
 73
     3
 74
     0
 42
0.0000000001
 43
0.0000000001
 40
0.0
 40
0.0
 40
0.0
 40
321.000027357924
 40
321.000027357924
 40
321.000027357924
 10
-78343.22619521152
 20
-74560.09343057517
 30
0.0
 10
-78182.72618153255
 20
-74560.09343057517
 30
0.0
 10
-77724.22616785363
 20
-74560.09343057517
 30
0.0
  0
SPLINE
  5
3CA78
330
1A
100
AcDbEntity
  8
HEWI
100
AcDbSpline
210
0.0
220
0.0
230
1.0
 70
    24
 71
     2
 72
     6
 73
     3
 74
     0
 42
0.0000000001
 43
0.0000000001
 40
0.0
 40
0.0
 40
0.0
 40
2.00001725901302
 40
2.00001725901302
 40
2.00001725901302
 10
-77724.22619518343
 20
-74560.09343057517
 30
0.0
 10
-77723.22618655389
 20
-74560.09343057517
 30
0.0
 10
-77722.2261779244
 20
-74560.09343057517
 30
0.0
  0
SPLINE
  5
3CA79
330
1A
100
AcDbEntity
  8
HEWI
100
AcDbSpline
210
0.0
220
0.0
230
1.0
 70
    12
 71
     2
 72
     8
 73
     5
 74
     0
 42
0.0000000001
 43
0.0000000001
 40
0.0
 40
0.0
 40
0.0
 40
0.7854256367649785
 40
0.7854256367649785
 40
1.570816285309748
 40
1.570816285309748
 40
1.570816285309748
 10
-77722.2261779244
 20
-74560.09343057517
 30
0.0
 41
1.0
 10
-77721.81195041872
 20
-74560.09343474656
 30
0.0
 41
0.9238813213407995
 10
-77721.51904165257
 20
-74559.80053735636
 30
0.0
 41
1.0
 10
-77721.22614236574
 20
-74559.5076466499
 30
0.0
 41
0.9238583073135318
 10
-77721.22618224367
 20
-74559.09343057517
 30
0.0
 41
1.0
  0
SPLINE
  5
3CA7A
330
1A
100
AcDbEntity
  8
HEWI
100
AcDbSpline
210
0.0
220
0.0
230
1.0
 70
    12
 71
     2
 72
     6
 73
     3
 74
     0
 42
0.0000000001
 43
0.0000000001
 40
0.0
 40
0.0
 40
0.0
 40
26.00000000001215
 40
26.00000000001215
 40
26.00000000001215
 10
-77721.22618224393
 20
-74559.09343057517
 30
0.0
 41
1.0
 10
-77721.2262023921
 20
-74546.09343057517
 30
0.0
 41
0.9999999999986227
 10
-77721.22618411755
 20
-74536.09023551901
 30
0.0
 41
1.0
  0
SPLINE
  5
3CA7B
330
1A
100
AcDbEntity
  8
HEWI
100
AcDbSpline
210
0.0
220
0.0
230
1.0
 70
    12
 71
     2
 72
     8
 73
     5
 74
     0
 42
0.0000000001
 43
0.0000000001
 40
0.0
 40
0.0
 40
0.0
 40
0.7853889923814404
 40
0.7853889923814404
 40
1.57082068508596
 40
1.57082068508596
 40
1.57082068508596
 10
-77721.22617938781
 20
-74536.09343057517
 30
0.0
 41
1.0
 10
-77721.22613071933
 20
-74535.67921394681
 30
0.0
 41
0.9238536281841266
 10
-77721.51903134401
 20
-74535.38632379398
 30
0.0
 41
1.0
 10
-77721.81194353728
 20
-74535.09342548433
 30
0.0
 41
0.9238817156888556
 10
-77722.22617411644
 20
-74535.09343057517
 30
0.0
 41
1.0
  0
SPLINE
  5
3CA7C
330
1A
100
AcDbEntity
  8
HEWI
100
AcDbSpline
210
0.0
220
0.0
230
1.0
 70
    24
 71
     2
 72
     6
 73
     3
 74
     0
 42
0.0000000001
 43
0.0000000001
 40
0.0
 40
0.0
 40
0.0
 40
2.000021070554564
 40
2.000021070554564
 40
2.000021070554564
 10
-77722.22617411644
 20
-74535.09343057517
 30
0.0
 10
-77723.22618465171
 20
-74535.09343057517
 30
0.0
 10
-77724.22619518697
 20
-74535.09343057517
 30
0.0
  0
SPLINE
  5
3CA7D
330
1A
100
AcDbEntity
  8
HEWI
100
AcDbSpline
210
0.0
220
0.0
230
1.0
 70
    24
 71
     2
 72
     6
 73
     3
 74
     0
 42
0.0000000001
 43
0.0000000001
 40
100.999966638891
 40
100.999966638891
 40
100.999966638891
 40
422.0000000279862
 40
422.0000000279862
 40
422.0000000279862
 10
-77724.22619518699
 20
-74535.09343057517
 30
0.0
 10
-78182.72617852043
 20
-74535.09343057517
 30
0.0
 10
-78343.22619521497
 20
-74535.09343057517
 30
0.0
  0
SPLINE
  5
3CA7E
330
1A
100
AcDbEntity
  8
HEWI
100
AcDbSpline
210
0.0
220
0.0
230
1.0
 70
    24
 71
     2
 72
     6
 73
     3
 74
     0
 42
0.0000000001
 43
0.0000000001
 40
0.0
 40
0.0
 40
0.0
 40
2.000017260456389
 40
2.000017260456389
 40
2.000017260456389
 10
-78343.22619521497
 20
-74535.09343057517
 30
0.0
 10
-78344.22620384517
 20
-74535.09343057517
 30
0.0
 10
-78345.22621247543
 20
-74535.09343057517
 30
0.0
  0
SPLINE
  5
3CA7F
330
1A
100
AcDbEntity
  8
HEWI
100
AcDbSpline
210
0.0
220
0.0
230
1.0
 70
    12
 71
     2
 72
     8
 73
     5
 74
     0
 42
0.0000000001
 43
0.0000000001
 40
0.0
 40
0.0
 40
0.0
 40
0.7854256366862212
 40
0.7854256366862212
 40
1.570819614067073
 40
1.570819614067073
 40
1.570819614067073
 10
-78345.22621247543
 20
-74535.09343057517
 30
0.0
 41
1.0
 10
-78345.64043998107
 20
-74535.09342640379
 30
0.0
 41
0.9238813213618898
 10
-78345.93334874718
 20
-74535.38632379398
 30
0.0
 41
1.0
 10
-78346.22624749982
 20
-74535.67921472107
 30
0.0
 41
0.9238647863986138
 10
-78346.22622111259
 20
-74536.09343057517
 30
0.0
 41
1.0
  0
SPLINE
  5
3CA80
330
1A
100
AcDbEntity
  8
HEWI
100
AcDbSpline
210
0.0
220
0.0
230
1.0
 70
    24
 71
     2
 72
     6
 73
     3
 74
     0
 42
0.0000000001
 43
0.0000000001
 40
0.0
 40
0.0
 40
0.0
 40
26.0
 40
26.0
 40
26.0
 10
-78447.84115451103
 20
-74559.09343057517
 30
0.0
 10
-78447.84115451103
 20
-74546.09343057517
 30
0.0
 10
-78447.84115451103
 20
-74535.09343057517
 30
0.0
  0
SPLINE
  5
3CA81
330
1A
100
AcDbEntity
  8
HEWI
100
AcDbSpline
210
0.0
220
0.0
230
1.0
 70
    24
 71
     2
 72
     6
 73
     3
 74
     0
 42
0.0000000001
 43
0.0000000001
 40
0.0
 40
0.0
 40
0.0
 40
1.0
 40
1.0
 40
1.0
 10
-78447.84115451103
 20
-74536.09343057517
 30
0.0
 10
-78447.84115451103
 20
-74535.59343057517
 30
0.0
 10
-78447.84115451103
 20
-74535.09343057517
 30
0.0
  0
SPLINE
  5
3CA82
330
1A
100
AcDbEntity
  8
HEWI
100
AcDbSpline
210
0.0
220
0.0
230
1.0
 70
    24
 71
     2
 72
     6
 73
     3
 74
     0
 42
0.0000000001
 43
0.0000000001
 40
0.0
 40
0.0
 40
0.0
 40
69.00000001489411
 40
69.00000001489411
 40
69.00000001489411
 10
-78447.84115451103
 20
-74535.09343057517
 30
0.0
 10
-78482.34115451846
 20
-74535.09343057517
 30
0.0
 10
-78523.84115452593
 20
-74535.09343057517
 30
0.0
  0
SPLINE
  5
3CA83
330
1A
100
AcDbEntity
  8
HEWI
100
AcDbSpline
210
0.0
220
0.0
230
1.0
 70
    24
 71
     2
 72
     6
 73
     3
 74
     0
 42
0.0000000001
 43
0.0000000001
 40
0.0
 40
0.0
 40
0.0
 40
2.000017260021423
 40
2.000017260021423
 40
2.000017260021423
 10
-78523.84115452593
 20
-74535.09343057517
 30
0.0
 10
-78524.84116315593
 20
-74535.09343057517
 30
0.0
 10
-78525.84117178594
 20
-74535.09343057517
 30
0.0
  0
SPLINE
  5
3CA84
330
1A
100
AcDbEntity
  8
HEWI
100
AcDbSpline
210
0.0
220
0.0
230
1.0
 70
    12
 71
     2
 72
     8
 73
     5
 74
     0
 42
0.0000000001
 43
0.0000000001
 40
0.0
 40
0.0
 40
0.0
 40
0.7854256362811034
 40
0.7854256362811034
 40
1.570819613925013
 40
1.570819613925013
 40
1.570819613925013
 10
-78525.84117178594
 20
-74535.09343057517
 30
0.0
 41
1.0
 10
-78526.25539929136
 20
-74535.09342640397
 30
0.0
 41
0.9238813214457302
 10
-78526.54830805729
 20
-74535.38632379398
 30
0.0
 41
1.0
 10
-78526.84120681011
 20
-74535.679214721
 30
0.0
 41
0.9238647866000857
 10
-78526.84118042348
 20
-74536.09343057517
 30
0.0
 41
1.0
  0
SPLINE
  5
3CA85
330
1A
100
AcDbEntity
  8
HEWI
100
AcDbSpline
210
0.0
220
0.0
230
1.0
 70
    12
 71
     2
 72
     6
 73
     3
 74
     0
 42
0.0000000001
 43
0.0000000001
 40
0.0
 40
0.0
 40
0.0
 40
26.00000000002707
 40
26.00000000002707
 40
26.00000000002707
 10
-78526.84117287855
 20
-74536.08948199975
 30
0.0
 41
1.0
 10
-78526.84114407966
 20
-74546.09343057517
 30
0.0
 41
0.9999999999971027
 10
-78526.84117032317
 20
-74559.09343057517
 30
0.0
 41
1.0
  0
SPLINE
  5
3CA86
330
1A
100
AcDbEntity
  8
HEWI
100
AcDbSpline
210
0.0
220
0.0
230
1.0
 70
    12
 71
     2
 72
     8
 73
     5
 74
     0
 42
0.0000000001
 43
0.0000000001
 40
0.0
 40
0.0
 40
0.0
 40
0.7853889927575674
 40
0.7853889927575674
 40
1.570820684715504
 40
1.570820684715504
 40
1.570820684715504
 10
-78526.84117032317
 20
-74559.09343057517
 30
0.0
 41
1.0
 10
-78526.84121899034
 20
-74559.50764720357
 30
0.0
 41
0.9238536286543627
 10
-78526.54831836554
 20
-74559.80053735636
 30
0.0
 41
1.0
 10
-78526.25540617264
 20
-74560.09343566576
 30
0.0
 41
0.9238817157595152
 10
-78525.84117559387
 20
-74560.09343057517
 30
0.0
 41
1.0
  0
SPLINE
  5
3CA87
330
1A
100
AcDbEntity
  8
HEWI
100
AcDbSpline
210
0.0
220
0.0
230
1.0
 70
    24
 71
     2
 72
     6
 73
     3
 74
     0
 42
0.0000000001
 43
0.0000000001
 40
0.0
 40
0.0
 40
0.0
 40
2.000021071497001
 40
2.000021071497001
 40
2.000021071497001
 10
-78525.84117559387
 20
-74560.09343057517
 30
0.0
 10
-78524.84116505812
 20
-74560.09343057517
 30
0.0
 10
-78523.84115452238
 20
-74560.09343057517
 30
0.0
  0
SPLINE
  5
3CA88
330
1A
100
AcDbEntity
  8
HEWI
100
AcDbSpline
210
0.0
220
0.0
230
1.0
 70
     8
 71
     2
 72
     6
 73
     3
 74
     0
 42
0.0000000001
 43
0.0000000001
 40
0.0
 40
0.0
 40
0.0
 40
69.00000001135683
 40
69.00000001135683
 40
69.00000001135683
 10
-78523.84115452238
 20
-74560.09343057517
 30
0.0
 10
-78482.34115451671
 20
-74560.09293347853
 30
0.0
 10
-78447.84115451103
 20
-74560.09243638187
 30
0.0
  0
SPLINE
  5
3CA89
330
1A
100
AcDbEntity
  8
HEWI
100
AcDbSpline
210
0.0
220
0.0
230
1.0
 70
    24
 71
     2
 72
     6
 73
     3
 74
     0
 42
0.0000000001
 43
0.0000000001
 40
0.0
 40
0.0
 40
0.0
 40
0.9990058067025984
 40
0.9990058067025984
 40
0.9990058067025984
 10
-78447.84115451103
 20
-74560.09243638187
 30
0.0
 10
-78447.84115451103
 20
-74559.59293347851
 30
0.0
 10
-78447.84115451103
 20
-74559.09343057517
 30
0.0
  0
SPLINE
  5
3CAD1
330
1A
100
AcDbEntity
  8
HEWI
100
AcDbSpline
210
0.0
220
0.0
230
1.0
 70
     8
 71
     2
 72
     6
 73
     3
 74
     0
 42
0.0000000001
 43
0.0000000001
 40
-270.0001828212934
 40
-270.0001828212934
 40
-270.0001828212934
 40
0.0
 40
0.0
 40
0.0
 10
-78044.2261950388
 20
-74801.51830001179
 30
0.0
 10
-78182.22610347452
 20
-74801.51830031076
 30
0.0
 10
-78317.22619488518
 20
-74801.51830031076
 30
0.0
  0
SPLINE
  5
3CAD2
330
1A
100
AcDbEntity
  8
HEWI
100
AcDbSpline
210
0.0
220
0.0
230
1.0
 70
     8
 71
     3
 72
    10
 73
     6
 74
     0
 42
0.0000000001
 43
0.0000000001
 40
0.0
 40
0.0
 40
0.0
 40
0.0
 40
68.310000012326
 40
68.310000012326
 40
69.0000000124505
 40
69.0000000124505
 40
69.0000000124505
 40
69.0000000124505
 10
-77746.22619503881
 20
-74800.51830001178
 30
0.0
 10
-77746.22619242737
 20
-74800.74829609253
 30
0.0
 10
-77746.22619772293
 20
-74777.97829041905
 30
0.0
 10
-77746.22619524825
 20
-74754.97828468827
 30
0.0
 10
-77746.22619535557
 20
-74747.51828713629
 30
0.0
 10
-77746.22619535557
 20
-74747.51828713629
 30
0.0
  0
SPLINE
  5
3CAD3
330
1A
100
AcDbEntity
  8
HEWI
100
AcDbSpline
210
0.0
220
0.0
230
1.0
 70
     8
 71
     3
 72
     8
 73
     4
 74
     0
 42
0.0000000001
 43
0.0000000001
 40
22.99982068627835
 40
22.99982068627835
 40
22.99982068627835
 40
22.99982068627835
 40
299.0023099679586
 40
299.0023099679586
 40
299.0023099679586
 40
299.0023099679586
 10
-78320.22637721876
 20
-74801.51830063053
 30
0.0
 10
-78228.22554585044
 20
-74801.51829072879
 30
0.0
 10
-78136.22471448211
 20
-74801.51828970211
 30
0.0
 10
-77746.22576683451
 20
-74801.51829995922
 30
0.0
  0
VIEWPORT
  5
22
102
{ACAD_XDICTIONARY
360
3CC01
102
}
330
17
100
AcDbEntity
 67
     1
  8
0
100
AcDbViewport
 10
102.801238835773
 20
158.0978495602885
 30
0.0
 40
506.5832670616006
 41
315.7152190709725
 68
     1
 69
     1
 12
102.801238835773
 22
158.0978495602885
 13
0.0
 23
0.0
 14
1.0
 24
1.0
 15
10.0
 25
10.0
 16
0.0
 26
0.0
 36
1.0
 17
0.0
 27
0.0
 37
0.0
 42
50.0
 43
0.0
 44
0.0
 45
315.7152190709725
 50
0.0
 51
0.0
 72
   100
 90
    32800
  1

281
     0
 71
     1
 74
     0
110
0.0
120
0.0
130
0.0
111
1.0
121
0.0
131
0.0
112
0.0
122
1.0
132
0.0
 79
     0
146
0.0
  0
ENDSEC
  0
SECTION
  2
OBJECTS
  0
DICTIONARY
  5
C
330
0
100
AcDbDictionary
281
     1
  3
ACAD_COLOR
350
39BFD
  3
ACAD_GROUP
350
D
  3
ACAD_LAYOUT
350
39BF3
  3
ACAD_MATERIAL
350
39BFC
  3
ACAD_MLINESTYLE
350
E
  3
ACAD_PLOTSETTINGS
350
39BF4
  3
ACAD_PLOTSTYLENAME
350
39BF1
  3
ACAD_TABLESTYLE
350
39C2F
  3
ACAD_VISUALSTYLE
350
39C1E
  3
ACDBVARIABLEDICTIONARY
350
210D7
  3
DWGPROPS
350
3CC00
  0
DICTIONARY
  5
39C3D
330
2
100
AcDbDictionary
280
     1
281
     1
  3
ACAD_LAYERFILTERS
360
3A6E6
  3
ACAD_LAYERSTATES
360
39C3E
  3
ACLYDICTIONARY
360
3A6E5
  0
DICTIONARY
  5
3B151
330
1A
100
AcDbDictionary
280
     1
281
     1
  3
ACAD_SORTENTS
360
3B152
  0
DICTIONARY
  5
3CC01
330
22
100
AcDbDictionary
280
     1
281
     1
  3
ACAD_XREC_ROUNDTRIP
360
3CC02
  0
DICTIONARY
  5
39BFD
102
{ACAD_REACTORS
330
C
102
}
330
C
100
AcDbDictionary
281
     1
  0
DICTIONARY
  5
D
102
{ACAD_REACTORS
330
C
102
}
330
C
100
AcDbDictionary
281
     1
  0
DICTIONARY
  5
39BF3
102
{ACAD_REACTORS
330
C
102
}
330
C
100
AcDbDictionary
281
     1
  3
Layout1
350
39BF6
  3
Model
350
39BF5
  0
DICTIONARY
  5
39BFC
102
{ACAD_REACTORS
330
C
102
}
330
C
100
AcDbDictionary
281
     1
  3
ByBlock
350
39C1C
  3
ByLayer
350
39C1B
  3
Global
350
39C1D
  0
DICTIONARY
  5
E
102
{ACAD_REACTORS
330
C
102
}
330
C
100
AcDbDictionary
281
     1
  3
STANDARD
350
13
  0
DICTIONARY
  5
39BF4
102
{ACAD_REACTORS
330
C
102
}
330
C
100
AcDbDictionary
281
     1
  0
ACDBDICTIONARYWDFLT
  5
39BF1
102
{ACAD_REACTORS
330
C
102
}
330
C
100
AcDbDictionary
281
     1
  3
Normal
350
39BF2
100
AcDbDictionaryWithDefault
340
39BF2
  0
DICTIONARY
  5
39C2F
102
{ACAD_REACTORS
330
C
102
}
330
C
100
AcDbDictionary
281
     1
  3
Standard
350
39C30
  0
DICTIONARY
  5
39C1E
102
{ACAD_REACTORS
330
C
102
}
330
C
100
AcDbDictionary
281
     1
  3
2dWireframe
350
39C24
  3
3D Hidden
350
39C26
  3
3dWireframe
350
39C25
  3
Basic
350
39C23
  3
Brighten
350
39C2A
  3
ColorChange
350
39C2E
  3
Conceptual
350
39C27
  3
Dim
350
39C29
  3
Facepattern
350
39C2D
  3
Flat
350
39C1F
  3
FlatWithEdges
350
39C20
  3
Gouraud
350
39C21
  3
GouraudWithEdges
350
39C22
  3
Linepattern
350
39C2C
  3
Realistic
350
39C28
  3
Thicken
350
39C2B
  0
DICTIONARY
  5
210D7
102
{ACAD_REACTORS
330
C
102
}
330
C
100
AcDbDictionary
281
     1
  3
CTABLESTYLE
350
39C39
  3
DIMASSOC
350
3BD64
  3
INDEXCTL
350
3BD63
  3
SORTENTS
350
210D8
  0
XRECORD
  5
3CC00
102
{ACAD_REACTORS
330
C
102
}
330
C
100
AcDbXrecord
280
     1
  1
DWGPROPS COOKIE
  2

  3

  4

  6

  7

  8
kaschu
  9

300
=
301
=
302
=
303
=
304
=
305
=
306
=
307
=
308
=
309
=
 40
0.7856572916666666
 41
2450382.434570139
 42
2455058.420164792
  1

 90
        0
  0
DICTIONARY
  5
3A6E6
102
{ACAD_REACTORS
330
39C3D
102
}
330
39C3D
100
AcDbDictionary
281
     1
  0
DICTIONARY
  5
39C3E
102
{ACAD_REACTORS
330
39C3D
102
}
330
39C3D
100
AcDbDictionary
281
     1
  0
DICTIONARY
  5
3A6E5
102
{ACAD_REACTORS
330
39C3D
102
}
330
39C3D
100
AcDbDictionary
281
     1
1001
ACAD
1000
<All
  0
SORTENTSTABLE
  5
3B152
102
{ACAD_REACTORS
330
3B151
102
}
330
3B151
100
AcDbSortentsTable
330
1A
331
3CA7D
  5
3CA81
331
3CA78
  5
3CA7C
331
3CA82
  5
3CA86
331
3CA73
  5
3CA77
331
3CA87
  5
3CAD1
331
3CA6E
  5
3CA72
331
3CA69
  5
3CA6B
331
3CA64
  5
3CA64
331
3CA79
  5
3CA7D
331
3CA74
  5
3CA78
331
3CAD1
  5
3CA74
331
3CA83
  5
3CA87
331
3CA65
  5
3CA65
331
3CA7E
  5
3CA82
331
3CA6A
  5
3CA6C
331
3CA6F
  5
3CA73
331
3CA88
  5
3CAD2
331
3CAD2
  5
3CA6D
331
3CA7F
  5
3CA83
331
3CA7A
  5
3CA7E
331
3CA84
  5
3CA88
331
3CA75
  5
3CA79
331
3CA89
  5
3CAD3
331
3CA6B
  5
3CA6E
331
3CA66
  5
3CA66
331
3CA7B
  5
3CA7F
331
3CA76
  5
3CA7A
331
3CAD3
  5
3CA6A
331
3CA85
  5
3CA89
331
3CA6C
  5
3CA6F
331
3CA67
  5
3CA68
331
3CA80
  5
3CA84
331
3CA71
  5
3CA75
331
3CA72
  5
3CA76
331
3CA81
  5
3CA85
331
3CA7C
  5
3CA80
331
3CA68
  5
3CA69
331
3CA6D
  5
3CA71
331
3CA86
  5
3CAC4
331
3CA77
  5
3CA7B
  0
XRECORD
  5
3CC02
102
{ACAD_REACTORS
330
3CC01
102
}
330
3CC01
100
AcDbXrecord
280
     1
102
SHADEPLOT
 70
     0
  0
LAYOUT
  5
39BF6
102
{ACAD_XDICTIONARY
360
39C40
102
}
102
{ACAD_REACTORS
330
39BF3
102
}
330
39BF3
100
AcDbPlotSettings
  1

  2
\\druckserv1\AROABM2L
  4
A4
  6

 40
6.805083274841307
 41
5.069413185119628
 42
6.805084228515625
 43
5.027069091796875
 44
209.9733276367186
 45
296.9683227539062
 46
0.0
 47
0.0
 48
0.0
 49
0.0
140
0.0
141
0.0
142
1.0
143
0.9877294786496324
 70
   688
 72
     1
 73
     0
 74
     1
  7
ctb2004.ctb
 75
     0
147
1.012422957515799
148
-6.623554803105719
149
-1.328897370432399
100
AcDbLayout
  1
Layout1
 70
     1
 71
     1
 10
-0.0980265521206203
 20
-3.678311471965383
 11
207.2988188848241
 21
289.6460551372062
 12
0.0
 22
0.0
 32
0.0
 14
12.55000000000001
 24
41.32999999999998
 34
0.0
 15
195.5499999999999
 25
284.67
 35
0.0
146
0.0
 13
0.0
 23
0.0
 33
0.0
 16
1.0
 26
0.0
 36
0.0
 17
0.0
 27
1.0
 37
0.0
 76
     0
330
17
331
22
  0
LAYOUT
  5
39BF5
102
{ACAD_XDICTIONARY
360
3CC03
102
}
102
{ACAD_REACTORS
330
39BF3
102
}
330
39BF3
100
AcDbPlotSettings
  1

  2
\\PCDRUCK1\AROABM2L
  4

  6

 40
0.0
 41
0.0
 42
0.0
 43
0.0
 44
0.0
 45
0.0
 46
0.0
 47
0.0
 48
0.0
 49
0.0
140
0.0
141
0.0
142
1.0
143
1.0
 70
  1712
 72
     0
 73
     0
 74
     0
  7

 75
     0
147
1.0
148
0.0
149
0.0
100
AcDbLayout
  1
Model
 70
     1
 71
     0
 10
0.0
 20
0.0
 11
12.0
 21
9.0
 12
0.0
 22
0.0
 32
0.0
 14
0.0
 24
0.0
 34
0.0
 15
0.0
 25
0.0
 35
0.0
146
0.0
 13
0.0
 23
0.0
 33
0.0
 16
1.0
 26
0.0
 36
0.0
 17
0.0
 27
1.0
 37
0.0
 76
     0
330
1A
331
39C01
  0
MATERIAL
  5
39C1C
102
{ACAD_XDICTIONARY
360
3BDEF
102
}
102
{ACAD_REACTORS
330
39BFC
102
}
330
39BFC
100
AcDbMaterial
  1
ByBlock
  0
MATERIAL
  5
39C1B
102
{ACAD_XDICTIONARY
360
3BDED
102
}
102
{ACAD_REACTORS
330
39BFC
102
}
330
39BFC
100
AcDbMaterial
  1
ByLayer
  0
MATERIAL
  5
39C1D
102
{ACAD_XDICTIONARY
360
3BDF1
102
}
102
{ACAD_REACTORS
330
39BFC
102
}
330
39BFC
100
AcDbMaterial
  1
Global
  0
MLINESTYLE
  5
13
102
{ACAD_REACTORS
330
E
102
}
330
E
100
AcDbMlineStyle
  2
STANDARD
 70
     0
  3

 62
     0
 51
90.0
 52
90.0
 71
     2
 49
0.5
 62
   256
  6
BYLAYER
 49
-0.5
 62
   256
  6
BYLAYER
  0
ACDBPLACEHOLDER
  5
39BF2
102
{ACAD_REACTORS
330
39BF1
102
}
330
39BF1
  0
TABLESTYLE
  5
39C30
102
{ACAD_XDICTIONARY
360
3CC06
102
}
102
{ACAD_REACTORS
330
39C2F
102
}
330
39C2F
100
AcDbTableStyle
  3
Standard
 70
     0
 71
     0
 40
0.06
 41
0.06
280
     0
281
     0
  7
STANDARD
140
0.18
170
     2
 62
     0
 63
     7
283
     0
274
    -2
284
     1
 64
     0
275
    -2
285
     1
 65
     0
276
    -2
286
     1
 66
     0
277
    -2
287
     1
 67
     0
278
    -2
288
     1
 68
     0
279
    -2
289
     1
 69
     0
  7
STANDARD
140
0.25
170
     5
 62
     0
 63
     7
283
     0
274
    -2
284
     1
 64
     0
275
    -2
285
     1
 65
     0
276
    -2
286
     1
 66
     0
277
    -2
287
     1
 67
     0
278
    -2
288
     1
 68
     0
279
    -2
289
     1
 69
     0
  7
STANDARD
140
0.18
170
     5
 62
     0
 63
     7
283
     0
274
    -2
284
     1
 64
     0
275
    -2
285
     1
 65
     0
276
    -2
286
     1
 66
     0
277
    -2
287
     1
 67
     0
278
    -2
288
     1
 68
     0
279
    -2
289
     1
 69
     0
  0
VISUALSTYLE
  5
39C24
102
{ACAD_REACTORS
330
39C1E
102
}
330
39C1E
100
AcDbVisualStyle
  2
2dWireframe
 70
     4
 71
     0
 72
     2
 73
     0
 90
        0
 40
-0.6
 41
-30.0
 62
     5
 63
     7
 74
     1
 91
        4
 64
     7
 65
   257
 75
     1
175
     1
 42
1.0
 92
        0
 66
   257
 43
1.0
 76
     1
 77
     6
 78
     2
 67
     7
 79
     5
170
     0
171
     0
290
     0
174
     0
 93
        1
 44
0.0
173
     0
291
     0
 45
0.0
1001
ACAD
1000
AcDbSavedByObjectVersion
1070
     0
1000
AcDbSavedByObjectVersion
1070
     0
1000
AcDbSavedByObjectVersion
1070
     0
1000
AcDbSavedByObjectVersion
1070
     0
  0
VISUALSTYLE
  5
39C26
102
{ACAD_REACTORS
330
39C1E
102
}
330
39C1E
100
AcDbVisualStyle
  2
3D Hidden
 70
     6
 71
     1
 72
     2
 73
     2
 90
        0
 40
-0.6
 41
-30.0
 62
     5
 63
     7
 74
     2
 91
        2
 64
     7
 65
   257
 75
     2
175
     1
 42
40.0
 92
        0
 66
   257
 43
1.0
 76
     1
 77
     6
 78
     2
 67
     7
 79
     3
170
     0
171
     0
290
     0
174
     0
 93
        1
 44
0.0
173
     0
291
     0
 45
0.0
1001
ACAD
1000
AcDbSavedByObjectVersion
1070
     0
1000
AcDbSavedByObjectVersion
1070
     0
1000
AcDbSavedByObjectVersion
1070
     0
1000
AcDbSavedByObjectVersion
1070
     0
  0
VISUALSTYLE
  5
39C25
102
{ACAD_REACTORS
330
39C1E
102
}
330
39C1E
100
AcDbVisualStyle
  2
3dWireframe
 70
     5
 71
     0
 72
     2
 73
     0
 90
        0
 40
-0.6
 41
-30.0
 62
     5
 63
     7
 74
     1
 91
        4
 64
     7
 65
   257
 75
     1
175
     1
 42
1.0
 92
        0
 66
   257
 43
1.0
 76
     1
 77
     6
 78
     2
 67
     7
 79
     5
170
     0
171
     0
290
     0
174
     0
 93
        1
 44
0.0
173
     0
291
     0
 45
0.0
1001
ACAD
1000
AcDbSavedByObjectVersion
1070
     0
1000
AcDbSavedByObjectVersion
1070
     0
1000
AcDbSavedByObjectVersion
1070
     0
1000
AcDbSavedByObjectVersion
1070
     0
  0
VISUALSTYLE
  5
39C23
102
{ACAD_REACTORS
330
39C1E
102
}
330
39C1E
100
AcDbVisualStyle
  2
Basic
 70
     7
 71
     1
 72
     0
 73
     1
 90
        0
 40
-0.6
 41
-30.0
 62
     5
 63
     7
 74
     0
 91
        4
 64
     7
 65
   257
 75
     1
175
     1
 42
1.0
 92
        8
 66
     7
 43
1.0
 76
     1
 77
     6
 78
     2
 67
     7
 79
     5
170
     0
171
     0
290
     0
174
     0
 93
        1
 44
0.0
173
     0
291
     1
 45
0.0
1001
ACAD
1000
AcDbSavedByObjectVersion
1070
     0
1000
AcDbSavedByObjectVersion
1070
     0
1000
AcDbSavedByObjectVersion
1070
     0
1000
AcDbSavedByObjectVersion
1070
     0
  0
VISUALSTYLE
  5
39C2A
102
{ACAD_REACTORS
330
39C1E
102
}
330
39C1E
100
AcDbVisualStyle
  2
Brighten
 70
    12
 71
     2
 72
     2
 73
     0
 90
        0
 40
-0.6
 41
-30.0
 62
     5
 63
     7
 74
     1
 91
        4
 64
     7
 65
   257
 75
     1
175
     1
 42
1.0
 92
        8
 66
     7
 43
1.0
 76
     1
 77
     6
 78
     2
 67
     7
 79
     5
170
     0
171
     0
290
     0
174
     0
 93
        1
 44
50.0
173
     0
291
     1
 45
0.0
1001
ACAD
1000
AcDbSavedByObjectVersion
1070
     0
1000
AcDbSavedByObjectVersion
1070
     0
1000
AcDbSavedByObjectVersion
1070
     0
1000
AcDbSavedByObjectVersion
1070
     0
  0
VISUALSTYLE
  5
39C2E
102
{ACAD_REACTORS
330
39C1E
102
}
330
39C1E
100
AcDbVisualStyle
  2
ColorChange
 70
    16
 71
     2
 72
     2
 73
     3
 90
        0
 40
-0.6
 41
-30.0
 62
     5
 63
     8
 74
     1
 91
        4
 64
     7
 65
   257
 75
     1
175
     1
 42
1.0
 92
        8
 66
     8
 43
1.0
 76
     1
 77
     6
 78
     2
 67
     7
 79
     5
170
     0
171
     0
290
     0
174
     0
 93
        1
 44
0.0
173
     0
291
     1
 45
0.0
1001
ACAD
1000
AcDbSavedByObjectVersion
1070
     0
1000
AcDbSavedByObjectVersion
1070
     0
1000
AcDbSavedByObjectVersion
1070
     0
1000
AcDbSavedByObjectVersion
1070
     0
  0
VISUALSTYLE
  5
39C27
102
{ACAD_REACTORS
330
39C1E
102
}
330
39C1E
100
AcDbVisualStyle
  2
Conceptual
 70
     9
 71
     3
 72
     2
 73
     0
 90
        0
 40
-0.6
 41
-30.0
 62
     5
 63
     7
 74
     2
 91
        2
 64
     7
 65
   257
 75
     1
175
     1
 42
40.0
 92
        8
 66
     7
 43
1.0
 76
     1
 77
     6
 78
     2
 67
     7
 79
     3
170
     0
171
     0
290
     0
174
     0
 93
        1
 44
0.0
173
     0
291
     0
 45
0.0
1001
ACAD
1000
AcDbSavedByObjectVersion
1070
     0
1000
AcDbSavedByObjectVersion
1070
     0
1000
AcDbSavedByObjectVersion
1070
     0
1000
AcDbSavedByObjectVersion
1070
     0
  0
VISUALSTYLE
  5
39C29
102
{ACAD_REACTORS
330
39C1E
102
}
330
39C1E
100
AcDbVisualStyle
  2
Dim
 70
    11
 71
     2
 72
     2
 73
     0
 90
        0
 40
-0.6
 41
-30.0
 62
     5
 63
     7
 74
     1
 91
        4
 64
     7
 65
   257
 75
     1
175
     1
 42
1.0
 92
        8
 66
     7
 43
1.0
 76
     1
 77
     6
 78
     2
 67
     7
 79
     5
170
     0
171
     0
290
     0
174
     0
 93
        1
 44
-50.0
173
     0
291
     1
 45
0.0
1001
ACAD
1000
AcDbSavedByObjectVersion
1070
     0
1000
AcDbSavedByObjectVersion
1070
     0
1000
AcDbSavedByObjectVersion
1070
     0
1000
AcDbSavedByObjectVersion
1070
     0
  0
VISUALSTYLE
  5
39C2D
102
{ACAD_REACTORS
330
39C1E
102
}
330
39C1E
100
AcDbVisualStyle
  2
Facepattern
 70
    15
 71
     2
 72
     2
 73
     0
 90
        0
 40
-0.6
 41
-30.0
 62
     5
 63
     7
 74
     1
 91
        4
 64
     7
 65
   257
 75
     1
175
     1
 42
1.0
 92
        8
 66
     7
 43
1.0
 76
     1
 77
     6
 78
     2
 67
     7
 79
     5
170
     0
171
     0
290
     0
174
     0
 93
        1
 44
0.0
173
     0
291
     1
 45
0.0
1001
ACAD
1000
AcDbSavedByObjectVersion
1070
     0
1000
AcDbSavedByObjectVersion
1070
     0
1000
AcDbSavedByObjectVersion
1070
     0
1000
AcDbSavedByObjectVersion
1070
     0
  0
VISUALSTYLE
  5
39C1F
102
{ACAD_REACTORS
330
39C1E
102
}
330
39C1E
100
AcDbVisualStyle
  2
Flat
 70
     0
 71
     2
 72
     1
 73
     1
 90
        2
 40
-0.6
 41
30.0
 62
     5
 63
     7
 74
     0
 91
        4
 64
     7
 65
   257
 75
     1
175
     1
 42
1.0
 92
        8
 66
     7
 43
1.0
 76
     1
 77
     6
 78
     2
 67
     7
 79
     5
170
     0
171
     0
290
     0
174
     0
 93
       13
 44
0.0
173
     0
291
     1
 45
0.0
1001
ACAD
1000
AcDbSavedByObjectVersion
1070
     0
1000
AcDbSavedByObjectVersion
1070
     0
1000
AcDbSavedByObjectVersion
1070
     0
1000
AcDbSavedByObjectVersion
1070
     0
  0
VISUALSTYLE
  5
39C20
102
{ACAD_REACTORS
330
39C1E
102
}
330
39C1E
100
AcDbVisualStyle
  2
FlatWithEdges
 70
     1
 71
     2
 72
     1
 73
     1
 90
        2
 40
-0.6
 41
30.0
 62
     5
 63
     7
 74
     1
 91
        4
 64
     7
 65
   257
 75
     1
175
     1
 42
1.0
 92
        0
 66
   257
 43
1.0
 76
     1
 77
     6
 78
     2
 67
     7
 79
     5
170
     0
171
     0
290
     0
174
     0
 93
       13
 44
0.0
173
     0
291
     1
 45
0.0
1001
ACAD
1000
AcDbSavedByObjectVersion
1070
     0
1000
AcDbSavedByObjectVersion
1070
     0
1000
AcDbSavedByObjectVersion
1070
     0
1000
AcDbSavedByObjectVersion
1070
     0
  0
VISUALSTYLE
  5
39C21
102
{ACAD_REACTORS
330
39C1E
102
}
330
39C1E
100
AcDbVisualStyle
  2
Gouraud
 70
     2
 71
     2
 72
     2
 73
     1
 90
        2
 40
-0.6
 41
30.0
 62
     5
 63
     7
 74
     0
 91
        4
 64
     7
 65
   257
 75
     1
175
     1
 42
1.0
 92
        0
 66
     7
 43
1.0
 76
     1
 77
     6
 78
     2
 67
     7
 79
     5
170
     0
171
     0
290
     0
174
     0
 93
       13
 44
0.0
173
     0
291
     1
 45
0.0
1001
ACAD
1000
AcDbSavedByObjectVersion
1070
     0
1000
AcDbSavedByObjectVersion
1070
     0
1000
AcDbSavedByObjectVersion
1070
     0
1000
AcDbSavedByObjectVersion
1070
     0
  0
VISUALSTYLE
  5
39C22
102
{ACAD_REACTORS
330
39C1E
102
}
330
39C1E
100
AcDbVisualStyle
  2
GouraudWithEdges
 70
     3
 71
     2
 72
     2
 73
     1
 90
        2
 40
-0.6
 41
30.0
 62
     5
 63
     7
 74
     1
 91
        4
 64
     7
 65
   257
 75
     1
175
     1
 42
1.0
 92
        0
 66
   257
 43
1.0
 76
     1
 77
     6
 78
     2
 67
     7
 79
     5
170
     0
171
     0
290
     0
174
     0
 93
       13
 44
0.0
173
     0
291
     1
 45
0.0
1001
ACAD
1000
AcDbSavedByObjectVersion
1070
     0
1000
AcDbSavedByObjectVersion
1070
     0
1000
AcDbSavedByObjectVersion
1070
     0
1000
AcDbSavedByObjectVersion
1070
     0
  0
VISUALSTYLE
  5
39C2C
102
{ACAD_REACTORS
330
39C1E
102
}
330
39C1E
100
AcDbVisualStyle
  2
Linepattern
 70
    14
 71
     2
 72
     2
 73
     0
 90
        0
 40
-0.6
 41
-30.0
 62
     5
 63
     7
 74
     1
 91
        4
 64
     7
 65
   257
 75
     7
175
     7
 42
1.0
 92
        8
 66
     7
 43
1.0
 76
     1
 77
     6
 78
     2
 67
     7
 79
     5
170
     0
171
     0
290
     0
174
     0
 93
        1
 44
0.0
173
     0
291
     1
 45
0.0
1001
ACAD
1000
AcDbSavedByObjectVersion
1070
     0
1000
AcDbSavedByObjectVersion
1070
     0
1000
AcDbSavedByObjectVersion
1070
     0
1000
AcDbSavedByObjectVersion
1070
     0
  0
VISUALSTYLE
  5
39C28
102
{ACAD_REACTORS
330
39C1E
102
}
330
39C1E
100
AcDbVisualStyle
  2
Realistic
 70
     8
 71
     2
 72
     2
 73
     0
 90
        0
 40
-0.6
 41
-30.0
 62
     5
 63
     7
 74
     1
 91
        0
 64
     7
 65
   257
 75
     1
175
     1
 42
1.0
 92
        8
 66
     8
 43
1.0
 76
     1
 77
     6
 78
     2
 67
     7
 79
     5
170
     0
171
     0
290
     0
174
     0
 93
       13
 44
0.0
173
     0
291
     0
 45
0.0
1001
ACAD
1000
AcDbSavedByObjectVersion
1070
     0
1000
AcDbSavedByObjectVersion
1070
     0
1000
AcDbSavedByObjectVersion
1070
     0
1000
AcDbSavedByObjectVersion
1070
     0
  0
VISUALSTYLE
  5
39C2B
102
{ACAD_REACTORS
330
39C1E
102
}
330
39C1E
100
AcDbVisualStyle
  2
Thicken
 70
    13
 71
     2
 72
     2
 73
     0
 90
        0
 40
-0.6
 41
-30.0
 62
     5
 63
     7
 74
     1
 91
        4
 64
     7
 65
   257
 75
     1
175
     1
 42
1.0
 92
       12
 66
     7
 43
1.0
 76
     1
 77
     6
 78
     2
 67
     7
 79
     5
170
     0
171
     0
290
     0
174
     0
 93
        1
 44
0.0
173
     0
291
     1
 45
0.0
1001
ACAD
1000
AcDbSavedByObjectVersion
1070
     0
1000
AcDbSavedByObjectVersion
1070
     0
1000
AcDbSavedByObjectVersion
1070
     0
1000
AcDbSavedByObjectVersion
1070
     0
  0
DICTIONARYVAR
  5
39C39
102
{ACAD_REACTORS
330
210D7
102
}
330
210D7
100
DictionaryVariables
280
     0
  1
STANDARD
  0
DICTIONARYVAR
  5
3BD64
102
{ACAD_REACTORS
330
210D7
102
}
330
210D7
100
DictionaryVariables
280
     0
  1
1
  0
DICTIONARYVAR
  5
3BD63
102
{ACAD_REACTORS
330
210D7
102
}
330
210D7
100
DictionaryVariables
280
     0
  1
0
  0
DICTIONARYVAR
  5
210D8
102
{ACAD_REACTORS
330
210D7
102
}
330
210D7
100
DictionaryVariables
280
     0
  1
96
  0
DICTIONARY
  5
39C40
330
39BF6
100
AcDbDictionary
280
     1
281
     1
  3
ACAD_XREC_ROUNDTRIP
360
3CC05
  3
ADSK_XREC_LAYOUTTHUMBNAIL
360
39C41
  0
DICTIONARY
  5
3CC03
330
39BF5
100
AcDbDictionary
280
     1
281
     1
  3
ACAD_XREC_ROUNDTRIP
360
3CC04
  0
DICTIONARY
  5
3BDEF
330
39C1C
100
AcDbDictionary
280
     1
281
     1
  3
ACAD_XREC_ROUNDTRIP
360
3BDF0
  0
DICTIONARY
  5
3BDED
330
39C1B
100
AcDbDictionary
280
     1
281
     1
  3
ACAD_XREC_ROUNDTRIP
360
3BDEE
  0
DICTIONARY
  5
3BDF1
330
39C1D
100
AcDbDictionary
280
     1
281
     1
  3
ACAD_XREC_ROUNDTRIP
360
3BDF2
  0
DICTIONARY
  5
3CC06
330
39C30
100
AcDbDictionary
280
     1
281
     1
  3
ACAD_XREC_ROUNDTRIP
360
3CC07
  0
XRECORD
  5
3CC05
102
{ACAD_REACTORS
330
39C40
102
}
330
39C40
100
AcDbXrecord
280
     1
102
SHADEPLOT
 70
     1
102
SHADEPLOTRESLEVEL
 70
     2
102
SHADEPLOTCUSTOMDPI
 70
   300
  0
XRECORD
  5
39C41
102
{ACAD_REACTORS
330
39C40
102
}
330
39C40
100
AcDbXrecord
280
     1
310
28000000620000008C0000000100080000000000B036000000000000000000000001000000000000FFFFFF0000000000FFFFFF000000000000000000000000000000000000000000000000000000000000000000330000006600000099000000CC000000FF00000000330000333300006633000099330000CC330000FF3300
310
0000660000336600006666000099660000CC660000FF66000000990000339900006699000099990000CC990000FF99000000CC000033CC000066CC000099CC0000CCCC0000FFCC000000FF000033FF000066FF000099FF0000CCFF0000FFFF000000003300330033006600330099003300CC003300FF003300003333003333
310
33006633330099333300CC333300FF33330000663300336633006666330099663300CC663300FF66330000993300339933006699330099993300CC993300FF99330000CC330033CC330066CC330099CC3300CCCC3300FFCC330000FF330033FF330066FF330099FF3300CCFF3300FFFF330000006600330066006600660099
310
006600CC006600FF00660000336600333366006633660099336600CC336600FF33660000666600336666006666660099666600CC666600FF66660000996600339966006699660099996600CC996600FF99660000CC660033CC660066CC660099CC6600CCCC6600FFCC660000FF660033FF660066FF660099FF6600CCFF6600
310
FFFF660000009900330099006600990099009900CC009900FF00990000339900333399006633990099339900CC339900FF33990000669900336699006666990099669900CC669900FF66990000999900339999006699990099999900CC999900FF99990000CC990033CC990066CC990099CC9900CCCC9900FFCC990000FF99
310
0033FF990066FF990099FF9900CCFF9900FFFF99000000CC003300CC006600CC009900CC00CC00CC00FF00CC000033CC003333CC006633CC009933CC00CC33CC00FF33CC000066CC003366CC006666CC009966CC00CC66CC00FF66CC000099CC003399CC006699CC009999CC00CC99CC00FF99CC0000CCCC0033CCCC0066CC
310
CC0099CCCC00CCCCCC00FFCCCC0000FFCC0033FFCC0066FFCC0099FFCC00CCFFCC00FFFFCC000000FF003300FF006600FF009900FF00CC00FF00FF00FF000033FF003333FF006633FF009933FF00CC33FF00FF33FF000066FF003366FF006666FF009966FF00CC66FF00FF66FF000099FF003399FF006699FF009999FF00CC
310
99FF00FF99FF0000CCFF0033CCFF0066CCFF0099CCFF00CCCCFF00FFCCFF0000FFFF0033FFFF0066FFFF0099FFFF00CCFFFF00FFFFFF00000000000D0D0D001A1A1A00282828003535350043434300505050005D5D5D006B6B6B00787878008686860093939300A1A1A100AEAEAE00BBBBBB00C9C9C900D6D6D600E4E4E400
310
F1F1F100FFFFFF0000000000000000000000000000000000000000000000000000000000000000000000000000000000E2E2E2E2E2E2E2E2E2E2E2E2E2E2E2E2E2E2E2E2E2E2E2E2E2E2E2E2E2E2E2E2E2E2E2E2E2E2E2E2E2E2E2E2E2E2E2E2E2E2E2E2E2E2E2E2E2E2E2E2E2E2E2E2E2E2E2E2E2E2E2E2E2E2E2E2E2E2E2
310
E2E2E2E2E2E2E2E2E2E2E2E2E2E2E2E2E2E2E2813EE2F5F5F5F5F5F5F5F5F5F5F5F5F5F5F5F5F5F5F5F5F5F5F5F5F5F5F5F5F5F5F5F5F5F5F5F5F5F5F5F5F5F5F5F5F5F5F5F5F5F5F5F5F5F5F5F5F5F5F5F5F5F5F5F5F5F5F5F5F5F5F5F5F5F5F5F5F5F5F5F5F5F5F5F5F5F5F5F5F5F5F5F5F5F5F5F5F5AC45E2F5F5F5F5F5
310
F5F5F5F5F5F5F5F5F5F5F5F5F5F5F5F5F5F5F5F5F5F5F5F5F5F5F5F5F5F5F5F5F5F5F5F5F5F5F5F5F5F5F5F5F5F5F5F5F5F5F5F5F5F5F5F5F5F5F5F5F5F5F5F5F5F5F5F5F5F5F5F5F5F5F5F5F5F5F5F5F5F5F5F5F5F5F5F5F5F5F5F5B33EE2F5F5E2E2E2E2E2E2E2E2F5F5F5F5F5F5F5F5E2E2E2E2E2E2E2E2E2E2E2E2E2E2
310
E2F5F5F5F5F5F5F5F5E2E2E2E2E2E2E2E2E2E2E2E2E2E2E2F5F5F5F5F5F5F5F5E2E2E2E2E2E2E2E2E2E2E2E2E2E2E2F5F5F5F5F5F5F5F5E2E2E2E2E2E2E2E2F5F5B645E2F5F5E2F5F5F5F5F5F5F5F5F5F5F5F5F5F5F5F5F5F5F5F5F5F5F5F5F5F5F5F5F5F5F5F5F5F5F5F5F5F5F5F5F5F5F5F5F5F5F5F5F5F5F5F5F5F5F5F5
310
F5F5F5F5F5F5F5F5F5F5F5F5F5F5F5F5F5F5F5F5F5F5F5F5F5F5F5F5F5F5F5F5F5F5F5E2F5F5053FE2F5F5E2F5F5F5F5F5F5F5F5F5F5F5F5F5F5F5F5F5F5F5F5F5F5F5F5F5F5F5F5F5F5F5F5F5F5F5F5F5F5F5F5F5F5F5F5F5F5F5F5F5F5F5F5F5F5F5F5F5F5F5F5F5F5F5F5F5F5F5F5F5F5F5F5F5F5F5F5F5F5F5F5F5F5F5
310
F5F5F5F5F5F5F5F5E2F5F5C745E2F5F5E2F5F5F5F5F5F5F5F5F5F5F5F5F5F5F5F5F5F5F5F5F5F5F5F5F5F5F5F5F5F5F5F5F5F5F5F5F5F5F5F5F5F5F5F5F5F5F5F5F5F5F5F5F5F5F5F5F5F5F5F5F5F5F5F5F5F5F5F5F5F5F5F5F5F5F5F5F5F5F5F5F5F5F5F5F5F5F5F5F5F5F5E2F5F5303FE2F5F5E2F5F5F5F5F5F5F5F5F5F5
310
F5F5F5F5F5F5F5F5F5F5F5F5F5F5F5F5F5F5F5F5F5F5F5F5F5F5F5F5F5F5F5F5F5F5F5F5F5F5F5F5F5F5F5F5F5F5F5F5F5F5F5F5F5F5F5F5F5F5F5F5F5F5F5F5F5F5F5F5F5F5F5F5F5F5F5F5F5F5F5F5F5E2F5F59745E2F5F5E2F5F5F5F5F5F5F5F5F5F5F5F5F5F5F5F5F5F5F5F5F5F5F5F5F5F5F5F5F5F5F5F5F5F5F5F5F5
310
F5F5F5F5F5F5F5F5F5F5F5F5F5F5F5F5F5F5F5F5F5F5F5F5F5F5F5F5F5F5F5F5F5F5F5F5F5F5F5F5F5F5F5F5F5F5F5F5F5F5F5F5F5F5E2F5F5043DE2F5F5E2F5F5F5F5F5F5F5F5F5F5F5F5F5F5F5F5F5F5F5F5F5F5F5F5F5F5F5F5F5F5F5F5F5F5F5F5F5F5F5F5F5F5F5F5F5F5F5F5F5F5F5F5F5F5F5F5F5F5F5F5F5F5F5F5
310
F5F5F5F5F5F5F5F5F5F5F5F5F5F5F5F5F5F5F5F5F5F5F5F5F5F5F5E2F5F57045E2F5F5E2F5F5F5F5F5F5F5F5F5F5F5F5F5F5F5F5F5F5F5F5F5F5F5F5F5F5F5F5F5F5F5F5F5F5F5F5F5F5F5F5F5F5F5F5F5F5F5F5F5F5F5F5F5F5F5F5F5F5F5F5F5F5F5F5F5F5F5F5F5F5F5F5F5F5F5F5F5F5F5F5F5F5F5F5F5F5F5F5F5F5F5
310
E2F5F5473DE2F5F5E2F5F5F5F5F5F5F5F5F5F5F5F5F5F5F5F5F5F5F5F5F5F5F5F5F5F5F5F5F5F5F5F5F5F5F5F5F5F5F5F5F5F5F5F5F5F5F5F5F5F5F5F5F5F5F5F5F5F5F5F5F5F5F5F5F5F5F5F5F5F5F5F5F5F5F5F5F5F5F5F5F5F5F5F5F5F5F5F5F5F5F5E2F5F54345E2F5F5F5F5F5F5F5F5F5F5F5F5F5F5F5F5F5F5F5F5F5
310
F5F5F5F5F5F5F5F5F5F5F5F5F5F5F5F5F5F5F5F5F5F5F5F5F5F5F5F5F5F5F5F5F5F5F5F5F5F5F5F5F5F5F5F5F5F5F5F5F5F5F5F5F5F5F5F5F5F5F5F5F5F5F5F5F5F5F5F5F5F5F5F5F5F5F5F57D3DE2F5F5F5F5F5F5F5F5F5F5F5F5F5F5F5F5F5F5F5F5F5F5F5F5F5F5F5F5F5F5F5F5F5F5F5F5F5F5F5F5F5F5F5F5F5F5F5F5
310
F5F5F5F5F5F5F5F5F5F5F5F5F5F5F5F5F5F5F5F5F5F5F5F5F5F5F5F5F5F5F5F5F5F5F5F5F5F5F5F5F5F5F5F5F5F5F5F5F57045E2F5F5F5F5F5F5F5F5F5F5F5F5F5F5F5F5F5F5F5F5F5F5F5F5F5F5F5F5F5F5F5F5F5F5F5F5F5F5F5F5F5F5F5F5F5F5F5F5F5F5F5F5F5F5F5F5F5F5F5F5F5F5F5F5F5F5F5F5F5F5F5F5F5F5F5
310
F5F5F5F5F5F5F5F5F5F5F5F5F5F5F5F5F5F5F5F5F5F5B33DE2F5F5F5F5F5F5F5F5F5F5F5F5F5F5F5F5F5F5F5F5F5F5F5F5F5F5F5F5F5F5F5F5F5F5F5F5F5F5F5F5F5F5F5F5F5F5F5F5F5F5F5F5F5F5F5F5F5F5F5F5F5F5F5F5F5F5F5F5F5F5F5F5F5F5F5F5F5F5F5F5F5F5F5F5F5F5F5F5F5F5F5F5F5F5F5F5F54345E2F5F5
310
F5F5F5F5F5F5F5F5F5F5F5F5F5F5F5F5F5F5F5F5F5F5F5F5F5F5F5F5F5F5F5F5F5F5F5F5F5F5F5F5F5F5F5F5F5F5F5F5F5F5F5F5F5F5F5F5F5F5F5F5F5F5F5F5F5F5F5F5F5F5F5F5F5F5F5F5F5F5F5F5F5F5F5F5F5F5F5F5F5F5F5F5F5F5F5EA3DE2F5F5F5F5F5F5F5F5F5F5F5F5F5F5F5F5F5F5F5F5F5F5F5F5F5F5F5F5F5
310
F5F5F5F5F5F5F5F5F5F5F5F5F5F5F5F5F5F5F5F5F5F5F5F5F5F5F5F5F5F5F5F5F5F5F5F5F5F5F5F5F5F5F5F5F5F5F5F5F5F5F5F5F5F5F5F5F5F5F5F5F5F5F5F5F5F5F5F54045E2F5F5F5F5F5F5F5F5F5F5F5F5F5F5F5F5F5F5F5F5F5F5F5F5F5F5F5F5F5F5F5F5F5F5F5F5F5F5F5F5F5F5F5F5F5F5F5F5F5F5F5F5F5F5F5F5
310
F5F5F5F5F5F5F5F5F5F5F5F5F5F5F5F5F5F5F5F5F5F5F5F5F5F5F5F5F5F5F5F5F5F5F5F5F5F5F5F5F5513EE2F5F5F5F5F5F5F5F5F5F5F5F5F5F5F5F5F5F5F5F5F5F5F5F5F5F5F5F5F5F5F5F5F5F5F5F5F5F5F5F5F5F5F5F5F5F5F5F5F5F5F5F5F5F5F5F5F5F5F5F5F5F5F5F5F5F5F5F5F5F5F5F5F5F5F5F5F5F5F5F5F5F5F5
310
F5F5F5F5F5F5F5F5F5F5F5F5F5F55445E2F5F5F5F5F5F5F5F5F5F5F5F5F5F5F5F5F5F5F5F5F5F5F5F5F5F5F5F5F5F5F5F5F5F5F5F5F5F5F5F5F5F5F5F5F5F5F5F5F5F5F5F5F5F5F5F5F5F5F5F5F5F5F5F5F5F5F5F5F5F5F5F5F5F5F5F5F5F5F5F5F5F5F5F5F5F5F5F5F5F5F5F5F5F5F5F5F5913EE2F5F5E2F5F5F5F5F5F5F5
310
F5F5F5F5F5F5F5F5F5F5F5F5F5F5F5F5F5F5F5F5F5F5F5F5F5F5F5F5F5F5F5F5F5F5F5F5F5F5F5F5F5F5F5F5F5F5F5F5F5F5F5F5F5F5F5F5F5F5F5F5F5F5F5F5F5F5F5F5F5F5F5F5F5F5F5F5F5F5F5F5F5F5F5F5E2F5F57345E2F5F5E2F5F5F5F5F5F5F5F5F5F5F5F5F5F5F5F5F5F5F5F5F5F5F5F5F5F5F5F5F5F5F5F5F5F5
310
F5F5F5F5F5F5F5F5F5F5F5F5F5F5F5F5F5F5F5F5F5F5F5F5F5F5F5F5F5F5F5F5F5F5F5F5F5F5F5F5F5F5F5F5F5F5F5F5F5F5F5F5F5F5F5F5F5E2F5F5C03EE2F5F5E2F5F5F5F5F5F5F5F5F5F5F5F5F5F5F5F5F5F5F5F5F5F5F5F5F5F5F5F5F5F5F5F5F5F5F5F5F5F5F5F5F5F5F5F5F5F5F5F5F5F5F5F5F5F5F5F5F5F5F5F5F5
310
F5F5F5F5F5F5F5F5F5F5F5F5F5F5F5F5F5F5F5F5F5F5F5F5F5F5F5F5F5F5E2F5F54045E2F5F5E2F5F5F5F5F5F5F5F5F5F5F5F5F5F5F5F5F5F5F5F5F5F5F5F5F5F5F5F5F5F5F5F5F5F5F5F5F5F5F5F5F5F5F5F5F5F5F5F5F5F5F5F5F5F5F5F5F5F5F5F5F5F5F5F5F5F5F5F5F5F5F5F5F5F5F5F5F5F5F5F5F5F5F5F5F5F5F5F5
310
F5F5F5E2F5F5243FE2F5F5E2F5F5F5F5F5F5F5F5F5F5F5F5F5F5F5F5F5F5F5F5F5F5F5F5F5F5F5F5F5F5F5F5F5F5F5F5F5F5F5F5F5F5F5F5F5F5F5F5F5F5F5F5F5F5F5F5F5F5F5F5F5F5F5F5F5F5F5F5F5F5F5F5F5F5F5F5F5F5F5F5F5F5F5F5F5F5F5F5F5F5F5E2F5F54345E2F5F5E2F5F5F5F5F5F5F5F5F5F5F5F5F5F5F5
310
F5F5F5F5F5F5F5F5F5F5F5F5F5F5F5F5F5F5F5F5F5F5F5F5F5F5F5F5F5F5F5F5F5F5F5F5F5F5F5F5F5F5F5F5F5F5F5F5F5F5F5F5F5F5F5F5F5F5F5F5F5F5F5F5F5F5F5F5F5F5F5F5F5F5F5F5E2F5F5443FE2F5F5E2F5F5F5F5F5F5F5F5F5F5F5F5F5F5F5F5F5F5F5F5F5F5F5F5F5F5F5F5F5F5F5F5F5F5F5F5F5F5F5F5F5F5
310
F5F5F5F5F5F5F5F5F5F5F5F5F5F5F5F5F5F5F5F5F5F5F5F5F5F5F5F5F5F5F5F5F5F5F5F5F5F5F5F5F5F5F5F5F5F5F5F5F5E2F5F55B45E2F5F5E2F5F5F5F5F5F5F5F5F5F5F5F5F5F5F5F5F5F5F5F5F5F5F5F5F5F5F5F5F5F5F5F5F5F5F5F5F5F5F5F5F5F5F5F5F5F5F5F5F5F5F5F5F5F5F5F5F5F5F5F5F5F5F5F5F5F5F5F5F5
310
F5F5F5F5F5F5F5F5F5F5F5F5F5F5F5F5F5F5F5F5F5F5E2F5F5483FE2F5F5E2F5F5F5F5F5F5F5F5F5F5F5F5F5F5F5F5F5F5F5F5F5F5F5F5F5F5F5F5F5F5F5F5F5F5F5F5F5F5F5F5F5F5F5F5F5F5F5F5F5F5F5F5F5F5F5F5F5F5F5F5F5F5F5F5F5F5F5F5F5F5F5F5F5F5F5F5F5F5F5F5F5F5F5F5F5F5F5F5F5F5F5E2F5F5EC44
310
E2F5F5E2F5F5F5F5F5F5F5F5F5F5F5F5F5F5F5F5F5F5F5F5F5F5F5F5F5F5F5F5F5F5F5F5F5F5F5F5F5F5F5F5F5F5F5F5F5F5F5F5F5F5F5F5F5F5F5F5F5F5F5F5F5F5F5F5F5F5F5F5F5F5F5F5F5F5F5F5F5F5F5F5F5F5F5F5F5F5F5F5F5F5F5E2F5F5583DE2F5F5E2F5F5F5F5F5F5F5F5F5F5F5F5F5F5F5F5F5F5F5F5F5F5F5
310
F5F5F5F5F5F5F5F5F5F5F5F5F5F5F5F5F5F5F5F5F5F5F5F5F5F5F5F5F5F5F5F5F5F5F5F5F5F5F5F5F5F5F5F5F5F5F5F5F5F5F5F5F5F5F5F5F5F5F5F5F5F5F5F5F5F5F5F5E2F5F50B45E2F5F5E2F5F5F5F5F5F5F5F5F5F5F5F5F5F5F5F5F5F5F5F5F5F5F5F5F5F5F5F5F5F5F5F5F5F5F5F5F5F5F5F5F5F5F5F5F5F5F5F5F5F5
310
F5F5F5F5F5F5F5F5F5F5F5F5F5F5F5F5F5F5F5F5F5F5F5F5F5F5F5F5F5F5F5F5F5F5F5F5F5F5F5F5F5E2F5F57C3DE2F5F5E2F5F5F5F5F5F5F5F5F5F5F5F5F5F5F5F5F5F5F5F5F5F5F5F5F5F5F5F5F5F5F5F5F5F5F5F5F5F5F5F5F5F5F5F5F5F5F5F5F5F5F5F5F5F5F5F5F5F5F5F5F5F5F5F5F5F5F5F5F5F5F5F5F5F5F5F5F5
310
F5F5F5F5F5F5F5F5F5F5F5F5F5F5E2F5F50E45E2F5F5E2F5F5F5F5F5F5F5F5F5F5F5F5F5F5F5F5F5F5F5F5F5F5F5F5F5F5F5F5F5F5F5F5F5F5F5F5F5F5F5F5F5F5F5F5F5F5F5F5F5F5F5F5F5F5F5F5F5F5F5F5F5F5F5F5F5F5F5F5F5F5F5F5F5F5F5F5F5F5F5F5F5F5F5F5F5F5F5F5F5F5F5E2F5F5A73DE2F5F5E2F5F5F5F5
310
F5F5F5F5F5F5F5F5F5F5F5F5F5F5F5F5F5F5F5F5F5F5F5F5F5F5F5F5F5F5F5F5F5F5F5F5F5F5F5F5F5F5F5F5F5F5F5F5F5F5F5F5F5F5F5F5F5F5F5F5F5F5F5F5F5F5F5F5F5F5F5F5F5F5F5F5F5F5F5F5F5F5F5F5F5F5F5E2F5F5EC44E2F5F5E2F5F5F5F5F5F5F5F5F5F5F5F5F5F5F5F5F5F5F5F5F5F5F5F5F5F5F5F5F5F5F5
310
F5F5F5F5F5F5F5F5F5F5F5F5F5F5F5F5F5F5F5F5F5F5F5F5F5F5F5F5F5F5F5F5F5F5F5F5F5F5F5F5F5F5F5F5F5F5F5F5F5F5F5F5F5F5F5F5F5F5F5F5E2F5F5D93DE2F5F5E2F5F5F5F5F5F5F5F5F5F5F5F5F5F5F5F5F5F5F5F5F5F5F5F5F5F5F5F5F5F5F5F5F5F5F5F5F5F5F5F5F5F5F5F5F5F5F5F5F5F5F5F5F5F5F5F5F5F5
310
F5F5F5F5F5F5F5F5F5F5F5F5F5F5F5F5F5F5F5F5F5F5F5F5F5F5F5F5F5F5F5F5F5E2F5F5F344E2F5F5F5F5F5F5F5F5F5F5F5F5F5F5F5F5F5F5F5F5F5F5F5F5F5F5F5F5F5F5F5F5F5F5F5F5F5F5F5F5F5F5F5F5F5F5F5F5F5F5F5F5F5F5F5F5F5F5F5F5F5F5F5F5F5F5F5F5F5F5F5F5F5F5F5F5F5F5F5F5F5F5F5F5F5F5F5F5
310
F5F5F5F5F5F5F5F5F5F73CE2F5F5F5F5F5F5F5F5F5F5F5F5F5F5F5F5F5F5F5F5F5F5F5F5F5F5F5F5F5F5F5F5F5F5F5F5F5F5F5F5F5F5F5F5F5F5F5F5F5F5F5F5F5F5F5F5F5F5F5F5F5F5F5F5F5F5F5F5F5F5F5F5F5F5F5F5F5F5F5F5F5F5F5F5F5F5F5F5F5F5F5F5F5F5F5F5F5B344E2F5F5F5F5F5F5F5F5F5F5F5F5F5F5F5
310
F5F5F5F5F5F5F5F5F5F5F5F5F5F5F5F5F5F5F5F5F5F5F5F5F5F5F5F5F5F5F5F5F5F5F5F5F5F5F5F5F5F5F5F5F5F5F5F5F5F5F5F5F5F5F5F5F5F5F5F5F5F5F5F5F5F5F5F5F5F5F5F5F5F5F5F5F5F5F5F5F5F56A3DE2F5F5F5F5F5F5F5F5F5F5F5F5F5F5F5F5F5F5F5F5F5F5F5F5F5F5F5F5F5F5F5F5F5F5F5F5F5F5F5F5F5F5
310
F5F5F5F5F5F5F5F5F5F5F5F5F5F5F5F5F5F5F5F5F5F5F5F5F5F5F5F5F5F5F5F5F5F5F5F5F5F5F5F5F5F5F5F5F5F5F5F5F5F5F5F5F5F5F5BA44E2F5F5F5F5F5F5F5F5F5F5F5F5F5F5F5F5F5F5F5F5F5F5F5F5F5F5F5F5F5F5F5F5F5F5F5F5F5F5F5F5F5F5F5F5F5F5F5F5F5F5F5F5F5F5F5F5F5F5F5F5F5F5F5F5F5F5F5F5F5
310
F5F5F5F5F5F5F5F5F5F5F5F5F5F5F5F5F5F5F5F5F5F5F5F5F5F5F5F59D3DE2F5F5F5F5F5F5F5F5F5F5F5F5F5F5F5F5F5F5F5F5F5F5F5F5F5F5F5F5F5F5F5F5F5F5F5F5F5F5F5F5F5F5F5F5F5F5F5F5F5F5F5F5F5F5F5F5F5F5F5F5F5F5F5F5F5F5F5F5F5F5F5F5F5F5F5F5F5F5F5F5F5F5F5F5F5F5F5F5F5F5F5F5F5F5F5F5
310
F5AB44E2F5F5F5F5F5F5F5F5F5F5F5F5F5F5F5F5F5F5F5F5F5F5F5F5F5F5F5F5F5F5F5F5F5F5F5F5F5F5F5F5F5F5F5F5F5F5F5F5F5F5F5F5F5F5F5F5F5F5F5F5F5F5F5F5F5F5F5F5F5F5F5F5F5F5F5F5F5F5F5F5F5F5F5F5F5F5F5F5F5F5F5F5F5F5F5F5F5EA3DE2F5F5F5F5F5F5F5F5F5F5F5F5F5F5F5F5F5F5F5F5F5F5F5
310
F5F5F5F5F5F5F5F5F5F5F5F5F5F5F5F5F5F5F5F5F5F5F5F5F5F5F5F5F5F5F5F5F5F5F5F5F5F5F5F5F5F5F5F5F5F5F5F5F5F5F5F5F5F5F5F5F5F5F5F5F5F5F5F5F5F5F5F5F5F5F5F5F5F5C844E2F5F5F5F5F5F5F5F5F5F5F5F5F5F5F5F5F5F5F5F5F5F5F5F5F5F5F5F5F5F5F5F5F5F5F5F5F5F5F5F5F5F5F5F5F5F5F5F5F5F5
310
F5F5F5F5F5F5F5F5F5F5F5F5F5F5F5F5F5F5F5F5F5F5F5F5F5F5F5F5F5F5F5F5F5F5F5F5F5F5F5F5F5F5F5F5F5F5F5F93CE2F5F5F5F5F5F5F5F5F5F5F5F5F5F5F5F5F5F5F5F5F5F5F5F5F5F5F5F5F5F5F5F5F5F5F5F5F5F5F5F5F5F5F5F5F5F5F5F5F5F5F5F5F5F5F5F5F5F5F5F5F5F5F5F5F5F5F5F5F5F5F5F5F5F5F5F5F5
310
F5F5F5F5F5F5F5F5F5F5F5F5F5F5F5F5F5F5F5F54444E2F5F5E2F5F5F5F5F5F5F5F5F5F5F5F5F5F5F5F5F5F5F5F5F5F5F5F5F5F5F5F5F5F5F5F5F5F5F5F5F5F5F5F5F5F5F5F5F5F5F5F5F5F5F5F5F5F5F5F5F5F5F5F5F5F5F5F5F5F5F5F5F5F5F5F5F5F5F5F5F5F5F5F5F5F5F5F5F5F5F5F5F5F5F5E2F5F5673DE2F5F5E2F5
310
F5F5F5F5F5F5F5F5F5F5F5F5F5F5F5F5F5F5F5F5F5F5F5F5F5F5F5F5F5F5F5F5F5F5F5F5F5F5F5F5F5F5F5F5F5F5F5F5F5F5F5F5F5F5F5F5F5F5F5F5F5F5F5F5F5F5F5F5F5F5F5F5F5F5F5F5F5F5F5F5F5F5F5F5F5F5F5F5F5F5E2F5F54B44E2F5F5E2F5F5F5F5F5F5F5F5F5F5F5F5F5F5F5F5F5F5F5F5F5F5F5F5F5F5F5F5
310
F5F5F5F5F5F5F5F5F5F5F5F5F5F5F5F5F5F5F5F5F5F5F5F5F5F5F5F5F5F5F5F5F5F5F5F5F5F5F5F5F5F5F5F5F5F5F5F5F5F5F5F5F5F5F5F5F5F5F5F5F5F5F5E2F5F58D3DE2F5F5E2F5F5F5F5F5F5F5F5F5F5F5F5F5F5F5F5F5F5F5F5F5F5F5F5F5F5F5F5F5F5F5F5F5F5F5F5F5F5F5F5F5F5F5F5F5F5F5F5F5F5F5F5F5F5F5
310
F5F5F5F5F5F5F5F5F5F5F5F5F5F5F5F5F5F5F5F5F5F5F5F5F5F5F5F5F5F5F5F5F5F5F5F5E2F5F54444E2F5F5E2F5F5F5F5F5F5F5F5F5F5F5F5F5F5F5F5F5F5F5F5F5F5F5F5F5F5F5F5F5F5F5F5F5F5F5F5F5F5F5F5F5F5F5F5F5F5F5F5F5F5F5F5F5F5F5F5F5F5F5F5F5F5F5F5F5F5F5F5F5F5F5F5F5F5F5F5F5F5F5F5F5F5
310
F5F5F5F5F5F5F5F5F5E2F5F5D23DE2F5F5E2F5F5F5F5F5F5F5F5F5F5F5F5F5F5F5F5F5F5F5F5F5F5F5F5F5F5F5F5F5F5F5F5F5F5F5F5F5F5F5F5F5F5F5F5F5F5F5F5F5F5F5F5F5F5F5F5F5F5F5F5F5F5F5F5F5F5F5F5F5F5F5F5F5F5F5F5F5F5F5F5F5F5F5F5F5F5F5F5F5F5F5E2F5F54444E2F5F5E2F5F5F5F5F5F5F5F5F5
310
F5F5F5F5F5F5F5F5F5F5F5F5F5F5F5F5F5F5F5F5F5F5F5F5F5F5F5F5F5F5F5F5F5F5F5F5F5F5F5F5F5F5F5F5F5F5F5F5F5F5F5F5F5F5F5F5F5F5F5F5F5F5F5F5F5F5F5F5F5F5F5F5F5F5F5F5F5F5F5F5F5F5E2F5F5F43DE2F5F5E2F5F5F5F5F5F5F5F5F5F5F5F5F5F5F5F5F5F5F5F5F5F5F5F5F5F5F5F5F5F5F5F5F5F5F5F5
310
F5F5F5F5F5F5F5F5F5F5F5F5F5F5F5F5F5F5F5F5F5F5F5F5F5F5F5F5F5F5F5F5F5F5F5F5F5F5F5F5F5F5F5F5F5F5F5F5F5F5F5F5F5F5F5E2F5F56344E2F5F5E2F5F5F5F5F5F5F5F5F5F5F5F5F5F5F5F5F5F5F5F5F5F5F5F5F5F5F5F5F5F5F5F5F5F5F5F5F5F5F5F5F5F5F5F5F5F5F5F5F5F5F5F5F5F5F5F5F5F5F5F5F5F5F5
310
F5F5F5F5F5F5F5F5F5F5F5F5F5F5F5F5F5F5F5F5F5F5F5F5F5F5F5F5E2F5F5163EE2F5F5E2F5F5F5F5F5F5F5F5F5F5F5F5F5F5F5F5F5F5F5F5F5F5F5F5F5F5F5F5F5F5F5F5F5F5F5F5F5F5F5F5F5F5F5F5F5F5F5F5F5F5F5F5F5F5F5F5F5F5F5F5F5F5F5F5F5F5F5F5F5F5F5F5F5F5F5F5F5F5F5F5F5F5F5F5F5F5F5F5F5F5
310
F5E2F5F54444E2F5F5E2F5F5F5F5F5F5F5F5F5F5F5F5F5F5F5F5F5F5F5F5F5F5F5F5F5F5F5F5F5F5F5F5F5F5F5F5F5F5F5F5F5F5F5F5F5F5F5F5F5F5F5F5F5F5F5F5F5F5F5F5F5F5F5F5F5F5F5F5F5F5F5F5F5F5F5F5F5F5F5F5F5F5F5F5F5F5F5F5F5F5F5E2F5F5F73CE2F5F5E2F5F5F5F5F5F5F5F5F5F5F5F5F5F5F5F5F5
310
F5F5F5F5F5F5F5F5F5F5F5F5F5F5F5F5F5F5F5F5F5F5F5F5F5F5F5F5F5F5F5F5F5F5F5F5F5F5F5F5F5F5F5F5F5F5F5F5F5F5F5F5F5F5F5F5F5F5F5F5F5F5F5F5F5F5F5F5F5F5F5F5F5F5E2F5F50F44E2F5F5E2F5F5F5F5F5F5F5F5F5F5F5F5F5F5F5F5F5F5F5F5F5F5F5F5F5F5F5F5F5F5F5F5F5F5F5F5F5F5F5F5F5F5F5F5
310
F5F5F5F5F5F5F5F5F5F5F5F5F5F5F5F5F5F5F5F5F5F5F5F5F5F5F5F5F5F5F5F5F5F5F5F5F5F5F5F5F5F5F5F5F5F5F5E2F5F5453DE2F5F5E2F5F5F5F5F5F5F5F5F5F5F5F5F5F5F5F5F5F5F5F5F5F5F5F5F5F5F5F5F5F5F5F5F5F5F5F5F5F5F5F5F5F5F5F5F5F5F5F5F5F5F5F5F5F5F5F5F5F5F5F5F5F5F5F5F5F5F5F5F5F5F5
310
F5F5F5F5F5F5F5F5F5F5F5F5F5F5F5F5F5F5F5F5E2F5F50344E2F5F5E2F5F5F5F5F5F5F5F5F5F5F5F5F5F5F5F5F5F5F5F5F5F5F5F5F5F5F5F5F5F5F5F5F5F5F5F5F5F5F5F5F5F5F5F5F5F5F5F5F5F5F5F5F5F5F5F5F5F5F5F5F5F5F5F5F5F5F5F5F5F5F5F5F5F5F5F5F5F5F5F5F5F5F5F5F5F5F5F5F5F5F5E2F5F5613DE2F5
310
F5E2F5F5F5F5F5F5F5F5F5F5F5F5F5F5F5F5F5F5F5F5F5F5F5F5F5F5F5F5F5F5F5F5F5F5F5F5F5F5F5F5F5F5F5F5F5F5F5F5F5F5F5F5F5F5F5F5F5F5F5F5F5F5F5F5F5F5F5F5F5F5F5F5F5F5F5F5F5F5F5F5F5F5F5F5F5F5F5F5F5F5F5E2F5F52044E2F5F5E2F5F5F5F5F5F5F5F5F5F5F5F5F5F5F5F5F5F5F5F5F5F5F5F5F5
310
F5F5F5F5F5F5F5F5F5F5F5F5F5F5F5F5F5F5F5F5F5F5F5F5F5F5F5F5F5F5F5F5F5F5F5F5F5F5F5F5F5F5F5F5F5F5F5F5F5F5F5F5F5F5F5F5F5F5F5F5F5F5F5F5F5F5E2F5F5873DE2F5F5F5F5F5F5F5F5F5F5F5F5F5F5F5F5F5F5F5F5F5F5F5F5F5F5F5F5F5F5F5F5F5F5F5F5F5F5F5F5F5F5F5F5F5F5F5F5F5F5F5F5F5F5F5
310
F5F5F5F5F5F5F5F5F5F5F5F5F5F5F5F5F5F5F5F5F5F5F5F5F5F5F5F5F5F5F5F5F5F5F5F5F5F5F5F5F5F50F44E2F5F5F5F5F5F5F5F5F5F5F5F5F5F5F5F5F5F5F5F5F5F5F5F5F5F5F5F5F5F5F5F5F5F5F5F5F5F5F5F5F5F5F5F5F5F5F5F5F5F5F5F5F5F5F5F5F5F5F5F5F5F5F5F5F5F5F5F5F5F5F5F5F5F5F5F5F5F5F5F5F5F5
310
F5F5F5F5F5F5F5F5F5F5F5F5F5F5F5B53DE2F5F5F5F5F5F5F5F5F5F5F5F5F5F5F5F5F5F5F5F5F5F5F5F5F5F5F5F5F5F5F5F5F5F5F5F5F5F5F5F5F5F5F5F5F5F5F5F5F5F5F5F5F5F5F5F5F5F5F5F5F5F5F5F5F5F5F5F5F5F5F5F5F5F5F5F5F5F5F5F5F5F5F5F5F5F5F5F5F5F5F5F5F5F5F5F5F50A44E2F5F5F5F5F5F5F5F5F5
310
F5F5F5F5F5F5F5F5F5F5F5F5F5F5F5F5F5F5F5F5F5F5F5F5F5F5F5F5F5F5F5F5F5F5F5F5F5F5F5F5F5F5F5F5F5F5F5F5F5F5F5F5F5F5F5F5F5F5F5F5F5F5F5F5F5F5F5F5F5F5F5F5F5F5F5F5F5F5F5F5F5F5F5F5F5F5F5F5C73DE2F5F5F5F5F5F5F5F5F5F5F5F5F5F5F5F5F5F5F5F5F5F5F5F5F5F5F5F5F5F5F5F5F5F5F5F5
310
F5F5F5F5F5F5F5F5F5F5F5F5F5F5F5F5F5F5F5F5F5F5F5F5F5F5F5F5F5F5F5F5F5F5F5F5F5F5F5F5F5F5F5F5F5F5F5F5F5F5F5F5F5F5F5F5F5F5F5F5F5F743E2F5F5F5F5F5F5F5F5F5F5F5F5F5F5F5F5F5F5F5F5F5F5F5F5F5F5F5F5F5F5F5F5F5F5F5F5F5F5F5F5F5F5F5F5F5F5F5F5F5F5F5F5F5F5F5F5F5F5F5F5F5F5F5
310
F5F5F5F5F5F5F5F5F5F5F5F5F5F5F5F5F5F5F5F5F5F5F5F5F5F5F5F5F5F5F5F5F5F5013EE2F5F5F5F5F5F5F5F5F5F5F5F5F5F5F5F5F5F5F5F5F5F5F5F5F5F5F5F5F5F5F5F5F5F5F5F5F5F5F5F5F5F5F5F5F5F5F5F5F5F5F5F5F5F5F5F5F5F5F5F5F5F5F5F5F5F5F5F5F5F5F5F5F5F5F5F5F5F5F5F5F5F5F5F5F5F5F5F5F5F5
310
F5F5F5F5F5F5F5F743E2F5F5F5F5F5F5F5F5F5F5F5F5F5F5F5F5F5F5F5F5F5F5F5F5F5F5F5F5F5F5F5F5F5F5F5F5F5F5F5F5F5F5F5F5F5F5F5F5F5F5F5F5F5F5F5F5F5F5F5F5F5F5F5F5F5F5F5F5F5F5F5F5F5F5F5F5F5F5F5F5F5F5F5F5F5F5F5F5F5F5F5F5F5F5F5F5F5243EE2F5F5F5F5F5F5F5F5F5F5F5F5F5F5F5F5F5
310
F5F5F5F5F5F5F5F5F5F5F5F5F5F5F5F5F5F5F5F5F5F5F5F5F5F5F5F5F5F5F5F5F5F5F5F5F5F5F5F5F5F5F5F5F5F5F5F5F5F5F5F5F5F5F5F5F5F5F5F5F5F5F5F5F5F5F5F5F5F5F5F5F5F5F5F5F5F5F5F50344E2F5F5E2F5F5F5F5F5F5F5F5F5F5F5F5F5F5F5F5F5F5F5F5F5F5F5F5F5F5F5F5F5F5F5F5F5F5F5F5F5F5F5F5F5
310
F5F5F5F5F5F5F5F5F5F5F5F5F5F5F5F5F5F5F5F5F5F5F5F5F5F5F5F5F5F5F5F5F5F5F5F5F5F5F5F5F5F5F5F5F5F5F5F5F5F5E2F5F5423DE2F5F5E2F5F5F5F5F5F5F5F5F5F5F5F5F5F5F5F5F5F5F5F5F5F5F5F5F5F5F5F5F5F5F5F5F5F5F5F5F5F5F5F5F5F5F5F5F5F5F5F5F5F5F5F5F5F5F5F5F5F5F5F5F5F5F5F5F5F5F5F5
310
F5F5F5F5F5F5F5F5F5F5F5F5F5F5F5F5F5F5F5F5F5F5F5E2F5F5A343E2F5F5E2F5F5F5F5F5F5F5F5F5F5F5F5F5F5F5F5F5F5F5F5F5F5F5F5F5F5F5F5F5F5F5F5F5F5F5F5F5F5F5F5F5F5F5F5F5F5F5F5F5F5F5F5F5F5F5F5F5F5F5F5F5F5F5F5F5F5F5F5F5F5F5F5F5F5F5F5F5F5F5F5F5F5F5F5F5F5F5F5F5F5F5E2F5F57B
310
3DE2F5F5E2F5F5F5F5F5F5F5F5F5F5F5F5F5F5F5F5F5F5F5F5F5F5F5F5F5F5F5F5F5F5F5F5F5F5F5F5F5F5F5F5F5F5F5F5F5F5F5F5F5F5F5F5F5F5F5F5F5F5F5F5F5F5F5F5F5F5F5F5F5F5F5F5F5F5F5F5F5F5F5F5F5F5F5F5F5F5F5F5F5F5F5E2F5F5AA43E2F5F5E2F5F5F5F5F5F5F5F5F5F5F5F5F5F5F5F5F5F5F5F5F5F5
310
F5F5F5F5F5F5F5F5F5F5F5F5F5F5F5F5F5F5F5F5F5F5F5F5F5F5F5F5F5F5F5F5F5F5F5F5F5F5F5F5F5F5F5F5F5F5F5F5F5F5F5F5F5F5F5F5F5F5F5F5F5F5F5F5F5F5F5F5F5E2F5F5A33DE2F5F5E2F5F5F5F5F5F5F5F5F5F5F5F5F5F5F5F5F5F5F5F5F5F5F5F5F5F5F5F5F5F5F5F5F5F5F5F5F5F5F5F5F5F5F5F5F5F5F5F5F5
310
F5F5F5F5F5F5F5F5F5F5F5F5F5F5F5F5F5F5F5F5F5F5F5F5F5F5F5F5F5F5F5F5F5F5F5F5F5F5F5F5F5F5E2F5F59C43E2F5F5E2F5F5F5F5F5F5F5F5F5F5F5F5F5F5F5F5F5F5F5F5F5F5F5F5F5F5F5F5F5F5F5F5F5F5F5F5F5F5F5F5F5F5F5F5F5F5F5F5F5F5F5F5F5F5F5F5F5F5F5F5F5F5F5F5F5F5F5F5F5F5F5F5F5F5F5F5
310
F5F5F5F5F5F5F5F5F5F5F5F5F5F5F5E2F5F5C73DE2F5F5E2F5F5F5F5F5F5F5F5F5F5F5F5F5F5F5F5F5F5F5F5F5F5F5F5F5F5F5F5F5F5F5F5F5F5F5F5F5F5F5F5F5F5F5F5F5F5F5F5F5F5F5F5F5F5F5F5F5F5F5F5F5F5F5F5F5F5F5F5F5F5F5F5F5F5F5F5F5F5F5F5F5F5F5F5F5F5F5F5F5F5F5E2F5F5CE43E2F5F5E2F5F5F5
310
F5F5F5F5F5F5F5F5F5F5F5F5F5F5F5F5F5F5F5F5F5F5F5F5F5F5F5F5F5F5F5F5F5F5F5F5F5F5F5F5F5F5F5F5F5F5F5F5F5F5F5F5F5F5F5F5F5F5F5F5F5F5F5F5F5F5F5F5F5F5F5F5F5F5F5F5F5F5F5F5F5F5F5F5F5F5F5F5E2F5F5163EE2F5F5E2F5F5F5F5F5F5F5F5F5F5F5F5F5F5F5F5F5F5F5F5F5F5F5F5F5F5F5F5F5F5
310
F5F5F5F5F5F5F5F5F5F5F5F5F5F5F5F5F5F5F5F5F5F5F5F5F5F5F5F5F5F5F5F5F5F5F5F5F5F5F5F5F5F5F5F5F5F5F5F5F5F5F5F5F5F5F5F5F5F5F5F5F5E2F5F5B143E2F5F5E2F5F5F5F5F5F5F5F5F5F5F5F5F5F5F5F5F5F5F5F5F5F5F5F5F5F5F5F5F5F5F5F5F5F5F5F5F5F5F5F5F5F5F5F5F5F5F5F5F5F5F5F5F5F5F5F5F5
310
F5F5F5F5F5F5F5F5F5F5F5F5F5F5F5F5F5F5F5F5F5F5F5F5F5F5F5F5F5F5F5F5F5F5E2F5F53D3EE2F5F5E2F5F5F5F5F5F5F5F5F5F5F5F5F5F5F5F5F5F5F5F5F5F5F5F5F5F5F5F5F5F5F5F5F5F5F5F5F5F5F5F5F5F5F5F5F5F5F5F5F5F5F5F5F5F5F5F5F5F5F5F5F5F5F5F5F5F5F5F5F5F5F5F5F5F5F5F5F5F5F5F5F5F5F5F5
310
F5F5F5F5F5F5F5E2F5F5B943E2F5F5E2F5F5F5F5F5F5F5F5F5F5F5F5F5F5F5F5F5F5F5F5F5F5F5F5F5F5F5F5F5F5F5F5F5F5F5F5F5F5F5F5F5F5F5F5F5F5F5F5F5F5F5F5F5F5F5F5F5F5F5F5F5F5F5F5F5F5F5F5F5F5F5F5F5F5F5F5F5F5F5F5F5F5F5F5F5F5F5F5F5F5F5E2F5F5753EE2F5F5E2F5F5F5F5F5F5F5F5F5F5F5
310
F5F5F5F5F5F5F5F5F5F5F5F5F5F5F5F5F5F5F5F5F5F5F5F5F5F5F5F5F5F5F5F5F5F5F5F5F5F5F5F5F5F5F5F5F5F5F5F5F5F5F5F5F5F5F5F5F5F5F5F5F5F5F5F5F5F5F5F5F5F5F5F5F5F5F5F5F5F5F5F5E2F5F5BD43E2F5F5E2F5F5F5F5F5F5F5F5F5F5F5F5F5F5F5F5F5F5F5F5F5F5F5F5F5F5F5F5F5F5F5F5F5F5F5F5F5F5
310
F5F5F5F5F5F5F5F5F5F5F5F5F5F5F5F5F5F5F5F5F5F5F5F5F5F5F5F5F5F5F5F5F5F5F5F5F5F5F5F5F5F5F5F5F5F5F5F5F5F5F5F5F5E2F5F5F93CE2F5F5E2F5F5F5F5F5F5F5F5F5F5F5F5F5F5F5F5F5F5F5F5F5F5F5F5F5F5F5F5F5F5F5F5F5F5F5F5F5F5F5F5F5F5F5F5F5F5F5F5F5F5F5F5F5F5F5F5F5F5F5F5F5F5F5F5F5
310
F5F5F5F5F5F5F5F5F5F5F5F5F5F5F5F5F5F5F5F5F5F5F5F5F5F5E2F5F54843E2F5F5E2F5F5F5F5F5F5F5F5F5F5F5F5F5F5F5F5F5F5F5F5F5F5F5F5F5F5F5F5F5F5F5F5F5F5F5F5F5F5F5F5F5F5F5F5F5F5F5F5F5F5F5F5F5F5F5F5F5F5F5F5F5F5F5F5F5F5F5F5F5F5F5F5F5F5F5F5F5F5F5F5F5F5F5F5F5F5F5F5F5F5F5E2
310
F5F5053DE2F5F5F5F5F5F5F5F5F5F5F5F5F5F5F5F5F5F5F5F5F5F5F5F5F5F5F5F5F5F5F5F5F5F5F5F5F5F5F5F5F5F5F5F5F5F5F5F5F5F5F5F5F5F5F5F5F5F5F5F5F5F5F5F5F5F5F5F5F5F5F5F5F5F5F5F5F5F5F5F5F5F5F5F5F5F5F5F5F5F5F5F5F5F5F5F5F56543E2F5F5F5F5F5F5F5F5F5F5F5F5F5F5F5F5F5F5F5F5F5F5
310
F5F5F5F5F5F5F5F5F5F5F5F5F5F5F5F5F5F5F5F5F5F5F5F5F5F5F5F5F5F5F5F5F5F5F5F5F5F5F5F5F5F5F5F5F5F5F5F5F5F5F5F5F5F5F5F5F5F5F5F5F5F5F5F5F5F5F5F5F5F5F5F5F5F5F55B3DE2F5F5F5F5F5F5F5F5F5F5F5F5F5F5F5F5F5F5F5F5F5F5F5F5F5F5F5F5F5F5F5F5F5F5F5F5F5F5F5F5F5F5F5F5F5F5F5F5F5
310
F5F5F5F5F5F5F5F5F5F5F5F5F5F5F5F5F5F5F5F5F5F5F5F5F5F5F5F5F5F5F5F5F5F5F5F5F5F5F5F5F5F5F5F5F5F5F5F56943E2F5F5F5F5F5F5F5F5F5F5F5F5F5F5F5F5F5F5F5F5F5F5F5F5F5F5F5F5F5F5F5F5F5F5F5F5F5F5F5F5F5F5F5F5F5F5F5F5F5F5F5F5F5F5F5F5F5F5F5F5F5F5F5F5F5F5F5F5F5F5F5F5F5F5F5F5
310
F5F5F5F5F5F5F5F5F5F5F5F5F5F5F5F5F5F5F5F5F5703DE2F5F5F5F5F5F5F5F5F5F5F5F5F5F5F5F5F5F5F5F5F5F5F5F5F5F5F5F5F5F5F5F5F5F5F5F5F5F5F5F5F5F5F5F5F5F5F5F5F5F5F5F5F5F5F5F5F5F5F5F5F5F5F5F5F5F5F5F5F5F5F5F5F5F5F5F5F5F5F5F5F5F5F5F5F5F5F5F5F5F5F5F5F5F5F5F5F54F43E2F5F5F5
310
F5F5F5F5F5F5F5F5F5F5F5F5F5F5F5F5F5F5F5F5F5F5F5F5F5F5F5F5F5F5F5F5F5F5F5F5F5F5F5F5F5F5F5F5F5F5F5F5F5F5F5F5F5F5F5F5F5F5F5F5F5F5F5F5F5F5F5F5F5F5F5F5F5F5F5F5F5F5F5F5F5F5F5F5F5F5F5F5F5F5F5F5F5F5A83DE2F5F5F5F5F5F5F5F5F5F5F5F5F5F5F5F5F5F5F5F5F5F5F5F5F5F5F5F5F5F5
310
F5F5F5F5F5F5F5F5F5F5F5F5F5F5F5F5F5F5F5F5F5F5F5F5F5F5F5F5F5F5F5F5F5F5F5F5F5F5F5F5F5F5F5F5F5F5F5F5F5F5F5F5F5F5F5F5F5F5F5F5F5F5F5F5F5F5F55B43E2F5F5F5F5F5F5F5F5F5F5F5F5F5F5F5F5F5F5F5F5F5F5F5F5F5F5F5F5F5F5F5F5F5F5F5F5F5F5F5F5F5F5F5F5F5F5F5F5F5F5F5F5F5F5F5F5F5
310
F5F5F5F5F5F5F5F5F5F5F5F5F5F5F5F5F5F5F5F5F5F5F5F5F5F5F5F5F5F5F5F5F5F5F5F5F5F5F5F5DD3DE2F5F5F5F5F5F5F5F5F5F5F5F5F5F5F5F5F5F5F5F5F5F5F5F5F5F5F5F5F5F5F5F5F5F5F5F5F5F5F5F5F5F5F5F5F5F5F5F5F5F5F5F5F5F5F5F5F5F5F5F5F5F5F5F5F5F5F5F5F5F5F5F5F5F5F5F5F5F5F5F5F5F5F5F5
310
F5F5F5F5F5F5F5F5F5F5F5F5F55B43E2F5F5F5F5F5F5F5F5F5F5F5F5F5F5F5F5F5F5F5F5F5F5F5F5F5F5F5F5F5F5F5F5F5F5F5F5F5F5F5F5F5F5F5F5F5F5F5F5F5F5F5F5F5F5F5F5F5F5F5F5F5F5F5F5F5F5F5F5F5F5F5F5F5F5F5F5F5F5F5F5F5F5F5F5F5F5F5F5F5F5F5F5F5F5F5F5F50F3EE2F5F5E2F5F5F5F5F5F5F5F5
310
F5F5F5F5F5F5F5F5F5F5F5F5F5F5F5F5F5F5F5F5F5F5F5F5F5F5F5F5F5F5F5F5F5F5F5F5F5F5F5F5F5F5F5F5F5F5F5F5F5F5F5F5F5F5F5F5F5F5F5F5F5F5F5F5F5F5F5F5F5F5F5F5F5F5F5F5F5F5F5F5F5F5F5E2F5F56243E2F5F5E2F5F5F5F5F5F5F5F5F5F5F5F5F5F5F5F5F5F5F5F5F5F5F5F5F5F5F5F5F5F5F5F5F5F5F5
310
F5F5F5F5F5F5F5F5F5F5F5F5F5F5F5F5F5F5F5F5F5F5F5F5F5F5F5F5F5F5F5F5F5F5F5F5F5F5F5F5F5F5F5F5F5F5F5F5F5F5F5F5F5F5F5F5E2F5F5323EE2F5F5E2F5F5F5F5F5F5F5F5F5F5F5F5F5F5F5F5F5F5F5F5F5F5F5F5F5F5F5F5F5F5F5F5F5F5F5F5F5F5F5F5F5F5F5F5F5F5F5F5F5F5F5F5F5F5F5F5F5F5F5F5F5F5
310
F5F5F5F5F5F5F5F5F5F5F5F5F5F5F5F5F5F5F5F5F5F5F5F5F5F5F5F5F5E2F5F51F43E2F5F5E2F5F5F5F5F5F5F5F5F5F5F5F5F5F5F5F5F5F5F5F5F5F5F5F5F5F5F5F5F5F5F5F5F5F5F5F5F5F5F5F5F5F5F5F5F5F5F5F5F5F5F5F5F5F5F5F5F5F5F5F5F5F5F5F5F5F5F5F5F5F5F5F5F5F5F5F5F5F5F5F5F5F5F5F5F5F5F5F5F5
310
F5F5E2F5F5F83CE2F5F5E2F5F5F5F5F5F5F5F5F5F5F5F5F5F5F5F5F5F5F5F5F5F5F5F5F5F5F5F5F5F5F5F5F5F5F5F5F5F5F5F5F5F5F5F5F5F5F5F5F5F5F5F5F5F5F5F5F5F5F5F5F5F5F5F5F5F5F5F5F5F5F5F5F5F5F5F5F5F5F5F5F5F5F5F5F5F5F5F5F5F5F5E2F5F50C43E2F5F5E2F5F5F5F5F5F5F5F5F5F5F5F5F5F5F5F5
310
F5F5F5F5F5F5F5F5F5F5F5F5F5F5F5F5F5F5F5F5F5F5F5F5F5F5F5F5F5F5F5F5F5F5F5F5F5F5F5F5F5F5F5F5F5F5F5F5F5F5F5F5F5F5F5F5F5F5F5F5F5F5F5F5F5F5F5F5F5F5F5F5F5F5F5E2F5F5603DE2F5F5E2F5F5F5F5F5F5F5F5F5F5F5F5F5F5F5F5F5F5F5F5F5F5F5F5F5F5F5F5F5F5F5F5F5F5F5F5F5F5F5F5F5F5F5
310
F5F5F5F5F5F5F5F5F5F5F5F5F5F5F5F5F5F5F5F5F5F5F5F5F5F5F5F5F5F5F5F5F5F5F5F5F5F5F5F5F5F5F5F5F5F5F5F5E2F5F50743E2F5F5E2F5F5F5F5F5F5F5F5F5F5F5F5F5F5F5F5F5F5F5F5F5F5F5F5F5F5F5F5F5F5F5F5F5F5F5F5F5F5F5F5F5F5F5F5F5F5F5F5F5F5F5F5F5F5F5F5F5F5F5F5F5F5F5F5F5F5F5F5F5F5
310
F5F5F5F5F5F5F5F5F5F5F5F5F5F5F5F5F5F5F5F5F5E2F5F5893DE2F5F5E2F5F5F5F5F5F5F5F5F5F5F5F5F5F5F5F5F5F5F5F5F5F5F5F5F5F5F5F5F5F5F5F5F5F5F5F5F5F5F5F5F5F5F5F5F5F5F5F5F5F5F5F5F5F5F5F5F5F5F5F5F5F5F5F5F5F5F5F5F5F5F5F5F5F5F5F5F5F5F5F5F5F5F5F5F5F5F5F5F5F5F5E2F5F50243E2
310
F5F5E2F5F5F5F5F5F5F5F5F5F5F5F5F5F5F5F5F5F5F5F5F5F5F5F5F5F5F5F5F5F5F5F5F5F5F5F5F5F5F5F5F5F5F5F5F5F5F5F5F5F5F5F5F5F5F5F5F5F5F5F5F5F5F5F5F5F5F5F5F5F5F5F5F5F5F5F5F5F5F5F5F5F5F5F5F5F5F5F5F5F5F5E2F5F5B23DE2F5F5E2F5F5F5F5F5F5F5F5F5F5F5F5F5F5F5F5F5F5F5F5F5F5F5F5
310
F5F5F5F5F5F5F5F5F5F5F5F5F5F5F5F5F5F5F5F5F5F5F5F5F5F5F5F5F5F5F5F5F5F5F5F5F5F5F5F5F5F5F5F5F5F5F5F5F5F5F5F5F5F5F5F5F5F5F5F5F5F5F5F5F5F5F5E2F5F50E43E2F5F5E2F5F5F5F5F5F5F5F5F5F5F5F5F5F5F5F5F5F5F5F5F5F5F5F5F5F5F5F5F5F5F5F5F5F5F5F5F5F5F5F5F5F5F5F5F5F5F5F5F5F5F5
310
F5F5F5F5F5F5F5F5F5F5F5F5F5F5F5F5F5F5F5F5F5F5F5F5F5F5F5F5F5F5F5F5F5F5F5F5F5F5F5F5E2F5F5DC3DE2F5F5E2F5F5F5F5F5F5F5F5F5F5F5F5F5F5F5F5F5F5F5F5F5F5F5F5F5F5F5F5F5F5F5F5F5F5F5F5F5F5F5F5F5F5F5F5F5F5F5F5F5F5F5F5F5F5F5F5F5F5F5F5F5F5F5F5F5F5F5F5F5F5F5F5F5F5F5F5F5F5
310
F5F5F5F5F5F5F5F5F5F5F5F5F5E2F5F50C43E2F5F5E2F5F5F5F5F5F5F5F5F5F5F5F5F5F5F5F5F5F5F5F5F5F5F5F5F5F5F5F5F5F5F5F5F5F5F5F5F5F5F5F5F5F5F5F5F5F5F5F5F5F5F5F5F5F5F5F5F5F5F5F5F5F5F5F5F5F5F5F5F5F5F5F5F5F5F5F5F5F5F5F5F5F5F5F5F5F5F5F5F5F5F5E2F5F5083EE2F5F5E2F5F5F5F5F5
310
F5F5F5F5F5F5F5F5F5F5F5F5F5F5F5F5F5F5F5F5F5F5F5F5F5F5F5F5F5F5F5F5F5F5F5F5F5F5F5F5F5F5F5F5F5F5F5F5F5F5F5F5F5F5F5F5F5F5F5F5F5F5F5F5F5F5F5F5F5F5F5F5F5F5F5F5F5F5F5F5F5F5F5F5F5F5E2F5F59F42E2F5F5E2F5F5F5F5F5F5F5F5F5F5F5F5F5F5F5F5F5F5F5F5F5F5F5F5F5F5F5F5F5F5F5F5
310
F5F5F5F5F5F5F5F5F5F5F5F5F5F5F5F5F5F5F5F5F5F5F5F5F5F5F5F5F5F5F5F5F5F5F5F5F5F5F5F5F5F5F5F5F5F5F5F5F5F5F5F5F5F5F5F5F5F5F5E2F5F51C3DE2F5F5E2F5F5F5F5F5F5F5F5F5F5F5F5F5F5F5F5F5F5F5F5F5F5F5F5F5F5F5F5F5F5F5F5F5F5F5F5F5F5F5F5F5F5F5F5F5F5F5F5F5F5F5F5F5F5F5F5F5F5F5
310
F5F5F5F5F5F5F5F5F5F5F5F5F5F5F5F5F5F5F5F5F5F5F5F5F5F5F5F5F5F5F5F5E2F5F5C442E2F5F5F5F5F5F5F5F5F5F5F5F5F5F5F5F5F5F5F5F5F5F5F5F5F5F5F5F5F5F5F5F5F5F5F5F5F5F5F5F5F5F5F5F5F5F5F5F5F5F5F5F5F5F5F5F5F5F5F5F5F5F5F5F5F5F5F5F5F5F5F5F5F5F5F5F5F5F5F5F5F5F5F5F5F5F5F5F5F5
310
F5F5F5F5F5F5F5F5573DE2F5F5F5F5F5F5F5F5F5F5F5F5F5F5F5F5F5F5F5F5F5F5F5F5F5F5F5F5F5F5F5F5F5F5F5F5F5F5F5F5F5F5F5F5F5F5F5F5F5F5F5F5F5F5F5F5F5F5F5F5F5F5F5F5F5F5F5F5F5F5F5F5F5F5F5F5F5F5F5F5F5F5F5F5F5F5F5F5F5F5F5F5F5F5F5F5F5A942E2F5F5F5F5F5F5F5F5F5F5F5F5F5F5F5F5
310
F5F5F5F5F5F5F5F5F5F5F5F5F5F5F5F5F5F5F5F5F5F5F5F5F5F5F5F5F5F5F5F5F5F5F5F5F5F5F5F5F5F5F5F5F5F5F5F5F5F5F5F5F5F5F5F5F5F5F5F5F5F5F5F5F5F5F5F5F5F5F5F5F5F5F5F5F5F5F5F5F58D3DE2F5F5F5F5F5F5F5F5F5F5F5F5F5F5F5F5F5F5F5F5F5F5F5F5F5F5F5F5F5F5F5F5F5F5F5F5F5F5F5F5F5F5F5
310
F5F5F5F5F5F5F5F5F5F5F5F5F5F5F5F5F5F5F5F5F5F5F5F5F5F5F5F5F5F5F5F5F5F5F5F5F5F5F5F5F5F5F5F5F5F5F5F5F5F5F5F5F5F5A942E2F5F5F5F5F5F5F5F5F5F5F5F5F5F5F5F5F5F5F5F5F5F5F5F5F5F5F5F5F5F5F5F5F5F5F5F5F5F5F5F5F5F5F5F5F5F5F5F5F5F5F5F5F5F5F5F5F5F5F5F5F5F5F5F5F5F5F5F5F5F5
310
F5F5F5F5F5F5F5F5F5F5F5F5F5F5F5F5F5F5F5F5F5F5F5F5F5F5F5B13DE2F5F5F5F5F5F5F5F5F5F5F5F5F5F5F5F5F5F5F5F5F5F5F5F5F5F5F5F5F5F5F5F5F5F5F5F5F5F5F5F5F5F5F5F5F5F5F5F5F5F5F5F5F5F5F5F5F5F5F5F5F5F5F5F5F5F5F5F5F5F5F5F5F5F5F5F5F5F5F5F5F5F5F5F5F5F5F5F5F5F5F5F5F5F5F5F5F5
310
A742E2F5F5F5F5F5F5F5F5F5F5F5F5F5F5F5F5F5F5F5F5F5F5F5F5F5F5F5F5F5F5F5F5F5F5F5F5F5F5F5F5F5F5F5F5F5F5F5F5F5F5F5F5F5F5F5F5F5F5F5F5F5F5F5F5F5F5F5F5F5F5F5F5F5F5F5F5F5F5F5F5F5F5F5F5F5F5F5F5F5F5F5F5F5F5F5F5F50000E2F5F5F5F5F5F5F5F5F5F5F5F5F5F5F5F5F5F5F5F5F5F5F5F5
310
F5F5F5F5F5F5F5F5F5F5F5F5F5F5F5F5F5F5F5F5F5F5F5F5F5F5F5F5F5F5F5F5F5F5F5F5F5F5F5F5F5F5F5F5F5F5F5F5F5F5F5F5F5F5F5F5F5F5F5F5F5F5F5F5F5F5F5F5F5F5F5F5F50000E2F5F5F5F5F5F5F5F5F5F5F5F5F5F5F5F5F5F5F5F5F5F5F5F5F5F5F5F5F5F5F5F5F5F5F5F5F5F5F5F5F5F5F5F5F5F5F5F5F5F5F5
310
F5F5F5F5F5F5F5F5F5F5F5F5F5F5F5F5F5F5F5F5F5F5F5F5F5F5F5F5F5F5F5F5F5F5F5F5F5F5F5F5F5F5F5F5F5F50000E2F5F5E2F5F5F5F5F5F5F5F5F5F5F5F5F5F5F5F5F5F5F5F5F5F5F5F5F5F5F5F5F5F5F5F5F5F5F5F5F5F5F5F5F5F5F5F5F5F5F5F5F5F5F5F5F5F5F5F5F5F5F5F5F5F5F5F5F5F5F5F5F5F5F5F5F5F5F5
310
F5F5F5F5F5F5F5F5F5F5F5F5F5F5F5F5E2F5F50000E2F5F5E2F5F5F5F5F5F5F5F5F5F5F5F5F5F5F5F5F5F5F5F5F5F5F5F5F5F5F5F5F5F5F5F5F5F5F5F5F5F5F5F5F5F5F5F5F5F5F5F5F5F5F5F5F5F5F5F5F5F5F5F5F5F5F5F5F5F5F5F5F5F5F5F5F5F5F5F5F5F5F5F5F5F5F5F5F5F5F5F5F5F5F5E2F5F50000E2F5F5E2F5F5
310
F5F5F5F5F5F5F5F5F5F5F5F5F5F5F5F5F5F5F5F5F5F5F5F5F5F5F5F5F5F5F5F5F5F5F5F5F5F5F5F5F5F5F5F5F5F5F5F5F5F5F5F5F5F5F5F5F5F5F5F5F5F5F5F5F5F5F5F5F5F5F5F5F5F5F5F5F5F5F5F5F5F5F5F5F5F5F5F5F5E2F5F50000E2F5F5E2F5F5F5F5F5F5F5F5F5F5F5F5F5F5F5F5F5F5F5F5F5F5F5F5F5F5F5F5F5
310
F5F5F5F5F5F5F5F5F5F5F5F5F5F5F5F5F5F5F5F5F5F5F5F5F5F5F5F5F5F5F5F5F5F5F5F5F5F5F5F5F5F5F5F5F5F5F5F5F5F5F5F5F5F5F5F5F5F5F5F5F5F5E2F5F50000E2F5F5E2F5F5F5F5F5F5F5F5F5F5F5F5F5F5F5F5F5F5F5F5F5F5F5F5F5F5F5F5F5F5F5F5F5F5F5F5F5F5F5F5F5F5F5F5F5F5F5F5F5F5F5F5F5F5F5F5
310
F5F5F5F5F5F5F5F5F5F5F5F5F5F5F5F5F5F5F5F5F5F5F5F5F5F5F5F5F5F5F5F5F5F5F5E2F5F50000E2F5F5E2F5F5F5F5F5F5F5F5F5F5F5F5F5F5F5F5F5F5F5F5F5F5F5F5F5F5F5F5F5F5F5F5F5F5F5F5F5F5F5F5F5F5F5F5F5F5F5F5F5F5F5F5F5F5F5F5F5F5F5F5F5F5F5F5F5F5F5F5F5F5F5F5F5F5F5F5F5F5F5F5F5F5F5
310
F5F5F5F5F5F5F5F5E2F5F50000E2F5F5E2F5F5F5F5F5F5F5F5F5F5F5F5F5F5F5F5F5F5F5F5F5F5F5F5F5F5F5F5F5F5F5F5F5F5F5F5F5F5F5F5F5F5F5F5F5F5F5F5F5F5F5F5F5F5F5F5F5F5F5F5F5F5F5F5F5F5F5F5F5F5F5F5F5F5F5F5F5F5F5F5F5F5F5F5F5F5F5F5F5F5F5E2F5F52801E2F5F5E2F5F5F5F5F5F5F5F5F5F5
310
F5F5F5F5F5F5F5F5F5F5F5F5F5F5F5F5F5F5F5F5F5F5F5F5F5F5F5F5F5F5F5F5F5F5F5F5F5F5F5F5F5F5F5F5F5F5F5F5F5F5F5F5F5F5F5F5F5F5F5F5F5F5F5F5F5F5F5F5F5F5F5F5F5F5F5F5F5F5F5F5F5E2F5F57FF5E2F5F5E2E2E2E2E2E2E2E2F5F5F5F5F5F5F5F5E2E2E2E2E2E2E2E2E2E2E2E2E2E2E2F5F5F5F5F5F5F5
310
F5E2E2E2E2E2E2E2E2E2E2E2E2E2E2E2F5F5F5F5F5F5F5F5E2E2E2E2E2E2E2E2E2E2E2E2E2E2E2F5F5F5F5F5F5F5F5E2E2E2E2E2E2E2E2F5F5F5F5E2F5F5F5F5F5F5F5F5F5F5F5F5F5F5F5F5F5F5F5F5F5F5F5F5F5F5F5F5F5F5F5F5F5F5F5F5F5F5F5F5F5F5F5F5F5F5F5F5F5F5F5F5F5F5F5F5F5F5F5F5F5F5F5F5F5F5F5
310
F5F5F5F5F5F5F5F5F5F5F5F5F5F5F5F5F5F5F5F5F5F5F5F5F5F5F5F5F5F5F5F5E2F5F5F5F5F5F5F5F5F5F5F5F5F5F5F5F5F5F5F5F5F5F5F5F5F5F5F5F5F5F5F5F5F5F5F5F5F5F5F5F5F5F5F5F5F5F5F5F5F5F5F5F5F5F5F5F5F5F5F5F5F5F5F5F5F5F5F5F5F5F5F5F5F5F5F5F5F5F5F5F5F5F5F5F5F5F5F5F5F5F5F5F5F5F5
310
F5F5F5F5F5E2E2E2E2E2E2E2E2E2E2E2E2E2E2E2E2E2E2E2E2E2E2E2E2E2E2E2E2E2E2E2E2E2E2E2E2E2E2E2E2E2E2E2E2E2E2E2E2E2E2E2E2E2E2E2E2E2E2E2E2E2E2E2E2E2E2E2E2E2E2E2E2E2E2E2E2E2E2E2E2E2E2E2E2E2E2E2E2E2E2E2E2E2E2E2E2E2E2BEBEEFEFEFEFEFEFEFEFEFEFEFEFEFEFEFEFEFEFEFEFEFEF
310
EFEFEFEFEFEFEFEFEFEFEFEFEFEFEFEFEFEFEFEFEFEFEFEFEFEFEFEFEFEFEFEFEFEFEFEFEFEFEFEFEFEFEFEFEFEFEFEFEFEFEFEFEFEFEFEFEFEFEFEFEFEFEFEFEFEFEFEFEFEFEFEFEFEFEFEFF5F5
  0
XRECORD
  5
3CC04
102
{ACAD_REACTORS
330
3CC03
102
}
330
3CC03
100
AcDbXrecord
280
     1
102
SHADEPLOT
 70
     0
102
SHADEPLOTRESLEVEL
 70
     2
102
SHADEPLOTCUSTOMDPI
 70
   300
  0
XRECORD
  5
3BDF0
102
{ACAD_REACTORS
330
3BDEF
102
}
330
3BDEF
100
AcDbXrecord
280
     1
102
MATERIAL
148
0.0
149
0.0
149
0.0
 93
        0
 94
       63
282
     0
 72
     1
 77
     1
171
     1
175
     1
179
     1
273
     0
  0
XRECORD
  5
3BDEE
102
{ACAD_REACTORS
330
3BDED
102
}
330
3BDED
100
AcDbXrecord
280
     1
102
MATERIAL
148
0.0
149
0.0
149
0.0
 93
        0
 94
       63
282
     0
 72
     1
 77
     1
171
     1
175
     1
179
     1
273
     0
  0
XRECORD
  5
3BDF2
102
{ACAD_REACTORS
330
3BDF1
102
}
330
3BDF1
100
AcDbXrecord
280
     1
102
MATERIAL
148
0.0
149
0.0
149
0.0
 93
        0
 94
       63
282
     0
 72
     1
 77
     1
171
     1
175
     1
179
     1
273
     0
  0
XRECORD
  5
3CC07
102
{ACAD_REACTORS
330
3CC06
102
}
330
3CC06
100
AcDbXrecord
280
     1
102
ACAD_ROUNDTRIP_PRE2007_TABLESTYLE
 90
      512
 91
        0
  1

 92
      512
 93
        0
  2

 94
      512
 95
        0
  3

  0
ENDSEC
  0
EOF
