  0
SECTION
  2
HEADER
  9
$ACADVER
  1
AC1027
  9
$ACADMAINTVER
 70
   125
  9
$DWGCODEPAGE
  3
ANSI_1252
  9
$LASTSAVEDBY
  1
kaschu
  9
$REQUIREDVERSIONS
160
                 0
  9
$INSBASE
 10
0.0
 20
0.0
 30
0.0
  9
$EXTMIN
 10
83.805937
 20
51.916348
 30
-0.000000000000016
  9
$EXTMAX
 10
634.5712253916489
 20
347.700432
 30
0.0000000000000178
  9
$LIMMIN
 10
-0.5
 20
-0.5
  9
$LIMMAX
 10
5.0
 20
5.0
  9
$ORTHOMODE
 70
     0
  9
$REGENMODE
 70
     1
  9
$FILLMODE
 70
     1
  9
$QTEXTMODE
 70
     0
  9
$MIRRTEXT
 70
     1
  9
$LTSCALE
 40
1.0
  9
$ATTMODE
 70
     1
  9
$TEXTSIZE
 40
0.2
  9
$TRACEWID
 40
0.05
  9
$TEXTSTYLE
  7
Standard
  9
$CLAYER
  8
0
  9
$CELTYPE
  6
ByLayer
  9
$CECOLOR
 62
   256
  9
$CELTSCALE
 40
1.0
  9
$DISPSILH
 70
     0
  9
$DIMSCALE
 40
1.0
  9
$DIMASZ
 40
0.18
  9
$DIMEXO
 40
0.0625
  9
$DIMDLI
 40
0.38
  9
$DIMRND
 40
0.0
  9
$DIMDLE
 40
0.0
  9
$DIMEXE
 40
0.18
  9
$DIMTP
 40
0.0
  9
$DIMTM
 40
0.0
  9
$DIMTXT
 40
0.18
  9
$DIMCEN
 40
0.09
  9
$DIMTSZ
 40
0.0
  9
$DIMTOL
 70
     0
  9
$DIMLIM
 70
     0
  9
$DIMTIH
 70
     1
  9
$DIMTOH
 70
     1
  9
$DIMSE1
 70
     0
  9
$DIMSE2
 70
     0
  9
$DIMTAD
 70
     0
  9
$DIMZIN
 70
     0
  9
$DIMBLK
  1

  9
$DIMASO
 70
     1
  9
$DIMSHO
 70
     1
  9
$DIMPOST
  1

  9
$DIMAPOST
  1

  9
$DIMALT
 70
     0
  9
$DIMALTD
 70
     2
  9
$DIMALTF
 40
25.4
  9
$DIMLFAC
 40
1.0
  9
$DIMTOFL
 70
     0
  9
$DIMTVP
 40
0.0
  9
$DIMTIX
 70
     0
  9
$DIMSOXD
 70
     0
  9
$DIMSAH
 70
     0
  9
$DIMBLK1
  1

  9
$DIMBLK2
  1

  9
$DIMSTYLE
  2
Standard
  9
$DIMCLRD
 70
     0
  9
$DIMCLRE
 70
     0
  9
$DIMCLRT
 70
     0
  9
$DIMTFAC
 40
1.0
  9
$DIMGAP
 40
0.09
  9
$DIMJUST
 70
     0
  9
$DIMSD1
 70
     0
  9
$DIMSD2
 70
     0
  9
$DIMTOLJ
 70
     1
  9
$DIMTZIN
 70
     0
  9
$DIMALTZ
 70
     0
  9
$DIMALTTZ
 70
     0
  9
$DIMUPT
 70
     0
  9
$DIMDEC
 70
     4
  9
$DIMTDEC
 70
     4
  9
$DIMALTU
 70
     2
  9
$DIMALTTD
 70
     2
  9
$DIMTXSTY
  7
Standard
  9
$DIMAUNIT
 70
     0
  9
$DIMADEC
 70
     0
  9
$DIMALTRND
 40
0.0
  9
$DIMAZIN
 70
     0
  9
$DIMDSEP
 70
    46
  9
$DIMATFIT
 70
     3
  9
$DIMFRAC
 70
     0
  9
$DIMLDRBLK
  1

  9
$DIMLUNIT
 70
     2
  9
$DIMLWD
 70
    -2
  9
$DIMLWE
 70
    -2
  9
$DIMTMOVE
 70
     0
  9
$DIMFXL
 40
1.0
  9
$DIMFXLON
 70
     0
  9
$DIMJOGANG
 40
0.7853981633974483
  9
$DIMTFILL
 70
     0
  9
$DIMTFILLCLR
 70
     0
  9
$DIMARCSYM
 70
     0
  9
$DIMLTYPE
  6

  9
$DIMLTEX1
  6

  9
$DIMLTEX2
  6

  9
$DIMTXTDIRECTION
 70
     0
  9
$LUNITS
 70
     2
  9
$LUPREC
 70
     4
  9
$SKETCHINC
 40
0.1
  9
$FILLETRAD
 40
0.5
  9
$AUNITS
 70
     0
  9
$AUPREC
 70
     0
  9
$MENU
  1
.
  9
$ELEVATION
 40
0.0
  9
$PELEVATION
 40
0.0
  9
$THICKNESS
 40
0.0
  9
$LIMCHECK
 70
     0
  9
$CHAMFERA
 40
0.0
  9
$CHAMFERB
 40
0.0
  9
$CHAMFERC
 40
0.0
  9
$CHAMFERD
 40
0.0
  9
$SKPOLY
 70
     0
  9
$TDCREATE
 40
2460069.551828704
  9
$TDUCREATE
 40
2460069.468498067
  9
$TDUPDATE
 40
2460235.432187500
  9
$TDUUPDATE
 40
2460235.348854167
  9
$TDINDWG
 40
0.0012037153
  9
$TDUSRTIMER
 40
0.0012037153
  9
$USRTIMER
 70
     1
  9
$ANGBASE
 50
0.0
  9
$ANGDIR
 70
     0
  9
$PDMODE
 70
     0
  9
$PDSIZE
 40
0.0
  9
$PLINEWID
 40
0.0
  9
$SPLFRAME
 70
     0
  9
$SPLINETYPE
 70
     6
  9
$SPLINESEGS
 70
     8
  9
$HANDSEED
  5
27B
  9
$SURFTAB1
 70
     6
  9
$SURFTAB2
 70
     6
  9
$SURFTYPE
 70
     6
  9
$SURFU
 70
     6
  9
$SURFV
 70
     6
  9
$UCSBASE
  2

  9
$UCSNAME
  2

  9
$UCSORG
 10
0.0
 20
0.0
 30
0.0
  9
$UCSXDIR
 10
1.0
 20
0.0
 30
0.0
  9
$UCSYDIR
 10
0.0
 20
1.0
 30
0.0
  9
$UCSORTHOREF
  2

  9
$UCSORTHOVIEW
 70
     0
  9
$UCSORGTOP
 10
0.0
 20
0.0
 30
0.0
  9
$UCSORGBOTTOM
 10
0.0
 20
0.0
 30
0.0
  9
$UCSORGLEFT
 10
0.0
 20
0.0
 30
0.0
  9
$UCSORGRIGHT
 10
0.0
 20
0.0
 30
0.0
  9
$UCSORGFRONT
 10
0.0
 20
0.0
 30
0.0
  9
$UCSORGBACK
 10
0.0
 20
0.0
 30
0.0
  9
$PUCSBASE
  2

  9
$PUCSNAME
  2

  9
$PUCSORG
 10
0.0
 20
0.0
 30
0.0
  9
$PUCSXDIR
 10
1.0
 20
0.0
 30
0.0
  9
$PUCSYDIR
 10
0.0
 20
1.0
 30
0.0
  9
$PUCSORTHOREF
  2

  9
$PUCSORTHOVIEW
 70
     0
  9
$PUCSORGTOP
 10
0.0
 20
0.0
 30
0.0
  9
$PUCSORGBOTTOM
 10
0.0
 20
0.0
 30
0.0
  9
$PUCSORGLEFT
 10
0.0
 20
0.0
 30
0.0
  9
$PUCSORGRIGHT
 10
0.0
 20
0.0
 30
0.0
  9
$PUCSORGFRONT
 10
0.0
 20
0.0
 30
0.0
  9
$PUCSORGBACK
 10
0.0
 20
0.0
 30
0.0
  9
$USERI1
 70
     0
  9
$USERI2
 70
     0
  9
$USERI3
 70
     0
  9
$USERI4
 70
     0
  9
$USERI5
 70
     0
  9
$USERR1
 40
0.0
  9
$USERR2
 40
0.0
  9
$USERR3
 40
0.0
  9
$USERR4
 40
0.0
  9
$USERR5
 40
0.0
  9
$WORLDVIEW
 70
     1
  9
$SHADEDGE
 70
     3
  9
$SHADEDIF
 70
    70
  9
$TILEMODE
 70
     1
  9
$MAXACTVP
 70
    64
  9
$PINSBASE
 10
0.0
 20
0.0
 30
0.0
  9
$PLIMCHECK
 70
     0
  9
$PEXTMIN
 10
-0.5
 20
-0.5
 30
-0.5
  9
$PEXTMAX
 10
5.0
 20
5.0
 30
5.0
  9
$PLIMMIN
 10
-0.5
 20
-0.5
  9
$PLIMMAX
 10
5.0
 20
5.0
  9
$UNITMODE
 70
     0
  9
$VISRETAIN
 70
     1
  9
$PLINEGEN
 70
     0
  9
$PSLTSCALE
 70
     1
  9
$TREEDEPTH
 70
  3020
  9
$CMLSTYLE
  2
Standard
  9
$CMLJUST
 70
     0
  9
$CMLSCALE
 40
1.0
  9
$PROXYGRAPHICS
 70
     1
  9
$MEASUREMENT
 70
     1
  9
$CELWEIGHT
370
    18
  9
$ENDCAPS
280
     0
  9
$JOINSTYLE
280
     0
  9
$LWDISPLAY
290
     1
  9
$INSUNITS
 70
     4
  9
$HYPERLINKBASE
  1

  9
$STYLESHEET
  1

  9
$XEDIT
290
     1
  9
$CEPSNTYPE
380
     0
  9
$PSTYLEMODE
290
     1
  9
$FINGERPRINTGUID
  2
{18C04011-81D1-4DF2-A6B7-FE06245C391C}
  9
$VERSIONGUID
  2
{758859EF-F3D3-C04F-A054-3BE3FACEB8BE}
  9
$EXTNAMES
290
     1
  9
$PSVPSCALE
 40
0.0
  9
$OLESTARTUP
290
     0
  9
$SORTENTS
280
   127
  9
$INDEXCTL
280
     0
  9
$HIDETEXT
280
     1
  9
$XCLIPFRAME
280
     2
  9
$HALOGAP
280
     0
  9
$OBSCOLOR
 70
   257
  9
$OBSLTYPE
280
     0
  9
$INTERSECTIONDISPLAY
280
     0
  9
$INTERSECTIONCOLOR
 70
   257
  9
$DIMASSOC
280
     2
  9
$PROJECTNAME
  1

  9
$CAMERADISPLAY
290
     0
  9
$LENSLENGTH
 40
50.0
  9
$CAMERAHEIGHT
 40
0.0
  9
$STEPSPERSEC
 40
2.0
  9
$STEPSIZE
 40
6.0
  9
$3DDWFPREC
 40
2.0
  9
$PSOLWIDTH
 40
0.25
  9
$PSOLHEIGHT
 40
4.0
  9
$LOFTANG1
 40
1.570796326794896
  9
$LOFTANG2
 40
1.570796326794896
  9
$LOFTMAG1
 40
0.0
  9
$LOFTMAG2
 40
0.0
  9
$LOFTPARAM
 70
     7
  9
$LOFTNORMALS
280
     1
  9
$LATITUDE
 40
37.795
  9
$LONGITUDE
 40
-122.394
  9
$NORTHDIRECTION
 40
0.0
  9
$TIMEZONE
 70
 -8000
  9
$LIGHTGLYPHDISPLAY
280
     1
  9
$TILEMODELIGHTSYNCH
280
     1
  9
$CMATERIAL
347
44
  9
$SOLIDHIST
280
     0
  9
$SHOWHIST
280
     1
  9
$DWFFRAME
280
     2
  9
$DGNFRAME
280
     0
  9
$REALWORLDSCALE
290
     1
  9
$INTERFERECOLOR
 62
     1
  9
$INTERFEREOBJVS
345
33
  9
$INTERFEREVPVS
346
30
  9
$CSHADOW
280
     0
  9
$SHADOWPLANELOCATION
 40
0.0
  0
ENDSEC
  0
SECTION
  2
CLASSES
  0
CLASS
  1
ACDBDICTIONARYWDFLT
  2
AcDbDictionaryWithDefault
  3
ObjectDBX Classes
 90
        0
 91
        1
280
     0
281
     0
  0
CLASS
  1
VISUALSTYLE
  2
AcDbVisualStyle
  3
ObjectDBX Classes
 90
     4095
 91
       24
280
     0
281
     0
  0
CLASS
  1
MATERIAL
  2
AcDbMaterial
  3
ObjectDBX Classes
 90
     1153
 91
        3
280
     0
281
     0
  0
CLASS
  1
SCALE
  2
AcDbScale
  3
ObjectDBX Classes
 90
     1153
 91
       33
280
     0
281
     0
  0
CLASS
  1
TABLESTYLE
  2
AcDbTableStyle
  3
ObjectDBX Classes
 90
     4095
 91
        1
280
     0
281
     0
  0
CLASS
  1
MLEADERSTYLE
  2
AcDbMLeaderStyle
  3
ACDB_MLEADERSTYLE_CLASS
 90
     4095
 91
        1
280
     0
281
     0
  0
CLASS
  1
SUN
  2
AcDbSun
  3
SCENEOE
 90
     1153
 91
        0
280
     0
281
     0
  0
CLASS
  1
DICTIONARYVAR
  2
AcDbDictionaryVar
  3
ObjectDBX Classes
 90
        0
 91
       10
280
     0
281
     0
  0
CLASS
  1
CELLSTYLEMAP
  2
AcDbCellStyleMap
  3
ObjectDBX Classes
 90
     1152
 91
        2
280
     0
281
     0
  0
CLASS
  1
ACDBSECTIONVIEWSTYLE
  2
AcDbSectionViewStyle
  3
ObjectDBX Classes
 90
     1025
 91
        1
280
     0
281
     0
  0
CLASS
  1
ACDBDETAILVIEWSTYLE
  2
AcDbDetailViewStyle
  3
ObjectDBX Classes
 90
     1025
 91
        1
280
     0
281
     0
  0
CLASS
  1
SORTENTSTABLE
  2
AcDbSortentsTable
  3
ObjectDBX Classes
 90
        0
 91
        1
280
     0
281
     0
  0
ENDSEC
  0
SECTION
  2
TABLES
  0
TABLE
  2
VPORT
  5
8
330
0
100
AcDbSymbolTable
 70
    16
1001
ACAD
1000
DbSaveVer
1071
      224
  0
VPORT
  5
29
330
8
100
AcDbSymbolTableRecord
100
AcDbViewportTableRecord
  2
*Active
 70
     0
 10
0.0
 20
0.0
 11
1.0
 21
1.0
 12
414.9148683006366
 22
229.3552235403833
 13
0.0
 23
0.0
 14
0.5
 24
0.5
 15
0.5
 25
0.5
 16
0.0
 26
0.0
 36
1.0
 17
0.0
 27
0.0
 37
0.0
 40
583.832553723451
 41
2.209601873536299
 42
50.0
 43
829.024684
 44
-829.024684
 50
0.0
 51
0.0
 71
     0
 72
   100
 73
     1
 74
     3
 75
     0
 76
     0
 77
     0
 78
     0
281
     0
 65
     1
110
0.0
120
0.0
130
0.0
111
1.0
121
0.0
131
0.0
112
0.0
122
1.0
132
0.0
 79
     0
146
0.0
348
2F
 60
     3
 61
     5
292
     1
282
     1
141
0.0
142
0.0
 63
   250
421
  3355443
1001
ACAD_NAV_VCDISPLAY
1070
     3
  0
VPORT
  5
1F9
330
8
100
AcDbSymbolTableRecord
100
AcDbViewportTableRecord
  2
L1
 70
     0
 10
0.0
 20
0.0
 11
1.0
 21
1.0
 12
301.315835
 22
199.80839
 13
0.0
 23
0.0
 14
0.5
 24
0.5
 15
0.5
 25
0.5
 16
0.0
 26
0.0
 36
1.0
 17
0.0
 27
0.0
 37
0.0
 40
254.0
 41
0.069908
 42
50.0
 43
829.024684
 44
-829.024684
 50
0.0
 51
0.0
 71
     0
 72
   100
 73
     1
 74
     3
 75
     0
 76
     0
 77
     0
 78
     0
281
     0
 65
     1
110
0.0
120
0.0
130
0.0
111
1.0
121
0.0
131
0.0
112
0.0
122
1.0
132
0.0
 79
     0
146
0.0
348
2F
 60
     3
 61
     5
292
     1
282
     1
141
0.0
142
0.0
 63
   250
421
  3355443
  0
VPORT
  5
1FA
330
8
100
AcDbSymbolTableRecord
100
AcDbViewportTableRecord
  2
L2
 70
     0
 10
0.0
 20
0.0
 11
0.5
 21
1.0
 12
0.0
 22
0.0
 13
0.0
 23
0.0
 14
0.5
 24
0.5
 15
0.5
 25
0.5
 16
0.0
 26
-1.0
 36
0.0
 17
0.0
 27
0.0
 37
0.0
 40
1319.822715
 41
0.013454
 42
50.0
 43
672.020833
 44
-672.020833
 50
0.0
 51
0.0
 71
     0
 72
   100
 73
     1
 74
     3
 75
     0
 76
     0
 77
     0
 78
     0
281
     0
 65
     1
110
0.0
120
0.0
130
0.0
111
1.0
121
0.0
131
0.0
112
0.0
122
1.0
132
0.0
 79
     0
146
0.0
348
2F
 60
     3
 61
     5
292
     1
282
     1
141
0.0
142
0.0
 63
   250
421
  3355443
  0
VPORT
  5
1FB
330
8
100
AcDbSymbolTableRecord
100
AcDbViewportTableRecord
  2
L2
 70
     0
 10
0.5
 20
0.0
 11
1.0
 21
1.0
 12
0.0
 22
0.0
 13
0.0
 23
0.0
 14
0.5
 24
0.5
 15
0.5
 25
0.5
 16
1.0
 26
0.0
 36
0.0
 17
0.0
 27
0.0
 37
0.0
 40
1319.822715
 41
0.013454
 42
50.0
 43
672.020833
 44
-672.020833
 50
0.0
 51
0.0
 71
     0
 72
   100
 73
     1
 74
     3
 75
     0
 76
     0
 77
     0
 78
     0
281
     0
 65
     1
110
0.0
120
0.0
130
0.0
111
1.0
121
0.0
131
0.0
112
0.0
122
1.0
132
0.0
 79
     0
146
0.0
348
2F
 60
     3
 61
     5
292
     1
282
     1
141
0.0
142
0.0
 63
   250
421
  3355443
  0
VPORT
  5
1FC
330
8
100
AcDbSymbolTableRecord
100
AcDbViewportTableRecord
  2
L3
 70
     0
 10
0.0
 20
0.5
 11
1.0
 21
1.0
 12
301.315835
 22
199.80839
 13
0.0
 23
0.0
 14
0.5
 24
0.5
 15
0.5
 25
0.5
 16
0.0
 26
0.0
 36
1.0
 17
0.0
 27
0.0
 37
0.0
 40
254.0
 41
0.069908
 42
50.0
 43
829.024684
 44
-829.024684
 50
0.0
 51
0.0
 71
     0
 72
   100
 73
     1
 74
     3
 75
     0
 76
     0
 77
     0
 78
     0
281
     0
 65
     1
110
0.0
120
0.0
130
0.0
111
1.0
121
0.0
131
0.0
112
0.0
122
1.0
132
0.0
 79
     0
146
0.0
348
2F
 60
     3
 61
     5
292
     1
282
     1
141
0.0
142
0.0
 63
   250
421
  3355443
  0
VPORT
  5
1FD
330
8
100
AcDbSymbolTableRecord
100
AcDbViewportTableRecord
  2
L3
 70
     0
 10
0.0
 20
0.0
 11
1.0
 21
0.5
 12
0.0
 22
0.0
 13
0.0
 23
0.0
 14
0.5
 24
0.5
 15
0.5
 25
0.5
 16
0.0
 26
-1.0
 36
0.0
 17
0.0
 27
0.0
 37
0.0
 40
1319.822715
 41
0.013454
 42
50.0
 43
672.020833
 44
-672.020833
 50
0.0
 51
0.0
 71
     0
 72
   100
 73
     1
 74
     3
 75
     0
 76
     0
 77
     0
 78
     0
281
     0
 65
     1
110
0.0
120
0.0
130
0.0
111
1.0
121
0.0
131
0.0
112
0.0
122
1.0
132
0.0
 79
     0
146
0.0
348
2F
 60
     3
 61
     5
292
     1
282
     1
141
0.0
142
0.0
 63
   250
421
  3355443
  0
VPORT
  5
1FE
330
8
100
AcDbSymbolTableRecord
100
AcDbViewportTableRecord
  2
L4
 70
     0
 10
0.0
 20
0.5
 11
0.5
 21
1.0
 12
301.315835
 22
199.80839
 13
0.0
 23
0.0
 14
0.5
 24
0.5
 15
0.5
 25
0.5
 16
0.0
 26
0.0
 36
1.0
 17
0.0
 27
0.0
 37
0.0
 40
254.0
 41
0.069908
 42
50.0
 43
829.024684
 44
-829.024684
 50
0.0
 51
0.0
 71
     0
 72
   100
 73
     1
 74
     3
 75
     0
 76
     0
 77
     0
 78
     0
281
     0
 65
     1
110
0.0
120
0.0
130
0.0
111
1.0
121
0.0
131
0.0
112
0.0
122
1.0
132
0.0
 79
     0
146
0.0
348
2F
 60
     3
 61
     5
292
     1
282
     1
141
0.0
142
0.0
 63
   250
421
  3355443
  0
VPORT
  5
1FF
330
8
100
AcDbSymbolTableRecord
100
AcDbViewportTableRecord
  2
L4
 70
     0
 10
0.0
 20
0.0
 11
0.5
 21
0.5
 12
0.0
 22
0.0
 13
0.0
 23
0.0
 14
0.5
 24
0.5
 15
0.5
 25
0.5
 16
0.0
 26
-1.0
 36
0.0
 17
0.0
 27
0.0
 37
0.0
 40
1319.822715
 41
0.013454
 42
50.0
 43
672.020833
 44
-672.020833
 50
0.0
 51
0.0
 71
     0
 72
   100
 73
     1
 74
     3
 75
     0
 76
     0
 77
     0
 78
     0
281
     0
 65
     1
110
0.0
120
0.0
130
0.0
111
1.0
121
0.0
131
0.0
112
0.0
122
1.0
132
0.0
 79
     0
146
0.0
348
2F
 60
     3
 61
     5
292
     1
282
     1
141
0.0
142
0.0
 63
   250
421
  3355443
  0
VPORT
  5
200
330
8
100
AcDbSymbolTableRecord
100
AcDbViewportTableRecord
  2
L4
 70
     0
 10
0.5
 20
0.0
 11
1.0
 21
0.5
 12
0.0
 22
0.0
 13
0.0
 23
0.0
 14
0.5
 24
0.5
 15
0.5
 25
0.5
 16
1.0
 26
0.0
 36
0.0
 17
0.0
 27
0.0
 37
0.0
 40
1319.822715
 41
0.013454
 42
50.0
 43
672.020833
 44
-672.020833
 50
0.0
 51
0.0
 71
     0
 72
   100
 73
     1
 74
     3
 75
     0
 76
     0
 77
     0
 78
     0
281
     0
 65
     1
110
0.0
120
0.0
130
0.0
111
1.0
121
0.0
131
0.0
112
0.0
122
1.0
132
0.0
 79
     0
146
0.0
348
2F
 60
     3
 61
     5
292
     1
282
     1
141
0.0
142
0.0
 63
   250
421
  3355443
  0
VPORT
  5
201
330
8
100
AcDbSymbolTableRecord
100
AcDbViewportTableRecord
  2
L4
 70
     0
 10
0.5
 20
0.5
 11
1.0
 21
1.0
 12
0.0
 22
0.0
 13
0.0
 23
0.0
 14
0.5
 24
0.5
 15
0.5
 25
0.5
 16
0.5773502691896259
 26
-0.5773502691896259
 36
0.5773502691896259
 17
0.0
 27
0.0
 37
0.0
 40
1285.020866
 41
0.013818
 42
50.0
 43
667.141407
 44
-667.141407
 50
0.0
 51
0.0
 71
     0
 72
   100
 73
     1
 74
     3
 75
     0
 76
     0
 77
     0
 78
     0
281
     0
 65
     1
110
0.0
120
0.0
130
0.0
111
1.0
121
0.0
131
0.0
112
0.0
122
1.0
132
0.0
 79
     0
146
0.0
348
2F
 60
     3
 61
     5
292
     1
282
     1
141
0.0
142
0.0
 63
   250
421
  3355443
  0
VPORT
  5
202
330
8
100
AcDbSymbolTableRecord
100
AcDbViewportTableRecord
  2
L6
 70
     0
 10
0.0
 20
0.5
 11
0.333333
 21
1.0
 12
0.0
 22
0.0
 13
0.0
 23
0.0
 14
0.5
 24
0.5
 15
0.5
 25
0.5
 16
0.7188730927569434
 26
-0.5850486126764433
 36
0.3754192287502549
 17
0.0
 27
0.0
 37
0.0
 40
1357.434192
 41
0.013081
 42
50.0
 43
701.839477
 44
-701.839477
 50
0.0
 51
0.0
 71
     0
 72
   100
 73
     1
 74
     3
 75
     0
 76
     0
 77
     0
 78
     0
281
     0
 65
     1
110
0.0
120
0.0
130
0.0
111
1.0
121
0.0
131
0.0
112
0.0
122
1.0
132
0.0
 79
     0
146
0.0
348
2F
 60
     3
 61
     5
292
     1
282
     1
141
0.0
142
0.0
 63
   250
421
  3355443
  0
VPORT
  5
203
330
8
100
AcDbSymbolTableRecord
100
AcDbViewportTableRecord
  2
L6
 70
     0
 10
0.0
 20
0.0
 11
0.333333
 21
0.5
 12
0.0
 22
0.0
 13
0.0
 23
0.0
 14
0.5
 24
0.5
 15
0.5
 25
0.5
 16
-1.0
 26
0.0
 36
0.0
 17
0.0
 27
0.0
 37
0.0
 40
1319.822715
 41
0.013454
 42
50.0
 43
672.020833
 44
-672.020833
 50
0.0
 51
0.0
 71
     0
 72
   100
 73
     1
 74
     3
 75
     0
 76
     0
 77
     0
 78
     0
281
     0
 65
     1
110
0.0
120
0.0
130
0.0
111
1.0
121
0.0
131
0.0
112
0.0
122
1.0
132
0.0
 79
     0
146
0.0
348
2F
 60
     3
 61
     5
292
     1
282
     1
141
0.0
142
0.0
 63
   250
421
  3355443
  0
VPORT
  5
204
330
8
100
AcDbSymbolTableRecord
100
AcDbViewportTableRecord
  2
L6
 70
     0
 10
0.333333
 20
0.5
 11
0.666667
 21
1.0
 12
301.315835
 22
199.80839
 13
0.0
 23
0.0
 14
0.5
 24
0.5
 15
0.5
 25
0.5
 16
0.0
 26
0.0
 36
1.0
 17
0.0
 27
0.0
 37
0.0
 40
254.0
 41
0.069908
 42
50.0
 43
829.024684
 44
-829.024684
 50
0.0
 51
0.0
 71
     0
 72
   100
 73
     1
 74
     3
 75
     0
 76
     0
 77
     0
 78
     0
281
     0
 65
     1
110
0.0
120
0.0
130
0.0
111
1.0
121
0.0
131
0.0
112
0.0
122
1.0
132
0.0
 79
     0
146
0.0
348
2F
 60
     3
 61
     5
292
     1
282
     1
141
0.0
142
0.0
 63
   250
421
  3355443
  0
VPORT
  5
205
330
8
100
AcDbSymbolTableRecord
100
AcDbViewportTableRecord
  2
L6
 70
     0
 10
0.333333
 20
0.0
 11
0.666667
 21
0.5
 12
0.0
 22
0.0
 13
0.0
 23
0.0
 14
0.5
 24
0.5
 15
0.5
 25
0.5
 16
0.0
 26
-1.0
 36
0.0
 17
0.0
 27
0.0
 37
0.0
 40
1319.822715
 41
0.013454
 42
50.0
 43
672.020833
 44
-672.020833
 50
0.0
 51
0.0
 71
     0
 72
   100
 73
     1
 74
     3
 75
     0
 76
     0
 77
     0
 78
     0
281
     0
 65
     1
110
0.0
120
0.0
130
0.0
111
1.0
121
0.0
131
0.0
112
0.0
122
1.0
132
0.0
 79
     0
146
0.0
348
2F
 60
     3
 61
     5
292
     1
282
     1
141
0.0
142
0.0
 63
   250
421
  3355443
  0
VPORT
  5
206
330
8
100
AcDbSymbolTableRecord
100
AcDbViewportTableRecord
  2
L6
 70
     0
 10
0.666667
 20
0.5
 11
1.0
 21
1.0
 12
0.0
 22
0.0
 13
0.0
 23
0.0
 14
0.5
 24
0.5
 15
0.5
 25
0.5
 16
0.5773502691896259
 26
-0.5773502691896259
 36
0.5773502691896259
 17
0.0
 27
0.0
 37
0.0
 40
1285.020866
 41
0.013818
 42
50.0
 43
667.141407
 44
-667.141407
 50
0.0
 51
0.0
 71
     0
 72
   100
 73
     1
 74
     3
 75
     0
 76
     0
 77
     0
 78
     0
281
     0
 65
     1
110
0.0
120
0.0
130
0.0
111
1.0
121
0.0
131
0.0
112
0.0
122
1.0
132
0.0
 79
     0
146
0.0
348
2F
 60
     3
 61
     5
292
     1
282
     1
141
0.0
142
0.0
 63
   250
421
  3355443
  0
VPORT
  5
207
330
8
100
AcDbSymbolTableRecord
100
AcDbViewportTableRecord
  2
L6
 70
     0
 10
0.666667
 20
0.0
 11
1.0
 21
0.5
 12
0.0
 22
0.0
 13
0.0
 23
0.0
 14
0.5
 24
0.5
 15
0.5
 25
0.5
 16
1.0
 26
0.0
 36
0.0
 17
0.0
 27
0.0
 37
0.0
 40
1319.822715
 41
0.013454
 42
50.0
 43
672.020833
 44
-672.020833
 50
0.0
 51
0.0
 71
     0
 72
   100
 73
     1
 74
     3
 75
     0
 76
     0
 77
     0
 78
     0
281
     0
 65
     1
110
0.0
120
0.0
130
0.0
111
1.0
121
0.0
131
0.0
112
0.0
122
1.0
132
0.0
 79
     0
146
0.0
348
2F
 60
     3
 61
     5
292
     1
282
     1
141
0.0
142
0.0
 63
   250
421
  3355443
  0
ENDTAB
  0
TABLE
  2
LTYPE
  5
5
330
0
100
AcDbSymbolTable
 70
     6
  0
LTYPE
  5
14
330
5
100
AcDbSymbolTableRecord
100
AcDbLinetypeTableRecord
  2
ByBlock
 70
     0
  3

 72
    65
 73
     0
 40
0.0
  0
LTYPE
  5
15
330
5
100
AcDbSymbolTableRecord
100
AcDbLinetypeTableRecord
  2
ByLayer
 70
     0
  3

 72
    65
 73
     0
 40
0.0
  0
LTYPE
  5
16
330
5
100
AcDbSymbolTableRecord
100
AcDbLinetypeTableRecord
  2
Continuous
 70
     0
  3
Solid line
 72
    65
 73
     0
 40
0.0
  0
LTYPE
  5
6E
330
5
100
AcDbSymbolTableRecord
100
AcDbLinetypeTableRecord
  2
CENTER
 70
     0
  3
____ _ ____ _ ____ _ ____
 72
    65
 73
     4
 40
47.4
 49
22.0
 74
     4
 75
     0
340
0
 46
0.0
 50
0.0
 44
0.0
 45
0.0
 49
-8.5
 74
     4
 75
     0
340
0
 46
0.0
 50
0.0
 44
0.0
 45
0.0
 49
8.5
 74
     4
 75
     0
340
0
 46
0.0
 50
0.0
 44
0.0
 45
0.0
 49
-8.5
 74
     4
 75
     0
340
0
 46
0.0
 50
0.0
 44
0.0
 45
0.0
  0
LTYPE
  5
6F
330
5
100
AcDbSymbolTableRecord
100
AcDbLinetypeTableRecord
  2
DASHDOT
 70
     0
  3
_._._._._._._._._._._._._._._._.
 72
    65
 73
     4
 40
70.0
 49
31.0
 74
     4
 75
     0
340
0
 46
0.0
 50
0.0
 44
0.0
 45
0.0
 49
-13.0
 74
     4
 75
     0
340
0
 46
0.0
 50
0.0
 44
0.0
 45
0.0
 49
13.0
 74
     4
 75
     0
340
0
 46
0.0
 50
0.0
 44
0.0
 45
0.0
 49
-13.0
 74
     4
 75
     0
340
0
 46
0.0
 50
0.0
 44
0.0
 45
0.0
  0
LTYPE
  5
70
330
5
100
AcDbSymbolTableRecord
100
AcDbLinetypeTableRecord
  2
DASHED
 70
     0
  3
__ __ __ __ __ __ __ __ __
 72
    65
 73
     2
 40
25.72
 49
12.86
 74
     4
 75
     0
340
0
 46
0.0
 50
0.0
 44
0.0
 45
0.0
 49
-12.86
 74
     4
 75
     0
340
0
 46
0.0
 50
0.0
 44
0.0
 45
0.0
  0
LTYPE
  5
71
330
5
100
AcDbSymbolTableRecord
100
AcDbLinetypeTableRecord
  2
DOT
 70
     0
  3
.........................
 72
    65
 73
     2
 40
10.0
 49
0.0
 74
     4
 75
     0
340
0
 46
0.0
 50
0.0
 44
0.0
 45
0.0
 49
-10.0
 74
     4
 75
     0
340
0
 46
0.0
 50
0.0
 44
0.0
 45
0.0
  0
LTYPE
  5
72
330
5
100
AcDbSymbolTableRecord
100
AcDbLinetypeTableRecord
  2
PHANTOM
 70
     0
  3
____ _ _ ____ _ _ _____ _ _ ____
 72
    65
 73
     6
 40
50.5
 49
18.0
 74
     4
 75
     0
340
0
 46
0.0
 50
0.0
 44
0.0
 45
0.0
 49
-6.5
 74
     4
 75
     0
340
0
 46
0.0
 50
0.0
 44
0.0
 45
0.0
 49
6.5
 74
     4
 75
     0
340
0
 46
0.0
 50
0.0
 44
0.0
 45
0.0
 49
-6.5
 74
     4
 75
     0
340
0
 46
0.0
 50
0.0
 44
0.0
 45
0.0
 49
6.5
 74
     4
 75
     0
340
0
 46
0.0
 50
0.0
 44
0.0
 45
0.0
 49
-6.5
 74
     4
 75
     0
340
0
 46
0.0
 50
0.0
 44
0.0
 45
0.0
  0
ENDTAB
  0
TABLE
  2
LAYER
  5
2
102
{ACAD_XDICTIONARY
360
25D
102
}
330
0
100
AcDbSymbolTable
 70
     3
  0
LAYER
  5
10
102
{ACAD_XDICTIONARY
360
26B
102
}
330
2
100
AcDbSymbolTableRecord
100
AcDbLayerTableRecord
  2
0
 70
     0
 62
     7
  6
Continuous
370
    -3
390
F
347
46
348
0
  0
LAYER
  5
74
102
{ACAD_XDICTIONARY
360
26D
102
}
330
2
100
AcDbSymbolTableRecord
100
AcDbLayerTableRecord
  2
1
 70
     0
 62
     7
420
 16777215
  6
Continuous
370
    -3
390
F
347
46
348
0
  0
LAYER
  5
257
102
{ACAD_XDICTIONARY
360
258
102
}
330
2
100
AcDbSymbolTableRecord
100
AcDbLayerTableRecord
  2
HEWI
 70
     0
 62
     7
  6
Continuous
370
    -3
390
F
347
46
348
0
1001
AcAecLayerStandard
1000

1000

1001
AcCmTransparency
1071
        0
  0
ENDTAB
  0
TABLE
  2
STYLE
  5
3
330
0
100
AcDbSymbolTable
 70
     1
  0
STYLE
  5
11
330
3
100
AcDbSymbolTableRecord
100
AcDbTextStyleTableRecord
  2
Standard
 70
     0
 40
0.0
 41
1.0
 50
0.0
 71
     0
 42
0.2
  3
txt
  4

  0
ENDTAB
  0
TABLE
  2
VIEW
  5
6
330
0
100
AcDbSymbolTable
 70
     0
  0
ENDTAB
  0
TABLE
  2
UCS
  5
7
330
0
100
AcDbSymbolTable
 70
     0
  0
ENDTAB
  0
TABLE
  2
APPID
  5
9
330
0
100
AcDbSymbolTable
 70
     6
  0
APPID
  5
12
330
9
100
AcDbSymbolTableRecord
100
AcDbRegAppTableRecord
  2
ACAD
 70
     0
  0
APPID
  5
247
330
9
100
AcDbSymbolTableRecord
100
AcDbRegAppTableRecord
  2
ACAD_MLEADERVER
 70
     0
  0
APPID
  5
259
330
9
100
AcDbSymbolTableRecord
100
AcDbRegAppTableRecord
  2
ACAD_DSTYLE_DIMBREAK
 70
     0
  0
APPID
  5
25A
330
9
100
AcDbSymbolTableRecord
100
AcDbRegAppTableRecord
  2
ACAD_NAV_VCDISPLAY
 70
     0
  0
APPID
  5
25B
330
9
100
AcDbSymbolTableRecord
100
AcDbRegAppTableRecord
  2
AcAecLayerStandard
 70
     0
  0
APPID
  5
25C
330
9
100
AcDbSymbolTableRecord
100
AcDbRegAppTableRecord
  2
AcCmTransparency
 70
     0
  0
ENDTAB
  0
TABLE
  2
DIMSTYLE
  5
A
330
0
100
AcDbSymbolTable
 70
     1
100
AcDbDimStyleTable
 71
     0
  0
DIMSTYLE
105
27
330
A
100
AcDbSymbolTableRecord
100
AcDbDimStyleTableRecord
  2
Standard
 70
     0
340
11
  0
ENDTAB
  0
TABLE
  2
BLOCK_RECORD
  5
1
330
0
100
AcDbSymbolTable
 70
     2
  0
BLOCK_RECORD
  5
1F
102
{ACAD_XDICTIONARY
360
268
102
}
330
1
100
AcDbSymbolTableRecord
100
AcDbBlockTableRecord
  2
*Model_Space
340
22
 70
     0
280
     1
281
     0
  0
BLOCK_RECORD
  5
1B
330
1
100
AcDbSymbolTableRecord
100
AcDbBlockTableRecord
  2
*Paper_Space
340
1E
 70
     0
280
     1
281
     0
  0
BLOCK_RECORD
  5
23
330
1
100
AcDbSymbolTableRecord
100
AcDbBlockTableRecord
  2
*Paper_Space0
340
26
 70
     0
280
     1
281
     0
  0
ENDTAB
  0
ENDSEC
  0
SECTION
  2
BLOCKS
  0
BLOCK
  5
20
330
1F
100
AcDbEntity
  8
0
100
AcDbBlockBegin
  2
*Model_Space
 70
     0
 10
0.0
 20
0.0
 30
0.0
  3
*Model_Space
  1

  0
ENDBLK
  5
21
330
1F
100
AcDbEntity
  8
0
100
AcDbBlockEnd
  0
BLOCK
  5
1C
330
1B
100
AcDbEntity
 67
     1
  8
0
100
AcDbBlockBegin
  2
*Paper_Space
 70
     0
 10
0.0
 20
0.0
 30
0.0
  3
*Paper_Space
  1

  0
ENDBLK
  5
1D
330
1B
100
AcDbEntity
 67
     1
  8
0
100
AcDbBlockEnd
  0
BLOCK
  5
24
330
23
100
AcDbEntity
 67
     1
  8
0
100
AcDbBlockBegin
  2
*Paper_Space0
 70
     0
 10
0.0
 20
0.0
 30
0.0
  3
*Paper_Space0
  1

  0
ENDBLK
  5
25
330
23
100
AcDbEntity
 67
     1
  8
0
100
AcDbBlockEnd
  0
ENDSEC
  0
SECTION
  2
ENTITIES
  0
POINT
  5
73
330
1F
100
AcDbEntity
  8
1
  6
Continuous
 62
    18
 60
     1
370
    35
100
AcDbPoint
 10
444.6521989999999
 20
80.460294
 30
0.0
  0
POINT
  5
75
330
1F
100
AcDbEntity
  8
1
  6
Continuous
 62
    18
 60
     1
370
    35
100
AcDbPoint
 10
495.563887
 20
109.854171
 30
0.0
  0
POINT
  5
76
330
1F
100
AcDbEntity
  8
1
  6
Continuous
 62
    18
 60
     1
370
    35
100
AcDbPoint
 10
479.653985
 20
138.227427
 30
0.0
  0
POINT
  5
77
330
1F
100
AcDbEntity
  8
1
  6
Continuous
 62
    18
 60
     1
370
    35
100
AcDbPoint
 10
482.835965
 20
136.390309
 30
0.0
  0
POINT
  5
78
330
1F
100
AcDbEntity
  8
1
  6
Continuous
 62
    18
 60
     1
370
    35
100
AcDbPoint
 10
379.3817259999999
 20
89.975087
 30
0.0
  0
POINT
  5
79
330
1F
100
AcDbEntity
  8
1
  6
Continuous
 62
    18
 60
     1
370
    35
100
AcDbPoint
 10
396.922371
 20
79.847991
 30
0.0
  0
POINT
  5
7A
330
1F
100
AcDbEntity
  8
1
  6
Continuous
 62
    18
 60
     1
370
    35
100
AcDbPoint
 10
384.864293
 20
83.01451
 30
0.0
  0
POINT
  5
7B
330
1F
100
AcDbEntity
  8
1
  6
Continuous
 62
    18
 60
     1
370
    35
100
AcDbPoint
 10
431.9225009999999
 20
75.73458000000001
 30
0.0
  0
POINT
  5
7C
330
1F
100
AcDbEntity
  8
1
  6
Continuous
 62
    18
 60
     1
370
    35
100
AcDbPoint
 10
495.563887
 20
129.04184
 30
0.0
  0
POINT
  5
7D
330
1F
100
AcDbEntity
  8
1
  6
Continuous
 62
    18
 60
     1
370
    35
100
AcDbPoint
 10
480.714645
 20
137.615054
 30
0.0
  0
POINT
  5
7E
330
1F
100
AcDbEntity
  8
1
  6
Continuous
 62
    18
 60
     1
370
    35
100
AcDbPoint
 10
420.649267
 20
305.350432
 30
0.0
  0
POINT
  5
7F
330
1F
100
AcDbEntity
  8
1
  6
Continuous
 62
    18
 60
     1
370
    35
100
AcDbPoint
 10
462.8405019999999
 20
305.350432
 30
0.0
  0
POINT
  5
80
330
1F
100
AcDbEntity
  8
1
  6
Continuous
 62
    18
 60
     1
370
    35
100
AcDbPoint
 10
408.2475759999999
 20
305.350432
 30
0.0
  0
POINT
  5
81
330
1F
100
AcDbEntity
  8
1
  6
Continuous
 62
    18
 60
     1
370
    35
100
AcDbPoint
 10
433.053794
 20
305.350432
 30
0.0
  0
POINT
  5
82
330
1F
100
AcDbEntity
  8
1
  6
Continuous
 62
    18
 60
     1
370
    35
100
AcDbPoint
 10
105.905937
 20
132.000246
 30
0.0
  0
POINT
  5
83
330
1F
100
AcDbEntity
  8
1
  6
Continuous
 62
    18
 60
     1
370
    35
100
AcDbPoint
 10
105.905937
 20
107.194028
 30
0.0
  0
POINT
  5
84
330
1F
100
AcDbEntity
  8
1
  6
Continuous
 62
    18
 60
     1
370
    35
100
AcDbPoint
 10
235.905937
 20
120.193858
 30
0.0
  0
POINT
  5
85
330
1F
100
AcDbEntity
  8
1
  6
Continuous
 62
    18
 60
     1
370
    35
100
AcDbPoint
 10
235.905937
 20
115.693858
 30
0.0
  0
POINT
  5
86
330
1F
100
AcDbEntity
  8
1
  6
Continuous
 62
    18
 60
     1
370
    35
100
AcDbPoint
 10
235.905937
 20
97.693858
 30
0.0
  0
POINT
  5
87
330
1F
100
AcDbEntity
  8
1
  6
Continuous
 62
    18
 60
     1
370
    35
100
AcDbPoint
 10
235.905937
 20
118.693858
 30
0.0
  0
POINT
  5
88
330
1F
100
AcDbEntity
  8
1
  6
Continuous
 62
    18
 60
     1
370
    35
100
AcDbPoint
 10
140.405937
 20
305.350432
 30
0.0
  0
POINT
  5
89
330
1F
100
AcDbEntity
  8
1
  6
Continuous
 62
    18
 60
     1
370
    35
100
AcDbPoint
 10
212.405937
 20
305.350432
 30
0.0
  0
POINT
  5
8A
330
1F
100
AcDbEntity
  8
1
  6
Continuous
 62
    18
 60
     1
370
    35
100
AcDbPoint
 10
101.257767
 20
305.350432
 30
0.0
  0
POINT
  5
8B
330
1F
100
AcDbEntity
  8
1
  6
Continuous
 62
    18
 60
     1
370
    35
100
AcDbPoint
 10
125.616887
 20
305.350432
 30
0.0
  0
LINE
  5
9C
330
1F
100
AcDbEntity
  8
1
  6
Continuous
 62
     8
 60
     1
370
    18
100
AcDbLine
 10
0.0
 20
0.0
 30
0.0
 11
0.0
 21
420.0
 31
0.0
  0
LINE
  5
9D
330
1F
100
AcDbEntity
  8
1
  6
Continuous
 62
     8
 60
     1
370
    18
100
AcDbLine
 10
594.0
 20
420.0
 30
0.0
 11
0.0
 21
420.0
 31
0.0
  0
LINE
  5
9E
330
1F
100
AcDbEntity
  8
1
  6
Continuous
 62
     8
 60
     1
370
    18
100
AcDbLine
 10
594.0
 20
420.0
 30
0.0
 11
594.0
 21
0.0
 31
0.0
  0
LINE
  5
9F
330
1F
100
AcDbEntity
  8
1
  6
Continuous
 62
     8
 60
     1
370
    18
100
AcDbLine
 10
0.0
 20
0.0
 30
0.0
 11
594.0
 21
0.0
 31
0.0
  0
LINE
  5
A0
330
1F
100
AcDbEntity
  8
HEWI
100
AcDbLine
 10
121.655937
 20
325.600432
 30
0.0
 11
121.655937
 21
316.000033
 31
0.0
  0
LINE
  5
A1
330
1F
100
AcDbEntity
  8
HEWI
100
AcDbLine
 10
121.655937
 20
294.70083
 30
0.0
 11
121.655937
 21
285.1004319999999
 31
0.0
  0
LINE
  5
A2
330
1F
100
AcDbEntity
  8
HEWI
100
AcDbLine
 10
105.905937
 20
341.3504319999999
 30
0.0
 11
105.905937
 21
339.3504319999999
 31
0.0
  0
LINE
  5
A3
330
1F
100
AcDbEntity
  8
HEWI
100
AcDbLine
 10
121.655937
 20
325.600432
 30
0.0
 11
119.655937
 21
325.600432
 31
0.0
  0
LINE
  5
A4
330
1F
100
AcDbEntity
  8
HEWI
100
AcDbLine
 10
105.905937
 20
271.350432
 30
0.0
 11
105.905937
 21
269.350432
 31
0.0
  0
LINE
  5
A5
330
1F
100
AcDbEntity
  8
HEWI
100
AcDbLine
 10
119.655937
 20
285.1004319999999
 30
0.0
 11
121.655937
 21
285.1004319999999
 31
0.0
  0
LINE
  5
A6
330
1F
100
AcDbEntity
  8
HEWI
100
AcDbLine
 10
119.655937
 20
285.1004319999999
 30
0.0
 11
119.655937
 21
294.70083
 31
0.0
  0
LINE
  5
A7
330
1F
100
AcDbEntity
  8
HEWI
100
AcDbLine
 10
119.655937
 20
316.000033
 30
0.0
 11
119.655937
 21
325.600432
 31
0.0
  0
LINE
  5
A8
330
1F
100
AcDbEntity
  8
HEWI
100
AcDbLine
 10
90.155937
 20
325.600432
 30
0.0
 11
92.15593699999999
 21
325.600432
 31
0.0
  0
LINE
  5
A9
330
1F
100
AcDbEntity
  8
HEWI
100
AcDbLine
 10
90.155937
 20
285.1004319999999
 30
0.0
 11
90.155937
 21
325.600432
 31
0.0
  0
LINE
  5
AA
330
1F
100
AcDbEntity
  8
HEWI
100
AcDbLine
 10
92.15593699999999
 20
285.1004319999999
 30
0.0
 11
90.155937
 21
285.1004319999999
 31
0.0
  0
LINE
  5
AB
330
1F
100
AcDbEntity
  8
HEWI
100
AcDbLine
 10
92.15593699999999
 20
325.600432
 30
0.0
 11
92.15593699999999
 21
285.1004319999999
 31
0.0
  0
LINE
  5
AC
330
1F
100
AcDbEntity
  8
HEWI
100
AcDbLine
 10
109.780937
 20
288.070432
 30
0.0
 11
109.280937
 21
288.070432
 31
0.0
  0
LINE
  5
AD
330
1F
100
AcDbEntity
  8
HEWI
100
AcDbLine
 10
109.280937
 20
288.070432
 30
0.0
 11
109.280937
 21
285.3504319999999
 31
0.0
  0
LINE
  5
AE
330
1F
100
AcDbEntity
  8
HEWI
100
AcDbLine
 10
109.280937
 20
285.3504319999999
 30
0.0
 11
109.780937
 21
285.3504319999999
 31
0.0
  0
LINE
  5
AF
330
1F
100
AcDbEntity
  8
HEWI
100
AcDbLine
 10
109.780937
 20
285.3504319999999
 30
0.0
 11
109.780937
 21
288.070432
 31
0.0
  0
LINE
  5
B0
330
1F
100
AcDbEntity
  8
HEWI
100
AcDbLine
 10
108.187187
 20
286.438432
 30
0.0
 11
107.812187
 21
288.070432
 31
0.0
  0
LINE
  5
B1
330
1F
100
AcDbEntity
  8
HEWI
100
AcDbLine
 10
107.812187
 20
288.070432
 30
0.0
 11
107.312187
 21
288.070432
 31
0.0
  0
LINE
  5
B2
330
1F
100
AcDbEntity
  8
HEWI
100
AcDbLine
 10
107.312187
 20
288.070432
 30
0.0
 11
106.937187
 21
286.438432
 31
0.0
  0
LINE
  5
B3
330
1F
100
AcDbEntity
  8
HEWI
100
AcDbLine
 10
106.937187
 20
286.438432
 30
0.0
 11
106.562187
 21
288.070432
 31
0.0
  0
LINE
  5
B4
330
1F
100
AcDbEntity
  8
HEWI
100
AcDbLine
 10
106.562187
 20
288.070432
 30
0.0
 11
106.062187
 21
288.070432
 31
0.0
  0
LINE
  5
B5
330
1F
100
AcDbEntity
  8
HEWI
100
AcDbLine
 10
106.062187
 20
288.070432
 30
0.0
 11
106.687187
 21
285.3504319999999
 31
0.0
  0
LINE
  5
B6
330
1F
100
AcDbEntity
  8
HEWI
100
AcDbLine
 10
106.687187
 20
285.3504319999999
 30
0.0
 11
107.187187
 21
285.3504319999999
 31
0.0
  0
LINE
  5
B7
330
1F
100
AcDbEntity
  8
HEWI
100
AcDbLine
 10
107.187187
 20
285.3504319999999
 30
0.0
 11
107.562187
 21
286.982432
 31
0.0
  0
LINE
  5
B8
330
1F
100
AcDbEntity
  8
HEWI
100
AcDbLine
 10
107.562187
 20
286.982432
 30
0.0
 11
107.937187
 21
285.3504319999999
 31
0.0
  0
LINE
  5
B9
330
1F
100
AcDbEntity
  8
HEWI
100
AcDbLine
 10
107.937187
 20
285.3504319999999
 30
0.0
 11
108.437187
 21
285.3504319999999
 31
0.0
  0
LINE
  5
BA
330
1F
100
AcDbEntity
  8
HEWI
100
AcDbLine
 10
108.437187
 20
285.3504319999999
 30
0.0
 11
109.062187
 21
288.070432
 31
0.0
  0
LINE
  5
BB
330
1F
100
AcDbEntity
  8
HEWI
100
AcDbLine
 10
109.062187
 20
288.070432
 30
0.0
 11
108.562187
 21
288.070432
 31
0.0
  0
LINE
  5
BC
330
1F
100
AcDbEntity
  8
HEWI
100
AcDbLine
 10
108.562187
 20
288.070432
 30
0.0
 11
108.187187
 21
286.438432
 31
0.0
  0
LINE
  5
BD
330
1F
100
AcDbEntity
  8
HEWI
100
AcDbLine
 10
105.718437
 20
286.4754319999999
 30
0.0
 11
105.718437
 21
286.9129319999999
 31
0.0
  0
LINE
  5
BE
330
1F
100
AcDbEntity
  8
HEWI
100
AcDbLine
 10
105.718437
 20
286.9129319999999
 30
0.0
 11
104.780937
 21
286.9129319999999
 31
0.0
  0
LINE
  5
BF
330
1F
100
AcDbEntity
  8
HEWI
100
AcDbLine
 10
104.780937
 20
286.9129319999999
 30
0.0
 11
104.780937
 21
287.632932
 31
0.0
  0
LINE
  5
C0
330
1F
100
AcDbEntity
  8
HEWI
100
AcDbLine
 10
104.780937
 20
287.632932
 30
0.0
 11
105.843437
 21
287.632932
 31
0.0
  0
LINE
  5
C1
330
1F
100
AcDbEntity
  8
HEWI
100
AcDbLine
 10
105.843437
 20
287.632932
 30
0.0
 11
105.843437
 21
288.070432
 31
0.0
  0
LINE
  5
C2
330
1F
100
AcDbEntity
  8
HEWI
100
AcDbLine
 10
105.843437
 20
288.070432
 30
0.0
 11
104.280937
 21
288.070432
 31
0.0
  0
LINE
  5
C3
330
1F
100
AcDbEntity
  8
HEWI
100
AcDbLine
 10
104.280937
 20
288.070432
 30
0.0
 11
104.280937
 21
285.3504319999999
 31
0.0
  0
LINE
  5
C4
330
1F
100
AcDbEntity
  8
HEWI
100
AcDbLine
 10
104.280937
 20
285.3504319999999
 30
0.0
 11
105.843437
 21
285.3504319999999
 31
0.0
  0
LINE
  5
C5
330
1F
100
AcDbEntity
  8
HEWI
100
AcDbLine
 10
105.843437
 20
285.3504319999999
 30
0.0
 11
105.843437
 21
285.7879319999999
 31
0.0
  0
LINE
  5
C6
330
1F
100
AcDbEntity
  8
HEWI
100
AcDbLine
 10
105.843437
 20
285.7879319999999
 30
0.0
 11
104.780937
 21
285.7879319999999
 31
0.0
  0
LINE
  5
C7
330
1F
100
AcDbEntity
  8
HEWI
100
AcDbLine
 10
104.780937
 20
285.7879319999999
 30
0.0
 11
104.780937
 21
286.4754319999999
 31
0.0
  0
LINE
  5
C8
330
1F
100
AcDbEntity
  8
HEWI
100
AcDbLine
 10
104.780937
 20
286.4754319999999
 30
0.0
 11
105.718437
 21
286.4754319999999
 31
0.0
  0
LINE
  5
C9
330
1F
100
AcDbEntity
  8
HEWI
100
AcDbLine
 10
102.030937
 20
288.070432
 30
0.0
 11
102.030937
 21
285.3504319999999
 31
0.0
  0
LINE
  5
CA
330
1F
100
AcDbEntity
  8
HEWI
100
AcDbLine
 10
102.030937
 20
285.3504319999999
 30
0.0
 11
102.530937
 21
285.3504319999999
 31
0.0
  0
LINE
  5
CB
330
1F
100
AcDbEntity
  8
HEWI
100
AcDbLine
 10
102.530937
 20
285.3504319999999
 30
0.0
 11
102.530937
 21
286.4754319999999
 31
0.0
  0
LINE
  5
CC
330
1F
100
AcDbEntity
  8
HEWI
100
AcDbLine
 10
102.530937
 20
286.4754319999999
 30
0.0
 11
103.468437
 21
286.4754319999999
 31
0.0
  0
LINE
  5
CD
330
1F
100
AcDbEntity
  8
HEWI
100
AcDbLine
 10
103.468437
 20
286.4754319999999
 30
0.0
 11
103.468437
 21
285.3504319999999
 31
0.0
  0
LINE
  5
CE
330
1F
100
AcDbEntity
  8
HEWI
100
AcDbLine
 10
103.468437
 20
285.3504319999999
 30
0.0
 11
103.968437
 21
285.3504319999999
 31
0.0
  0
LINE
  5
CF
330
1F
100
AcDbEntity
  8
HEWI
100
AcDbLine
 10
103.968437
 20
285.3504319999999
 30
0.0
 11
103.968437
 21
288.070432
 31
0.0
  0
LINE
  5
D0
330
1F
100
AcDbEntity
  8
HEWI
100
AcDbLine
 10
103.968437
 20
288.070432
 30
0.0
 11
103.468437
 21
288.070432
 31
0.0
  0
LINE
  5
D1
330
1F
100
AcDbEntity
  8
HEWI
100
AcDbLine
 10
103.468437
 20
288.070432
 30
0.0
 11
103.468437
 21
286.9129319999999
 31
0.0
  0
LINE
  5
D2
330
1F
100
AcDbEntity
  8
HEWI
100
AcDbLine
 10
103.468437
 20
286.9129319999999
 30
0.0
 11
102.530937
 21
286.9129319999999
 31
0.0
  0
LINE
  5
D3
330
1F
100
AcDbEntity
  8
HEWI
100
AcDbLine
 10
102.530937
 20
286.9129319999999
 30
0.0
 11
102.530937
 21
288.070432
 31
0.0
  0
LINE
  5
D4
330
1F
100
AcDbEntity
  8
HEWI
100
AcDbLine
 10
102.530937
 20
288.070432
 30
0.0
 11
102.030937
 21
288.070432
 31
0.0
  0
LINE
  5
D6
330
1F
100
AcDbEntity
  8
HEWI
100
AcDbLine
 10
105.905937
 20
294.700432
 30
0.0
 11
120.255302
 21
294.700432
 31
0.0
  0
LINE
  5
D7
330
1F
100
AcDbEntity
  8
HEWI
100
AcDbLine
 10
120.255302
 20
316.000432
 30
0.0
 11
105.905937
 21
316.000432
 31
0.0
  0
LINE
  5
D8
330
1F
100
AcDbEntity
  8
HEWI
100
AcDbLine
 10
141.905937
 20
316.000432
 30
0.0
 11
120.255302
 21
316.000432
 31
0.0
  0
LINE
  5
D9
330
1F
100
AcDbEntity
  8
HEWI
100
AcDbLine
 10
120.255302
 20
294.700432
 30
0.0
 11
141.905937
 21
294.700432
 31
0.0
  0
LINE
  5
DA
330
1F
100
AcDbEntity
  8
HEWI
100
AcDbLine
 10
141.905937
 20
294.700432
 30
0.0
 11
210.905937
 21
294.700432
 31
0.0
  0
LINE
  5
DB
330
1F
100
AcDbEntity
  8
HEWI
100
AcDbLine
 10
210.905937
 20
316.000432
 30
0.0
 11
141.905937
 21
316.000432
 31
0.0
  0
LINE
  5
DC
330
1F
100
AcDbEntity
  8
HEWI
100
AcDbLine
 10
235.905937
 20
316.000432
 30
0.0
 11
210.905937
 21
316.000432
 31
0.0
  0
LINE
  5
DD
330
1F
100
AcDbEntity
  8
HEWI
100
AcDbLine
 10
210.905937
 20
294.700432
 30
0.0
 11
235.905937
 21
294.700432
 31
0.0
  0
LINE
  5
DF
330
1F
100
AcDbEntity
  8
HEWI
100
AcDbLine
 10
105.905937
 20
140.300246
 30
0.0
 11
121.655937
 21
140.300246
 31
0.0
  0
LINE
  5
E0
330
1F
100
AcDbEntity
  8
HEWI
100
AcDbLine
 10
121.655937
 20
140.300246
 30
0.0
 11
121.655937
 21
130.500246
 31
0.0
  0
LINE
  5
E1
330
1F
100
AcDbEntity
  8
HEWI
100
AcDbLine
 10
105.905937
 20
128.500246
 30
0.0
 11
92.15593699999999
 21
128.500246
 31
0.0
  0
LINE
  5
E2
330
1F
100
AcDbEntity
  8
HEWI
100
AcDbLine
 10
90.155937
 20
130.500246
 30
0.0
 11
90.155937
 21
140.300246
 31
0.0
  0
LINE
  5
E3
330
1F
100
AcDbEntity
  8
HEWI
100
AcDbLine
 10
90.155937
 20
130.500246
 30
0.0
 11
105.905937
 21
130.500246
 31
0.0
  0
LINE
  5
E5
330
1F
100
AcDbEntity
  8
HEWI
100
AcDbLine
 10
90.155937
 20
140.300246
 30
0.0
 11
105.905937
 21
140.300246
 31
0.0
  0
LINE
  5
E6
330
1F
100
AcDbEntity
  8
HEWI
100
AcDbLine
 10
105.905937
 20
130.500246
 30
0.0
 11
105.905937
 21
128.500246
 31
0.0
  0
LINE
  5
E7
330
1F
100
AcDbEntity
  8
HEWI
100
AcDbLine
 10
119.655937
 20
128.500246
 30
0.0
 11
105.905937
 21
128.500246
 31
0.0
  0
LINE
  5
E8
330
1F
100
AcDbEntity
  8
HEWI
100
AcDbLine
 10
105.905937
 20
130.500246
 30
0.0
 11
121.655937
 21
130.500246
 31
0.0
  0
LINE
  5
E9
330
1F
100
AcDbEntity
  8
HEWI
100
AcDbLine
 10
99.30902900000001
 20
142.100246
 30
0.0
 11
112.502845
 21
142.100246
 31
0.0
  0
LINE
  5
EB
330
1F
100
AcDbEntity
  8
HEWI
100
AcDbLine
 10
246.555937
 20
118.693858
 30
0.0
 11
225.255937
 21
118.693858
 31
0.0
  0
LINE
  5
EC
330
1F
100
AcDbEntity
  8
HEWI
100
AcDbLine
 10
246.555937
 20
117.193858
 30
0.0
 11
226.488632
 21
117.193858
 31
0.0
  0
LINE
  5
ED
330
1F
100
AcDbEntity
  8
HEWI
100
AcDbLine
 10
226.488632
 20
117.193858
 30
0.0
 11
225.255937
 21
117.193858
 31
0.0
  0
LINE
  5
F1
330
1F
100
AcDbEntity
  8
HEWI
100
AcDbLine
 10
246.555937
 20
117.193858
 30
0.0
 11
225.255937
 21
117.193858
 31
0.0
  0
LINE
  5
F4
330
1F
100
AcDbEntity
  8
HEWI
100
AcDbLine
 10
95.25593699999999
 20
128.500232
 30
0.0
 11
95.25593699999999
 21
123.275496
 31
0.0
  0
LINE
  5
F5
330
1F
100
AcDbEntity
  8
HEWI
100
AcDbLine
 10
95.25593699999999
 20
118.953403
 30
0.0
 11
95.25593699999999
 21
108.694028
 31
0.0
  0
LINE
  5
F6
330
1F
100
AcDbEntity
  8
HEWI
100
AcDbLine
 10
116.555937
 20
114.401346
 30
0.0
 11
116.555937
 21
128.500209
 31
0.0
  0
LINE
  5
F7
330
1F
100
AcDbEntity
  8
HEWI
100
AcDbLine
 10
225.255937
 20
118.693858
 30
0.0
 11
225.255937
 21
117.193858
 31
0.0
  0
LINE
  5
F8
330
1F
100
AcDbEntity
  8
HEWI
100
AcDbLine
 10
246.555937
 20
117.193858
 30
0.0
 11
246.555937
 21
118.693858
 31
0.0
  0
LINE
  5
F9
330
1F
100
AcDbEntity
  8
HEWI
100
AcDbLine
 10
95.25593699999999
 20
108.694028
 30
0.0
 11
111.032131
 21
81.36885799999999
 31
0.0
  0
LINE
  5
FA
330
1F
100
AcDbEntity
  8
HEWI
100
AcDbLine
 10
129.478473
 20
92.01885799999999
 30
0.0
 11
116.555937
 21
114.401346
 31
0.0
  0
LINE
  5
FB
330
1F
100
AcDbEntity
  8
HEWI
100
AcDbLine
 10
141.905937
 20
63.54385799999999
 30
0.0
 11
210.905937
 21
63.54385799999999
 31
0.0
  0
LINE
  5
FC
330
1F
100
AcDbEntity
  8
HEWI
100
AcDbLine
 10
210.905937
 20
84.843858
 30
0.0
 11
141.905937
 21
84.843858
 31
0.0
  0
LINE
  5
FD
330
1F
100
AcDbEntity
  8
HEWI
100
AcDbLine
 10
246.555937
 20
99.193858
 30
0.0
 11
246.555937
 21
117.193858
 31
0.0
  0
LINE
  5
FE
330
1F
100
AcDbEntity
  8
HEWI
100
AcDbLine
 10
225.255937
 20
117.193858
 30
0.0
 11
225.255937
 21
99.193858
 31
0.0
  0
LINE
  5
FF
330
1F
100
AcDbEntity
  8
HEWI
100
AcDbLine
 10
411.767576
 20
285.3504319999999
 30
0.0
 11
411.7475759999999
 21
285.3504319999999
 31
0.0
  0
LINE
  5
100
330
1F
100
AcDbEntity
  8
HEWI
100
AcDbLine
 10
411.767576
 20
288.070432
 30
0.0
 11
411.767576
 21
285.3504319999999
 31
0.0
  0
LINE
  5
101
330
1F
100
AcDbEntity
  8
HEWI
100
AcDbLine
 10
411.767576
 20
288.070432
 30
0.0
 11
411.7475759999999
 21
288.070432
 31
0.0
  0
LINE
  5
102
330
1F
100
AcDbEntity
  8
HEWI
100
AcDbLine
 10
399.947576
 20
341.3504319999999
 30
0.0
 11
399.947576
 21
325.600432
 31
0.0
  0
LINE
  5
103
330
1F
100
AcDbEntity
  8
HEWI
100
AcDbLine
 10
399.947576
 20
341.3504319999999
 30
0.0
 11
409.747576
 21
341.3504319999999
 31
0.0
  0
LINE
  5
104
330
1F
100
AcDbEntity
  8
HEWI
100
AcDbLine
 10
411.7475759999999
 20
339.3504319999999
 30
0.0
 11
411.7475759999999
 21
325.600432
 31
0.0
  0
LINE
  5
105
330
1F
100
AcDbEntity
  8
HEWI
100
AcDbLine
 10
409.747576
 20
325.600432
 30
0.0
 11
409.747576
 21
341.3504319999999
 31
0.0
  0
LINE
  5
106
330
1F
100
AcDbEntity
  8
HEWI
100
AcDbLine
 10
411.7475759999999
 20
325.600432
 30
0.0
 11
409.747576
 21
325.600432
 31
0.0
  0
LINE
  5
107
330
1F
100
AcDbEntity
  8
HEWI
100
AcDbLine
 10
411.7475759999999
 20
325.600432
 30
0.0
 11
411.7475759999999
 21
285.1004319999999
 31
0.0
  0
LINE
  5
108
330
1F
100
AcDbEntity
  8
HEWI
100
AcDbLine
 10
399.947576
 20
285.1004319999999
 30
0.0
 11
399.947576
 21
325.600432
 31
0.0
  0
LINE
  5
109
330
1F
100
AcDbEntity
  8
HEWI
100
AcDbLine
 10
409.747576
 20
285.1004319999999
 30
0.0
 11
409.747576
 21
325.600432
 31
0.0
  0
LINE
  5
10B
330
1F
100
AcDbEntity
  8
HEWI
100
AcDbLine
 10
411.7475759999999
 20
285.1004319999999
 30
0.0
 11
409.747576
 21
285.1004319999999
 31
0.0
  0
LINE
  5
10C
330
1F
100
AcDbEntity
  8
HEWI
100
AcDbLine
 10
411.7475759999999
 20
271.350432
 30
0.0
 11
411.7475759999999
 21
285.1004319999999
 31
0.0
  0
LINE
  5
10D
330
1F
100
AcDbEntity
  8
HEWI
100
AcDbLine
 10
399.947576
 20
269.350432
 30
0.0
 11
399.947576
 21
285.1004319999999
 31
0.0
  0
LINE
  5
10E
330
1F
100
AcDbEntity
  8
HEWI
100
AcDbLine
 10
409.747576
 20
269.350432
 30
0.0
 11
399.947576
 21
269.350432
 31
0.0
  0
LINE
  5
10F
330
1F
100
AcDbEntity
  8
HEWI
100
AcDbLine
 10
409.747576
 20
269.350432
 30
0.0
 11
409.747576
 21
285.1004319999999
 31
0.0
  0
LINE
  5
111
330
1F
100
AcDbEntity
  8
HEWI
100
AcDbLine
 10
398.147576
 20
303.300432
 30
0.0
 11
398.147576
 21
298.442342
 31
0.0
  0
LINE
  5
112
330
1F
100
AcDbEntity
  8
HEWI
100
AcDbLine
 10
398.147576
 20
307.400432
 30
0.0
 11
398.147576
 21
312.258521
 31
0.0
  0
LINE
  5
113
330
1F
100
AcDbEntity
  8
HEWI
100
AcDbLine
 10
398.147576
 20
298.442342
 30
0.0
 11
399.947576
 21
297.787196
 31
0.0
  0
LINE
  5
114
330
1F
100
AcDbEntity
  8
HEWI
100
AcDbLine
 10
399.947576
 20
312.913667
 30
0.0
 11
398.147576
 21
312.258521
 31
0.0
  0
LINE
  5
115
330
1F
100
AcDbEntity
  8
HEWI
100
AcDbLine
 10
411.7476629999999
 20
294.700432
 30
0.0
 11
428.7001349999999
 21
294.700432
 31
0.0
  0
LINE
  5
116
330
1F
100
AcDbEntity
  8
HEWI
100
AcDbLine
 10
428.7001349999999
 20
316.000432
 30
0.0
 11
411.7476629999999
 21
316.000432
 31
0.0
  0
LINE
  5
117
330
1F
100
AcDbEntity
  8
HEWI
100
AcDbLine
 10
466.0539639999999
 20
316.000432
 30
0.0
 11
453.5539639999999
 21
316.000432
 31
0.0
  0
LINE
  5
118
330
1F
100
AcDbEntity
  8
HEWI
100
AcDbLine
 10
466.0539639999999
 20
294.700432
 30
0.0
 11
453.5539639999999
 21
294.700432
 31
0.0
  0
LINE
  5
119
330
1F
100
AcDbEntity
  8
HEWI
100
AcDbLine
 10
428.7001349999999
 20
294.700432
 30
0.0
 11
453.5539639999999
 21
294.700432
 31
0.0
  0
LINE
  5
11A
330
1F
100
AcDbEntity
  8
HEWI
100
AcDbLine
 10
453.5539639999999
 20
316.000432
 30
0.0
 11
428.7001349999999
 21
316.000432
 31
0.0
  0
LINE
  5
11B
330
1F
100
AcDbEntity
  8
HEWI
100
AcDbLine
 10
384.257227
 20
73.585959
 30
0.0
 11
384.243085
 21
73.594124
 31
0.0
  0
LINE
  5
11C
330
1F
100
AcDbEntity
  8
HEWI
100
AcDbLine
 10
384.257227
 20
74.86264699999999
 30
0.0
 11
384.257227
 21
73.585959
 31
0.0
  0
LINE
  5
11D
330
1F
100
AcDbEntity
  8
HEWI
100
AcDbLine
 10
384.257227
 20
73.585959
 30
0.0
 11
384.610781
 21
73.79008299999999
 31
0.0
  0
LINE
  5
11E
330
1F
100
AcDbEntity
  8
HEWI
100
AcDbLine
 10
384.610781
 20
73.79008299999999
 30
0.0
 11
384.610781
 21
74.65854799999999
 31
0.0
  0
LINE
  5
11F
330
1F
100
AcDbEntity
  8
HEWI
100
AcDbLine
 10
383.307053
 20
73.037375
 30
0.0
 11
383.29291
 21
73.04554
 31
0.0
  0
LINE
  5
120
330
1F
100
AcDbEntity
  8
HEWI
100
AcDbLine
 10
383.218664
 20
75.207215
 30
0.0
 11
383.204522
 21
75.21538000000001
 31
0.0
  0
LINE
  5
121
330
1F
100
AcDbEntity
  8
HEWI
100
AcDbLine
 10
381.826548
 20
72.539823
 30
0.0
 11
381.812406
 21
72.547988
 31
0.0
  0
LINE
  5
122
330
1F
100
AcDbEntity
  8
HEWI
100
AcDbLine
 10
382.865111
 20
75.00309099999999
 30
0.0
 11
382.850969
 21
75.011256
 31
0.0
  0
LINE
  5
123
330
1F
100
AcDbEntity
  8
HEWI
100
AcDbLine
 10
382.423169
 20
72.52706500000001
 30
0.0
 11
382.409027
 21
72.53523
 31
0.0
  0
LINE
  5
124
330
1F
100
AcDbEntity
  8
HEWI
100
AcDbLine
 10
381.981227
 20
74.492781
 30
0.0
 11
382.423169
 21
72.52706500000001
 31
0.0
  0
LINE
  5
125
330
1F
100
AcDbEntity
  8
HEWI
100
AcDbLine
 10
382.423169
 20
72.52706500000001
 30
0.0
 11
382.776723
 21
72.731189
 31
0.0
  0
LINE
  5
126
330
1F
100
AcDbEntity
  8
HEWI
100
AcDbLine
 10
382.776723
 20
72.731189
 30
0.0
 11
383.041888
 21
74.216805
 31
0.0
  0
LINE
  5
127
330
1F
100
AcDbEntity
  8
HEWI
100
AcDbLine
 10
383.041888
 20
74.216805
 30
0.0
 11
383.307053
 21
73.037375
 31
0.0
  0
LINE
  5
128
330
1F
100
AcDbEntity
  8
HEWI
100
AcDbLine
 10
383.307053
 20
73.037375
 30
0.0
 11
383.660606
 21
73.2415
 31
0.0
  0
LINE
  5
129
330
1F
100
AcDbEntity
  8
HEWI
100
AcDbLine
 10
383.660606
 20
73.2415
 30
0.0
 11
383.9786660000001
 21
75.023464
 31
0.0
  0
LINE
  5
12A
330
1F
100
AcDbEntity
  8
HEWI
100
AcDbLine
 10
383.691172
 20
75.18944399999999
 30
0.0
 11
383.483829
 21
74.02778599999999
 31
0.0
  0
LINE
  5
12B
330
1F
100
AcDbEntity
  8
HEWI
100
AcDbLine
 10
383.483829
 20
74.02778599999999
 30
0.0
 11
383.218664
 21
75.207215
 31
0.0
  0
LINE
  5
12C
330
1F
100
AcDbEntity
  8
HEWI
100
AcDbLine
 10
383.218664
 20
75.207215
 30
0.0
 11
382.865111
 21
75.00309099999999
 31
0.0
  0
LINE
  5
12D
330
1F
100
AcDbEntity
  8
HEWI
100
AcDbLine
 10
382.865111
 20
75.00309099999999
 30
0.0
 11
382.599946
 21
73.517475
 31
0.0
  0
LINE
  5
12E
330
1F
100
AcDbEntity
  8
HEWI
100
AcDbLine
 10
382.599946
 20
73.517475
 30
0.0
 11
382.334781
 21
74.696905
 31
0.0
  0
LINE
  5
12F
330
1F
100
AcDbEntity
  8
HEWI
100
AcDbLine
 10
381.981227
 20
74.492781
 30
0.0
 11
381.967085
 21
74.50094599999999
 31
0.0
  0
LINE
  5
130
330
1F
100
AcDbEntity
  8
HEWI
100
AcDbLine
 10
382.334781
 20
74.696905
 30
0.0
 11
381.981227
 21
74.492781
 31
0.0
  0
LINE
  5
131
330
1F
100
AcDbEntity
  8
HEWI
100
AcDbLine
 10
382.334781
 20
74.696905
 30
0.0
 11
382.320639
 21
74.70506999999999
 31
0.0
  0
LINE
  5
132
330
1F
100
AcDbEntity
  8
HEWI
100
AcDbLine
 10
381.738159
 20
73.40734999999999
 30
0.0
 11
381.724017
 21
73.415515
 31
0.0
  0
LINE
  5
133
330
1F
100
AcDbEntity
  8
HEWI
100
AcDbLine
 10
380.147169
 20
71.21301600000001
 30
0.0
 11
380.133027
 21
71.221181
 31
0.0
  0
LINE
  5
134
330
1F
100
AcDbEntity
  8
HEWI
100
AcDbLine
 10
380.721693
 20
71.544718
 30
0.0
 11
381.826548
 21
72.182606
 31
0.0
  0
LINE
  5
135
330
1F
100
AcDbEntity
  8
HEWI
100
AcDbLine
 10
381.826548
 20
72.182606
 30
0.0
 11
381.826548
 21
72.539823
 31
0.0
  0
LINE
  5
136
330
1F
100
AcDbEntity
  8
HEWI
100
AcDbLine
 10
381.826548
 20
72.539823
 30
0.0
 11
381.075247
 21
72.106059
 31
0.0
  0
LINE
  5
137
330
1F
100
AcDbEntity
  8
HEWI
100
AcDbLine
 10
381.075247
 20
72.106059
 30
0.0
 11
381.075247
 21
72.6674
 31
0.0
  0
LINE
  5
138
330
1F
100
AcDbEntity
  8
HEWI
100
AcDbLine
 10
381.075247
 20
72.6674
 30
0.0
 11
381.738159
 21
73.050133
 31
0.0
  0
LINE
  5
139
330
1F
100
AcDbEntity
  8
HEWI
100
AcDbLine
 10
381.738159
 20
73.050133
 30
0.0
 11
381.738159
 21
73.40734999999999
 31
0.0
  0
LINE
  5
13A
330
1F
100
AcDbEntity
  8
HEWI
100
AcDbLine
 10
381.738159
 20
73.40734999999999
 30
0.0
 11
381.075247
 21
73.024618
 31
0.0
  0
LINE
  5
13B
330
1F
100
AcDbEntity
  8
HEWI
100
AcDbLine
 10
381.075247
 20
73.024618
 30
0.0
 11
381.075247
 21
73.61249499999999
 31
0.0
  0
LINE
  5
13C
330
1F
100
AcDbEntity
  8
HEWI
100
AcDbLine
 10
381.075247
 20
73.61249499999999
 30
0.0
 11
381.826548
 21
74.04625899999999
 31
0.0
  0
LINE
  5
13D
330
1F
100
AcDbEntity
  8
HEWI
100
AcDbLine
 10
381.826548
 20
74.04625899999999
 30
0.0
 11
381.826548
 21
74.40347599999999
 31
0.0
  0
LINE
  5
13E
330
1F
100
AcDbEntity
  8
HEWI
100
AcDbLine
 10
380.721693
 20
71.544718
 30
0.0
 11
380.707551
 21
71.55288299999999
 31
0.0
  0
LINE
  5
13F
330
1F
100
AcDbEntity
  8
HEWI
100
AcDbLine
 10
380.721693
 20
73.76558799999999
 30
0.0
 11
380.721693
 21
71.544718
 31
0.0
  0
LINE
  5
140
330
1F
100
AcDbEntity
  8
HEWI
100
AcDbLine
 10
380.721693
 20
73.76558799999999
 30
0.0
 11
380.707551
 21
73.773753
 31
0.0
  0
LINE
  5
141
330
1F
100
AcDbEntity
  8
HEWI
100
AcDbLine
 10
381.826548
 20
74.40347599999999
 30
0.0
 11
380.721693
 21
73.76558799999999
 31
0.0
  0
LINE
  5
142
330
1F
100
AcDbEntity
  8
HEWI
100
AcDbLine
 10
381.826548
 20
74.40347599999999
 30
0.0
 11
381.812406
 21
74.411641
 31
0.0
  0
LINE
  5
143
330
1F
100
AcDbEntity
  8
HEWI
100
AcDbLine
 10
380.147169
 20
72.48879200000001
 30
0.0
 11
380.133027
 21
72.496957
 31
0.0
  0
LINE
  5
144
330
1F
100
AcDbEntity
  8
HEWI
100
AcDbLine
 10
380.147169
 20
73.433887
 30
0.0
 11
380.133027
 21
73.44205200000001
 31
0.0
  0
LINE
  5
145
330
1F
100
AcDbEntity
  8
HEWI
100
AcDbLine
 10
380.500723
 20
73.63801099999999
 30
0.0
 11
380.48658
 21
73.64617599999999
 31
0.0
  0
LINE
  5
146
330
1F
100
AcDbEntity
  8
HEWI
100
AcDbLine
 10
379.484257
 20
73.051154
 30
0.0
 11
379.470114
 21
73.05931899999999
 31
0.0
  0
LINE
  5
147
330
1F
100
AcDbEntity
  8
HEWI
100
AcDbLine
 10
379.130703
 20
70.626159
 30
0.0
 11
379.484257
 21
70.83028299999999
 31
0.0
  0
LINE
  5
148
330
1F
100
AcDbEntity
  8
HEWI
100
AcDbLine
 10
379.484257
 20
70.83028299999999
 30
0.0
 11
379.484257
 21
71.74884200000001
 31
0.0
  0
LINE
  5
149
330
1F
100
AcDbEntity
  8
HEWI
100
AcDbLine
 10
379.484257
 20
71.74884200000001
 30
0.0
 11
380.147169
 21
72.131574
 31
0.0
  0
LINE
  5
14A
330
1F
100
AcDbEntity
  8
HEWI
100
AcDbLine
 10
380.147169
 20
72.131574
 30
0.0
 11
380.147169
 21
71.21301600000001
 31
0.0
  0
LINE
  5
14B
330
1F
100
AcDbEntity
  8
HEWI
100
AcDbLine
 10
380.147169
 20
71.21301600000001
 30
0.0
 11
380.500723
 21
71.41714
 31
0.0
  0
LINE
  5
14C
330
1F
100
AcDbEntity
  8
HEWI
100
AcDbLine
 10
380.500723
 20
71.41714
 30
0.0
 11
380.500723
 21
73.63801099999999
 31
0.0
  0
LINE
  5
14D
330
1F
100
AcDbEntity
  8
HEWI
100
AcDbLine
 10
380.500723
 20
73.63801099999999
 30
0.0
 11
380.147169
 21
73.433887
 31
0.0
  0
LINE
  5
14E
330
1F
100
AcDbEntity
  8
HEWI
100
AcDbLine
 10
380.147169
 20
73.433887
 30
0.0
 11
380.147169
 21
72.48879200000001
 31
0.0
  0
LINE
  5
14F
330
1F
100
AcDbEntity
  8
HEWI
100
AcDbLine
 10
380.147169
 20
72.48879200000001
 30
0.0
 11
379.484257
 21
72.106059
 31
0.0
  0
LINE
  5
150
330
1F
100
AcDbEntity
  8
HEWI
100
AcDbLine
 10
379.484257
 20
72.106059
 30
0.0
 11
379.484257
 21
73.051154
 31
0.0
  0
LINE
  5
151
330
1F
100
AcDbEntity
  8
HEWI
100
AcDbLine
 10
379.484257
 20
73.051154
 30
0.0
 11
379.130703
 21
72.84703
 31
0.0
  0
LINE
  5
152
330
1F
100
AcDbEntity
  8
HEWI
100
AcDbLine
 10
379.130703
 20
70.626159
 30
0.0
 11
379.116561
 21
70.63432399999999
 31
0.0
  0
LINE
  5
153
330
1F
100
AcDbEntity
  8
HEWI
100
AcDbLine
 10
379.130703
 20
72.84703
 30
0.0
 11
379.130703
 21
70.626159
 31
0.0
  0
LINE
  5
154
330
1F
100
AcDbEntity
  8
HEWI
100
AcDbLine
 10
379.130703
 20
72.84703
 30
0.0
 11
379.116561
 21
72.85519499999999
 31
0.0
  0
LINE
  5
155
330
1F
100
AcDbEntity
  8
HEWI
100
AcDbLine
 10
362.375808
 20
70.39958100000001
 30
0.0
 11
362.375808
 21
103.467693
 31
0.0
  0
LINE
  5
157
330
1F
100
AcDbEntity
  8
HEWI
100
AcDbLine
 10
369.305454
 20
66.398748
 30
0.0
 11
369.305454
 21
99.466859
 31
0.0
  0
LINE
  5
158
330
1F
100
AcDbEntity
  8
HEWI
100
AcDbLine
 10
391.579318
 20
95.230212
 30
0.0
 11
391.579318
 21
110.693687
 31
0.0
  0
LINE
  5
159
330
1F
100
AcDbEntity
  8
HEWI
100
AcDbLine
 10
372.133882
 20
99.466859
 30
0.0
 11
372.133882
 21
66.398748
 31
0.0
  0
LINE
  5
15A
330
1F
100
AcDbEntity
  8
HEWI
100
AcDbLine
 10
384.243085
 20
74.870812
 30
0.0
 11
384.243085
 21
73.594124
 31
0.0
  0
LINE
  5
15B
330
1F
100
AcDbEntity
  8
HEWI
100
AcDbLine
 10
381.967085
 20
74.50094599999999
 30
0.0
 11
382.409027
 21
72.53523
 31
0.0
  0
LINE
  5
15C
330
1F
100
AcDbEntity
  8
HEWI
100
AcDbLine
 10
382.320639
 20
74.70506999999999
 30
0.0
 11
381.967085
 21
74.50094599999999
 31
0.0
  0
LINE
  5
15D
330
1F
100
AcDbEntity
  8
HEWI
100
AcDbLine
 10
382.850969
 20
75.011256
 30
0.0
 11
382.591252
 21
73.556165
 31
0.0
  0
LINE
  5
15E
330
1F
100
AcDbEntity
  8
HEWI
100
AcDbLine
 10
383.204522
 20
75.21538000000001
 30
0.0
 11
382.850969
 21
75.011256
 31
0.0
  0
LINE
  5
15F
330
1F
100
AcDbEntity
  8
HEWI
100
AcDbLine
 10
383.67703
 20
75.197609
 30
0.0
 11
383.475135
 21
74.066475
 31
0.0
  0
LINE
  5
160
330
1F
100
AcDbEntity
  8
HEWI
100
AcDbLine
 10
383.036442
 20
74.186288
 30
0.0
 11
383.29291
 21
73.04554
 31
0.0
  0
LINE
  5
161
330
1F
100
AcDbEntity
  8
HEWI
100
AcDbLine
 10
380.707551
 20
73.773753
 30
0.0
 11
380.707551
 21
71.55288299999999
 31
0.0
  0
LINE
  5
162
330
1F
100
AcDbEntity
  8
HEWI
100
AcDbLine
 10
381.812406
 20
74.411641
 30
0.0
 11
380.707551
 21
73.773753
 31
0.0
  0
LINE
  5
163
330
1F
100
AcDbEntity
  8
HEWI
100
AcDbLine
 10
381.724017
 20
73.415515
 30
0.0
 11
381.075254
 21
73.040952
 31
0.0
  0
LINE
  5
164
330
1F
100
AcDbEntity
  8
HEWI
100
AcDbLine
 10
381.812406
 20
72.547988
 30
0.0
 11
381.07525
 21
72.12239100000001
 31
0.0
  0
LINE
  5
165
330
1F
100
AcDbEntity
  8
HEWI
100
AcDbLine
 10
379.116561
 20
72.85519499999999
 30
0.0
 11
379.116561
 21
70.63432399999999
 31
0.0
  0
LINE
  5
166
330
1F
100
AcDbEntity
  8
HEWI
100
AcDbLine
 10
379.470114
 20
73.05931899999999
 30
0.0
 11
379.116561
 21
72.85519499999999
 31
0.0
  0
LINE
  5
167
330
1F
100
AcDbEntity
  8
HEWI
100
AcDbLine
 10
380.133027
 20
72.496957
 30
0.0
 11
379.484263
 21
72.122393
 31
0.0
  0
LINE
  5
168
330
1F
100
AcDbEntity
  8
HEWI
100
AcDbLine
 10
380.133027
 20
73.44205200000001
 30
0.0
 11
380.133027
 21
72.496957
 31
0.0
  0
LINE
  5
169
330
1F
100
AcDbEntity
  8
HEWI
100
AcDbLine
 10
380.48658
 20
73.64617599999999
 30
0.0
 11
380.133027
 21
73.44205200000001
 31
0.0
  0
LINE
  5
16A
330
1F
100
AcDbEntity
  8
HEWI
100
AcDbLine
 10
380.133027
 20
72.123406
 30
0.0
 11
380.133027
 21
71.221181
 31
0.0
  0
LINE
  5
16D
330
1F
100
AcDbEntity
  8
HEWI
100
AcDbLine
 10
380.535669
 20
82.17286899999999
 30
0.0
 11
379.41001
 21
81.52297
 31
0.0
  0
LINE
  5
16E
330
1F
100
AcDbEntity
  8
HEWI
100
AcDbLine
 10
381.032146
 20
80.84963399999999
 30
0.0
 11
380.293893
 21
80.423404
 31
0.0
  0
LINE
  5
16F
330
1F
100
AcDbEntity
  8
HEWI
100
AcDbLine
 10
476.450305
 20
127.779511
 30
0.0
 11
476.45064
 21
127.779318
 31
0.0
  0
LINE
  5
170
330
1F
100
AcDbEntity
  8
HEWI
100
AcDbLine
 10
499.8360629999999
 20
138.872846
 30
0.0
 11
499.8282269999999
 21
138.877383
 31
0.0
  0
LINE
  5
171
330
1F
100
AcDbEntity
  8
HEWI
100
AcDbLine
 10
419.9365209999999
 20
66.812131
 30
0.0
 11
419.9368759999999
 21
66.812077
 31
0.0
  0
LINE
  5
172
330
1F
100
AcDbEntity
  8
HEWI
100
AcDbLine
 10
365.63774
 20
63.189592
 30
0.0
 11
372.567386
 21
59.18875799999999
 31
0.0
  0
LINE
  5
173
330
1F
100
AcDbEntity
  8
HEWI
100
AcDbLine
 10
392.165105
 20
94.89242500000001
 30
0.0
 11
392.165105
 21
111.510184
 31
0.0
  0
LINE
  5
174
330
1F
100
AcDbEntity
  8
HEWI
100
AcDbLine
 10
388.317386
 20
119.53667
 30
0.0
 11
381.38774
 21
123.537503
 31
0.0
  0
LINE
  5
175
330
1F
100
AcDbEntity
  8
HEWI
100
AcDbLine
 10
375.155384
 20
80.117606
 30
0.0
 11
389.945699
 21
71.57841399999999
 31
0.0
  0
LINE
  5
176
330
1F
100
AcDbEntity
  8
HEWI
100
AcDbLine
 10
397.442112
 20
91.845479
 30
0.0
 11
385.8053680000001
 21
98.563956
 31
0.0
  0
LINE
  5
177
330
1F
100
AcDbEntity
  8
HEWI
100
AcDbLine
 10
475.389645
 20
128.391884
 30
0.0
 11
476.450305
 21
127.779511
 31
0.0
  0
LINE
  5
178
330
1F
100
AcDbEntity
  8
HEWI
100
AcDbLine
 10
487.1003049999999
 20
146.225852
 30
0.0
 11
486.039645
 21
146.838225
 31
0.0
  0
LINE
  5
179
330
1F
100
AcDbEntity
  8
HEWI
100
AcDbLine
 10
499.8282269999999
 20
138.877383
 30
0.0
 11
487.1003049999999
 21
146.225852
 31
0.0
  0
LINE
  5
17A
330
1F
100
AcDbEntity
  8
HEWI
100
AcDbLine
 10
476.450305
 20
127.779511
 30
0.0
 11
489.1782269999999
 21
120.431042
 31
0.0
  0
LINE
  5
17B
330
1F
100
AcDbEntity
  8
HEWI
100
AcDbLine
 10
451.037859
 20
71.84949499999999
 30
0.0
 11
499.8282269999999
 21
100.018628
 31
0.0
  0
LINE
  5
17C
330
1F
100
AcDbEntity
  8
HEWI
100
AcDbLine
 10
489.1782269999999
 20
118.464969
 30
0.0
 11
440.3878589999999
 21
90.29583700000001
 31
0.0
  0
LINE
  5
17D
330
1F
100
AcDbEntity
  8
HEWI
100
AcDbLine
 10
390.587484
 20
71.352443
 30
0.0
 11
419.9365209999999
 21
66.812131
 31
0.0
  0
LINE
  5
17E
330
1F
100
AcDbEntity
  8
HEWI
100
AcDbLine
 10
423.1929059999999
 20
87.861738
 30
0.0
 11
397.100255
 21
91.898286
 31
0.0
  0
ARC
  5
180
330
1F
100
AcDbEntity
  8
HEWI
100
AcDbCircle
 10
105.905937
 20
325.600432
 30
0.0
 40
15.75
100
AcDbArc
 50
90.0
 51
180.0
  0
ARC
  5
181
330
1F
100
AcDbEntity
  8
HEWI
100
AcDbCircle
 10
105.905937
 20
285.1004319999999
 30
0.0
 40
15.75
100
AcDbArc
 50
180.0
 51
270.0
  0
ARC
  5
182
330
1F
100
AcDbEntity
  8
HEWI
100
AcDbCircle
 10
105.905937
 20
325.600432
 30
0.0
 40
15.75
100
AcDbArc
 50
0.0
 51
90.0
  0
ARC
  5
183
330
1F
100
AcDbEntity
  8
HEWI
100
AcDbCircle
 10
105.905937
 20
285.1004319999999
 30
0.0
 40
15.75
100
AcDbArc
 50
270.0
 51
0.0
  0
ARC
  5
184
330
1F
100
AcDbEntity
  8
HEWI
100
AcDbCircle
 10
105.905937
 20
285.1004319999999
 30
0.0
 40
13.75
100
AcDbArc
 50
270.0
 51
0.0
  0
ARC
  5
185
330
1F
100
AcDbEntity
  8
HEWI
100
AcDbCircle
 10
105.905937
 20
325.600432
 30
0.0
 40
13.75
100
AcDbArc
 50
0.0
 51
90.0
  0
ARC
  5
186
330
1F
100
AcDbEntity
  8
HEWI
100
AcDbCircle
 10
105.905937
 20
325.600432
 30
0.0
 40
13.75
100
AcDbArc
 50
90.0
 51
180.0
  0
ARC
  5
187
330
1F
100
AcDbEntity
  8
HEWI
100
AcDbCircle
 10
105.905937
 20
285.1004319999999
 30
0.0
 40
13.75
100
AcDbArc
 50
180.0
 51
270.0
  0
ARC
  5
188
330
1F
100
AcDbEntity
  8
HEWI
100
AcDbCircle
 10
105.905937
 20
305.350432
 30
0.0
 40
11.0
100
AcDbArc
 50
75.50437600000001
 51
90.0
  0
ARC
  5
189
330
1F
100
AcDbEntity
  8
HEWI
100
AcDbCircle
 10
105.905937
 20
305.350432
 30
0.0
 40
11.0
100
AcDbArc
 50
90.0
 51
284.489997
  0
ARC
  5
18A
330
1F
100
AcDbEntity
  8
HEWI
100
AcDbCircle
 10
105.905937
 20
305.350432
 30
0.0
 40
10.65000000000008
100
AcDbArc
 50
180.0
 51
270.0
  0
ARC
  5
18B
330
1F
100
AcDbEntity
  8
HEWI
100
AcDbCircle
 10
105.905937
 20
305.350432
 30
0.0
 40
10.65000000000008
100
AcDbArc
 50
269.999998
 51
270.0
  0
ARC
  5
18C
330
1F
100
AcDbEntity
  8
HEWI
100
AcDbCircle
 10
105.905937
 20
305.350432
 30
0.0
 40
10.65000000000008
100
AcDbArc
 50
269.999999
 51
270.0
  0
ARC
  5
18E
330
1F
100
AcDbEntity
  8
HEWI
100
AcDbCircle
 10
235.905937
 20
305.350432
 30
0.0
 40
10.65
100
AcDbArc
 50
270.0
 51
90.00000099999999
  0
ARC
  5
18F
330
1F
100
AcDbEntity
  8
HEWI
100
AcDbCircle
 10
92.15593699999999
 20
130.500246
 30
0.0
 40
2.0
100
AcDbArc
 50
180.0
 51
270.0
  0
ARC
  5
190
330
1F
100
AcDbEntity
  8
HEWI
100
AcDbCircle
 10
119.655937
 20
130.500246
 30
0.0
 40
2.0
100
AcDbArc
 50
270.0
 51
0.0
  0
ARC
  5
191
330
1F
100
AcDbEntity
  8
HEWI
100
AcDbCircle
 10
141.905937
 20
99.193858
 30
0.0
 40
35.65000000000001
100
AcDbArc
 50
210.0
 51
270.0
  0
ARC
  5
192
330
1F
100
AcDbEntity
  8
HEWI
100
AcDbCircle
 10
141.905937
 20
99.193858
 30
0.0
 40
14.35000000000001
100
AcDbArc
 50
210.0
 51
270.0
  0
ARC
  5
193
330
1F
100
AcDbEntity
  8
HEWI
100
AcDbCircle
 10
210.905937
 20
99.193858
 30
0.0
 40
35.65000000000001
100
AcDbArc
 50
270.0
 51
0.0
  0
ARC
  5
194
330
1F
100
AcDbEntity
  8
HEWI
100
AcDbCircle
 10
210.905937
 20
99.193858
 30
0.0
 40
14.35000000000001
100
AcDbArc
 50
270.0
 51
0.0
  0
ARC
  5
195
330
1F
100
AcDbEntity
  8
HEWI
100
AcDbCircle
 10
419.1475759999999
 20
305.350432
 30
0.0
 40
2.055000000000001
100
AcDbArc
 50
75.0
 51
345.0
  0
ARC
  5
196
330
1F
100
AcDbEntity
  8
HEWI
100
AcDbCircle
 10
409.747576
 20
339.3504319999999
 30
0.0
 40
2.0
100
AcDbArc
 50
0.0
 51
90.0
  0
ARC
  5
197
330
1F
100
AcDbEntity
  8
HEWI
100
AcDbCircle
 10
409.747576
 20
271.350432
 30
0.0
 40
2.0
100
AcDbArc
 50
270.0
 51
0.0
  0
CIRCLE
  5
198
330
1F
100
AcDbEntity
  8
HEWI
100
AcDbCircle
 10
419.1475759999999
 20
305.350432
 30
0.0
 40
0.0832139741175218
  0
ARC
  5
199
330
1F
100
AcDbEntity
  8
HEWI
100
AcDbCircle
 10
419.1475759999999
 20
305.350432
 30
0.0
 40
1.443375
100
AcDbArc
 50
150.0
 51
210.000046
  0
ARC
  5
19A
330
1F
100
AcDbEntity
  8
HEWI
100
AcDbCircle
 10
419.1475759999999
 20
305.350432
 30
0.0
 40
1.443375
100
AcDbArc
 50
329.999954
 51
29.999954
  0
ARC
  5
19B
330
1F
100
AcDbEntity
  8
HEWI
100
AcDbCircle
 10
419.1475759999999
 20
305.350432
 30
0.0
 40
1.443375
100
AcDbArc
 50
210.000046
 51
270.000046
  0
ARC
  5
19C
330
1F
100
AcDbEntity
  8
HEWI
100
AcDbCircle
 10
419.1475759999999
 20
305.350432
 30
0.0
 40
1.443375
100
AcDbArc
 50
29.999954
 51
90.000046
  0
ARC
  5
19D
330
1F
100
AcDbEntity
  8
HEWI
100
AcDbCircle
 10
419.1475759999999
 20
305.350432
 30
0.0
 40
1.443375
100
AcDbArc
 50
270.000046
 51
329.999954
  0
ARC
  5
19E
330
1F
100
AcDbEntity
  8
HEWI
100
AcDbCircle
 10
419.1475759999999
 20
305.350432
 30
0.0
 40
1.443375
100
AcDbArc
 50
90.000046
 51
150.0
  0
ARC
  5
19F
330
1F
100
AcDbEntity
  8
HEWI
100
AcDbCircle
 10
466.0539639999999
 20
305.350432
 30
0.0
 40
10.65
100
AcDbArc
 50
270.0
 51
90.00000099999999
  0
CIRCLE
  5
1A0
330
1F
100
AcDbEntity
  8
HEWI
100
AcDbCircle
 10
419.1475759999999
 20
305.350432
 30
0.0
 40
2.0
  0
ELLIPSE
  5
1A1
330
1F
100
AcDbEntity
  8
HEWI
100
AcDbEllipse
 10
120.255302
 20
305.350432
 30
0.0
 11
0.0
 21
-10.65
 31
0.0
210
0.0
220
0.0
230
1.0
 40
0.8660250000000001
 41
3.141592659979107
 42
6.283185307179585
  0
ELLIPSE
  5
1A2
330
1F
100
AcDbEntity
  8
HEWI
100
AcDbEllipse
 10
428.7001349999999
 20
305.350432
 30
0.0
 11
0.0000000000000125
 21
10.65
 31
0.0
210
0.0
220
0.0
230
1.0
 40
0.267949
 41
4.71238898038469
 42
6.283185438481372
  0
ELLIPSE
  5
1A3
330
1F
100
AcDbEntity
  8
HEWI
100
AcDbEllipse
 10
428.7001349999999
 20
305.350432
 30
0.0
 11
0.0000000000000125
 21
10.65
 31
0.0
210
0.0
220
0.0
230
1.0
 40
0.267949
 41
3.141592522288009
 42
4.71238898038469
  0
ELLIPSE
  5
1A4
330
1F
100
AcDbEntity
  8
HEWI
100
AcDbEllipse
 10
453.5539639999999
 20
305.350432
 30
0.0
 11
0.0
 21
-10.65
 31
0.0
210
0.0
220
0.0
230
1.0
 40
0.5
 41
0.0
 42
3.141592580874735
  0
ELLIPSE
  5
1A5
330
1F
100
AcDbEntity
  8
HEWI
100
AcDbEllipse
 10
428.7001349999999
 20
305.350432
 30
0.0
 11
0.0000000000000125
 21
10.65
 31
0.0
210
0.0
220
0.0
230
1.0
 40
0.267949
 41
3.141592610111521
 42
6.283185175877656
  0
ELLIPSE
  5
1A6
330
1F
100
AcDbEntity
  8
HEWI
100
AcDbEllipse
 10
380.647447
 20
81.806038
 30
0.0
 11
1.0275
 21
-1.779682204777022
 31
0.0
210
0.0
220
0.0
230
1.0
 40
0.5773500000000001
 41
3.541680279971485
 42
5.786839104813517
  0
ELLIPSE
  5
1A7
330
1F
100
AcDbEntity
  8
HEWI
100
AcDbEllipse
 10
373.51274
 20
76.829492
 30
0.0
 11
-7.874999999999997
 21
-13.63990010960491
 31
0.0
210
0.0
220
0.0
230
1.0
 40
0.5773500000000001
 41
5.497787143782137
 42
6.283185278530774
  0
ELLIPSE
  5
1A8
330
1F
100
AcDbEntity
  8
HEWI
100
AcDbEllipse
 10
380.442386
 20
72.82865799999999
 30
0.0
 11
-7.874999999999997
 21
-13.63990010960491
 31
0.0
210
0.0
220
0.0
230
1.0
 40
0.5773500000000001
 41
0.0000000286488113
 42
0.0086885466729498
  0
ELLIPSE
  5
1A9
330
1F
100
AcDbEntity
  8
HEWI
100
AcDbEllipse
 10
380.442386
 20
72.82865799999999
 30
0.0
 11
-7.874999999999997
 21
-13.63990010960491
 31
0.0
210
0.0
220
0.0
230
1.0
 40
0.5773500000000001
 41
5.497787143782137
 42
6.283185278530774
  0
ELLIPSE
  5
1AA
330
1F
100
AcDbEntity
  8
HEWI
100
AcDbEllipse
 10
380.442386
 20
61.60183
 30
0.0
 11
-0.9999999999999998
 21
1.732050807568876
 31
0.0
210
0.0
220
0.0
230
1.0
 40
0.5773500000000001
 41
3.141420851803033
 42
3.926990816987241
  0
ELLIPSE
  5
1AB
330
1F
100
AcDbEntity
  8
HEWI
100
AcDbEllipse
 10
380.442386
 20
89.362714
 30
0.0
 11
5.499999999999999
 21
9.526279441628824
 31
0.0
210
0.0
220
0.0
230
0.9999999999999998
 40
0.5773500000000001
 41
3.270594322643423
 42
3.394588995847986
  0
ELLIPSE
  5
1AC
330
1F
100
AcDbEntity
  8
HEWI
100
AcDbEllipse
 10
380.442386
 20
89.362714
 30
0.0
 11
5.499999999999999
 21
9.526279441628824
 31
0.0
210
0.0
220
0.0
230
0.9999999999999998
 40
0.5773500000000001
 41
6.030188949237353
 42
6.15418362175695
  0
ELLIPSE
  5
1AD
330
1F
100
AcDbEntity
  8
HEWI
100
AcDbEllipse
 10
373.51274
 20
109.897603
 30
0.0
 11
-7.874999999999997
 21
-13.63990010960491
 31
0.0
210
0.0
220
0.0
230
1.0
 40
0.5773500000000001
 41
3.1415926822386
 42
3.926990816987241
  0
ELLIPSE
  5
1AE
330
1F
100
AcDbEntity
  8
HEWI
100
AcDbEllipse
 10
370.719668
 20
67.21524399999999
 30
0.0
 11
2.0
 21
0.0
 31
0.0
210
0.0
220
0.0
230
1.0
 40
0.5773500000000001
 41
3.926990816987241
 42
5.497787143782136
  0
ELLIPSE
  5
1AF
330
1F
100
AcDbEntity
  8
HEWI
100
AcDbEllipse
 10
390.165105
 20
111.510184
 30
0.0
 11
2.0
 21
0.0
 31
0.0
210
0.0
220
0.0
230
1.0
 40
0.5773500000000001
 41
5.497787143782141
 42
6.283013296884432
  0
ELLIPSE
  5
1B0
330
1F
100
AcDbEntity
  8
HEWI
100
AcDbEllipse
 10
380.442386
 20
105.89677
 30
0.0
 11
-7.874999999999997
 21
-13.63990010960491
 31
0.0
210
0.0
220
0.0
230
1.0
 40
0.5773500000000001
 41
3.150281090299553
 42
3.926990816987241
  0
ELLIPSE
  5
1B1
330
1F
100
AcDbEntity
  8
HEWI
100
AcDbEllipse
 10
380.442386
 20
105.89677
 30
0.0
 11
-7.874999999999997
 21
-13.63990010960491
 31
0.0
210
0.0
220
0.0
230
1.0
 40
0.5773500000000001
 41
3.141592682238595
 42
3.150281200262733
  0
ELLIPSE
  5
1B2
330
1F
100
AcDbEntity
  8
HEWI
100
AcDbEllipse
 10
381.8566
 20
72.01216200000001
 30
0.0
 11
6.874999999999997
 21
11.90784930203603
 31
0.0
210
0.0
220
0.0
230
1.0
 40
0.5773500000000001
 41
3.926990816987241
 42
4.986124761535387
  0
ELLIPSE
  5
1B3
330
1F
100
AcDbEntity
  8
HEWI
100
AcDbEllipse
 10
381.8566
 20
105.080273
 30
0.0
 11
6.874999999999997
 21
11.90784930203603
 31
0.0
210
0.0
220
0.0
230
1.0
 40
0.5773500000000001
 41
5.497787143782138
 42
7.068583470577034
  0
ELLIPSE
  5
1B4
330
1F
100
AcDbEntity
  8
HEWI
100
AcDbEllipse
 10
381.8566
 20
72.01216200000001
 30
0.0
 11
6.874999999999997
 21
11.90784930203603
 31
0.0
210
0.0
220
0.0
230
1.0
 40
0.5773500000000001
 41
2.356194490192345
 42
3.926990816987241
  0
ELLIPSE
  5
1B5
330
1F
100
AcDbEntity
  8
HEWI
100
AcDbEllipse
 10
381.8566
 20
88.54621800000002
 30
0.0
 11
-5.499999999999999
 21
-9.526279441628824
 31
0.0
210
0.0
220
0.0
230
0.9999999999999998
 40
0.5773500000000001
 41
2.888596279963547
 42
3.926990815009102
  0
ELLIPSE
  5
1B6
330
1F
100
AcDbEntity
  8
HEWI
100
AcDbEllipse
 10
381.8566
 20
88.54621800000002
 30
0.0
 11
-5.499999999999999
 21
-9.526279441628824
 31
0.0
210
0.0
220
0.0
230
0.9999999999999998
 40
0.5773500000000001
 41
3.926990815009115
 42
6.283185307179585
  0
ELLIPSE
  5
1B7
330
1F
100
AcDbEntity
  8
HEWI
100
AcDbEllipse
 10
381.8566
 20
88.54621800000002
 30
0.0
 11
-5.499999999999999
 21
-9.526279441628824
 31
0.0
210
0.0
220
0.0
230
0.9999999999999998
 40
0.5773500000000001
 41
0.0
 42
0.2529963579422257
  0
ELLIPSE
  5
1B8
330
1F
100
AcDbEntity
  8
HEWI
100
AcDbEllipse
 10
373.51274
 20
109.897603
 30
0.0
 11
-7.874999999999997
 21
-13.63990010960491
 31
0.0
210
0.0
220
0.0
230
1.0
 40
0.5773500000000001
 41
3.926990816987241
 42
5.497787143782137
  0
ELLIPSE
  5
1B9
330
1F
100
AcDbEntity
  8
HEWI
100
AcDbEllipse
 10
370.719668
 20
100.283356
 30
0.0
 11
-2.0
 21
0.0
 31
0.0
210
0.0
220
0.0
230
1.0
 40
0.5773500000000001
 41
0.7853981633974444
 42
2.356194490192349
  0
ELLIPSE
  5
1BA
330
1F
100
AcDbEntity
  8
HEWI
100
AcDbEllipse
 10
381.8566
 20
105.080273
 30
0.0
 11
6.874999999999997
 21
11.90784930203603
 31
0.0
210
0.0
220
0.0
230
1.0
 40
0.5773500000000001
 41
0.7853981633974483
 42
2.356194490192344
  0
ELLIPSE
  5
1BB
330
1F
100
AcDbEntity
  8
HEWI
100
AcDbEllipse
 10
380.442386
 20
117.123598
 30
0.0
 11
-0.9999999999999998
 21
1.732050807568876
 31
0.0
210
0.0
220
0.0
230
1.0
 40
0.5773500000000001
 41
3.92699081698724
 42
5.497787143782139
  0
ELLIPSE
  5
1BC
330
1F
100
AcDbEntity
  8
HEWI
100
AcDbEllipse
 10
380.442386
 20
105.89677
 30
0.0
 11
-7.874999999999997
 21
-13.63990010960491
 31
0.0
210
0.0
220
0.0
230
1.0
 40
0.5773500000000001
 41
3.926990816987241
 42
5.497787143782136
  0
ELLIPSE
  5
1BD
330
1F
100
AcDbEntity
  8
HEWI
100
AcDbEllipse
 10
380.293894
 20
81.601914
 30
0.0
 11
-0.7216874999999999
 21
1.249999417187363
 31
0.0
210
0.0
220
0.0
230
0.9999999999999996
 40
0.5773500000000001
 41
1.308997746565567
 42
2.356195297762165
  0
ELLIPSE
  5
1BE
330
1F
100
AcDbEntity
  8
HEWI
100
AcDbEllipse
 10
380.293894
 20
81.601914
 30
0.0
 11
-0.7216874999999999
 21
1.249999417187363
 31
0.0
210
0.0
220
0.0
230
0.9999999999999996
 40
0.5773500000000001
 41
0.2617993877991505
 42
1.308997746565567
  0
ELLIPSE
  5
1BF
330
1F
100
AcDbEntity
  8
HEWI
100
AcDbEllipse
 10
380.293894
 20
81.601914
 30
0.0
 11
-0.7216874999999999
 21
1.249999417187363
 31
0.0
210
0.0
220
0.0
230
0.9999999999999996
 40
0.5773500000000001
 41
5.895706199971427
 42
6.544984694978738
  0
ELLIPSE
  5
1C0
330
1F
100
AcDbEntity
  8
HEWI
100
AcDbEllipse
 10
380.293894
 20
81.601914
 30
0.0
 11
-0.7216874999999999
 21
1.249999417187363
 31
0.0
210
0.0
220
0.0
230
0.9999999999999996
 40
0.5773500000000001
 41
2.356195297762165
 42
3.403391233819121
  0
ELLIPSE
  5
1C1
330
1F
100
AcDbEntity
  8
HEWI
100
AcDbEllipse
 10
393.843869
 20
81.625364
 30
0.0
 11
3.58783782416727
 21
10.18992721430573
 31
0.0
210
0.0
220
0.0
230
0.9999999999999998
 40
0.4107540000000001
 41
0.0767052054520327
 42
2.279452564681163
  0
ELLIPSE
  5
1C2
330
1F
100
AcDbEntity
  8
HEWI
100
AcDbEllipse
 10
393.843869
 20
81.625364
 30
0.0
 11
3.58783782416727
 21
10.18992721430573
 31
0.0
210
0.0
220
0.0
230
0.9999999999999998
 40
0.4107540000000001
 41
2.279452564681163
 42
3.218396030075711
  0
ELLIPSE
  5
1C3
330
1F
100
AcDbEntity
  8
HEWI
100
AcDbEllipse
 10
481.775305
 20
137.002682
 30
0.0
 11
-5.324999999999998
 21
-9.223170550304272
 31
0.0
210
0.0
220
0.0
230
1.0
 40
0.5773500000000001
 41
3.141557318048398
 42
5.011884867127139
  0
ELLIPSE
  5
1C4
330
1F
100
AcDbEntity
  8
HEWI
100
AcDbEllipse
 10
481.775305
 20
137.002682
 30
0.0
 11
-5.324999999999998
 21
-9.223170550304272
 31
0.0
210
0.0
220
0.0
230
1.0
 40
0.5773500000000001
 41
5.011884963873002
 42
6.283185307179585
  0
ELLIPSE
  5
1C5
330
1F
100
AcDbEntity
  8
HEWI
100
AcDbEllipse
 10
480.714645
 20
137.615054
 30
0.0
 11
5.324999999999998
 21
9.223170550304272
 31
0.0
210
0.0
220
0.0
230
1.0
 40
0.5773500000000001
 41
0.0000628513315593
 42
3.141557318048401
  0
ELLIPSE
  5
1C6
330
1F
100
AcDbEntity
  8
HEWI
100
AcDbEllipse
 10
481.775305
 20
137.002682
 30
0.0
 11
5.324999999999998
 21
9.223170550304272
 31
0.0
210
0.0
220
0.0
230
1.0
 40
0.5773500000000001
 41
0.0
 42
3.141494466717063
  0
ELLIPSE
  5
1C7
330
1F
100
AcDbEntity
  8
HEWI
100
AcDbEllipse
 10
494.5032269999999
 20
129.654213
 30
0.0
 11
5.324999999999998
 21
9.223170550304272
 31
0.0
210
0.0
220
0.0
230
1.0
 40
0.5773500000000001
 41
0.0
 42
3.141298167633734
  0
ELLIPSE
  5
1C8
330
1F
100
AcDbEntity
  8
HEWI
100
AcDbEllipse
 10
494.5032269999999
 20
109.241798
 30
0.0
 11
5.324999999999998
 21
-9.223170550304272
 31
0.0
210
0.0
220
0.0
230
1.0
 40
0.5773500000000001
 41
0.0
 42
3.14149446671706
  0
ELLIPSE
  5
1C9
330
1F
100
AcDbEntity
  8
HEWI
100
AcDbEllipse
 10
393.843869
 20
81.625364
 30
0.0
 11
3.587837824167438
 21
10.18992721430564
 31
0.0
210
0.0
220
0.0
230
1.0
 40
0.4107540000000001
 41
0.0768034247446137
 42
3.218297859041821
  0
ELLIPSE
  5
1CA
330
1F
100
AcDbEntity
  8
HEWI
100
AcDbEllipse
 10
445.7128589999999
 20
81.072666
 30
0.0
 11
5.324999999999998
 21
-9.223170550304272
 31
0.0
210
0.0
220
0.0
230
1.0
 40
0.5773500000000001
 41
0.0001963737434963
 42
3.141396310511063
  0
ELLIPSE
  5
1CB
330
1F
100
AcDbEntity
  8
HEWI
100
AcDbEllipse
 10
421.5647129999999
 20
77.336935
 30
0.0
 11
-1.628192764895735
 21
-10.52480348131694
 31
0.0
210
0.0
220
0.0
230
0.9999999999999998
 40
0.211325
 41
3.142047041931839
 42
6.283185307179585
  0
ELLIPSE
  5
1CC
330
1F
100
AcDbEntity
  8
HEWI
100
AcDbEllipse
 10
380.293894
 20
81.601914
 30
0.0
 11
0.9999999999999998
 21
-1.732050807568876
 31
0.0
210
0.0
220
0.0
230
1.0
 40
0.5773500000000001
 41
3.926990926349568
 42
6.046976659921008
  0
ELLIPSE
  5
1CD
330
1F
100
AcDbEntity
  8
HEWI
100
AcDbEllipse
 10
380.293894
 20
81.601914
 30
0.0
 11
0.9999999999999998
 21
-1.732050807568876
 31
0.0
210
0.0
220
0.0
230
1.0
 40
0.5773500000000001
 41
3.290916480211912
 42
3.926990926349541
  0
SPLINE
  5
1CE
330
1F
100
AcDbEntity
  8
HEWI
100
AcDbSpline
210
0.0000000000000353
220
0.0000000000000134
230
1.0
 70
     8
 71
     3
 72
     8
 73
     4
 74
     0
 42
0.000000001
 43
0.0000000001
 40
0.0
 40
0.0
 40
0.0
 40
0.0
 40
1.0
 40
1.0
 40
1.0
 40
1.0
 10
112.5028453237546
 20
142.1002457041636
 30
-0.0000000000000001
 10
112.7313816618787
 20
141.5006315256607
 30
-0.0000000000000001
 10
112.9590256537714
 20
140.9006737949471
 30
0.0
 10
113.1859796346609
 20
140.3004560038104
 30
0.0
  0
SPLINE
  5
1CF
330
1F
100
AcDbEntity
  8
HEWI
100
AcDbSpline
210
-0.0000000000000353
220
0.0000000000000134
230
1.0
 70
     8
 71
     3
 72
     8
 73
     4
 74
     0
 42
0.000000001
 43
0.0000000001
 40
0.0
 40
0.0
 40
0.0
 40
0.0
 40
1.0
 40
1.0
 40
1.0
 40
1.0
 10
98.62589675403341
 20
140.3004616122689
 30
0.0
 10
98.85285183155893
 20
140.9006822795039
 30
0.0
 10
99.08049612156256
 20
141.5006407786296
 30
-0.0000000000000001
 10
99.30902893301938
 20
142.1002457041636
 30
-0.0000000000000001
  0
SPLINE
  5
1D0
330
1F
100
AcDbEntity
  8
HEWI
100
AcDbSpline
210
-0.0000000000000002
220
0.0000000000000001
230
1.0
 70
     8
 71
     3
 72
    82
 73
    78
 74
     0
 42
0.000000001
 43
0.0000000001
 40
0.0
 40
0.0
 40
0.0
 40
0.0
 40
0.0000406685857253
 40
0.0312893976924235
 40
0.0625381267991216
 40
0.0625381267991216
 40
0.0703503090757958
 40
0.0703503090757958
 40
0.07816249135247
 40
0.093786855905818
 40
0.093786855905818
 40
0.1250355850125147
 40
0.1562843141192115
 40
0.1562843141192115
 40
0.17190867867256
 40
0.17190867867256
 40
0.1875330432259086
 40
0.1875330432259086
 40
0.2187817723326061
 40
0.2500305014393036
 40
0.2500305014393036
 40
0.2656548659926519
 40
0.2734670482693254
 40
0.2734670482693254
 40
0.2812792305459988
 40
0.2812792305459988
 40
0.3125279596526928
 40
0.3437766887593868
 40
0.3750254178660805
 40
0.3750254178660805
 40
0.3828376001427538
 40
0.3828376001427538
 40
0.390649782419427
 40
0.390649782419427
 40
0.4062741469727751
 40
0.4062741469727751
 40
0.4375228760794714
 40
0.4687716051861675
 40
0.4687716051861675
 40
0.4843959697395155
 40
0.4843959697395155
 40
0.5000203342928637
 40
0.5000203342928637
 40
0.5312690633995599
 40
0.562517792506256
 40
0.5937665216129523
 40
0.5937665216129523
 40
0.6015787038896259
 40
0.6015787038896259
 40
0.6093908861662996
 40
0.6250152507196468
 40
0.6250152507196468
 40
0.6562639798263415
 40
0.6875127089330361
 40
0.6875127089330361
 40
0.7031370734863839
 40
0.7031370734863839
 40
0.7187614380397318
 40
0.7187614380397318
 40
0.7500101671464278
 40
0.7812588962531236
 40
0.7812588962531236
 40
0.7968832608064718
 40
0.7968832608064718
 40
0.8125076253598198
 40
0.8125076253598198
 40
0.8437563544665168
 40
0.8750050835732137
 40
0.9062538126799108
 40
0.9062538126799108
 40
0.921878177233259
 40
0.921878177233259
 40
0.9375025417866073
 40
0.9375025417866073
 40
0.9687512708933036
 40
0.9687512708933036
 40
1.0
 40
1.0
 40
1.0
 40
1.0
 10
95.25593731783024
 20
118.9249959226358
 30
0.0000000000000013
 10
95.25593711761681
 20
118.9249949427815
 30
0.0000000000000013
 10
95.255930368948
 20
118.9249619107453
 30
0.0000000000000013
 10
95.25734246036151
 20
118.9318608955369
 30
0.0000000000000013
 10
95.26156558697259
 20
118.9526782081301
 30
0.0000000000000013
 10
95.26507380759715
 20
118.9701760975629
 30
0.0000000000000013
 10
95.26581980777535
 20
118.973905180229
 30
0.0000000000000013
 10
95.26738959634844
 20
118.9817742398632
 30
0.0000000000000013
 10
95.26986303860741
 20
118.9942049415556
 30
0.0000000000000013
 10
95.27268214506539
 20
119.0084935977115
 30
0.0000000000000013
 10
95.27875423934368
 20
119.0395066248355
 30
0.0000000000000013
 10
95.28800571731805
 20
119.0873415771218
 30
0.0000000000000013
 10
95.29928957625624
 20
119.1479966799302
 30
0.0000000000000013
 10
95.3084093367493
 20
119.1983832733402
 30
0.0000000000000013
 10
95.3115603461396
 20
119.2160054453025
 30
0.0000000000000013
 10
95.31805643896289
 20
119.2528801630835
 30
0.0000000000000013
 10
95.3213777608976
 20
119.2719980332364
 30
0.0000000000000013
 10
95.33152224393358
 20
119.3313506931914
 30
0.0000000000000013
 10
95.34552717885551
 20
119.4158076796154
 30
0.0000000000000013
 10
95.36008623836783
 20
119.5107052745768
 30
0.0000000000000013
 10
95.37106128935452
 20
119.5858364756546
 30
0.0000000000000013
 10
95.3765627294776
 20
119.6243932291237
 30
0.0000000000000013
 10
95.38205565047553
 20
119.6644624530152
 30
0.0000000000000013
 10
95.38571235443788
 20
119.6915152552973
 30
0.0000000000000013
 10
95.38754029031773
 20
119.7052287810897
 30
0.0000000000000013
 10
95.39661374703975
 20
119.7743128607229
 30
0.0000000000000013
 10
95.41075142033397
 20
119.8884733132206
 30
0.0000000000000012
 10
95.43025119268252
 20
120.0703150409961
 30
0.0000000000000012
 10
95.44174242496227
 20
120.1986304995158
 30
0.0000000000000012
 10
95.44833265779956
 20
120.2811155315308
 30
0.0000000000000012
 10
95.44962108774472
 20
120.297727203793
 30
0.0000000000000012
 10
95.45213557607146
 20
120.3311828349267
 30
0.0000000000000012
 10
95.45336205014647
 20
120.3480345672396
 30
0.0000000000000012
 10
95.45692335725984
 20
120.3986515089509
 30
0.0000000000000012
 10
95.45914728524047
 20
120.4325716583866
 30
0.0000000000000012
 10
95.46535165357271
 20
120.5348500575872
 30
0.0000000000000012
 10
95.47237685632273
 20
120.6726000827553
 30
0.0000000000000012
 10
95.47673654982936
 20
120.81307623883
 30
0.0000000000000012
 10
95.47894287839294
 20
120.919472614941
 30
0.0000000000000012
 10
95.47950107753971
 20
120.9551115812526
 30
0.0000000000000012
 10
95.48025214192549
 20
121.0267431317293
 30
0.0000000000000012
 10
95.48044443849251
 20
121.0628333993428
 30
0.0000000000000012
 10
95.48045990287908
 20
121.1705534206693
 30
0.0000000000000012
 10
95.47899663962759
 20
121.3131058352964
 30
0.0000000000000012
 10
95.47254680066364
 20
121.523807354692
 30
0.0000000000000011
 10
95.46554063185288
 20
121.6621965971963
 30
0.0000000000000011
 10
95.4603586297437
 20
121.748023684062
 30
0.0000000000000011
 10
95.45928047211624
 20
121.7651797186674
 30
0.0000000000000011
 10
95.45705488324042
 20
121.7992752499586
 30
0.0000000000000011
 10
95.45361254526978
 20
121.8501011779052
 30
0.0000000000000011
 10
95.44987176226738
 20
121.8999879676076
 30
0.0000000000000011
 10
95.44202651994373
 20
121.998533446761
 30
0.0000000000000011
 10
95.43059828806784
 20
122.1266581934755
 30
0.0000000000000011
 10
95.41758743412747
 20
122.2483539620602
 30
0.0000000000000011
 10
95.40736857142288
 20
122.3371852672954
 30
0.0000000000000011
 10
95.4038855134555
 20
122.3663882165373
 30
0.0000000000000011
 10
95.39678855542744
 20
122.4239648841608
 30
0.0000000000000011
 10
95.39319783496626
 20
122.452149739259
 30
0.0000000000000011
 10
95.38236674773891
 20
122.5347198791072
 30
0.0000000000000011
 10
95.36774742020172
 20
122.6397221421138
 30
0.0000000000000011
 10
95.35318680293457
 20
122.7347881242008
 30
0.0000000000000011
 10
95.34244219151338
 20
122.8023420810227
 30
0.0000000000000011
 10
95.33888996402746
 20
122.8242346651612
 30
0.0000000000000011
 10
95.3318702385072
 20
122.8667515081434
 30
0.0000000000000011
 10
95.32839808057129
 20
122.8874029588114
 30
0.0000000000000011
 10
95.31817891181344
 20
122.9472360358643
 30
0.0000000000000011
 10
95.3052287419347
 20
123.0205211155566
 30
0.0000000000000011
 10
95.28830200294434
 20
123.1115925216099
 30
0.0000000000000011
 10
95.27898811019168
 20
123.1597789455062
 30
0.000000000000001
 10
95.27285979176314
 20
123.1910950537614
 30
0.000000000000001
 10
95.27095664048047
 20
123.2007448566372
 30
0.000000000000001
 10
95.26747229546529
 20
123.2183157484969
 30
0.000000000000001
 10
95.26589597926292
 20
123.2262126655237
 30
0.000000000000001
 10
95.26167455889904
 20
123.2472732828595
 30
0.000000000000001
 10
95.25953693609812
 20
123.2578131631215
 30
0.000000000000001
 10
95.25666826888295
 20
123.2719242088202
 30
0.000000000000001
 10
95.2559356884744
 20
123.275503384282
 30
0.000000000000001
 10
95.25593688931676
 20
123.2754970123835
 30
0.000000000000001
  0
SPLINE
  5
1D1
330
1F
100
AcDbEntity
  8
HEWI
100
AcDbSpline
210
0.0
220
0.0
230
1.0
 70
    24
 71
     3
 72
    28
 73
    24
 74
     0
 42
0.000000001
 43
0.0000000001
 40
0.0
 40
0.0
 40
0.0
 40
0.0
 40
0.1249999999999998
 40
0.1249999999999998
 40
0.1874999999999997
 40
0.1874999999999997
 40
0.2499999999999997
 40
0.2499999999999997
 40
0.3749999999999998
 40
0.3749999999999998
 40
0.5
 40
0.5
 40
0.53125
 40
0.53125
 40
0.5625
 40
0.625
 40
0.625
 40
0.75
 40
0.8125000000000001
 40
0.8125000000000001
 40
0.8750000000000001
 40
0.8750000000000001
 40
1.0
 40
1.0
 40
1.0
 40
1.0
 10
417.8975760079395
 20
304.6287437029552
 30
0.0
 10
417.8975760079395
 20
304.6845718050425
 30
0.0
 10
417.8975760079395
 20
304.7414760162777
 30
0.0
 10
417.8975760079395
 20
304.8290122225002
 30
0.0
 10
417.8975760079395
 20
304.8585874065991
 30
0.0
 10
417.8975760079395
 20
304.9184595500629
 30
0.0
 10
417.8975760079395
 20
304.9485390207865
 30
0.0
 10
417.8975760079395
 20
305.0392505106949
 30
0.0
 10
417.8975760079395
 20
305.1003564963919
 30
0.0
 10
417.8975760079395
 20
305.2240526599713
 30
0.0
 10
417.8975760079395
 20
305.2866444956792
 30
0.0
 10
417.8975760079395
 20
305.3659211363857
 30
0.0
 10
417.8975760079395
 20
305.3818605386228
 30
0.0
 10
417.8975760079395
 20
305.4135601590977
 30
0.0
 10
417.8975760079395
 20
305.4609172594656
 30
0.0
 10
417.8975760079395
 20
305.507714269497
 30
0.0
 10
417.8975760079396
 20
305.6006128660226
 30
0.0
 10
417.8975760079396
 20
305.6921202272575
 30
0.0
 10
417.8975760079396
 20
305.7818800940443
 30
0.0
 10
417.8975760079396
 20
305.841369635867
 30
0.0
 10
417.8975760079396
 20
305.8709962036575
 30
0.0
 10
417.8975760079396
 20
305.9590079858002
 30
0.0
 10
417.8975760079396
 20
306.0161325954938
 30
0.0
 10
417.8975760079396
 20
306.0721192805846
 30
0.0
  0
SPLINE
  5
1D2
330
1F
100
AcDbEntity
  8
HEWI
100
AcDbSpline
210
0.0
220
0.0
230
1.0
 70
    24
 71
     3
 72
    28
 73
    24
 74
     0
 42
0.000000001
 43
0.0000000001
 40
0.0
 40
0.0
 40
0.0
 40
0.0
 40
0.125
 40
0.125
 40
0.1875
 40
0.1875
 40
0.2500000000000001
 40
0.2500000000000001
 40
0.375
 40
0.375
 40
0.5
 40
0.5
 40
0.53125
 40
0.53125
 40
0.5625
 40
0.625
 40
0.625
 40
0.7499999999999999
 40
0.8124999999999998
 40
0.8124999999999998
 40
0.8749999999999998
 40
0.8749999999999998
 40
1.0
 40
1.0
 40
1.0
 40
1.0
 10
420.3975760079394
 20
304.628743702955
 30
0.0
 10
420.3975760079394
 20
304.6845717625058
 30
0.0
 10
420.3975760079394
 20
304.7414759294424
 30
0.0
 10
420.3975760079394
 20
304.8290120650893
 30
0.0
 10
420.3975760079394
 20
304.8585872232469
 30
0.0
 10
420.3975760079394
 20
304.9184593207304
 30
0.0
 10
420.3975760079394
 20
304.9485387680219
 30
0.0
 10
420.3975760079394
 20
305.0392501861332
 30
0.0
 10
420.3975760079394
 20
305.1003561219591
 30
0.0
 10
420.3975760079394
 20
305.2240521808841
 30
0.0
 10
420.3975760079394
 20
305.286643961799
 30
0.0
 10
420.3975760079394
 20
305.3659205305405
 30
0.0
 10
420.3975760079394
 20
305.3818599204625
 30
0.0
 10
420.3975760079394
 20
305.4135595227231
 30
0.0
 10
420.3975760079394
 20
305.4609165954688
 30
0.0
 10
420.3975760079394
 20
305.5077135769969
 30
0.0
 10
420.3975760079396
 20
305.6006121153998
 30
0.0
 10
420.3975760079396
 20
305.6921194162791
 30
0.0
 10
420.3975760079396
 20
305.7818792197287
 30
0.0
 10
420.3975760079396
 20
305.8413687187065
 30
0.0
 10
420.3975760079396
 20
305.8709952591983
 30
0.0
 10
420.3975760079396
 20
305.9590070071161
 30
0.0
 10
420.3975760079396
 20
306.0161315922158
 30
0.0
 10
420.3975760079396
 20
306.0721182514044
 30
0.0
  0
SPLINE
  5
1D3
330
1F
100
AcDbEntity
  8
HEWI
100
AcDbSpline
210
0.0
220
0.0
230
1.0
 70
    24
 71
     3
 72
    28
 73
    24
 74
     0
 42
0.000000001
 43
0.0000000001
 40
0.0
 40
0.0
 40
0.0
 40
0.0
 40
0.1249999999999997
 40
0.1249999999999997
 40
0.2499999999999994
 40
0.2499999999999994
 40
0.3749999999999991
 40
0.3749999999999991
 40
0.4374999999999992
 40
0.4374999999999992
 40
0.4687499999999992
 40
0.4687499999999992
 40
0.4999999999999992
 40
0.4999999999999992
 40
0.6249999999999993
 40
0.6249999999999993
 40
0.7499999999999996
 40
0.7499999999999996
 40
0.8124999999999998
 40
0.8124999999999998
 40
0.875
 40
0.875
 40
1.0
 40
1.0
 40
1.0
 40
1.0
 10
419.1475763618258
 20
303.907055883576
 30
0.0
 10
419.0987442958028
 20
303.9352490900395
 30
0.0
 10
419.0493530714271
 20
303.9637651267284
 30
0.0
 10
418.9491433224106
 20
304.0216212522986
 30
0.0
 10
418.8983245520288
 20
304.0509614830583
 30
0.0
 10
418.7948841543132
 20
304.1106828245246
 30
0.0
 10
418.7422613029208
 20
304.1410646419415
 30
0.0
 10
418.6616579491468
 20
304.1876010099405
 30
0.0
 10
418.634511732548
 20
304.2032738854013
 30
0.0
 10
418.5933353343473
 20
304.2270470899868
 30
0.0
 10
418.5795845409604
 20
304.2349861142503
 30
0.0
 10
418.5521887403394
 20
304.2508030871133
 30
0.0
 10
418.5385198154571
 20
304.2586948445737
 30
0.0
 10
418.4703185891263
 20
304.2980708409548
 30
0.0
 10
418.4162184729792
 20
304.3293055575757
 30
0.0
 10
418.3088677804872
 20
304.3912845087836
 30
0.0
 10
418.2556163569762
 20
304.4220292324824
 30
0.0
 10
418.1762931561648
 20
304.4678265038238
 30
0.0
 10
418.1501072922428
 20
304.4829449194082
 30
0.0
 10
418.0983224550533
 20
304.5128429090995
 30
0.0
 10
418.0726990252441
 20
304.5276366031974
 30
0.0
 10
417.9965351430632
 20
304.5716098410772
 30
0.0
 10
417.9466973640262
 20
304.6003836962199
 30
0.0
 10
417.8975771735653
 20
304.6287432514051
 30
0.0
  0
SPLINE
  5
1D4
330
1F
100
AcDbEntity
  8
HEWI
100
AcDbSpline
210
0.0
220
0.0
230
1.0
 70
    24
 71
     3
 72
    28
 73
    24
 74
     0
 42
0.000000001
 43
0.0000000001
 40
0.0
 40
0.0
 40
0.0
 40
0.0
 40
0.1250000000000002
 40
0.1250000000000002
 40
0.2500000000000005
 40
0.2500000000000005
 40
0.3750000000000008
 40
0.3750000000000008
 40
0.4375000000000009
 40
0.4375000000000009
 40
0.4687500000000009
 40
0.4687500000000009
 40
0.5000000000000009
 40
0.5000000000000009
 40
0.6250000000000007
 40
0.6250000000000007
 40
0.7500000000000004
 40
0.7500000000000004
 40
0.8125000000000003
 40
0.8125000000000003
 40
0.8750000000000001
 40
0.8750000000000001
 40
1.0
 40
1.0
 40
1.0
 40
1.0
 10
420.3975763618259
 20
306.0721193930371
 30
0.0
 10
420.3487442358343
 20
306.1003126341235
 30
0.0
 10
420.2993529501235
 20
306.1288287062242
 30
0.0
 10
420.1991430745234
 20
306.1866849048773
 30
0.0
 10
420.1483242388912
 20
306.2160251733096
 30
0.0
 10
420.0448837052643
 20
306.2757465932441
 30
0.0
 10
419.9922607832008
 20
306.3061284514631
 30
0.0
 10
419.9116573181343
 20
306.3526648837168
 30
0.0
 10
419.8845110635571
 20
306.3683377811045
 30
0.0
 10
419.8433346069331
 20
306.3921110194206
 30
0.0
 10
419.8295837997316
 20
306.4000500516599
 30
0.0
 10
419.8021879676014
 20
306.415867042715
 30
0.0
 10
419.7885190270311
 20
306.4237588092328
 30
0.0
 10
419.7203177225783
 20
306.4631348507177
 30
0.0
 10
419.6662175449547
 20
306.4943696028318
 30
0.0
 10
419.5588667310142
 20
306.5563486241582
 30
0.0
 10
419.5056152475252
 20
306.5870933824853
 30
0.0
 10
419.4262919574437
 20
306.6328907053669
 30
0.0
 10
419.4001060751338
 20
306.6480091315675
 30
0.0
 10
419.348321190631
 20
306.6779071485751
 30
0.0
 10
419.3226977370346
 20
306.6927008564066
 30
0.0
 10
419.2465337830511
 20
306.7366741357415
 30
0.0
 10
419.1966959555529
 20
306.7654480188635
 30
0.0
 10
419.1475757160018
 20
306.7938076023909
 30
0.0
  0
SPLINE
  5
1D5
330
1F
100
AcDbEntity
  8
HEWI
100
AcDbSpline
210
0.0
220
0.0
230
1.0
 70
    24
 71
     3
 72
    28
 73
    24
 74
     0
 42
0.000000001
 43
0.0000000001
 40
0.0
 40
0.0
 40
0.0
 40
0.0
 40
0.125
 40
0.125
 40
0.2500000000000001
 40
0.2500000000000001
 40
0.3750000000000001
 40
0.3750000000000001
 40
0.4375000000000003
 40
0.4375000000000003
 40
0.4687500000000003
 40
0.4687500000000003
 40
0.5000000000000004
 40
0.5000000000000004
 40
0.6250000000000002
 40
0.6250000000000002
 40
0.7500000000000004
 40
0.7500000000000004
 40
0.8125000000000003
 40
0.8125000000000003
 40
0.8750000000000003
 40
0.8750000000000003
 40
1.0
 40
1.0
 40
1.0
 40
1.0
 10
420.3975748423133
 20
304.6287432514049
 30
0.0
 10
420.3487428334632
 20
304.6005500779502
 30
0.0
 10
420.2993516655824
 20
304.5720340738786
 30
0.0
 10
420.1991420282203
 20
304.5141780127722
 30
0.0
 10
420.148323312996
 20
304.4848378138576
 30
0.0
 10
420.0448830244543
 20
304.425116535423
 30
0.0
 10
419.9922602270778
 20
304.3947347491923
 30
0.0
 10
419.9116569537896
 20
304.3481984276617
 30
0.0
 10
419.8845107639315
 20
304.3325255676395
 30
0.0
 10
419.8433344057628
 20
304.3087523861667
 30
0.0
 10
419.8295836348548
 20
304.3008133748814
 30
0.0
 10
419.8021878722475
 20
304.2849964239654
 30
0.0
 10
419.7885189662484
 20
304.2771046774073
 30
0.0
 10
419.7203178337144
 20
304.2377287351797
 30
0.0
 10
419.6662177906067
 20
304.2064940607283
 30
0.0
 10
419.5588672404245
 20
304.144515191683
 30
0.0
 10
419.5056158861903
 20
304.1137705079811
 30
0.0
 10
419.4262927868845
 20
304.067973295244
 30
0.0
 10
419.4001069613313
 20
304.0528549018119
 30
0.0
 10
419.3483221941847
 20
304.02295695256
 30
0.0
 10
419.3226987985421
 20
304.0081632781881
 30
0.0
 10
419.2465350167386
 20
303.9641900982614
 30
0.0
 10
419.1966973018105
 20
303.9354162801318
 30
0.0
 10
419.1475771735653
 20
303.9070567608669
 30
0.0
  0
SPLINE
  5
1D6
330
1F
100
AcDbEntity
  8
HEWI
100
AcDbSpline
210
0.0
220
0.0
230
1.0
 70
    24
 71
     3
 72
    28
 73
    24
 74
     0
 42
0.000000001
 43
0.0000000001
 40
0.0
 40
0.0
 40
0.0
 40
0.0
 40
0.1250000000000003
 40
0.1250000000000003
 40
0.2500000000000006
 40
0.2500000000000006
 40
0.3750000000000009
 40
0.3750000000000009
 40
0.4375000000000011
 40
0.4375000000000011
 40
0.4687500000000011
 40
0.4687500000000011
 40
0.500000000000001
 40
0.500000000000001
 40
0.6250000000000008
 40
0.6250000000000008
 40
0.7500000000000005
 40
0.7500000000000005
 40
0.8125000000000003
 40
0.8125000000000003
 40
0.8750000000000001
 40
0.8750000000000001
 40
1.0
 40
1.0
 40
1.0
 40
1.0
 10
419.1475748423135
 20
306.7938067608661
 30
0.0
 10
419.0987427876948
 20
306.7656135609869
 30
0.0
 10
419.049351573823
 20
306.7370975303624
 30
0.0
 10
418.9491418437603
 20
306.6792414157353
 30
0.0
 10
418.8983230818223
 20
306.6499011898505
 30
0.0
 10
418.7948826988741
 20
306.5901798569103
 30
0.0
 10
418.7422598537966
 20
306.5597980431392
 30
0.0
 10
418.6616565081753
 20
306.5132616798473
 30
0.0
 10
418.6345102940785
 20
306.497588805831
 30
0.0
 10
418.5933338993879
 20
306.4738156032722
 30
0.0
 10
418.579583118661
 20
306.4658765863179
 30
0.0
 10
418.5521873349651
 20
306.4500596232264
 30
0.0
 10
418.5385184185096
 20
306.4421678706313
 30
0.0
 10
418.4703172341176
 20
306.4027918984635
 30
0.0
 10
418.4162171508845
 20
306.3715572008457
 30
0.0
 10
418.3088665226407
 20
306.3095782867317
 30
0.0
 10
418.2556151304653
 20
306.2788335811242
 30
0.0
 10
418.1762919754486
 20
306.2330363362224
 30
0.0
 10
418.1501061376679
 20
306.2179179357308
 30
0.0
 10
418.0983213406703
 20
306.1880199692442
 30
0.0
 10
418.0726979301834
 20
306.1732262863021
 30
0.0
 10
417.9965341039696
 20
306.1292530807351
 30
0.0
 10
417.9466963595898
 20
306.1004792456016
 30
0.0
 10
417.8975762018565
 20
306.0721197093116
 30
0.0
  0
SPLINE
  5
1D7
330
1F
100
AcDbEntity
  8
HEWI
100
AcDbSpline
210
0.0
220
0.0
230
1.0
 70
    24
 71
     3
 72
     8
 73
     4
 74
     0
 42
0.000000001
 43
0.0000000001
 40
0.0
 40
0.0
 40
0.0
 40
0.0
 40
1.0
 40
1.0
 40
1.0
 40
1.0
 10
398.1475760079395
 20
303.3004317608665
 30
0.0
 10
398.7471902862243
 20
303.3004317608665
 30
0.0
 10
399.347148116834
 20
303.3004317608665
 30
0.0
 10
399.9473660079395
 20
303.3004317608665
 30
0.0
  0
SPLINE
  5
1D8
330
1F
100
AcDbEntity
  8
HEWI
100
AcDbSpline
210
0.0
220
0.0
230
1.0
 70
    24
 71
     3
 72
     8
 73
     4
 74
     0
 42
0.000000001
 43
0.0000000001
 40
0.0
 40
0.0
 40
0.0
 40
0.0
 40
1.0
 40
1.0
 40
1.0
 40
1.0
 10
399.9473600079396
 20
307.4004317608665
 30
0.0
 10
399.3471393713629
 20
307.4004317608665
 30
0.0
 10
398.7471809028733
 20
307.4004317608665
 30
0.0
 10
398.1475760079395
 20
307.4004317608665
 30
0.0
  0
SPLINE
  5
1D9
330
1F
100
AcDbEntity
  8
HEWI
100
AcDbSpline
210
0.0
220
0.0
230
1.0
 70
     9
 71
     3
 72
   151
 73
   147
 74
     0
 42
0.000000001
 43
0.0000000001
 40
0.0
 40
0.0
 40
0.0
 40
0.0
 40
0.0156249999999987
 40
0.0312499999999973
 40
0.046874999999996
 40
0.046874999999996
 40
0.0507812499999957
 40
0.0507812499999957
 40
0.0546874999999955
 40
0.0546874999999955
 40
0.0624999999999951
 40
0.0624999999999951
 40
0.0781249999999941
 40
0.0937499999999931
 40
0.0937499999999931
 40
0.1015624999999926
 40
0.1015624999999926
 40
0.1093749999999921
 40
0.1093749999999921
 40
0.1249999999999916
 40
0.1406249999999911
 40
0.1562499999999906
 40
0.1562499999999906
 40
0.1640624999999906
 40
0.1640624999999906
 40
0.1718749999999905
 40
0.1718749999999905
 40
0.1874999999999904
 40
0.2031249999999903
 40
0.2031249999999903
 40
0.2109374999999903
 40
0.2109374999999903
 40
0.2148437499999903
 40
0.2187499999999903
 40
0.2343749999999918
 40
0.2499999999999932
 40
0.2656249999999947
 40
0.2656249999999947
 40
0.2695312499999947
 40
0.2695312499999947
 40
0.2734374999999947
 40
0.2812499999999953
 40
0.2812499999999953
 40
0.2968749999999961
 40
0.3124999999999968
 40
0.3124999999999968
 40
0.3203124999999971
 40
0.3203124999999971
 40
0.3281249999999974
 40
0.3281249999999974
 40
0.3437499999999981
 40
0.3593749999999988
 40
0.3593749999999988
 40
0.3671874999999995
 40
0.3671874999999995
 40
0.3750000000000002
 40
0.3750000000000002
 40
0.3906250000000014
 40
0.4062500000000028
 40
0.4218750000000039
 40
0.4218750000000039
 40
0.4296875000000044
 40
0.4296875000000044
 40
0.4375000000000048
 40
0.4375000000000048
 40
0.4687500000000073
 40
0.4687500000000073
 40
0.4765625000000078
 40
0.4765625000000078
 40
0.484375000000008
 40
0.484375000000008
 40
0.5000000000000086
 40
0.5156250000000094
 40
0.5312500000000102
 40
0.5312500000000102
 40
0.5351562500000102
 40
0.5351562500000102
 40
0.5390625000000102
 40
0.54687500000001
 40
0.54687500000001
 40
0.56250000000001
 40
0.5781250000000102
 40
0.5781250000000102
 40
0.5859375000000103
 40
0.5859375000000103
 40
0.5937500000000103
 40
0.5937500000000103
 40
0.6093750000000108
 40
0.6250000000000112
 40
0.6250000000000112
 40
0.6328125000000112
 40
0.6367187500000109
 40
0.6367187500000109
 40
0.6406250000000106
 40
0.6406250000000106
 40
0.6562500000000093
 40
0.6718750000000079
 40
0.6875000000000064
 40
0.6875000000000064
 40
0.6914062500000061
 40
0.6914062500000061
 40
0.6953125000000055
 40
0.6953125000000055
 40
0.7031250000000055
 40
0.7031250000000055
 40
0.7187500000000053
 40
0.7343750000000052
 40
0.7343750000000052
 40
0.7421875000000049
 40
0.7421875000000049
 40
0.7500000000000048
 40
0.7500000000000048
 40
0.7656250000000046
 40
0.7812500000000044
 40
0.7968750000000041
 40
0.7968750000000041
 40
0.8007812500000039
 40
0.8007812500000039
 40
0.8046875000000037
 40
0.8125000000000031
 40
0.8125000000000031
 40
0.8281250000000021
 40
0.843750000000001
 40
0.843750000000001
 40
0.8515625000000008
 40
0.8515625000000008
 40
0.8593750000000007
 40
0.8593750000000007
 40
0.8750000000000003
 40
0.890625
 40
0.890625
 40
0.8984374999999998
 40
0.8984374999999998
 40
0.9062499999999998
 40
0.9062499999999998
 40
0.921875
 40
0.9375
 40
0.9531250000000003
 40
0.9531250000000003
 40
0.9609375000000003
 40
0.9609375000000003
 40
0.9687500000000003
 40
0.9687500000000003
 40
0.984375
 40
0.984375
 40
1.0
 40
1.0
 40
1.0
 40
1.0
 10
416.9723263746621
 20
305.3504318246634
 30
0.0
 10
416.9723267413847
 20
305.2783751399269
 30
0.0
 10
416.9794667816307
 20
305.1355115420965
 30
0.0
 10
417.0108325644746
 20
304.924829967284
 30
0.0
 10
417.0454095876207
 20
304.7867627611013
 30
0.0
 10
417.071384626286
 20
304.7012310799579
 30
0.0
 10
417.0767983623231
 20
304.6841628452581
 30
0.0
 10
417.0880677275452
 20
304.6501032890204
 30
0.0
 10
417.0939313489413
 20
304.6330907838322
 30
0.0
 10
417.1120992448231
 20
304.5824249182071
 30
0.0
 10
417.1249957648512
 20
304.5490883610279
 30
0.0
 10
417.1659906010138
 20
304.4503710377182
 30
0.0
 10
417.2267858243731
 20
304.322187469983
 30
0.0
 10
417.2996231826087
 20
304.2007248104921
 30
0.0
 10
417.3588160209966
 20
304.1121623798012
 30
0.0
 10
417.3793091592473
 20
304.0830647530051
 30
0.0
 10
417.421845452877
 20
304.0257277063233
 30
0.0
 10
417.4439459251513
 20
303.9974231152152
 30
0.0
 10
417.5119426890373
 20
303.9146339697272
 30
0.0
 10
417.6073599066621
 20
303.8095106542735
 30
0.0
 10
417.7643950783622
 20
303.6671269264311
 30
0.0
 10
417.8783934985371
 20
303.5823825638514
 30
0.0
 10
417.9675039657627
 20
303.5227501834419
 30
0.0
 10
417.997848119149
 20
303.5035118372138
 30
0.0
 10
418.0590829181085
 20
303.4667730295571
 30
0.0
 10
418.0900516339757
 20
303.4492173751353
 30
0.0
 10
418.1839972181419
 20
303.3989516612935
 30
0.0
 10
418.3120253372313
 20
303.3383231364807
 30
0.0
 10
418.4455560921007
 20
303.290344530466
 30
0.0
 10
418.54781566343
 20
303.2591953345382
 30
0.0
 10
418.5822547290091
 20
303.2496195330169
 30
0.0
 10
418.6344533939982
 20
303.2364914996219
 30
0.0
 10
418.6694860276788
 20
303.2281415658147
 30
0.0
 10
418.7747579424681
 20
303.2057980315911
 30
0.0
 10
418.9333086064866
 20
303.1822709427513
 30
0.0
 10
419.1460505075585
 20
303.1717015725752
 30
0.0
 10
419.2887766053687
 20
303.1785776350953
 30
0.0
 10
419.3782705112101
 20
303.1873746486926
 30
0.0
 10
419.3961834488936
 20
303.1893603947608
 30
0.0
 10
419.4318321915008
 20
303.1937597905752
 30
0.0
 10
419.4851173467935
 20
303.2010083715401
 30
0.0
 10
419.5378456273677
 20
303.2101819561388
 30
0.0
 10
419.6425724068107
 20
303.2310544839071
 30
0.0
 10
419.7802651660791
 20
303.2656077401438
 30
0.0
 10
419.9141231575703
 20
303.3134696369742
 30
0.0
 10
420.0130566391349
 20
303.3544533026673
 30
0.0
 10
420.0458420687854
 20
303.3689884697235
 30
0.0
 10
420.1106894678225
 20
303.3996852638875
 30
0.0
 10
420.1425952774301
 20
303.4157696243191
 30
0.0
 10
420.2367951169792
 20
303.466184702758
 30
0.0
 10
420.3583561529438
 20
303.5391586747573
 30
0.0
 10
420.4720345422066
 20
303.6234241141836
 30
0.0
 10
420.554322864192
 20
303.6909034665997
 30
0.0
 10
420.5812563272257
 20
303.7141112708406
 30
0.0
 10
420.6341176486803
 20
303.7619803280771
 30
0.0
 10
420.6601139983992
 20
303.7867124829335
 30
0.0
 10
420.73592313762
 20
303.8624902022407
 30
0.0
 10
420.8312874732631
 20
303.9677426741687
 30
0.0
 10
420.9577159386292
 20
304.1379536976718
 30
0.0
 10
421.0309453847888
 20
304.2596791170843
 30
0.0
 10
421.0816023798486
 20
304.35417285901
 30
0.0
 10
421.0978115545652
 20
304.3862875477107
 30
0.0
 10
421.1284655305782
 20
304.4509488815493
 30
0.0
 10
421.1429422842082
 20
304.48354552068
 30
0.0
 10
421.2111475983311
 20
304.6478386124816
 30
0.0
 10
421.2524618993574
 20
304.7834278864769
 30
0.0
 10
421.2874616914962
 20
304.9581663351092
 30
0.0
 10
421.2936219101039
 20
304.9933789305577
 30
0.0
 10
421.3042294562454
 20
305.0643449877745
 30
0.0
 10
421.3086786906268
 20
305.1001635887905
 30
0.0
 10
421.3192923471586
 20
305.2072380600575
 30
0.0
 10
421.3263025641319
 20
305.3496963091974
 30
0.0
 10
421.3159608165661
 20
305.5624844982046
 30
0.0
 10
421.2951435039731
 20
305.7037433687232
 30
0.0
 10
421.2776456145402
 20
305.7918371312704
 30
0.0
 10
421.2739165318741
 20
305.8094645282051
 30
0.0
 10
421.26604747224
 20
305.8445109254267
 30
0.0
 10
421.2536167705474
 20
305.8968261118952
 30
0.0
 10
421.2393281143916
 20
305.9483880121152
 30
0.0
 10
421.2083150872675
 20
306.0505257008157
 30
0.0
 10
421.1604801349812
 20
306.1840840822219
 30
0.0
 10
421.0998250321728
 20
306.3124706863019
 30
0.0
 10
421.0494384387629
 20
306.4067946259682
 30
0.0
 10
421.0318162668007
 20
306.4379231343152
 30
0.0
 10
420.9949415490196
 20
306.499448470087
 30
0.0
 10
420.9758236788667
 20
306.5296223859574
 30
0.0
 10
420.9164710189116
 20
306.6184192080922
 30
0.0
 10
420.8320140324877
 20
306.7322245874479
 30
0.0
 10
420.7371164375264
 20
306.8370722410806
 30
0.0
 10
420.6619852364485
 20
306.9123324568638
 30
0.0
 10
420.6234284829795
 20
306.9491172812902
 30
0.0
 10
420.5833592590878
 20
306.9846161464381
 30
0.0
 10
420.5563064568058
 20
307.0079934257108
 30
0.0
 10
420.5425929310134
 20
307.0195513526503
 30
0.0
 10
420.4735088513801
 20
307.0763315444408
 30
0.0
 10
420.3593483988826
 20
307.1610512708337
 30
0.0
 10
420.177506671107
 20
307.2703180448835
 30
0.0
 10
420.0491912125873
 20
307.3313181397034
 30
0.0
 10
419.9667061805723
 20
307.3656383480606
 30
0.0
 10
419.9500945083101
 20
307.3723116866544
 30
0.0
 10
419.9166388771763
 20
307.38527246247
 30
0.0
 10
419.8997871448635
 20
307.3915619311024
 30
0.0
 10
419.8491702031521
 20
307.4097432388084
 30
0.0
 10
419.8152500537164
 20
307.4209857927883
 30
0.0
 10
419.7129716545158
 20
307.4521264379849
 30
0.0
 10
419.5752216293477
 20
307.4867610582993
 30
0.0
 10
419.4347454732731
 20
307.5078208473706
 30
0.0
 10
419.3283490971621
 20
307.5184502121682
 30
0.0
 10
419.2927101308505
 20
307.5211308801857
 30
0.0
 10
419.2210785803738
 20
307.5247353165118
 30
0.0
 10
419.1849883127603
 20
307.5256563868782
 30
0.0
 10
419.0772682914339
 20
307.5257304409792
 30
0.0
 10
418.9347158768066
 20
307.5187366941104
 30
0.0
 10
418.7240143574111
 20
307.4875875788932
 30
0.0
 10
418.5856251149068
 20
307.4530660028985
 30
0.0
 10
418.4997980280411
 20
307.4270679684687
 30
0.0
 10
418.4826419934356
 20
307.4216385649057
 30
0.0
 10
418.4485464621444
 20
307.4103815244993
 30
0.0
 10
418.397720534198
 20
307.3928981985032
 30
0.0
 10
418.3478337444956
 20
307.3736443328344
 30
0.0
 10
418.2492882653421
 20
307.3328164436035
 30
0.0
 10
418.1211635186276
 20
307.2722029177128
 30
0.0
 10
417.9994677500428
 20
307.1993851129738
 30
0.0
 10
417.9106364448077
 20
307.1401133544926
 30
0.0
 10
417.8814334955657
 20
307.1195782748372
 30
0.0
 10
417.8238568279422
 20
307.0769206203852
 30
0.0
 10
417.7956719728441
 20
307.0549361265316
 30
0.0
 10
417.7131018329959
 20
306.9872163370519
 30
0.0
 10
417.6080995699892
 20
306.8920826486715
 30
0.0
 10
417.5130335879022
 20
306.7874447573935
 30
0.0
 10
417.4454796310803
 20
306.7053620780896
 30
0.0
 10
417.4235870469419
 20
306.6773993789939
 30
0.0
 10
417.3810702039596
 20
306.6202499532491
 30
0.0
 10
417.3604187532917
 20
306.591022479453
 30
0.0
 10
417.3005856762387
 20
306.501723158259
 30
0.0
 10
417.2273005965466
 20
306.3796618147859
 30
0.0
 10
417.1362291904931
 20
306.1878247609548
 30
0.0
 10
417.0880427665969
 20
306.0540973993
 30
0.0
 10
417.0567266583417
 20
305.9515465958926
 30
0.0
 10
417.0470768554658
 20
305.9169192383692
 30
0.0
 10
417.0295059636063
 20
305.8472053904079
 30
0.0
 10
417.0216090465793
 20
305.8122301782951
 30
0.0
 10
417.0005484292436
 20
305.706953969651
 30
0.0
 10
416.9900085489817
 20
305.6363032121472
 30
0.0
 10
416.975897503283
 20
305.4940712367212
 30
0.0
 10
416.9723260079395
 20
305.4224885093999
 30
0.0
 10
416.9723263746621
 20
305.3504318246634
 30
0.0
  0
SPLINE
  5
1DA
330
1F
100
AcDbEntity
  8
HEWI
100
AcDbSpline
210
0.000000000000009
220
0.0000000000000072
230
1.0
 70
     8
 71
     3
 72
    28
 73
    24
 74
     0
 42
0.000000001
 43
0.0000000001
 40
0.0
 40
0.0
 40
0.0
 40
0.0
 40
0.1249999999999997
 40
0.1249999999999997
 40
0.2499999999999994
 40
0.2499999999999994
 40
0.3749999999999991
 40
0.3749999999999991
 40
0.4374999999999992
 40
0.4374999999999992
 40
0.4687499999999992
 40
0.4687499999999992
 40
0.4999999999999992
 40
0.4999999999999992
 40
0.6249999999999993
 40
0.6249999999999993
 40
0.7499999999999996
 40
0.7499999999999996
 40
0.8124999999999998
 40
0.8124999999999998
 40
0.875
 40
0.875
 40
1.0
 40
1.0
 40
1.0
 40
1.0
 10
380.2938934662054
 20
80.42340223556188
 30
-0.0000000000000071
 10
380.2792995971208
 20
80.47786733294747
 30
-0.0000000000000071
 10
380.2627951542325
 20
80.53194950069174
 30
-0.0000000000000124
 10
380.2249093628647
 20
80.63913637500858
 30
-0.0000000000000036
 10
380.2035271747199
 20
80.69224091328996
 30
-0.0000000000000071
 10
380.1546026628484
 20
80.79721533537119
 30
-0.0000000000000036
 10
380.1270561566675
 20
80.84908438089637
 30
-0.0000000000000053
 10
380.0800333721698
 20
80.92574491173634
 30
-0.0000000000000107
 10
380.0634077435008
 20
80.95110774281385
 30
-0.0000000000000107
 10
380.0369075384777
 20
80.9888389709177
 30
-0.0000000000000053
 10
380.0278457518505
 20
81.00131680792173
 30
-0.0000000000000071
 10
380.0093682166166
 20
81.02593187978248
 30
-0.0000000000000071
 10
379.9999371458611
 20
81.03809107195829
 30
-0.0000000000000053
 10
379.9518300925618
 20
81.09815288631608
 30
-0.0000000000000089
 10
379.9102857972612
 20
81.14384287543002
 30
-0.0000000000000089
 10
379.8215590097026
 20
81.23087351587944
 30
-0.0000000000000107
 10
379.774382139888
 20
81.27221850440047
 30
-0.0000000000000071
 10
379.6999405017524
 20
81.3314000423006
 30
-0.0000000000000071
 10
379.6746679058012
 20
81.35053370521978
 30
-0.0000000000000053
 10
379.6234483855038
 20
81.38765585025701
 30
-0.0000000000000053
 10
379.5974785560489
 20
81.40566260571157
 30
-0.0000000000000124
 10
379.5186234685332
 20
81.45822714747929
 30
-0.0000000000000071
 10
379.4647976095487
 20
81.4913369038342
 30
-0.0000000000000089
 10
379.4100111840472
 20
81.52296789373416
 30
-0.0000000000000071
  0
SPLINE
  5
1DB
330
1F
100
AcDbEntity
  8
HEWI
100
AcDbSpline
210
0.0000000000000056
220
0.0000000000000015
230
1.0
 70
     8
 71
     3
 72
    28
 73
    24
 74
     0
 42
0.000000001
 43
0.0000000001
 40
0.0
 40
0.0
 40
0.0
 40
0.0
 40
0.1249999999999998
 40
0.1249999999999998
 40
0.1874999999999997
 40
0.1874999999999997
 40
0.2499999999999997
 40
0.2499999999999997
 40
0.3749999999999998
 40
0.3749999999999998
 40
0.5
 40
0.5
 40
0.53125
 40
0.53125
 40
0.5625
 40
0.625
 40
0.625
 40
0.75
 40
0.8125000000000001
 40
0.8125000000000001
 40
0.8750000000000001
 40
0.8750000000000001
 40
1.0
 40
1.0
 40
1.0
 40
1.0
 10
379.410009805675
 20
81.52296841834914
 30
-0.0000000000000053
 10
379.4297480250003
 20
81.579947739064
 30
-0.0000000000000089
 10
379.4481656251449
 20
81.63704323937921
 30
-0.0000000000000124
 10
379.4731168285941
 20
81.72292183649526
 30
-0.0000000000000071
 10
379.4809932135564
 20
81.75161730617054
 30
-0.0000000000000071
 10
379.4956676450818
 20
81.80897499359295
 30
-0.0000000000000089
 10
379.5024124923424
 20
81.83742891797647
 30
-0.0000000000000053
 10
379.5206927919954
 20
81.92204867526299
 30
-0.0000000000000053
 10
379.5302703308099
 20
81.97747109827158
 30
-0.0000000000000071
 10
379.543294342305
 20
82.08598800945059
 30
-0.0000000000000053
 10
379.546733966655
 20
82.13907989734455
 30
-0.0000000000000089
 10
379.5467503780339
 20
82.20381847854287
 30
-0.0000000000000071
 10
379.5465387284539
 20
82.21671075002944
 30
-0.0000000000000053
 10
379.5456915339548
 20
82.24210425379185
 30
-0.0000000000000089
 10
379.5437878037114
 20
82.27967204515644
 30
-0.0000000000000071
 10
379.5400408763577
 20
82.31571835432836
 30
-0.0000000000000071
 10
379.5302584575201
 20
82.38592185861529
 30
-0.0000000000000071
 10
379.515897632843
 20
82.45234608020014
 30
-0.0000000000000053
 10
379.4957859917238
 20
82.51402324312204
 30
-0.0000000000000053
 10
379.481225203037
 20
82.55418957535335
 30
-0.0000000000000089
 10
379.4733515958022
 20
82.57383373740234
 30
-0.0000000000000089
 10
379.4482914234873
 20
82.63122655937122
 30
-0.0000000000000107
 10
379.4298042717808
 20
82.66719504585873
 30
-0.0000000000000089
 10
379.4100099959551
 20
82.70147975233644
 30
-0.0000000000000071
  0
SPLINE
  5
1DC
330
1F
100
AcDbEntity
  8
HEWI
100
AcDbSpline
210
0.000000000000007
220
-0.000000000000033
230
1.0
 70
     8
 71
     3
 72
    28
 73
    24
 74
     0
 42
0.000000001
 43
0.0000000001
 40
0.0
 40
0.0
 40
0.0
 40
0.0
 40
0.125
 40
0.125
 40
0.2500000000000001
 40
0.2500000000000001
 40
0.3750000000000001
 40
0.3750000000000001
 40
0.4375000000000003
 40
0.4375000000000003
 40
0.4687500000000003
 40
0.4687500000000003
 40
0.5000000000000004
 40
0.5000000000000004
 40
0.6250000000000002
 40
0.6250000000000002
 40
0.7500000000000004
 40
0.7500000000000004
 40
0.8125000000000003
 40
0.8125000000000003
 40
0.8750000000000003
 40
0.8750000000000003
 40
1.0
 40
1.0
 40
1.0
 40
1.0
 10
381.1777764885691
 20
80.50234811930371
 30
-0.0000000000000107
 10
381.1631826002202
 20
80.51077387247167
 30
-0.0000000000000107
 10
381.1466781383244
 20
80.51828951682981
 30
-0.0000000000000053
 10
381.1087923109496
 20
80.53099767439936
 30
-0.0000000000000089
 10
381.0874101057983
 20
80.53618978762969
 30
-0.0000000000000124
 10
381.0384855643136
 20
80.54363961270752
 30
-0.0000000000000036
 10
381.0109390455302
 20
80.54589533222944
 30
-0.0000000000000089
 10
380.963916247971
 20
80.54656225703343
 30
-0.0000000000000107
 10
380.9472906159294
 20
80.54633137848172
 30
-0.0000000000000142
 10
380.9207904076816
 20
80.54524111038563
 30
-0.0000000000000053
 10
380.9117286263394
 20
80.54475457034945
 30
-0.0000000000000053
 10
380.8932510984579
 20
80.5435406248103
 30
-0.0000000000000053
 10
380.8838200318819
 20
80.54281262691496
 30
-0.0000000000000071
 10
380.8357130020254
 20
80.53857368960727
 30
-0.0000000000000071
 10
380.7941687337095
 20
80.53325759044126
 30
-0.0000000000000071
 10
380.7054420158614
 20
80.51907701852654
 30
-0.0000000000000089
 10
380.6582651887394
 20
80.51021608422585
 30
-0.0000000000000053
 10
380.5838236245897
 20
80.49461099888109
 30
-0.0000000000000089
 10
380.5585510597613
 20
80.48905639726088
 30
-0.0000000000000089
 10
380.50733159919
 20
80.47735533989055
 30
-0.0000000000000107
 10
380.4813618006605
 20
80.47120410010869
 30
-0.0000000000000036
 10
380.4025068085469
 20
80.45196066555536
 30
-0.0000000000000107
 10
380.3486810166393
 20
80.4380829298252
 30
-0.0000000000000089
 10
380.2938946605304
 20
80.42340297862812
 30
-0.0000000000000071
  0
SPLINE
  5
1DD
330
1F
100
AcDbEntity
  8
HEWI
100
AcDbSpline
210
0.000000000000004
220
-0.0000000000000581
230
1.0
 70
     8
 71
     3
 72
    18
 73
    14
 74
     0
 42
0.000000001
 43
0.0000000001
 40
0.0
 40
0.0
 40
0.0
 40
0.0
 40
0.0249243187986335
 40
0.0249243187986335
 40
0.2686932390989752
 40
0.2686932390989752
 40
0.5124621593993166
 40
0.5124621593993166
 40
0.6343466195494875
 40
0.6343466195494875
 40
0.7562310796996581
 40
0.7562310796996581
 40
1.0
 40
1.0
 40
1.0
 40
1.0
 10
380.0020240911725
 20
82.82102212184019
 30
-0.0000000000000061
 10
379.9981529064178
 20
82.82071554803399
 30
-0.0000000000000068
 10
379.994249749843
 20
82.82038885284945
 30
-0.0000000000000075
 10
379.9518290796372
 20
82.81665095512613
 30
-0.0000000000000107
 10
379.910284755089
 20
82.81133483734141
 30
-0.0000000000000089
 10
379.8215579195178
 20
82.79715422439759
 30
-0.0000000000000124
 10
379.7743810309315
 20
82.78829326770381
 30
-0.0000000000000071
 10
379.6999393726595
 20
82.77268814724278
 30
-0.0000000000000089
 10
379.6746667821427
 20
82.76713353501085
 30
-0.0000000000000071
 10
379.6234472649732
 20
82.75543245526503
 30
-0.0000000000000089
 10
379.5974774381177
 20
82.74928120425192
 30
-0.0000000000000071
 10
379.5186223610772
 20
82.73003773599155
 30
-0.0000000000000107
 10
379.4647965126289
 20
82.71615997778114
 30
-0.0000000000000053
 10
379.4100101002471
 20
82.70148000427104
 30
-0.0000000000000107
  0
SPLINE
  5
1DE
330
1F
100
AcDbEntity
  8
HEWI
100
AcDbSpline
210
-0.000000000000004
220
-0.0000000000000019
230
1.0
 70
     9
 71
     3
 72
   151
 73
   147
 74
     0
 42
0.000000001
 43
0.0000000001
 40
0.0
 40
0.0
 40
0.0
 40
0.0
 40
0.0156249999999987
 40
0.0312499999999973
 40
0.046874999999996
 40
0.046874999999996
 40
0.0507812499999957
 40
0.0507812499999957
 40
0.0546874999999955
 40
0.0546874999999955
 40
0.0624999999999951
 40
0.0624999999999951
 40
0.0781249999999941
 40
0.0937499999999931
 40
0.0937499999999931
 40
0.1015624999999926
 40
0.1015624999999926
 40
0.1093749999999921
 40
0.1093749999999921
 40
0.1249999999999916
 40
0.1406249999999911
 40
0.1562499999999906
 40
0.1562499999999906
 40
0.1640624999999906
 40
0.1640624999999906
 40
0.1718749999999905
 40
0.1718749999999905
 40
0.1874999999999904
 40
0.2031249999999903
 40
0.2031249999999903
 40
0.2109374999999903
 40
0.2109374999999903
 40
0.2148437499999903
 40
0.2187499999999903
 40
0.2343749999999918
 40
0.2499999999999932
 40
0.2656249999999947
 40
0.2656249999999947
 40
0.2695312499999947
 40
0.2695312499999947
 40
0.2734374999999947
 40
0.2812499999999953
 40
0.2812499999999953
 40
0.2968749999999961
 40
0.3124999999999968
 40
0.3124999999999968
 40
0.3203124999999971
 40
0.3203124999999971
 40
0.3281249999999974
 40
0.3281249999999974
 40
0.3437499999999981
 40
0.3593749999999988
 40
0.3593749999999988
 40
0.3671874999999995
 40
0.3671874999999995
 40
0.3750000000000002
 40
0.3750000000000002
 40
0.3906250000000014
 40
0.4062500000000028
 40
0.4218750000000039
 40
0.4218750000000039
 40
0.4296875000000044
 40
0.4296875000000044
 40
0.4375000000000048
 40
0.4375000000000048
 40
0.4687500000000073
 40
0.4687500000000073
 40
0.4765625000000078
 40
0.4765625000000078
 40
0.484375000000008
 40
0.484375000000008
 40
0.5000000000000086
 40
0.5156250000000094
 40
0.5312500000000102
 40
0.5312500000000102
 40
0.5351562500000102
 40
0.5351562500000102
 40
0.5390625000000102
 40
0.54687500000001
 40
0.54687500000001
 40
0.56250000000001
 40
0.5781250000000102
 40
0.5781250000000102
 40
0.5859375000000103
 40
0.5859375000000103
 40
0.5937500000000103
 40
0.5937500000000103
 40
0.6093750000000108
 40
0.6250000000000112
 40
0.6250000000000112
 40
0.6328125000000112
 40
0.6367187500000109
 40
0.6367187500000109
 40
0.6406250000000106
 40
0.6406250000000106
 40
0.6562500000000093
 40
0.6718750000000079
 40
0.6875000000000064
 40
0.6875000000000064
 40
0.6914062500000061
 40
0.6914062500000061
 40
0.6953125000000055
 40
0.6953125000000055
 40
0.7031250000000055
 40
0.7031250000000055
 40
0.7187500000000053
 40
0.7343750000000052
 40
0.7343750000000052
 40
0.7421875000000049
 40
0.7421875000000049
 40
0.7500000000000048
 40
0.7500000000000048
 40
0.7656250000000046
 40
0.7812500000000044
 40
0.7968750000000041
 40
0.7968750000000041
 40
0.8007812500000039
 40
0.8007812500000039
 40
0.8046875000000037
 40
0.8125000000000031
 40
0.8125000000000031
 40
0.8281250000000021
 40
0.843750000000001
 40
0.843750000000001
 40
0.8515625000000008
 40
0.8515625000000008
 40
0.8593750000000007
 40
0.8593750000000007
 40
0.8750000000000003
 40
0.890625
 40
0.890625
 40
0.8984374999999998
 40
0.8984374999999998
 40
0.9062499999999998
 40
0.9062499999999998
 40
0.921875
 40
0.9375
 40
0.9531250000000003
 40
0.9531250000000003
 40
0.9609375000000003
 40
0.9609375000000003
 40
0.9687500000000003
 40
0.9687500000000003
 40
0.984375
 40
0.984375
 40
1.0
 40
1.0
 40
1.0
 40
1.0
 10
378.0203690620565
 20
82.06537800689066
 30
-0.0000000000000062
 10
378.0203693660152
 20
82.00654384623314
 30
-0.0000000000000053
 10
378.0264519377313
 20
81.8875781630348
 30
-0.0000000000000071
 10
378.0531286866769
 20
81.70534915127058
 30
-0.0000000000000071
 10
378.0824454525928
 20
81.58131177100019
 30
-0.0000000000000089
 10
378.1044085032256
 20
81.50294728872081
 30
-0.0000000000000124
 10
378.1089834739996
 20
81.48723219708955
 30
-0.0000000000000036
 10
378.1185005097482
 20
81.45571595085177
 30
-0.0000000000000053
 10
378.1234493095702
 20
81.43989486262027
 30
-0.0000000000000089
 10
378.1387717618936
 20
81.39253875367094
 30
-0.0000000000000107
 10
378.1496343835994
 20
81.36106114177151
 30
-0.0000000000000089
 10
378.1841071336345
 20
81.26688949276081
 30
-0.0000000000000089
 10
378.2350871870076
 20
81.14202230350242
 30
-0.0000000000000089
 10
378.2956948094327
 20
81.01836883047679
 30
-0.0000000000000071
 10
378.3447042585656
 20
80.92602277710961
 30
-0.0000000000000089
 10
378.3616340019832
 20
80.89530647892285
 30
-0.0000000000000071
 10
378.3966825171731
 20
80.83399550771213
 30
-0.0000000000000071
 10
378.4148481119357
 20
80.80332785682498
 30
-0.0000000000000053
 10
378.4705828419183
 20
80.71239013872787
 30
-0.0000000000000036
 10
378.5483915793122
 20
80.59357237461155
 30
-0.0000000000000053
 10
378.6748982440005
 20
80.42213652378208
 30
-0.0000000000000036
 10
378.7655008183658
 20
80.31217314187781
 30
-0.0000000000000089
 10
378.8357744617818
 20
80.23129762228949
 30
-0.0000000000000053
 10
378.8596155565731
 20
80.20457834337584
 30
-0.0000000000000071
 10
378.9075364824833
 20
80.15225038802693
 30
-0.0000000000000107
 10
378.9316781348664
 20
80.12656859509622
 30
-0.0000000000000089
 10
379.0046152593267
 20
80.05093083178264
 30
-0.0000000000000053
 10
379.1032263367331
 20
79.95382645915284
 30
-0.0000000000000089
 10
379.2043165859433
 20
79.86398916917868
 30
-0.0000000000000053
 10
379.2810131147697
 20
79.79934212841124
 30
-0.0000000000000071
 10
379.3067255125206
 20
79.7782491996767
 30
-0.0000000000000071
 10
379.3455114767399
 20
79.74730326068573
 30
-0.0000000000000089
 10
379.3714803736737
 20
79.72687469229524
 30
-0.0000000000000089
 10
379.4491418001006
 20
79.6675149599558
 30
-0.0000000000000071
 10
379.5646986396103
 20
79.5855658696816
 30
-0.0000000000000089
 10
379.7166932738247
 20
79.49098712320408
 30
-0.0000000000000089
 10
379.8165987115123
 20
79.43774646521326
 30
-0.0000000000000107
 10
379.8785890777606
 20
79.40764788324514
 30
-0.0000000000000071
 10
379.8909642594312
 20
79.40178820021632
 30
-0.0000000000000089
 10
379.9155277423156
 20
79.3904549488592
 30
-0.0000000000000053
 10
379.9521465749994
 20
79.37400813623042
 30
-0.0000000000000089
 10
379.9880972891383
 20
79.35920203036879
 30
-0.0000000000000089
 10
380.0591326223539
 20
79.33174758933404
 30
-0.0000000000000071
 10
380.1515397800878
 20
79.30088583514287
 30
-0.0000000000000124
 10
380.2395341655468
 20
79.28147390001098
 30
-0.0000000000000089
 10
380.3039222118081
 20
79.27133252932812
 30
-0.0000000000000053
 10
380.3251497182738
 20
79.26868695889102
 30
-0.0000000000000071
 10
380.3669265494061
 20
79.26492297147574
 30
-0.0000000000000142
 10
380.387375687613
 20
79.26381112776654
 30
-0.0000000000000089
 10
380.4474584690812
 20
79.26274983007759
 30
-0.0000000000000036
 10
380.5242039524084
 20
79.26738768393079
 30
-0.0000000000000071
 10
380.5946395710471
 20
79.28403813433575
 30
-0.0000000000000036
 10
380.6451944712786
 20
79.30113454657285
 30
-0.0000000000000053
 10
380.6616668321818
 20
79.30760288090869
 30
-0.0000000000000107
 10
380.693861078833
 20
79.32211407121392
 30
-0.0000000000000053
 10
380.7096241957834
 20
79.33018270024563
 30
-0.0000000000000053
 10
380.7554066914654
 20
79.35658958219971
 30
-0.0000000000000089
 10
380.8124985200387
 20
79.39762519426334
 30
-0.0000000000000053
 10
380.887077354696
 20
79.47643161355173
 30
-0.0000000000000053
 10
380.9297129185334
 20
79.54064406416005
 30
-0.0000000000000018
 10
380.9590545309884
 20
79.59337700594453
 30
-0.0000000000000089
 10
380.9684154770659
 20
79.61176834846802
 30
-0.0000000000000124
 10
380.9860752585998
 20
79.64973111948149
 30
-0.0000000000000071
 10
380.9943927339602
 20
79.66932804067784
 30
-0.0000000000000053
 10
381.0334953737898
 20
79.77035930225324
 30
-0.0000000000000053
 10
381.0569115546087
 20
79.86085383364848
 30
-0.0000000000000089
 10
381.0766997284436
 20
79.98637467638949
 30
-0.0000000000000107
 10
381.0801779659383
 20
80.01210400410156
 30
-0.0000000000000053
 10
381.0861627727021
 20
80.06484185182044
 30
-0.0000000000000071
 10
381.0886704118579
 20
80.09190261856515
 30
-0.0000000000000071
 10
381.0946496416153
 20
80.17411465389992
 30
-0.0000000000000053
 10
381.0985920507439
 20
80.28698366002906
 30
-0.000000000000016
 10
381.0927761060448
 20
80.4658106531059
 30
-0.0000000000000071
 10
381.0810422446087
 20
80.59137075440762
 30
-0.0000000000000124
 10
381.0711500549278
 20
80.67187471884869
 30
-0.0000000000000089
 10
381.0690406970717
 20
80.68809437309738
 30
-0.0000000000000053
 10
381.0645864397879
 20
80.72056303024723
 30
-0.0000000000000107
 10
381.0575455941205
 20
80.76936279241834
 30
-0.0000000000000089
 10
381.0494353977518
 20
80.81844712249486
 30
-0.0000000000000089
 10
381.0317994950075
 20
80.91698213351692
 30
-0.0000000000000107
 10
381.0045168586799
 20
81.04933753285187
 30
-0.0000000000000018
 10
380.9696061173437
 20
81.18353371427083
 30
-0.0000000000000053
 10
380.94042605995
 20
81.28484225576071
 30
-0.0000000000000071
 10
380.9301934027637
 20
81.31873919217001
 30
-0.0000000000000089
 10
380.908712471053
 20
81.38668047775341
 30
-0.0000000000000107
 10
380.8975426246886
 20
81.42047813870398
 30
-0.0000000000000071
 10
380.8627471890994
 20
81.52135253019247
 30
-0.0000000000000089
 10
380.8129300657337
 20
81.65447114439292
 30
-0.0000000000000071
 10
380.7561221425272
 20
81.78476438717101
 30
-0.0000000000000107
 10
380.7107568937428
 20
81.88136682624156
 30
-0.0000000000000089
 10
380.6873832575216
 20
81.92938819183058
 30
-0.0000000000000071
 10
380.6629341192772
 20
81.97697356161169
 30
-0.0000000000000053
 10
380.6463905795019
 20
82.00859813363448
 30
-0.0000000000000071
 10
380.6379861982764
 20
82.02437991662222
 30
-0.0000000000000071
 10
380.5955522798726
 20
82.10264842968745
 30
-0.0000000000000053
 10
380.5248254944248
 20
82.22419928714868
 30
-0.0000000000000071
 10
380.4100323968713
 20
82.39561255779443
 30
-0.0000000000000036
 10
380.3274251942902
 20
82.50249476916536
 30
-0.0000000000000107
 10
380.2737594671348
 20
82.56688192654442
 30
-0.0000000000000124
 10
380.2629242985826
 20
82.57963837081481
 30
-0.0000000000000089
 10
380.2410456066862
 20
82.60490553973196
 30
-0.0000000000000089
 10
380.2299968806283
 20
82.61742126621868
 30
-0.0000000000000089
 10
380.1967235223111
 20
82.65438441926042
 30
-0.0000000000000071
 10
380.1743109091823
 20
82.67831968396157
 30
-0.0000000000000053
 10
380.1063763104593
 20
82.74803381868247
 30
-0.0000000000000089
 10
380.0139399020581
 20
82.83541710704998
 30
-0.0000000000000053
 10
379.9176910283451
 20
82.91174134081122
 30
-0.0000000000000089
 10
379.8440175391922
 20
82.96475704934913
 30
-0.0000000000000036
 10
379.8192116908407
 20
82.98172323653794
 30
-0.0000000000000053
 10
379.769091618472
 20
83.01421632525132
 30
-0.0000000000000089
 10
379.7437079197142
 20
83.02978067085664
 30
-0.0000000000000107
 10
379.6675492971373
 20
83.0738239636415
 30
-0.0000000000000018
 10
379.5657148347121
 20
83.12571299808741
 30
-0.0000000000000036
 10
379.4121656366722
 20
83.18366525137426
 30
-0.0000000000000089
 10
379.3093555553781
 20
83.20911541783761
 30
-0.0000000000000142
 10
379.2450024114142
 20
83.22081132960091
 30
-0.0000000000000124
 10
379.2321088904369
 20
83.22294200594583
 30
-0.0000000000000053
 10
379.2064259800665
 20
83.2267615204509
 30
-0.0000000000000071
 10
379.1680525212332
 20
83.23183071415561
 30
-0.0000000000000053
 10
379.1301321009151
 20
83.23494902701431
 30
-0.0000000000000071
 10
379.0549025003033
 20
83.23864141168121
 30
-0.0000000000000018
 10
378.9562236428073
 20
83.23679182771959
 30
-0.0000000000000107
 10
378.860971676549
 20
83.2217067697222
 30
-0.0000000000000089
 10
378.7909326311212
 20
83.20540497684906
 30
-0.0000000000000107
 10
378.7678201337736
 20
83.19913825616501
 30
-0.0000000000000089
 10
378.7220889745114
 20
83.18491668230002
 30
-0.0000000000000107
 10
378.6996202495574
 20
83.17700693165619
 30
-0.0000000000000071
 10
378.633575608521
 20
83.15100130067682
 30
-0.0000000000000036
 10
378.5489903706712
 20
83.1102236482757
 30
-0.0000000000000089
 10
378.4714726588695
 20
83.05765334537253
 30
-0.0000000000000107
 10
378.4161072103075
 20
83.01382543650971
 30
-0.0000000000000089
 10
378.3981150114619
 20
82.9984814075545
 30
-0.0000000000000089
 10
378.3630873679572
 20
82.9663107343522
 30
-0.0000000000000107
 10
378.3460294007266
 20
82.94946001881768
 30
-0.0000000000000053
 10
378.2964949826764
 20
82.8968022216283
 30
-0.0000000000000018
 10
378.2355174529275
 20
82.82177117580573
 30
-0.0000000000000124
 10
378.1591512322115
 20
82.69540631083286
 30
-0.0000000000000053
 10
378.1184923683887
 20
82.60208802165063
 30
-0.0000000000000053
 10
378.092015160363
 20
82.52863851343445
 30
-0.0000000000000089
 10
378.0838459881348
 20
82.50352795167973
 30
-0.0000000000000089
 10
378.0689576873612
 20
82.45235764184373
 30
-0.0000000000000071
 10
378.0622590999048
 20
82.42638087521772
 30
-0.0000000000000053
 10
378.0443819996053
 20
82.34729778418333
 30
-0.0000000000000071
 10
378.035417651221
 20
82.29304188948606
 30
-0.0000000000000071
 10
378.023411181077
 20
82.18149964964871
 30
-0.0000000000000053
 10
378.0203687580979
 20
82.12421216754819
 30
-0.0000000000000071
 10
378.0203690620565
 20
82.06537800689066
 30
-0.0000000000000062
  0
SPLINE
  5
1DF
330
1F
100
AcDbEntity
  8
HEWI
100
AcDbSpline
210
-0.0000000000000002
220
0.0000000000000001
230
1.0
 70
     8
 71
     3
 72
    16
 73
    12
 74
     0
 42
0.000000001
 43
0.0000000001
 40
0.0
 40
0.0
 40
0.0
 40
0.0
 40
0.0638261149060654
 40
0.1827724863246923
 40
0.3014677558589768
 40
0.4198642225803157
 40
0.5379573753941038
 40
0.6558240434918838
 40
0.7735774967766877
 40
0.8913467207825371
 40
1.0
 40
1.0
 40
1.0
 40
1.0
 10
381.4423862603572
 20
59.86977964959536
 30
0.0000000000000007
 10
381.6892670406346
 20
60.01245109746035
 30
0.0000000000000018
 10
382.3913416945991
 20
60.4443959269977
 30
0.0000000000000002
 10
383.5309188338553
 20
61.27188361338984
 30
0.000000000000002
 10
384.830252841826
 20
62.40807370178494
 30
0.0000000000000018
 10
386.0663081275654
 20
63.68486443806155
 30
0.0000000000000027
 10
387.224055479868
 20
65.08343292755113
 30
0.0000000000000013
 10
388.289642986295
 20
66.58443312216201
 30
0.0000000000000027
 10
389.2500773938161
 20
68.16792870375055
 30
0.0000000000000018
 10
390.0711807605368
 20
69.77039925059418
 30
0.0000000000000035
 10
390.5317884143813
 20
70.84878109372133
 30
0.0000000000000019
 10
390.73315964896
 20
71.36884828445767
 30
0.0000000000000014
  0
SPLINE
  5
1E0
330
1F
100
AcDbEntity
  8
HEWI
100
AcDbSpline
210
-0.0000000000000003
220
0.0000000000000013
230
1.0
 70
     8
 71
     3
 72
    15
 73
    11
 74
     0
 42
0.000000001
 43
0.0000000001
 40
0.0
 40
0.0
 40
0.0
 40
0.0
 40
0.1009810809931436
 40
0.2389867302177476
 40
0.3778344046362013
 40
0.5193666468192714
 40
0.6646194756179224
 40
0.8135787870542115
 40
0.9600438838076476
 40
1.0
 40
1.0
 40
1.0
 40
1.0
 10
372.6642789695651
 20
59.15873203202579
 30
-0.0000000000000022
 10
372.9153222318466
 20
59.00745893405107
 30
-0.0000000000000002
 10
373.5284260191531
 20
58.69605435053004
 30
0.0000000000000009
 10
374.5881127227458
 20
58.39301948648279
 30
-0.0000000000000009
 10
375.8095193440271
 20
58.24803353447705
 30
-0.0000000000000011
 10
377.087177325608
 20
58.30417549962223
 30
0.0000000000000004
 10
378.4103500934885
 20
58.5588072601978
 30
-0.0000000000000013
 10
379.7510558370266
 20
59.00874963095794
 30
0.0000000000000009
 10
380.7651637964474
 20
59.48908280307896
 30
-0.0000000000000002
 10
381.3230151422025
 20
59.80083249467291
 30
-0.0000000000000002
 10
381.4423862603572
 20
59.86977964959536
 30
-0.0000000000000002
  0
SPLINE
  5
1E1
330
1F
100
AcDbEntity
  8
HEWI
100
AcDbSpline
210
0.0
220
0.0
230
1.0
 70
     8
 71
     3
 72
    15
 73
    11
 74
     0
 42
0.000000001
 43
0.0000000001
 40
0.0
 40
0.0
 40
0.0
 40
0.0
 40
0.0809956119989726
 40
0.2329966992143921
 40
0.3849398173429256
 40
0.5351497207384722
 40
0.6820222944428186
 40
0.8245442158551544
 40
0.9629639905653439
 40
1.0
 40
1.0
 40
1.0
 40
1.0
 10
392.1651045016723
 20
111.5101839663715
 30
-0.0000000000000071
 10
392.1652372517254
 20
111.7963450593828
 30
-0.0000000000000107
 10
392.1414526425952
 20
112.607907583558
 30
-0.0000000000000036
 10
391.9889197634636
 20
113.8992362198784
 30
-0.0000000000000071
 10
391.6283821102632
 20
115.3240959121728
 30
-0.0000000000000036
 10
391.0882433143274
 20
116.6168754894462
 30
-0.0000000000000071
 10
390.3811157582592
 20
117.7524114174998
 30
-0.0000000000000107
 10
389.5173891590054
 20
118.6896188622156
 30
-0.0000000000000071
 10
388.7827329094236
 20
119.2903565810681
 30
-0.0000000000000071
 10
388.3201825037215
 20
119.5211389064712
 30
-0.0000000000000071
 10
388.2204935511493
 20
119.5666963853881
 30
-0.0000000000000071
  0
SPLINE
  5
1E2
330
1F
100
AcDbEntity
  8
HEWI
100
AcDbSpline
210
0.0000000000001482
220
0.0000000000002071
230
1.0
 70
     8
 71
     3
 72
    10
 73
     6
 74
     0
 42
0.000000001
 43
0.0000000001
 40
0.0
 40
0.0
 40
0.0
 40
0.0
 40
0.2572944025557998
 40
0.7343456285226826
 40
1.0
 40
1.0
 40
1.0
 40
1.0
 10
489.1782270325692
 20
120.4310420551754
 30
0.0000000000000178
 10
489.3367492253596
 20
120.3388997985609
 30
0.0000000000000071
 10
489.7633947008429
 20
120.0809713962237
 30
0.0000000000000036
 10
490.2464921722232
 20
119.7405510111582
 30
0.0000000000000094
 10
490.5272585673229
 20
119.5126915504324
 30
0.0000000000000104
 10
490.6178947959674
 20
119.43538128167
 30
0.0000000000000107
  0
SPLINE
  5
1E3
330
1F
100
AcDbEntity
  8
HEWI
100
AcDbSpline
210
0.0000000000000001
220
-0.0000000000000078
230
1.0
 70
     8
 71
     3
 72
    13
 73
     9
 74
     0
 42
0.000000001
 43
0.0000000001
 40
0.0
 40
0.0
 40
0.0
 40
0.0
 40
0.0853689476958385
 40
0.2694416056016068
 40
0.4602560680571299
 40
0.6442920574367613
 40
0.826470534657967
 40
1.0
 40
1.0
 40
1.0
 40
1.0
 10
491.321521610807
 20
120.212208143688
 30
0.0000000000000068
 10
491.3215702939021
 20
120.2123001329782
 30
0.0000000000000062
 10
491.3129627996438
 20
120.1964683444451
 30
0.0000000000000049
 10
491.2363364178863
 20
120.0794093147829
 30
0.0000000000000107
 10
490.991439692304
 20
119.7957445482579
 30
0.0
 10
490.564320907161
 20
119.4017391592618
 30
0.0
 10
489.9646612172717
 20
118.9457896725109
 30
0.0
 10
489.4546738171615
 20
118.6271189581989
 30
0.0000000000000036
 10
489.1782270325686
 20
118.4649686325907
 30
-0.0000000000000071
  0
SPLINE
  5
1E4
330
1F
100
AcDbEntity
  8
HEWI
100
AcDbSpline
210
-0.000000000000001
220
-0.0000000000000005
230
1.0
 70
     8
 71
     3
 72
    30
 73
    26
 74
     0
 42
0.000000001
 43
0.0000000001
 40
0.0
 40
0.0
 40
0.0
 40
0.0
 40
0.0286914761342044
 40
0.0797216434094588
 40
0.1306192772719434
 40
0.1807999641946349
 40
0.2299259423309755
 40
0.2777855638894522
 40
0.3243235155001348
 40
0.3696179986835353
 40
0.4138339762022349
 40
0.4571815690409969
 40
0.4998901664822757
 40
0.5421962598789029
 40
0.5843020172387682
 40
0.6264136583554441
 40
0.6687768575106487
 40
0.7116339584287861
 40
0.7552160824803833
 40
0.79972752011459
 40
0.8453209503865824
 40
0.8920658023111853
 40
0.9399195371039304
 40
0.9876094326612268
 40
1.0
 40
1.0
 40
1.0
 40
1.0
 10
499.8282270325683
 20
100.0186275319819
 30
-0.0000000000000036
 10
500.2496771434957
 20
100.2616912792845
 30
-0.0000000000000071
 10
501.3989375927764
 20
100.9589408559398
 30
-0.0000000000000107
 10
503.1874990323408
 20
102.2005311374494
 30
0.0000000000000071
 10
505.1118143909645
 20
103.7956202260853
 30
0.0000000000000142
 10
506.8419114580528
 20
105.5182992685982
 30
-0.0000000000000036
 10
508.3550310229046
 20
107.3476925031134
 30
0.0000000000000036
 10
509.637832866876
 20
109.2628078122581
 30
0.0000000000000142
 10
510.6835629830206
 20
111.2426014360892
 30
0.0000000000000071
 10
511.4908075813958
 20
113.2673124777857
 30
0.0000000000000036
 10
512.0616693139485
 20
115.3187953514991
 30
0.0000000000000107
 10
512.4003499352932
 20
117.3803626742759
 30
0.0000000000000178
 10
512.5122656958398
 20
119.436651569058
 30
0.0000000000000178
 10
512.4035245100426
 20
121.4730924443763
 30
0.0000000000000036
 10
512.080801683897
 20
123.4761644256758
 30
0.0000000000000071
 10
511.5509704362584
 20
125.4343092092835
 30
0.0000000000000142
 10
510.8201712096878
 20
127.3385636835246
 30
0.0000000000000071
 10
509.8929880564461
 20
129.1821846224649
 30
0.0000000000000213
 10
508.7723266359818
 20
130.9594656195652
 30
0.0000000000000071
 10
507.4596289104866
 20
132.6649072509982
 30
0.0000000000000071
 10
505.9557685874237
 20
134.292215964616
 30
0.0000000000000142
 10
504.2625912588731
 20
135.8334327183917
 30
0.0000000000000071
 10
502.3997557097221
 20
137.2673135663639
 30
0.0000000000000213
 10
500.8851532367842
 20
138.2562794731813
 30
0.0000000000000071
 10
500.0101151247791
 20
138.7724061695519
 30
0.0000000000000142
 10
499.8282270325696
 20
138.8773831557837
 30
0.0000000000000142
  0
SPLINE
  5
1E5
330
1F
100
AcDbEntity
  8
HEWI
100
AcDbSpline
210
-0.0000000000000002
220
0.000000000000005
230
1.0
 70
     8
 71
     3
 72
    19
 73
    15
 74
     0
 42
0.000000001
 43
0.0000000001
 40
0.0
 40
0.0
 40
0.0
 40
0.0
 40
0.045854191488325
 40
0.1316878604025988
 40
0.2187107457726412
 40
0.3072500413139153
 40
0.3972066077235177
 40
0.4883927215346097
 40
0.5805677142295732
 40
0.6734623877076567
 40
0.7667939707348102
 40
0.8602748246782306
 40
0.9535502108749783
 40
1.0
 40
1.0
 40
1.0
 40
1.0
 10
440.3878591306955
 20
90.29583659058493
 30
-0.000000000000016
 10
440.2289870922833
 20
90.20371520945161
 30
-0.0000000000000036
 10
439.750122041172
 20
89.940880330672
 30
-0.0000000000000036
 10
438.8405287245121
 20
89.50491332051607
 30
-0.0000000000000089
 10
437.5998542248701
 20
89.01526862824043
 30
-0.000000000000016
 10
436.2032598198868
 20
88.56776864831394
 30
0.0000000000000036
 10
434.6691005804087
 20
88.18020241884772
 30
-0.0000000000000124
 10
433.020590021283
 20
87.86743400218469
 30
-0.0000000000000053
 10
431.2841758114404
 20
87.64136499838475
 30
-0.0000000000000124
 10
429.488624562169
 20
87.51054843954333
 30
-0.0000000000000018
 10
427.6640914117127
 20
87.4801903279587
 30
-0.000000000000016
 10
425.8426762238824
 20
87.55189159978149
 30
-0.0000000000000124
 10
424.350737175407
 20
87.69555868534418
 30
-0.0000000000000124
 10
423.4802493186177
 20
87.81725593006076
 30
-0.0000000000000053
 10
423.1929062383641
 20
87.86173838756425
 30
-0.0000000000000071
  0
SPLINE
  5
1E6
330
1F
100
AcDbEntity
  8
HEWI
100
AcDbSpline
210
0.0000000000000001
220
-0.000000000000001
230
1.0
 70
     8
 71
     3
 72
    20
 73
    16
 74
     0
 42
0.000000001
 43
0.0000000001
 40
0.0
 40
0.0
 40
0.0
 40
0.0
 40
0.046377579595233
 40
0.1307539778777738
 40
0.2149794238494181
 40
0.2991710402373089
 40
0.3834393490968999
 40
0.4678691990972649
 40
0.5525809679874574
 40
0.6376913400356691
 40
0.7233051809110492
 40
0.809501264342235
 40
0.8963082887050969
 40
0.9780891764406112
 40
1.0
 40
1.0
 40
1.0
 40
1.0
 10
419.9365207085726
 20
66.81213142493039
 30
-0.0000000000000071
 10
420.4349137227638
 20
66.73506408241111
 30
-0.0000000000000062
 10
421.845069848157
 20
66.53811630770775
 30
-0.0000000000000124
 10
424.1923103307036
 20
66.30820469398526
 30
-0.0000000000000053
 10
426.9748542920909
 20
66.18155302235391
 30
-0.0000000000000062
 10
429.7629355929803
 20
66.19877251478768
 30
-0.0000000000000124
 10
432.5426583802152
 20
66.35994415288434
 30
-0.0000000000000089
 10
435.3006236445209
 20
66.66531138137838
 30
-0.0000000000000089
 10
438.0235150766272
 20
67.1154078318975
 30
-0.0000000000000142
 10
440.6984299098835
 20
67.71123256131102
 30
-0.0000000000000036
 10
443.3121947589793
 20
68.45427683151307
 30
-0.0000000000000195
 10
445.8510114868611
 20
69.34648876048081
 30
-0.0000000000000107
 10
448.2471022248829
 20
70.36759097138895
 30
-0.0000000000000027
 10
449.9531726560824
 20
71.23448255955624
 30
-0.0000000000000098
 10
450.849765728328
 20
71.74093355217936
 30
-0.000000000000008
 10
451.0378591306951
 20
71.84949548997609
 30
-0.0000000000000053
  0
ARC
  5
267
330
1F
100
AcDbEntity
  8
HEWI
100
AcDbCircle
 10
105.905937
 20
305.350432
 30
0.0
 40
10.65000000000008
100
AcDbArc
 50
90.0
 51
180.0
  0
ENDSEC
  0
SECTION
  2
OBJECTS
  0
DICTIONARY
  5
C
330
0
100
AcDbDictionary
281
     1
  3
ACAD_CIP_PREVIOUS_PRODUCT_INFO
350
256
  3
ACAD_COLOR
350
251
  3
ACAD_DETAILVIEWSTYLE
350
24D
  3
ACAD_GROUP
350
D
  3
ACAD_LAYOUT
350
1A
  3
ACAD_MATERIAL
350
43
  3
ACAD_MLEADERSTYLE
350
6B
  3
ACAD_MLINESTYLE
350
17
  3
ACAD_PLOTSETTINGS
350
19
  3
ACAD_PLOTSTYLENAME
350
E
  3
ACAD_SCALELIST
350
47
  3
ACAD_SECTIONVIEWSTYLE
350
24E
  3
ACAD_TABLESTYLE
350
69
  3
ACAD_VISUALSTYLE
350
2A
  3
ACDB_RECOMPOSE_DATA
350
276
  3
AcDbVariableDictionary
350
20A
  0
DICTIONARY
  5
25D
330
2
100
AcDbDictionary
280
     1
281
     1
  3
ACAD_LAYERSTATES
360
25E
  0
DICTIONARY
  5
26B
330
10
100
AcDbDictionary
280
     1
281
     1
  3
ADSK_XREC_LAYER_RECONCILED
360
26C
  0
DICTIONARY
  5
26D
330
74
100
AcDbDictionary
280
     1
281
     1
  3
ADSK_XREC_LAYER_RECONCILED
360
26E
  0
DICTIONARY
  5
258
330
257
100
AcDbDictionary
280
     1
281
     1
  3
ADSK_XREC_LAYER_RECONCILED
360
26F
  0
DICTIONARY
  5
268
330
1F
100
AcDbDictionary
280
     1
281
     1
  3
ACAD_SORTENTS
360
269
  0
XRECORD
  5
256
102
{ACAD_REACTORS
330
C
102
}
330
C
100
AcDbXrecord
280
     1
300
ACDLT
300
2021
300
ACDLT_F_S
  0
DICTIONARY
  5
251
102
{ACAD_REACTORS
330
C
102
}
330
C
100
AcDbDictionary
281
     1
  0
DICTIONARY
  5
24D
102
{ACAD_REACTORS
330
C
102
}
330
C
100
AcDbDictionary
281
     1
  3
Metric50
350
253
  0
DICTIONARY
  5
D
102
{ACAD_REACTORS
330
C
102
}
330
C
100
AcDbDictionary
281
     1
  0
DICTIONARY
  5
1A
102
{ACAD_REACTORS
330
C
102
}
330
C
100
AcDbDictionary
281
     1
  3
Layout1
350
1E
  3
Layout2
350
26
  3
Model
350
22
  0
DICTIONARY
  5
43
102
{ACAD_REACTORS
330
C
102
}
330
C
100
AcDbDictionary
281
     1
  3
ByBlock
350
45
  3
ByLayer
350
44
  3
Global
350
46
  0
DICTIONARY
  5
6B
102
{ACAD_REACTORS
330
C
102
}
330
C
100
AcDbDictionary
281
     1
  3
Standard
350
6C
  0
DICTIONARY
  5
17
102
{ACAD_REACTORS
330
C
102
}
330
C
100
AcDbDictionary
281
     1
  3
Standard
350
18
  0
DICTIONARY
  5
19
102
{ACAD_REACTORS
330
C
102
}
330
C
100
AcDbDictionary
281
     1
  0
ACDBDICTIONARYWDFLT
  5
E
102
{ACAD_REACTORS
330
C
102
}
330
C
100
AcDbDictionary
281
     1
  3
Normal
350
F
100
AcDbDictionaryWithDefault
340
F
  0
DICTIONARY
  5
47
102
{ACAD_REACTORS
330
C
102
}
330
C
100
AcDbDictionary
281
     1
  3
A0
350
48
  3
A1
350
49
  3
A2
350
4A
  3
A3
350
4B
  3
A4
350
4C
  3
A5
350
4D
  3
A6
350
4E
  3
A7
350
4F
  3
A8
350
50
  3
A9
350
51
  3
B0
350
52
  3
B1
350
53
  3
B2
350
54
  3
B3
350
55
  3
B4
350
56
  3
B5
350
57
  3
B6
350
58
  3
B7
350
59
  3
B8
350
5A
  3
B9
350
5B
  3
C0
350
5C
  3
C1
350
5D
  3
C2
350
5E
  3
C3
350
5F
  3
C4
350
60
  3
C5
350
61
  3
C6
350
62
  3
C7
350
63
  3
C8
350
64
  3
C9
350
65
  3
D0
350
66
  3
D1
350
67
  3
D2
350
68
  0
DICTIONARY
  5
24E
102
{ACAD_REACTORS
330
C
102
}
330
C
100
AcDbDictionary
281
     1
  3
Metric50
350
252
  0
DICTIONARY
  5
69
102
{ACAD_REACTORS
330
C
102
}
330
C
100
AcDbDictionary
281
     1
  3
Standard
350
6A
  0
DICTIONARY
  5
2A
102
{ACAD_REACTORS
330
C
102
}
330
C
100
AcDbDictionary
281
     1
  3
2dWireframe
350
2F
  3
Basic
350
32
  3
Brighten
350
36
  3
ColorChange
350
3A
  3
Conceptual
350
34
  3
Dim
350
35
  3
EdgeColorOff
350
3D
  3
Facepattern
350
39
  3
Flat
350
2B
  3
FlatWithEdges
350
2C
  3
Gouraud
350
2D
  3
GouraudWithEdges
350
2E
  3
Hidden
350
31
  3
JitterOff
350
3B
  3
Linepattern
350
38
  3
OverhangOff
350
3C
  3
Realistic
350
33
  3
Shaded
350
42
  3
Shaded with edges
350
41
  3
Shades of Gray
350
3E
  3
Sketchy
350
3F
  3
Thicken
350
37
  3
Wireframe
350
30
  3
X-Ray
350
40
  0
XRECORD
  5
276
102
{ACAD_REACTORS
330
C
102
}
330
C
100
AcDbXrecord
280
     1
 90
        1
330
6A
  0
DICTIONARY
  5
20A
102
{ACAD_REACTORS
330
C
102
}
330
C
100
AcDbDictionary
281
     1
  3
CANNOSCALE
350
20B
  3
CMLEADERSTYLE
350
24C
  3
CTABLESTYLE
350
24B
  3
CVIEWDETAILSTYLE
350
270
  3
CVIEWSECTIONSTYLE
350
271
  3
LAYEREVAL
350
273
  3
LAYERNOTIFY
350
274
  3
LIGHTINGUNITS
350
272
  3
MSLTSCALE
350
20C
  0
DICTIONARY
  5
25E
102
{ACAD_REACTORS
330
25D
102
}
330
25D
100
AcDbDictionary
281
     1
  0
XRECORD
  5
26C
102
{ACAD_REACTORS
330
26B
102
}
330
26B
100
AcDbXrecord
280
     1
290
     1
  0
XRECORD
  5
26E
102
{ACAD_REACTORS
330
26D
102
}
330
26D
100
AcDbXrecord
280
     1
290
     1
  0
XRECORD
  5
26F
102
{ACAD_REACTORS
330
258
102
}
330
258
100
AcDbXrecord
280
     1
290
     1
  0
SORTENTSTABLE
  5
269
102
{ACAD_REACTORS
330
268
102
}
330
268
100
AcDbSortentsTable
330
1F
331
18B
  5
18C
331
18C
  5
18E
331
18E
  5
190
331
18F
  5
191
331
190
  5
192
331
191
  5
193
331
192
  5
194
331
193
  5
195
331
194
  5
196
331
195
  5
197
331
196
  5
198
331
197
  5
199
331
198
  5
19A
331
199
  5
19B
331
19A
  5
19C
331
19B
  5
19D
331
19C
  5
19E
331
19D
  5
19F
331
19E
  5
1A0
331
19F
  5
1A1
331
1A0
  5
1A2
331
1A1
  5
1A3
331
1A2
  5
1A4
331
1A3
  5
1A5
331
1A4
  5
1A6
331
1A5
  5
1A7
331
1A6
  5
1A8
331
1A7
  5
1A9
331
1A8
  5
1AA
331
1A9
  5
1AB
331
1AA
  5
1AC
331
1AB
  5
1AD
331
1AC
  5
1AE
331
1AD
  5
1AF
331
1AE
  5
1B0
331
1AF
  5
1B1
331
1B0
  5
1B2
331
1B1
  5
1B3
331
1B2
  5
1B4
331
1B3
  5
1B5
331
1B4
  5
1B6
331
1B5
  5
1B7
331
1B6
  5
1B8
331
1B7
  5
1B9
331
1B8
  5
1BA
331
1B9
  5
1BB
331
1BA
  5
1BC
331
1BB
  5
1BD
331
1BC
  5
1BE
331
1BD
  5
1BF
331
1BE
  5
1C0
331
1BF
  5
1C1
331
1C0
  5
1C2
331
1C1
  5
1C3
331
1C2
  5
1C4
331
1C3
  5
1C5
331
1C4
  5
1C6
331
1C5
  5
1C7
331
1C6
  5
1C8
331
1C7
  5
1C9
331
1C8
  5
1CA
331
1C9
  5
1CB
331
1CA
  5
1CC
331
1CB
  5
1CD
331
1CC
  5
1CE
331
1CD
  5
1CF
331
1CE
  5
1D0
331
1CF
  5
1D1
331
1D0
  5
1D2
331
1D1
  5
1D3
331
1D2
  5
1D4
331
1D3
  5
1D5
331
1D4
  5
1D6
331
1D5
  5
1D7
331
1D6
  5
1D8
331
1D7
  5
1D9
331
1D8
  5
1DA
331
1D9
  5
1DB
331
1DA
  5
1DC
331
1DB
  5
1DD
331
1DC
  5
1DE
331
1DD
  5
1DF
331
1DE
  5
1E0
331
1DF
  5
1E1
331
1E0
  5
1E2
331
1E1
  5
1E3
331
1E2
  5
1E4
331
1E3
  5
1E5
331
1E4
  5
1E6
331
1E5
  5
267
331
1E6
  5
26A
331
267
  5
18D
  0
ACDBDETAILVIEWSTYLE
  5
253
102
{ACAD_XDICTIONARY
360
279
102
}
102
{ACAD_REACTORS
330
24D
102
}
330
24D
100
AcDbModelDocViewStyle
 70
     0
  3
Metric50
290
     0
100
AcDbDetailViewStyle
 70
     0
 71
     0
 90
        3
 71
     1
340
11
 62
   256
 40
5.0
340
0
 62
   256
 40
5.0
300

 40
0.0
280
     1
 71
     2
340
16
 90
       25
 62
   256
 71
     3
340
11
 62
   256
 40
5.0
 90
        0
 40
15.0
 90
        1
300
%<\AcVar ViewDetailId>% (%<\AcVar ViewScale \f "%sn">%)
 71
     4
340
16
 90
       25
 62
   256
340
16
 90
       25
 62
   256
280
     0
  0
LAYOUT
  5
1E
102
{ACAD_REACTORS
330
1A
102
}
330
1A
100
AcDbPlotSettings
  1

  2
none_device
  4

  6

 40
0.0
 41
0.0
 42
0.0
 43
0.0
 44
0.0
 45
0.0
 46
0.0
 47
0.0
 48
0.0
 49
0.0
140
0.0
141
0.0
142
1.0
143
1.0
 70
   688
 72
     0
 73
     0
 74
     5
  7

 75
    16
147
1.0
 76
     0
 77
     2
 78
   300
148
0.0
149
0.0
100
AcDbLayout
  1
Layout1
 70
     1
 71
     1
 10
-0.5
 20
-0.5
 11
5.0
 21
5.0
 12
0.0
 22
0.0
 32
0.0
 14
-0.5
 24
-0.5
 34
-0.5
 15
5.0
 25
5.0
 35
5.0
146
0.0
 13
0.0
 23
0.0
 33
0.0
 16
1.0
 26
0.0
 36
0.0
 17
0.0
 27
1.0
 37
0.0
 76
     0
330
1B
  0
LAYOUT
  5
26
102
{ACAD_REACTORS
330
1A
102
}
330
1A
100
AcDbPlotSettings
  1

  2
none_device
  4

  6

 40
0.0
 41
0.0
 42
0.0
 43
0.0
 44
0.0
 45
0.0
 46
0.0
 47
0.0
 48
0.0
 49
0.0
140
0.0
141
0.0
142
1.0
143
1.0
 70
   688
 72
     0
 73
     0
 74
     5
  7

 75
    16
147
1.0
 76
     0
 77
     2
 78
   300
148
0.0
149
0.0
100
AcDbLayout
  1
Layout2
 70
     1
 71
     2
 10
0.0
 20
0.0
 11
0.0
 21
0.0
 12
0.0
 22
0.0
 32
0.0
 14
0.0
 24
0.0
 34
0.0
 15
0.0
 25
0.0
 35
0.0
146
0.0
 13
0.0
 23
0.0
 33
0.0
 16
1.0
 26
0.0
 36
0.0
 17
0.0
 27
1.0
 37
0.0
 76
     0
330
23
  0
LAYOUT
  5
22
102
{ACAD_REACTORS
330
1A
102
}
330
1A
100
AcDbPlotSettings
  1

  2
none_device
  4
Letter_(8.50_x_11.00_Inches)
  6

 40
6.349999999999999
 41
6.349999999999999
 42
6.350005
 43
6.350005
 44
215.9
 45
279.4
 46
0.0
 47
0.0
 48
0.0
 49
0.0
140
0.0
141
0.0
142
1.0
143
1.0
 70
  1712
 72
     0
 73
     0
 74
     0
  7

 75
     0
147
1.0
 76
     0
 77
     2
 78
   300
148
0.0
149
0.0
100
AcDbLayout
  1
Model
 70
     1
 71
     0
 10
-0.5
 20
-0.5
 11
5.0
 21
5.0
 12
0.0
 22
0.0
 32
0.0
 14
-0.5
 24
-0.5
 34
-0.5
 15
5.0
 25
5.0
 35
5.0
146
0.0
 13
0.0
 23
0.0
 33
0.0
 16
1.0
 26
0.0
 36
0.0
 17
0.0
 27
1.0
 37
0.0
 76
     0
330
1F
331
29
  0
MATERIAL
  5
45
102
{ACAD_XDICTIONARY
360
240
102
}
102
{ACAD_REACTORS
330
43
102
}
330
43
100
AcDbMaterial
  1
ByBlock
  0
MATERIAL
  5
44
102
{ACAD_XDICTIONARY
360
23E
102
}
102
{ACAD_REACTORS
330
43
102
}
330
43
100
AcDbMaterial
  1
ByLayer
  0
MATERIAL
  5
46
102
{ACAD_XDICTIONARY
360
242
102
}
102
{ACAD_REACTORS
330
43
102
}
330
43
100
AcDbMaterial
  1
Global
  0
MLEADERSTYLE
  5
6C
102
{ACAD_REACTORS
330
6B
102
}
330
6B
100
AcDbMLeaderStyle
179
     2
170
     2
171
     1
172
     0
 90
        2
 40
0.0
 41
0.0
173
     1
 91
-1056964608
340
14
 92
       -2
290
     1
 42
0.09
291
     1
 43
0.36
  3
Standard
 44
0.18
300

342
11
174
     1
178
     6
175
     1
176
     0
 93
-1056964608
 45
0.18
292
     0
297
     0
 46
0.18
 94
-1056964608
 47
1.0
 49
1.0
140
1.0
293
     1
141
0.0
294
     1
177
     0
142
1.0
295
     0
296
     0
143
0.125
271
     0
272
     9
273
     9
298
     0
1001
ACAD_MLEADERVER
1070
     2
  0
MLINESTYLE
  5
18
102
{ACAD_REACTORS
330
17
102
}
330
17
100
AcDbMlineStyle
  2
STANDARD
 70
     0
  3

 62
   256
 51
90.0
 52
90.0
 71
     2
 49
0.5
 62
   256
  6
BYLAYER
 49
-0.5
 62
   256
  6
BYLAYER
  0
ACDBPLACEHOLDER
  5
F
102
{ACAD_REACTORS
330
E
102
}
330
E
  0
SCALE
  5
48
102
{ACAD_REACTORS
330
47
102
}
330
47
100
AcDbScale
 70
     0
300
1:1
140
1.0
141
1.0
290
     1
  0
SCALE
  5
49
102
{ACAD_REACTORS
330
47
102
}
330
47
100
AcDbScale
 70
     0
300
1:2
140
1.0
141
2.0
290
     0
  0
SCALE
  5
4A
102
{ACAD_REACTORS
330
47
102
}
330
47
100
AcDbScale
 70
     0
300
1:4
140
1.0
141
4.0
290
     0
  0
SCALE
  5
4B
102
{ACAD_REACTORS
330
47
102
}
330
47
100
AcDbScale
 70
     0
300
1:5
140
1.0
141
5.0
290
     0
  0
SCALE
  5
4C
102
{ACAD_REACTORS
330
47
102
}
330
47
100
AcDbScale
 70
     0
300
1:8
140
1.0
141
8.0
290
     0
  0
SCALE
  5
4D
102
{ACAD_REACTORS
330
47
102
}
330
47
100
AcDbScale
 70
     0
300
1:10
140
1.0
141
10.0
290
     0
  0
SCALE
  5
4E
102
{ACAD_REACTORS
330
47
102
}
330
47
100
AcDbScale
 70
     0
300
1:16
140
1.0
141
16.0
290
     0
  0
SCALE
  5
4F
102
{ACAD_REACTORS
330
47
102
}
330
47
100
AcDbScale
 70
     0
300
1:20
140
1.0
141
20.0
290
     0
  0
SCALE
  5
50
102
{ACAD_REACTORS
330
47
102
}
330
47
100
AcDbScale
 70
     0
300
1:30
140
1.0
141
30.0
290
     0
  0
SCALE
  5
51
102
{ACAD_REACTORS
330
47
102
}
330
47
100
AcDbScale
 70
     0
300
1:40
140
1.0
141
40.0
290
     0
  0
SCALE
  5
52
102
{ACAD_REACTORS
330
47
102
}
330
47
100
AcDbScale
 70
     0
300
1:50
140
1.0
141
50.0
290
     0
  0
SCALE
  5
53
102
{ACAD_REACTORS
330
47
102
}
330
47
100
AcDbScale
 70
     0
300
1:100
140
1.0
141
100.0
290
     0
  0
SCALE
  5
54
102
{ACAD_REACTORS
330
47
102
}
330
47
100
AcDbScale
 70
     0
300
2:1
140
2.0
141
1.0
290
     0
  0
SCALE
  5
55
102
{ACAD_REACTORS
330
47
102
}
330
47
100
AcDbScale
 70
     0
300
4:1
140
4.0
141
1.0
290
     0
  0
SCALE
  5
56
102
{ACAD_REACTORS
330
47
102
}
330
47
100
AcDbScale
 70
     0
300
8:1
140
8.0
141
1.0
290
     0
  0
SCALE
  5
57
102
{ACAD_REACTORS
330
47
102
}
330
47
100
AcDbScale
 70
     0
300
10:1
140
10.0
141
1.0
290
     0
  0
SCALE
  5
58
102
{ACAD_REACTORS
330
47
102
}
330
47
100
AcDbScale
 70
     0
300
100:1
140
100.0
141
1.0
290
     0
  0
SCALE
  5
59
102
{ACAD_REACTORS
330
47
102
}
330
47
100
AcDbScale
 70
     0
300
1/128" = 1'-0"
140
0.007812
141
12.0
290
     0
  0
SCALE
  5
5A
102
{ACAD_REACTORS
330
47
102
}
330
47
100
AcDbScale
 70
     0
300
1/64" = 1'-0"
140
0.015625
141
12.0
290
     0
  0
SCALE
  5
5B
102
{ACAD_REACTORS
330
47
102
}
330
47
100
AcDbScale
 70
     0
300
1/32" = 1'-0"
140
0.03125
141
12.0
290
     0
  0
SCALE
  5
5C
102
{ACAD_REACTORS
330
47
102
}
330
47
100
AcDbScale
 70
     0
300
1/16" = 1'-0"
140
0.0625
141
12.0
290
     0
  0
SCALE
  5
5D
102
{ACAD_REACTORS
330
47
102
}
330
47
100
AcDbScale
 70
     0
300
3/32" = 1'-0"
140
0.09375
141
12.0
290
     0
  0
SCALE
  5
5E
102
{ACAD_REACTORS
330
47
102
}
330
47
100
AcDbScale
 70
     0
300
1/8" = 1'-0"
140
0.125
141
12.0
290
     0
  0
SCALE
  5
5F
102
{ACAD_REACTORS
330
47
102
}
330
47
100
AcDbScale
 70
     0
300
3/16" = 1'-0"
140
0.1875
141
12.0
290
     0
  0
SCALE
  5
60
102
{ACAD_REACTORS
330
47
102
}
330
47
100
AcDbScale
 70
     0
300
1/4" = 1'-0"
140
0.25
141
12.0
290
     0
  0
SCALE
  5
61
102
{ACAD_REACTORS
330
47
102
}
330
47
100
AcDbScale
 70
     0
300
3/8" = 1'-0"
140
0.375
141
12.0
290
     0
  0
SCALE
  5
62
102
{ACAD_REACTORS
330
47
102
}
330
47
100
AcDbScale
 70
     0
300
1/2" = 1'-0"
140
0.5
141
12.0
290
     0
  0
SCALE
  5
63
102
{ACAD_REACTORS
330
47
102
}
330
47
100
AcDbScale
 70
     0
300
3/4" = 1'-0"
140
0.75
141
12.0
290
     0
  0
SCALE
  5
64
102
{ACAD_REACTORS
330
47
102
}
330
47
100
AcDbScale
 70
     0
300
1" = 1'-0"
140
1.0
141
12.0
290
     0
  0
SCALE
  5
65
102
{ACAD_REACTORS
330
47
102
}
330
47
100
AcDbScale
 70
     0
300
1-1/2" = 1'-0"
140
1.5
141
12.0
290
     0
  0
SCALE
  5
66
102
{ACAD_REACTORS
330
47
102
}
330
47
100
AcDbScale
 70
     0
300
3" = 1'-0"
140
3.0
141
12.0
290
     0
  0
SCALE
  5
67
102
{ACAD_REACTORS
330
47
102
}
330
47
100
AcDbScale
 70
     0
300
6" = 1'-0"
140
6.0
141
12.0
290
     0
  0
SCALE
  5
68
102
{ACAD_REACTORS
330
47
102
}
330
47
100
AcDbScale
 70
     0
300
1'-0" = 1'-0"
140
12.0
141
12.0
290
     0
  0
ACDBSECTIONVIEWSTYLE
  5
252
102
{ACAD_XDICTIONARY
360
277
102
}
102
{ACAD_REACTORS
330
24E
102
}
330
24E
100
AcDbModelDocViewStyle
 70
     0
  3
Metric50
290
     0
100
AcDbSectionViewStyle
 70
     0
 71
     0
 90
      102
 71
     1
340
11
 62
   256
 40
5.0
340
0
340
0
 62
   256
 40
5.0
300
I, O, Q, S, X, Z
 40
10.0
 90
        0
 40
2.5
 90
        0
 71
     2
340
16
 90
       25
 62
   256
340
16
 90
       50
 62
   256
 40
5.0
 40
2.5
 40
5.0
 71
     3
340
11
 62
   256
 40
5.0
 90
        0
 40
15.0
 90
        1
300
%<\AcVar ViewSectionStartId>%-%<\AcVar ViewSectionEndId>% (%<\AcVar ViewScale \f "%sn">%)
 71
     4
 62
   256
 62
   257
300
ANSI31
 40
1.0
 90
        0
290
     0
290
     0
 90
        6
 40
0.0
 40
1.570796326794896
 40
0.2617993877991494
 40
1.308996938995747
 40
-0.2617993877991494
 40
1.832595714594046
  0
TABLESTYLE
  5
6A
102
{ACAD_XDICTIONARY
360
244
102
}
102
{ACAD_REACTORS
330
69
102
}
330
69
100
AcDbTableStyle
280
     0
  3
Standard
 70
     0
 71
     0
 40
0.06
 41
0.06
280
     0
281
     0
  7
Standard
140
0.18
170
     2
 62
     0
 63
     7
283
     0
 90
        4
 91
        0
  1

274
    -2
284
     1
 64
     0
275
    -2
285
     1
 65
     0
276
    -2
286
     1
 66
     0
277
    -2
287
     1
 67
     0
278
    -2
288
     1
 68
     0
279
    -2
289
     1
 69
     0
  7
Standard
140
0.25
170
     5
 62
     0
 63
     7
283
     0
 90
        4
 91
        0
  1

274
    -2
284
     1
 64
     0
275
    -2
285
     1
 65
     0
276
    -2
286
     1
 66
     0
277
    -2
287
     1
 67
     0
278
    -2
288
     1
 68
     0
279
    -2
289
     1
 69
     0
  7
Standard
140
0.18
170
     5
 62
     0
 63
     7
283
     0
 90
        4
 91
        0
  1

274
    -2
284
     1
 64
     0
275
    -2
285
     1
 65
     0
276
    -2
286
     1
 66
     0
277
    -2
287
     1
 67
     0
278
    -2
288
     1
 68
     0
279
    -2
289
     1
 69
     0
  0
VISUALSTYLE
  5
2F
102
{ACAD_REACTORS
330
2A
102
}
330
2A
100
AcDbVisualStyle
  2

 70
     4
177
     3
291
     0
 70
    58
 90
        0
176
     1
 90
        2
176
     1
 90
        0
176
     1
 90
        0
176
     1
 40
0.6
176
     1
 40
30.0
176
     1
 62
     7
420
 16777215
176
     1
 90
        1
176
     1
 90
        4
176
     1
 62
     7
176
     1
 62
   257
176
     1
 90
        1
176
     1
 90
        1
176
     1
 40
1.0
176
     1
 90
        0
176
     1
 62
   257
176
     1
 40
1.0
176
     1
 90
        1
176
     1
 90
        6
176
     1
 90
        2
176
     1
 62
     7
176
     1
 90
        5
176
     1
 90
        0
176
     1
 90
        0
176
     1
290
     0
176
     1
 90
        1
176
     1
 40
0.0
176
     1
 90
        0
176
     1
290
     1
176
     1
290
     1
176
     1
290
     0
176
     1
290
     0
176
     1
290
     0
176
     1
290
     0
176
     1
290
     0
176
     1
290
     0
176
     1
290
     0
176
     1
 90
       50
176
     1
 40
0.0
176
     1
 40
1.0
176
     1
 90
        0
176
     1
 62
    18
420
        0
176
     1
 90
       50
176
     1
 90
        3
176
     1
 62
     5
420
      255
176
     1
290
     0
176
     1
 90
       50
176
     1
 90
       50
176
     1
 90
       50
176
     1
290
     0
176
     1
 90
       50
176
     1
 62
   256
176
     0
 40
1.0
176
     0
 90
        2
176
     1
  1
strokes_ogs.tif
176
     1
290
     0
176
     1
 40
1.0
176
     1
 40
1.0
176
     1
1001
ACAD
1000
AcDbSavedByObjectVersion
1070
     0
  0
VISUALSTYLE
  5
32
102
{ACAD_REACTORS
330
2A
102
}
330
2A
100
AcDbVisualStyle
  2

 70
     7
177
     3
291
     1
 70
    58
 90
        1
176
     1
 90
        0
176
     1
 90
        1
176
     1
 90
        0
176
     1
 40
0.6
176
     1
 40
30.0
176
     1
 62
     7
420
 16777215
176
     1
 90
        0
176
     1
 90
        4
176
     1
 62
     7
176
     1
 62
   257
176
     1
 90
        1
176
     1
 90
        1
176
     1
 40
1.0
176
     1
 90
        8
176
     1
 62
     7
176
     1
 40
1.0
176
     1
 90
        1
176
     1
 90
        6
176
     1
 90
        2
176
     1
 62
     7
176
     1
 90
        5
176
     1
 90
        0
176
     1
 90
        0
176
     1
290
     0
176
     1
 90
        1
176
     1
 40
0.0
176
     1
 90
        0
176
     1
290
     0
176
     1
290
     1
176
     1
290
     1
176
     1
290
     0
176
     1
290
     0
176
     1
290
     0
176
     1
290
     0
176
     1
290
     0
176
     1
290
     0
176
     1
 90
       50
176
     1
 40
0.0
176
     1
 40
1.0
176
     1
 90
        0
176
     1
 62
    18
420
        0
176
     1
 90
       50
176
     1
 90
        3
176
     1
 62
     5
420
      255
176
     1
290
     0
176
     1
 90
       50
176
     1
 90
       50
176
     1
 90
       50
176
     1
290
     0
176
     1
 90
       50
176
     1
 62
   256
176
     0
 40
1.0
176
     0
 90
        2
176
     1
  1
strokes_ogs.tif
176
     1
290
     0
176
     1
 40
1.0
176
     1
 40
1.0
176
     1
1001
ACAD
1000
AcDbSavedByObjectVersion
1070
     0
  0
VISUALSTYLE
  5
36
102
{ACAD_REACTORS
330
2A
102
}
330
2A
100
AcDbVisualStyle
  2

 70
    12
177
     3
291
     1
 70
    58
 90
        2
176
     1
 90
        2
176
     1
 90
        0
176
     1
 90
        0
176
     1
 40
0.6
176
     1
 40
30.0
176
     1
 62
     7
420
 16777215
176
     1
 90
        1
176
     1
 90
        4
176
     1
 62
     7
176
     1
 62
   257
176
     1
 90
        1
176
     1
 90
        1
176
     1
 40
1.0
176
     1
 90
        8
176
     1
 62
     7
176
     1
 40
1.0
176
     1
 90
        1
176
     1
 90
        6
176
     1
 90
        2
176
     1
 62
     7
176
     1
 90
        5
176
     1
 90
        0
176
     1
 90
        0
176
     1
290
     0
176
     1
 90
        1
176
     1
 40
50.0
176
     1
 90
        0
176
     1
290
     0
176
     1
290
     1
176
     1
290
     1
176
     1
290
     0
176
     1
290
     0
176
     1
290
     0
176
     1
290
     0
176
     1
290
     0
176
     1
290
     0
176
     1
 90
       50
176
     1
 40
0.0
176
     1
 40
1.0
176
     1
 90
        0
176
     1
 62
    18
420
        0
176
     1
 90
       50
176
     1
 90
        3
176
     1
 62
     5
420
      255
176
     1
290
     0
176
     1
 90
       50
176
     1
 90
       50
176
     1
 90
       50
176
     1
290
     0
176
     1
 90
       50
176
     1
 62
   256
176
     0
 40
1.0
176
     0
 90
        2
176
     1
  1
strokes_ogs.tif
176
     1
290
     0
176
     1
 40
1.0
176
     1
 40
1.0
176
     1
1001
ACAD
1000
AcDbSavedByObjectVersion
1070
     0
  0
VISUALSTYLE
  5
3A
102
{ACAD_REACTORS
330
2A
102
}
330
2A
100
AcDbVisualStyle
  2

 70
    16
177
     3
291
     1
 70
    58
 90
        2
176
     1
 90
        2
176
     1
 90
        3
176
     1
 90
        0
176
     1
 40
0.6
176
     1
 40
30.0
176
     1
 62
     8
420
  8421504
176
     1
 90
        1
176
     1
 90
        4
176
     1
 62
     7
176
     1
 62
   257
176
     1
 90
        1
176
     1
 90
        1
176
     1
 40
1.0
176
     1
 90
        8
176
     1
 62
     8
420
  8421504
176
     1
 40
1.0
176
     1
 90
        1
176
     1
 90
        6
176
     1
 90
        2
176
     1
 62
     7
176
     1
 90
        5
176
     1
 90
        0
176
     1
 90
        0
176
     1
290
     0
176
     1
 90
        1
176
     1
 40
0.0
176
     1
 90
        0
176
     1
290
     0
176
     1
290
     1
176
     1
290
     1
176
     1
290
     0
176
     1
290
     0
176
     1
290
     0
176
     1
290
     0
176
     1
290
     0
176
     1
290
     0
176
     1
 90
       50
176
     1
 40
0.0
176
     1
 40
1.0
176
     1
 90
        0
176
     1
 62
    18
420
        0
176
     1
 90
       50
176
     1
 90
        3
176
     1
 62
     5
420
      255
176
     1
290
     0
176
     1
 90
       50
176
     1
 90
       50
176
     1
 90
       50
176
     1
290
     0
176
     1
 90
       50
176
     1
 62
   256
176
     0
 40
1.0
176
     0
 90
        2
176
     1
  1
strokes_ogs.tif
176
     1
290
     0
176
     1
 40
1.0
176
     1
 40
1.0
176
     1
1001
ACAD
1000
AcDbSavedByObjectVersion
1070
     0
  0
VISUALSTYLE
  5
34
102
{ACAD_REACTORS
330
2A
102
}
330
2A
100
AcDbVisualStyle
  2

 70
     9
177
     3
291
     0
 70
    58
 90
        3
176
     1
 90
        2
176
     1
 90
        0
176
     1
 90
        0
176
     1
 40
0.6
176
     1
 40
30.0
176
     1
 62
     7
420
 16777215
176
     1
 90
        2
176
     1
 90
        2
176
     1
 62
     7
176
     1
 62
   257
176
     1
 90
        1
176
     1
 90
        1
176
     1
 40
179.0
176
     1
 90
        8
176
     1
 62
     7
176
     1
 40
1.0
176
     1
 90
        1
176
     1
 90
        6
176
     1
 90
        2
176
     1
 62
     7
176
     1
 90
        3
176
     1
 90
        0
176
     1
 90
        0
176
     1
290
     0
176
     1
 90
        1
176
     1
 40
0.0
176
     1
 90
        0
176
     1
290
     0
176
     1
290
     1
176
     1
290
     1
176
     1
290
     0
176
     1
290
     0
176
     1
290
     0
176
     1
290
     0
176
     1
290
     0
176
     1
290
     0
176
     1
 90
       50
176
     1
 40
0.0
176
     1
 40
1.0
176
     1
 90
        0
176
     1
 62
    18
420
        0
176
     1
 90
       50
176
     1
 90
        3
176
     1
 62
     5
420
      255
176
     1
290
     0
176
     1
 90
       50
176
     1
 90
       50
176
     1
 90
       50
176
     1
290
     0
176
     1
 90
       50
176
     1
 62
   256
176
     0
 40
1.0
176
     0
 90
        2
176
     1
  1
strokes_ogs.tif
176
     1
290
     0
176
     1
 40
1.0
176
     1
 40
1.0
176
     1
1001
ACAD
1000
AcDbSavedByObjectVersion
1070
     0
  0
VISUALSTYLE
  5
35
102
{ACAD_REACTORS
330
2A
102
}
330
2A
100
AcDbVisualStyle
  2

 70
    11
177
     3
291
     1
 70
    58
 90
        2
176
     1
 90
        2
176
     1
 90
        0
176
     1
 90
        0
176
     1
 40
0.6
176
     1
 40
30.0
176
     1
 62
     7
420
 16777215
176
     1
 90
        1
176
     1
 90
        4
176
     1
 62
     7
176
     1
 62
   257
176
     1
 90
        1
176
     1
 90
        1
176
     1
 40
1.0
176
     1
 90
        8
176
     1
 62
     7
176
     1
 40
1.0
176
     1
 90
        1
176
     1
 90
        6
176
     1
 90
        2
176
     1
 62
     7
176
     1
 90
        5
176
     1
 90
        0
176
     1
 90
        0
176
     1
290
     0
176
     1
 90
        1
176
     1
 40
-50.0
176
     1
 90
        0
176
     1
290
     0
176
     1
290
     1
176
     1
290
     1
176
     1
290
     0
176
     1
290
     0
176
     1
290
     0
176
     1
290
     0
176
     1
290
     0
176
     1
290
     0
176
     1
 90
       50
176
     1
 40
0.0
176
     1
 40
1.0
176
     1
 90
        0
176
     1
 62
    18
420
        0
176
     1
 90
       50
176
     1
 90
        3
176
     1
 62
     5
420
      255
176
     1
290
     0
176
     1
 90
       50
176
     1
 90
       50
176
     1
 90
       50
176
     1
290
     0
176
     1
 90
       50
176
     1
 62
   256
176
     0
 40
1.0
176
     0
 90
        2
176
     1
  1
strokes_ogs.tif
176
     1
290
     0
176
     1
 40
1.0
176
     1
 40
1.0
176
     1
1001
ACAD
1000
AcDbSavedByObjectVersion
1070
     0
  0
VISUALSTYLE
  5
3D
102
{ACAD_REACTORS
330
2A
102
}
330
2A
100
AcDbVisualStyle
  2

 70
    22
177
     3
291
     1
 70
    58
 90
        2
176
     0
 90
        2
176
     0
 90
        0
176
     0
 90
        0
176
     0
 40
0.6
176
     0
 40
30.0
176
     0
 62
     7
420
 16777215
176
     0
 90
        1
176
     0
 90
        4
176
     0
 62
     7
176
     0
 62
   257
176
     0
 90
        1
176
     0
 90
        1
176
     0
 40
1.0
176
     0
 90
        8
176
     2
 62
     7
176
     0
 40
1.0
176
     0
 90
        1
176
     0
 90
        6
176
     0
 90
        2
176
     0
 62
     7
176
     0
 90
        5
176
     0
 90
        0
176
     0
 90
        0
176
     0
290
     0
176
     0
 90
        1
176
     0
 40
0.0
176
     0
 90
        0
176
     0
290
     0
176
     0
290
     1
176
     0
290
     1
176
     0
290
     0
176
     0
290
     0
176
     0
290
     0
176
     0
290
     0
176
     0
290
     0
176
     0
290
     0
176
     0
 90
       50
176
     0
 40
0.0
176
     0
 40
1.0
176
     0
 90
        0
176
     0
 62
    18
420
        0
176
     0
 90
       50
176
     0
 90
        3
176
     0
 62
     5
420
      255
176
     0
290
     0
176
     0
 90
       50
176
     0
 90
       50
176
     0
 90
       50
176
     0
290
     0
176
     0
 90
       50
176
     0
 62
   256
176
     0
 40
1.0
176
     0
 90
        2
176
     0
  1
strokes_ogs.tif
176
     0
290
     0
176
     0
 40
1.0
176
     0
 40
1.0
176
     0
1001
ACAD
1000
AcDbSavedByObjectVersion
1070
     0
  0
VISUALSTYLE
  5
39
102
{ACAD_REACTORS
330
2A
102
}
330
2A
100
AcDbVisualStyle
  2

 70
    15
177
     3
291
     1
 70
    58
 90
        2
176
     1
 90
        2
176
     1
 90
        0
176
     1
 90
        0
176
     1
 40
0.6
176
     1
 40
30.0
176
     1
 62
     7
420
 16777215
176
     1
 90
        1
176
     1
 90
        4
176
     1
 62
     7
176
     1
 62
   257
176
     1
 90
        1
176
     1
 90
        1
176
     1
 40
1.0
176
     1
 90
        8
176
     1
 62
     7
176
     1
 40
1.0
176
     1
 90
        1
176
     1
 90
        6
176
     1
 90
        2
176
     1
 62
     7
176
     1
 90
        5
176
     1
 90
        0
176
     1
 90
        0
176
     1
290
     0
176
     1
 90
        1
176
     1
 40
0.0
176
     1
 90
        0
176
     1
290
     0
176
     1
290
     1
176
     1
290
     1
176
     1
290
     0
176
     1
290
     0
176
     1
290
     0
176
     1
290
     0
176
     1
290
     0
176
     1
290
     0
176
     1
 90
       50
176
     1
 40
0.0
176
     1
 40
1.0
176
     1
 90
        0
176
     1
 62
    18
420
        0
176
     1
 90
       50
176
     1
 90
        3
176
     1
 62
     5
420
      255
176
     1
290
     0
176
     1
 90
       50
176
     1
 90
       50
176
     1
 90
       50
176
     1
290
     0
176
     1
 90
       50
176
     1
 62
   256
176
     0
 40
1.0
176
     0
 90
        2
176
     1
  1
strokes_ogs.tif
176
     1
290
     0
176
     1
 40
1.0
176
     1
 40
1.0
176
     1
1001
ACAD
1000
AcDbSavedByObjectVersion
1070
     0
  0
VISUALSTYLE
  5
2B
102
{ACAD_REACTORS
330
2A
102
}
330
2A
100
AcDbVisualStyle
  2

 70
     0
177
     3
291
     1
 70
    58
 90
        2
176
     1
 90
        1
176
     1
 90
        1
176
     1
 90
        2
176
     1
 40
0.6
176
     1
 40
30.0
176
     1
 62
     7
420
 16777215
176
     1
 90
        0
176
     1
 90
        0
176
     1
 62
     7
176
     1
 62
   257
176
     1
 90
        1
176
     1
 90
        1
176
     1
 40
1.0
176
     1
 90
        8
176
     1
 62
     7
176
     1
 40
1.0
176
     1
 90
        1
176
     1
 90
        6
176
     1
 90
        2
176
     1
 62
     7
176
     1
 90
        5
176
     1
 90
        0
176
     1
 90
        0
176
     1
290
     0
176
     1
 90
       13
176
     1
 40
0.0
176
     1
 90
        0
176
     1
290
     0
176
     1
290
     1
176
     1
290
     1
176
     1
290
     0
176
     1
290
     0
176
     1
290
     0
176
     1
290
     0
176
     1
290
     0
176
     1
290
     0
176
     1
 90
       50
176
     1
 40
0.0
176
     1
 40
1.0
176
     1
 90
        0
176
     1
 62
    18
420
        0
176
     1
 90
       50
176
     1
 90
        3
176
     1
 62
     5
420
      255
176
     1
290
     0
176
     1
 90
       50
176
     1
 90
       50
176
     1
 90
       50
176
     1
290
     0
176
     1
 90
       50
176
     1
 62
   256
176
     0
 40
1.0
176
     0
 90
        2
176
     1
  1
strokes_ogs.tif
176
     1
290
     0
176
     1
 40
1.0
176
     1
 40
1.0
176
     1
1001
ACAD
1000
AcDbSavedByObjectVersion
1070
     0
  0
VISUALSTYLE
  5
2C
102
{ACAD_REACTORS
330
2A
102
}
330
2A
100
AcDbVisualStyle
  2

 70
     1
177
     3
291
     1
 70
    58
 90
        2
176
     1
 90
        1
176
     1
 90
        1
176
     1
 90
        2
176
     1
 40
0.6
176
     1
 40
30.0
176
     1
 62
     7
420
 16777215
176
     1
 90
        1
176
     1
 90
        0
176
     1
 62
     7
176
     1
 62
   257
176
     1
 90
        1
176
     1
 90
        1
176
     1
 40
1.0
176
     1
 90
        0
176
     1
 62
   257
176
     1
 40
1.0
176
     1
 90
        1
176
     1
 90
        6
176
     1
 90
        2
176
     1
 62
     7
176
     1
 90
        5
176
     1
 90
        0
176
     1
 90
        0
176
     1
290
     0
176
     1
 90
       13
176
     1
 40
0.0
176
     1
 90
        0
176
     1
290
     0
176
     1
290
     1
176
     1
290
     1
176
     1
290
     0
176
     1
290
     0
176
     1
290
     0
176
     1
290
     0
176
     1
290
     0
176
     1
290
     0
176
     1
 90
       50
176
     1
 40
0.0
176
     1
 40
1.0
176
     1
 90
        0
176
     1
 62
    18
420
        0
176
     1
 90
       50
176
     1
 90
        3
176
     1
 62
     5
420
      255
176
     1
290
     0
176
     1
 90
       50
176
     1
 90
       50
176
     1
 90
       50
176
     1
290
     0
176
     1
 90
       50
176
     1
 62
   256
176
     0
 40
1.0
176
     0
 90
        2
176
     1
  1
strokes_ogs.tif
176
     1
290
     0
176
     1
 40
1.0
176
     1
 40
1.0
176
     1
1001
ACAD
1000
AcDbSavedByObjectVersion
1070
     0
  0
VISUALSTYLE
  5
2D
102
{ACAD_REACTORS
330
2A
102
}
330
2A
100
AcDbVisualStyle
  2

 70
     2
177
     3
291
     1
 70
    58
 90
        2
176
     1
 90
        2
176
     1
 90
        1
176
     1
 90
        2
176
     1
 40
0.6
176
     1
 40
30.0
176
     1
 62
     7
420
 16777215
176
     1
 90
        0
176
     1
 90
        0
176
     1
 62
     7
176
     1
 62
   257
176
     1
 90
        1
176
     1
 90
        1
176
     1
 40
1.0
176
     1
 90
        0
176
     1
 62
     7
176
     1
 40
1.0
176
     1
 90
        1
176
     1
 90
        6
176
     1
 90
        2
176
     1
 62
     7
176
     1
 90
        5
176
     1
 90
        0
176
     1
 90
        0
176
     1
290
     0
176
     1
 90
       13
176
     1
 40
0.0
176
     1
 90
        0
176
     1
290
     0
176
     1
290
     1
176
     1
290
     1
176
     1
290
     0
176
     1
290
     0
176
     1
290
     0
176
     1
290
     0
176
     1
290
     0
176
     1
290
     0
176
     1
 90
       50
176
     1
 40
0.0
176
     1
 40
1.0
176
     1
 90
        0
176
     1
 62
    18
420
        0
176
     1
 90
       50
176
     1
 90
        3
176
     1
 62
     5
420
      255
176
     1
290
     0
176
     1
 90
       50
176
     1
 90
       50
176
     1
 90
       50
176
     1
290
     0
176
     1
 90
       50
176
     1
 62
   256
176
     0
 40
1.0
176
     0
 90
        2
176
     1
  1
strokes_ogs.tif
176
     1
290
     0
176
     1
 40
1.0
176
     1
 40
1.0
176
     1
1001
ACAD
1000
AcDbSavedByObjectVersion
1070
     0
  0
VISUALSTYLE
  5
2E
102
{ACAD_REACTORS
330
2A
102
}
330
2A
100
AcDbVisualStyle
  2

 70
     3
177
     3
291
     1
 70
    58
 90
        2
176
     1
 90
        2
176
     1
 90
        1
176
     1
 90
        2
176
     1
 40
0.6
176
     1
 40
30.0
176
     1
 62
     7
420
 16777215
176
     1
 90
        1
176
     1
 90
        0
176
     1
 62
     7
176
     1
 62
   257
176
     1
 90
        1
176
     1
 90
        1
176
     1
 40
1.0
176
     1
 90
        0
176
     1
 62
   257
176
     1
 40
1.0
176
     1
 90
        1
176
     1
 90
        6
176
     1
 90
        2
176
     1
 62
     7
176
     1
 90
        5
176
     1
 90
        0
176
     1
 90
        0
176
     1
290
     0
176
     1
 90
       13
176
     1
 40
0.0
176
     1
 90
        0
176
     1
290
     0
176
     1
290
     1
176
     1
290
     1
176
     1
290
     0
176
     1
290
     0
176
     1
290
     0
176
     1
290
     0
176
     1
290
     0
176
     1
290
     0
176
     1
 90
       50
176
     1
 40
0.0
176
     1
 40
1.0
176
     1
 90
        0
176
     1
 62
    18
420
        0
176
     1
 90
       50
176
     1
 90
        3
176
     1
 62
     5
420
      255
176
     1
290
     0
176
     1
 90
       50
176
     1
 90
       50
176
     1
 90
       50
176
     1
290
     0
176
     1
 90
       50
176
     1
 62
   256
176
     0
 40
1.0
176
     0
 90
        2
176
     1
  1
strokes_ogs.tif
176
     1
290
     0
176
     1
 40
1.0
176
     1
 40
1.0
176
     1
1001
ACAD
1000
AcDbSavedByObjectVersion
1070
     0
  0
VISUALSTYLE
  5
31
102
{ACAD_REACTORS
330
2A
102
}
330
2A
100
AcDbVisualStyle
  2

 70
     6
177
     3
291
     0
 70
    58
 90
        1
176
     1
 90
        2
176
     1
 90
        2
176
     1
 90
        0
176
     1
 40
0.6
176
     1
 40
30.0
176
     1
 62
     7
420
 16777215
176
     1
 90
        2
176
     1
 90
        2
176
     1
 62
     7
176
     1
 62
   257
176
     1
 90
        2
176
     1
 90
        1
176
     1
 40
40.0
176
     1
 90
        0
176
     1
 62
   257
176
     1
 40
1.0
176
     1
 90
        1
176
     1
 90
        6
176
     1
 90
        2
176
     1
 62
     7
176
     1
 90
        3
176
     1
 90
        0
176
     1
 90
        0
176
     1
290
     0
176
     1
 90
        1
176
     1
 40
0.0
176
     1
 90
        0
176
     1
290
     0
176
     1
290
     1
176
     1
290
     1
176
     1
290
     0
176
     1
290
     0
176
     1
290
     0
176
     1
290
     0
176
     1
290
     0
176
     1
290
     0
176
     1
 90
       50
176
     1
 40
0.0
176
     1
 40
1.0
176
     1
 90
        0
176
     1
 62
    18
420
        0
176
     1
 90
       50
176
     1
 90
        3
176
     1
 62
     5
420
      255
176
     1
290
     0
176
     1
 90
       50
176
     1
 90
       50
176
     1
 90
       50
176
     1
290
     0
176
     1
 90
       50
176
     1
 62
   256
176
     0
 40
1.0
176
     0
 90
        2
176
     1
  1
strokes_ogs.tif
176
     1
290
     0
176
     1
 40
1.0
176
     1
 40
1.0
176
     1
1001
ACAD
1000
AcDbSavedByObjectVersion
1070
     0
  0
VISUALSTYLE
  5
3B
102
{ACAD_REACTORS
330
2A
102
}
330
2A
100
AcDbVisualStyle
  2

 70
    20
177
     3
291
     1
 70
    58
 90
        2
176
     0
 90
        2
176
     0
 90
        0
176
     0
 90
        0
176
     0
 40
0.6
176
     0
 40
30.0
176
     0
 62
     7
420
 16777215
176
     0
 90
        1
176
     0
 90
        4
176
     0
 62
     7
176
     0
 62
   257
176
     0
 90
        1
176
     0
 90
        1
176
     0
 40
1.0
176
     0
 90
       10
176
     2
 62
     7
176
     0
 40
1.0
176
     0
 90
        1
176
     0
 90
        6
176
     0
 90
        2
176
     0
 62
     7
176
     0
 90
        5
176
     0
 90
        0
176
     0
 90
        0
176
     0
290
     0
176
     0
 90
        1
176
     0
 40
0.0
176
     0
 90
        0
176
     0
290
     0
176
     0
290
     1
176
     0
290
     1
176
     0
290
     0
176
     0
290
     0
176
     0
290
     0
176
     0
290
     0
176
     0
290
     0
176
     0
290
     0
176
     0
 90
       50
176
     0
 40
0.0
176
     0
 40
1.0
176
     0
 90
        0
176
     0
 62
    18
420
        0
176
     0
 90
       50
176
     0
 90
        3
176
     0
 62
     5
420
      255
176
     0
290
     0
176
     0
 90
       50
176
     0
 90
       50
176
     0
 90
       50
176
     0
290
     0
176
     0
 90
       50
176
     0
 62
   256
176
     0
 40
1.0
176
     0
 90
        2
176
     0
  1
strokes_ogs.tif
176
     0
290
     0
176
     0
 40
1.0
176
     0
 40
1.0
176
     0
1001
ACAD
1000
AcDbSavedByObjectVersion
1070
     0
  0
VISUALSTYLE
  5
38
102
{ACAD_REACTORS
330
2A
102
}
330
2A
100
AcDbVisualStyle
  2

 70
    14
177
     3
291
     1
 70
    58
 90
        2
176
     1
 90
        2
176
     1
 90
        0
176
     1
 90
        0
176
     1
 40
0.6
176
     1
 40
30.0
176
     1
 62
     7
420
 16777215
176
     1
 90
        1
176
     1
 90
        4
176
     1
 62
     7
176
     1
 62
   257
176
     1
 90
        7
176
     1
 90
        7
176
     1
 40
1.0
176
     1
 90
        8
176
     1
 62
     7
176
     1
 40
1.0
176
     1
 90
        1
176
     1
 90
        6
176
     1
 90
        2
176
     1
 62
     7
176
     1
 90
        5
176
     1
 90
        0
176
     1
 90
        0
176
     1
290
     0
176
     1
 90
        1
176
     1
 40
0.0
176
     1
 90
        0
176
     1
290
     0
176
     1
290
     1
176
     1
290
     1
176
     1
290
     0
176
     1
290
     0
176
     1
290
     0
176
     1
290
     0
176
     1
290
     0
176
     1
290
     0
176
     1
 90
       50
176
     1
 40
0.0
176
     1
 40
1.0
176
     1
 90
        0
176
     1
 62
    18
420
        0
176
     1
 90
       50
176
     1
 90
        3
176
     1
 62
     5
420
      255
176
     1
290
     0
176
     1
 90
       50
176
     1
 90
       50
176
     1
 90
       50
176
     1
290
     0
176
     1
 90
       50
176
     1
 62
   256
176
     0
 40
1.0
176
     0
 90
        2
176
     1
  1
strokes_ogs.tif
176
     1
290
     0
176
     1
 40
1.0
176
     1
 40
1.0
176
     1
1001
ACAD
1000
AcDbSavedByObjectVersion
1070
     0
  0
VISUALSTYLE
  5
3C
102
{ACAD_REACTORS
330
2A
102
}
330
2A
100
AcDbVisualStyle
  2

 70
    21
177
     3
291
     1
 70
    58
 90
        2
176
     0
 90
        2
176
     0
 90
        0
176
     0
 90
        0
176
     0
 40
0.6
176
     0
 40
30.0
176
     0
 62
     7
420
 16777215
176
     0
 90
        1
176
     0
 90
        4
176
     0
 62
     7
176
     0
 62
   257
176
     0
 90
        1
176
     0
 90
        1
176
     0
 40
1.0
176
     0
 90
        9
176
     2
 62
     7
176
     0
 40
1.0
176
     0
 90
        1
176
     0
 90
        6
176
     0
 90
        2
176
     0
 62
     7
176
     0
 90
        5
176
     0
 90
        0
176
     0
 90
        0
176
     0
290
     0
176
     0
 90
        1
176
     0
 40
0.0
176
     0
 90
        0
176
     0
290
     0
176
     0
290
     1
176
     0
290
     1
176
     0
290
     0
176
     0
290
     0
176
     0
290
     0
176
     0
290
     0
176
     0
290
     0
176
     0
290
     0
176
     0
 90
       50
176
     0
 40
0.0
176
     0
 40
1.0
176
     0
 90
        0
176
     0
 62
    18
420
        0
176
     0
 90
       50
176
     0
 90
        3
176
     0
 62
     5
420
      255
176
     0
290
     0
176
     0
 90
       50
176
     0
 90
       50
176
     0
 90
       50
176
     0
290
     0
176
     0
 90
       50
176
     0
 62
   256
176
     0
 40
1.0
176
     0
 90
        2
176
     0
  1
strokes_ogs.tif
176
     0
290
     0
176
     0
 40
1.0
176
     0
 40
1.0
176
     0
1001
ACAD
1000
AcDbSavedByObjectVersion
1070
     0
  0
VISUALSTYLE
  5
33
102
{ACAD_REACTORS
330
2A
102
}
330
2A
100
AcDbVisualStyle
  2

 70
     8
177
     3
291
     0
 70
    58
 90
        2
176
     1
 90
        3
176
     1
 90
        0
176
     1
 90
        2
176
     1
 40
0.6
176
     1
 40
30.0
176
     1
 62
     7
420
 16777215
176
     1
 90
        0
176
     1
 90
        0
176
     1
 62
     7
176
     1
 62
   257
176
     1
 90
        1
176
     1
 90
        1
176
     1
 40
1.0
176
     1
 90
        8
176
     1
 62
   257
176
     1
 40
1.0
176
     1
 90
        1
176
     1
 90
        6
176
     1
 90
        2
176
     1
 62
     7
176
     1
 90
        3
176
     1
 90
        0
176
     1
 90
        0
176
     1
290
     0
176
     1
 90
       13
176
     1
 40
0.0
176
     1
 90
        0
176
     1
290
     0
176
     1
290
     1
176
     1
290
     1
176
     1
290
     0
176
     1
290
     0
176
     1
290
     0
176
     1
290
     0
176
     1
290
     0
176
     1
290
     0
176
     1
 90
       50
176
     1
 40
0.0
176
     1
 40
1.0
176
     1
 90
        0
176
     1
 62
    18
420
        0
176
     1
 90
       50
176
     1
 90
        3
176
     1
 62
     5
420
      255
176
     1
290
     0
176
     1
 90
       50
176
     1
 90
       50
176
     1
 90
       50
176
     1
290
     0
176
     1
 90
       50
176
     1
 62
   256
176
     0
 40
1.0
176
     0
 90
        2
176
     1
  1
strokes_ogs.tif
176
     1
290
     0
176
     1
 40
1.0
176
     1
 40
1.0
176
     1
1001
ACAD
1000
AcDbSavedByObjectVersion
1070
     0
  0
VISUALSTYLE
  5
42
102
{ACAD_REACTORS
330
2A
102
}
330
2A
100
AcDbVisualStyle
  2

 70
    27
177
     3
291
     0
 70
    58
 90
        2
176
     1
 90
        2
176
     1
 90
        1
176
     1
 90
        2
176
     1
 40
0.6
176
     1
 40
30.0
176
     1
 62
     7
420
 16777215
176
     1
 90
        0
176
     1
 90
        4
176
     1
 62
     7
176
     1
 62
   257
176
     1
 90
        1
176
     1
 90
        1
176
     1
 40
1.0
176
     1
 90
        8
176
     1
 62
   257
176
     1
 40
1.0
176
     1
 90
        1
176
     1
 90
        6
176
     1
 90
        2
176
     1
 62
     8
420
  7895160
176
     1
 90
        3
176
     1
 90
        0
176
     1
 90
        0
176
     1
290
     0
176
     1
 90
        5
176
     1
 40
0.0
176
     1
 90
        0
176
     1
290
     0
176
     1
290
     1
176
     1
290
     1
176
     1
290
     0
176
     1
290
     0
176
     1
290
     0
176
     1
290
     0
176
     1
290
     0
176
     1
290
     0
176
     1
 90
       50
176
     1
 40
0.0
176
     1
 40
1.0
176
     1
 90
        0
176
     1
 62
    18
420
        0
176
     1
 90
       50
176
     1
 90
        3
176
     1
 62
     5
420
      255
176
     1
290
     0
176
     1
 90
       50
176
     1
 90
       50
176
     1
 90
       50
176
     1
290
     0
176
     1
 90
       50
176
     1
 62
   256
176
     0
 40
1.0
176
     0
 90
        2
176
     1
  1
strokes_ogs.tif
176
     1
290
     0
176
     1
 40
1.0
176
     1
 40
1.0
176
     1
1001
ACAD
1000
AcDbSavedByObjectVersion
1070
     0
  0
VISUALSTYLE
  5
41
102
{ACAD_REACTORS
330
2A
102
}
330
2A
100
AcDbVisualStyle
  2

 70
    26
177
     3
291
     0
 70
    58
 90
        2
176
     1
 90
        2
176
     1
 90
        1
176
     1
 90
        2
176
     1
 40
0.6
176
     1
 40
30.0
176
     1
 62
     7
420
 16777215
176
     1
 90
        1
176
     1
 90
       10
176
     1
 62
     7
176
     1
 62
   257
176
     1
 90
        2
176
     1
 90
        1
176
     1
 40
1.0
176
     1
 90
        8
176
     1
 62
   257
176
     1
 40
1.0
176
     1
 90
        1
176
     1
 90
        6
176
     1
 90
        2
176
     1
 62
     7
176
     1
 90
        3
176
     1
 90
        0
176
     1
 90
        0
176
     1
290
     0
176
     1
 90
        5
176
     1
 40
0.0
176
     1
 90
        0
176
     1
290
     0
176
     1
290
     1
176
     1
290
     1
176
     1
290
     0
176
     1
290
     0
176
     1
290
     0
176
     1
290
     0
176
     1
290
     0
176
     1
290
     0
176
     1
 90
       50
176
     1
 40
0.0
176
     1
 40
1.0
176
     1
 90
        0
176
     1
 62
    18
420
        0
176
     1
 90
       50
176
     1
 90
        3
176
     1
 62
     5
420
      255
176
     1
290
     0
176
     1
 90
       50
176
     1
 90
       50
176
     1
 90
       50
176
     1
290
     0
176
     1
 90
       50
176
     1
 62
   256
176
     0
 40
1.0
176
     0
 90
        2
176
     1
  1
strokes_ogs.tif
176
     1
290
     0
176
     1
 40
1.0
176
     1
 40
1.0
176
     1
1001
ACAD
1000
AcDbSavedByObjectVersion
1070
     0
  0
VISUALSTYLE
  5
3E
102
{ACAD_REACTORS
330
2A
102
}
330
2A
100
AcDbVisualStyle
  2

 70
    23
177
     3
291
     0
 70
    58
 90
        2
176
     1
 90
        2
176
     1
 90
        3
176
     1
 90
        0
176
     1
 40
0.6
176
     1
 40
30.0
176
     1
 62
     7
420
 16777215
176
     1
 90
        2
176
     1
 90
        2
176
     1
 62
     7
176
     1
 62
     7
176
     1
 90
        1
176
     1
 90
        1
176
     1
 40
40.0
176
     1
 90
        8
176
     1
 62
     7
176
     1
 40
1.0
176
     1
 90
        1
176
     1
 90
        6
176
     1
 90
        2
176
     1
 62
     7
176
     1
 90
        3
176
     1
 90
        0
176
     1
 90
        0
176
     1
290
     0
176
     1
 90
        1
176
     1
 40
0.0
176
     1
 90
        0
176
     1
290
     0
176
     1
290
     1
176
     1
290
     1
176
     1
290
     0
176
     1
290
     0
176
     1
290
     0
176
     1
290
     0
176
     1
290
     0
176
     1
290
     0
176
     1
 90
       50
176
     1
 40
0.0
176
     1
 40
1.0
176
     1
 90
        0
176
     1
 62
    18
420
        0
176
     1
 90
       50
176
     1
 90
        3
176
     1
 62
     5
420
      255
176
     1
290
     0
176
     1
 90
       50
176
     1
 90
       50
176
     1
 90
       50
176
     1
290
     0
176
     1
 90
       50
176
     1
 62
   256
176
     0
 40
1.0
176
     0
 90
        2
176
     1
  1
strokes_ogs.tif
176
     1
290
     0
176
     1
 40
1.0
176
     1
 40
1.0
176
     1
1001
ACAD
1000
AcDbSavedByObjectVersion
1070
     0
  0
VISUALSTYLE
  5
3F
102
{ACAD_REACTORS
330
2A
102
}
330
2A
100
AcDbVisualStyle
  2

 70
    24
177
     3
291
     0
 70
    58
 90
        1
176
     1
 90
        2
176
     1
 90
        2
176
     1
 90
        0
176
     1
 40
0.6
176
     1
 40
30.0
176
     1
 62
     7
420
 16777215
176
     1
 90
        2
176
     1
 90
        2
176
     1
 62
     7
176
     1
 62
     7
176
     1
 90
        1
176
     1
 90
        1
176
     1
 40
40.0
176
     1
 90
       11
176
     1
 62
     7
176
     1
 40
1.0
176
     1
 90
        1
176
     1
 90
        6
176
     1
 90
        2
176
     1
 62
     7
176
     1
 90
        6
176
     1
 90
        0
176
     1
 90
        0
176
     1
290
     0
176
     1
 90
        1
176
     1
 40
0.0
176
     1
 90
        0
176
     1
290
     0
176
     1
290
     1
176
     1
290
     1
176
     1
290
     0
176
     1
290
     0
176
     1
290
     0
176
     1
290
     0
176
     1
290
     0
176
     1
290
     0
176
     1
 90
       50
176
     1
 40
0.0
176
     1
 40
1.0
176
     1
 90
        0
176
     1
 62
    18
420
        0
176
     1
 90
       50
176
     1
 90
        3
176
     1
 62
     5
420
      255
176
     1
290
     0
176
     1
 90
       50
176
     1
 90
       50
176
     1
 90
       50
176
     1
290
     0
176
     1
 90
       50
176
     1
 62
   256
176
     0
 40
1.0
176
     0
 90
        2
176
     1
  1
strokes_ogs.tif
176
     1
290
     0
176
     1
 40
1.0
176
     1
 40
1.0
176
     1
1001
ACAD
1000
AcDbSavedByObjectVersion
1070
     0
  0
VISUALSTYLE
  5
37
102
{ACAD_REACTORS
330
2A
102
}
330
2A
100
AcDbVisualStyle
  2

 70
    13
177
     3
291
     1
 70
    58
 90
        2
176
     1
 90
        2
176
     1
 90
        0
176
     1
 90
        0
176
     1
 40
0.6
176
     1
 40
30.0
176
     1
 62
     7
420
 16777215
176
     1
 90
        1
176
     1
 90
        4
176
     1
 62
     7
176
     1
 62
   257
176
     1
 90
        1
176
     1
 90
        1
176
     1
 40
1.0
176
     1
 90
       12
176
     1
 62
     7
176
     1
 40
1.0
176
     1
 90
        1
176
     1
 90
        6
176
     1
 90
        2
176
     1
 62
     7
176
     1
 90
        5
176
     1
 90
        0
176
     1
 90
        0
176
     1
290
     0
176
     1
 90
        1
176
     1
 40
0.0
176
     1
 90
        0
176
     1
290
     0
176
     1
290
     1
176
     1
290
     1
176
     1
290
     0
176
     1
290
     0
176
     1
290
     0
176
     1
290
     0
176
     1
290
     0
176
     1
290
     0
176
     1
 90
       50
176
     1
 40
0.0
176
     1
 40
1.0
176
     1
 90
        0
176
     1
 62
    18
420
        0
176
     1
 90
       50
176
     1
 90
        3
176
     1
 62
     5
420
      255
176
     1
290
     0
176
     1
 90
       50
176
     1
 90
       50
176
     1
 90
       50
176
     1
290
     0
176
     1
 90
       50
176
     1
 62
   256
176
     0
 40
1.0
176
     0
 90
        2
176
     1
  1
strokes_ogs.tif
176
     1
290
     0
176
     1
 40
1.0
176
     1
 40
1.0
176
     1
1001
ACAD
1000
AcDbSavedByObjectVersion
1070
     0
  0
VISUALSTYLE
  5
30
102
{ACAD_REACTORS
330
2A
102
}
330
2A
100
AcDbVisualStyle
  2

 70
     5
177
     3
291
     0
 70
    58
 90
        0
176
     1
 90
        2
176
     1
 90
        0
176
     1
 90
        0
176
     1
 40
0.6
176
     1
 40
30.0
176
     1
 62
     7
420
 16777215
176
     1
 90
        1
176
     1
 90
        4
176
     1
 62
     7
176
     1
 62
   257
176
     1
 90
        1
176
     1
 90
        1
176
     1
 40
1.0
176
     1
 90
        0
176
     1
 62
   257
176
     1
 40
1.0
176
     1
 90
        1
176
     1
 90
        6
176
     1
 90
        2
176
     1
 62
     7
176
     1
 90
        3
176
     1
 90
        0
176
     1
 90
        0
176
     1
290
     0
176
     1
 90
        1
176
     1
 40
0.0
176
     1
 90
        0
176
     1
290
     0
176
     1
290
     1
176
     1
290
     1
176
     1
290
     0
176
     1
290
     0
176
     1
290
     0
176
     1
290
     0
176
     1
290
     0
176
     1
290
     0
176
     1
 90
       50
176
     1
 40
0.0
176
     1
 40
1.0
176
     1
 90
        0
176
     1
 62
    18
420
        0
176
     1
 90
       50
176
     1
 90
        3
176
     1
 62
     5
420
      255
176
     1
290
     0
176
     1
 90
       50
176
     1
 90
       50
176
     1
 90
       50
176
     1
290
     0
176
     1
 90
       50
176
     1
 62
   256
176
     0
 40
1.0
176
     0
 90
        2
176
     1
  1
strokes_ogs.tif
176
     1
290
     0
176
     1
 40
1.0
176
     1
 40
1.0
176
     1
1001
ACAD
1000
AcDbSavedByObjectVersion
1070
     0
  0
VISUALSTYLE
  5
40
102
{ACAD_REACTORS
330
2A
102
}
330
2A
100
AcDbVisualStyle
  2

 70
    25
177
     3
291
     0
 70
    58
 90
        2
176
     1
 90
        2
176
     1
 90
        1
176
     1
 90
        1
176
     1
 40
0.5
176
     1
 40
30.0
176
     1
 62
     7
420
 16777215
176
     1
 90
        1
176
     1
 90
        0
176
     1
 62
     7
176
     1
 62
   257
176
     1
 90
        1
176
     1
 90
        1
176
     1
 40
1.0
176
     1
 90
        8
176
     1
 62
     7
176
     1
 40
1.0
176
     1
 90
        1
176
     1
 90
        6
176
     1
 90
        2
176
     1
 62
     7
176
     1
 90
        3
176
     1
 90
        0
176
     1
 90
        0
176
     1
290
     0
176
     1
 90
       13
176
     1
 40
0.0
176
     1
 90
        0
176
     1
290
     0
176
     1
290
     1
176
     1
290
     1
176
     1
290
     0
176
     1
290
     0
176
     1
290
     0
176
     1
290
     0
176
     1
290
     0
176
     1
290
     0
176
     1
 90
       50
176
     1
 40
0.0
176
     1
 40
1.0
176
     1
 90
        0
176
     1
 62
    18
420
        0
176
     1
 90
       50
176
     1
 90
        3
176
     1
 62
     5
420
      255
176
     1
290
     0
176
     1
 90
       50
176
     1
 90
       50
176
     1
 90
       50
176
     1
290
     0
176
     1
 90
       50
176
     1
 62
   256
176
     0
 40
1.0
176
     0
 90
        2
176
     1
  1
strokes_ogs.tif
176
     1
290
     0
176
     1
 40
1.0
176
     1
 40
1.0
176
     1
1001
ACAD
1000
AcDbSavedByObjectVersion
1070
     0
  0
DICTIONARYVAR
  5
20B
102
{ACAD_REACTORS
330
20A
102
}
330
20A
100
DictionaryVariables
280
     0
  1
1:1
  0
DICTIONARYVAR
  5
24C
102
{ACAD_REACTORS
330
20A
102
}
330
20A
100
DictionaryVariables
280
     0
  1
STANDARD
  0
DICTIONARYVAR
  5
24B
102
{ACAD_REACTORS
330
20A
102
}
330
20A
100
DictionaryVariables
280
     0
  1
STANDARD
  0
DICTIONARYVAR
  5
270
102
{ACAD_REACTORS
330
20A
102
}
330
20A
100
DictionaryVariables
280
     0
  1
Metric50
  0
DICTIONARYVAR
  5
271
102
{ACAD_REACTORS
330
20A
102
}
330
20A
100
DictionaryVariables
280
     0
  1
Metric50
  0
DICTIONARYVAR
  5
273
102
{ACAD_REACTORS
330
20A
102
}
330
20A
100
DictionaryVariables
280
     0
  1
1
  0
DICTIONARYVAR
  5
274
102
{ACAD_REACTORS
330
20A
102
}
330
20A
100
DictionaryVariables
280
     0
  1
15
  0
DICTIONARYVAR
  5
272
102
{ACAD_REACTORS
330
20A
102
}
330
20A
100
DictionaryVariables
280
     0
  1
0
  0
DICTIONARYVAR
  5
20C
102
{ACAD_REACTORS
330
20A
102
}
330
20A
100
DictionaryVariables
280
     0
  1
1
  0
DICTIONARY
  5
279
330
253
100
AcDbDictionary
280
     1
281
     1
  3
ACAD_XREC_ROUNDTRIP
360
27A
  0
DICTIONARY
  5
240
330
45
100
AcDbDictionary
280
     1
281
     1
  3
ACAD_XREC_ROUNDTRIP
360
241
  0
DICTIONARY
  5
23E
330
44
100
AcDbDictionary
280
     1
281
     1
  3
ACAD_XREC_ROUNDTRIP
360
23F
  0
DICTIONARY
  5
242
330
46
100
AcDbDictionary
280
     1
281
     1
  3
ACAD_XREC_ROUNDTRIP
360
243
  0
DICTIONARY
  5
277
330
252
100
AcDbDictionary
280
     1
281
     1
  3
ACAD_XREC_ROUNDTRIP
360
278
  0
DICTIONARY
  5
244
330
6A
100
AcDbDictionary
280
     1
281
     1
  3
ACAD_ROUNDTRIP_2008_TABLESTYLE_CELLSTYLEMAP
360
275
  0
XRECORD
  5
27A
102
{ACAD_REACTORS
330
279
102
}
330
279
100
AcDbXrecord
280
     1
102
DISPLAYNAME
  1
Metric50
102
FLAGS
 90
        0
  0
XRECORD
  5
241
102
{ACAD_REACTORS
330
240
102
}
330
240
100
AcDbXrecord
280
     1
102
MATERIAL
148
0.0
149
0.0
149
0.0
 93
        0
 94
      127
282
     0
 72
     1
 77
     1
171
     1
175
     1
179
     1
273
     0
  0
XRECORD
  5
23F
102
{ACAD_REACTORS
330
23E
102
}
330
23E
100
AcDbXrecord
280
     1
102
MATERIAL
148
0.0
149
0.0
149
0.0
 93
        0
 94
      127
282
     0
 72
     1
 77
     1
171
     1
175
     1
179
     1
273
     0
  0
XRECORD
  5
243
102
{ACAD_REACTORS
330
242
102
}
330
242
100
AcDbXrecord
280
     1
102
MATERIAL
148
0.0
149
0.0
149
0.0
 93
        0
 94
      127
282
     0
 72
     1
 77
     1
171
     1
175
     1
179
     1
273
     0
  0
XRECORD
  5
278
102
{ACAD_REACTORS
330
277
102
}
330
277
100
AcDbXrecord
280
     1
102
DISPLAYNAME
  1
Metric50
102
FLAGS
 90
        0
  0
CELLSTYLEMAP
  5
275
102
{ACAD_REACTORS
330
244
102
}
330
244
100
AcDbCellStyleMap
 90
        3
300
CELLSTYLE
  1
TABLEFORMAT_BEGIN
 90
        5
170
     1
 91
        0
 92
    32768
 62
   257
 93
        1
300
CONTENTFORMAT
  1
CONTENTFORMAT_BEGIN
 90
        0
 91
        0
 92
        4
 93
        0
300

 40
0.0
140
1.0
 94
        5
 62
     0
340
11
144
0.25
309
CONTENTFORMAT_END
171
     1
301
MARGIN
  1
CELLMARGIN_BEGIN
 40
0.06
 40
0.06
 40
0.06
 40
0.06
 40
0.18
 40
0.18
309
CELLMARGIN_END
 94
        6
 95
        1
302
GRIDFORMAT
  1
GRIDFORMAT_BEGIN
 90
        0
 91
        1
 62
     0
 92
       -2
340
14
 93
        0
 40
0.045
309
GRIDFORMAT_END
 95
        2
302
GRIDFORMAT
  1
GRIDFORMAT_BEGIN
 90
        0
 91
        1
 62
     0
 92
       -2
340
14
 93
        0
 40
0.045
309
GRIDFORMAT_END
 95
        4
302
GRIDFORMAT
  1
GRIDFORMAT_BEGIN
 90
        0
 91
        1
 62
     0
 92
       -2
340
14
 93
        0
 40
0.045
309
GRIDFORMAT_END
 95
        8
302
GRIDFORMAT
  1
GRIDFORMAT_BEGIN
 90
        0
 91
        1
 62
     0
 92
       -2
340
14
 93
        0
 40
0.045
309
GRIDFORMAT_END
 95
       16
302
GRIDFORMAT
  1
GRIDFORMAT_BEGIN
 90
        0
 91
        1
 62
     0
 92
       -2
340
14
 93
        0
 40
0.045
309
GRIDFORMAT_END
 95
       32
302
GRIDFORMAT
  1
GRIDFORMAT_BEGIN
 90
        0
 91
        1
 62
     0
 92
       -2
340
14
 93
        0
 40
0.045
309
GRIDFORMAT_END
309
TABLEFORMAT_END
  1
CELLSTYLE_BEGIN
 90
        1
 91
        1
300
_TITLE
309
CELLSTYLE_END
300
CELLSTYLE
  1
TABLEFORMAT_BEGIN
 90
        5
170
     1
 91
        0
 92
        0
 62
   257
 93
        1
300
CONTENTFORMAT
  1
CONTENTFORMAT_BEGIN
 90
        0
 91
        0
 92
        4
 93
        0
300

 40
0.0
140
1.0
 94
        5
 62
     0
340
11
144
0.18
309
CONTENTFORMAT_END
171
     1
301
MARGIN
  1
CELLMARGIN_BEGIN
 40
0.06
 40
0.06
 40
0.06
 40
0.06
 40
0.18
 40
0.18
309
CELLMARGIN_END
 94
        6
 95
        1
302
GRIDFORMAT
  1
GRIDFORMAT_BEGIN
 90
        0
 91
        1
 62
     0
 92
       -2
340
14
 93
        0
 40
0.045
309
GRIDFORMAT_END
 95
        2
302
GRIDFORMAT
  1
GRIDFORMAT_BEGIN
 90
        0
 91
        1
 62
     0
 92
       -2
340
14
 93
        0
 40
0.045
309
GRIDFORMAT_END
 95
        4
302
GRIDFORMAT
  1
GRIDFORMAT_BEGIN
 90
        0
 91
        1
 62
     0
 92
       -2
340
14
 93
        0
 40
0.045
309
GRIDFORMAT_END
 95
        8
302
GRIDFORMAT
  1
GRIDFORMAT_BEGIN
 90
        0
 91
        1
 62
     0
 92
       -2
340
14
 93
        0
 40
0.045
309
GRIDFORMAT_END
 95
       16
302
GRIDFORMAT
  1
GRIDFORMAT_BEGIN
 90
        0
 91
        1
 62
     0
 92
       -2
340
14
 93
        0
 40
0.045
309
GRIDFORMAT_END
 95
       32
302
GRIDFORMAT
  1
GRIDFORMAT_BEGIN
 90
        0
 91
        1
 62
     0
 92
       -2
340
14
 93
        0
 40
0.045
309
GRIDFORMAT_END
309
TABLEFORMAT_END
  1
CELLSTYLE_BEGIN
 90
        2
 91
        1
300
_HEADER
309
CELLSTYLE_END
300
CELLSTYLE
  1
TABLEFORMAT_BEGIN
 90
        5
170
     1
 91
        0
 92
        0
 62
   257
 93
        1
300
CONTENTFORMAT
  1
CONTENTFORMAT_BEGIN
 90
        0
 91
        0
 92
        4
 93
        0
300

 40
0.0
140
1.0
 94
        2
 62
     0
340
11
144
0.18
309
CONTENTFORMAT_END
171
     1
301
MARGIN
  1
CELLMARGIN_BEGIN
 40
0.06
 40
0.06
 40
0.06
 40
0.06
 40
0.18
 40
0.18
309
CELLMARGIN_END
 94
        6
 95
        1
302
GRIDFORMAT
  1
GRIDFORMAT_BEGIN
 90
        0
 91
        1
 62
     0
 92
       -2
340
14
 93
        0
 40
0.045
309
GRIDFORMAT_END
 95
        2
302
GRIDFORMAT
  1
GRIDFORMAT_BEGIN
 90
        0
 91
        1
 62
     0
 92
       -2
340
14
 93
        0
 40
0.045
309
GRIDFORMAT_END
 95
        4
302
GRIDFORMAT
  1
GRIDFORMAT_BEGIN
 90
        0
 91
        1
 62
     0
 92
       -2
340
14
 93
        0
 40
0.045
309
GRIDFORMAT_END
 95
        8
302
GRIDFORMAT
  1
GRIDFORMAT_BEGIN
 90
        0
 91
        1
 62
     0
 92
       -2
340
14
 93
        0
 40
0.045
309
GRIDFORMAT_END
 95
       16
302
GRIDFORMAT
  1
GRIDFORMAT_BEGIN
 90
        0
 91
        1
 62
     0
 92
       -2
340
14
 93
        0
 40
0.045
309
GRIDFORMAT_END
 95
       32
302
GRIDFORMAT
  1
GRIDFORMAT_BEGIN
 90
        0
 91
        1
 62
     0
 92
       -2
340
14
 93
        0
 40
0.045
309
GRIDFORMAT_END
309
TABLEFORMAT_END
  1
CELLSTYLE_BEGIN
 90
        3
 91
        2
300
_DATA
309
CELLSTYLE_END
  0
ENDSEC
  0
EOF
