  0
SECTION
  2
HEADER
  9
$ACADVER
  1
AC1015
  9
$ACADMAINTVER
 70
    20
  9
$DWGCODEPAGE
  3
ANSI_1252
  9
$INSBASE
 10
0.0
 20
0.0
 30
0.0
  9
$EXTMIN
 10
-46.89525309127566
 20
26.35504555123635
 30
-0.0000000000000247
  9
$EXTMAX
 10
4267.171053832703
 20
2004.26072019874
 30
0.0000000000000351
  9
$LIMMIN
 10
0.0
 20
0.0
  9
$LIMMAX
 10
420.0
 20
297.0
  9
$ORTHOMODE
 70
     1
  9
$REGENMODE
 70
     1
  9
$FILLMODE
 70
     1
  9
$QTEXTMODE
 70
     0
  9
$MIRRTEXT
 70
     0
  9
$LTSCALE
 40
1.0
  9
$ATTMODE
 70
     1
  9
$TEXTSIZE
 40
2.5
  9
$TRACEWID
 40
1.0
  9
$TEXTSTYLE
  7
Standard
  9
$CLAYER
  8
0
  9
$CELTYPE
  6
ByLayer
  9
$CECOLOR
 62
   256
  9
$CELTSCALE
 40
1.0
  9
$DISPSILH
 70
     0
  9
$DIMSCALE
 40
1.0
  9
$DIMASZ
 40
2.5
  9
$DIMEXO
 40
0.625
  9
$DIMDLI
 40
3.75
  9
$DIMRND
 40
0.0
  9
$DIMDLE
 40
0.0
  9
$DIMEXE
 40
1.25
  9
$DIMTP
 40
0.0
  9
$DIMTM
 40
0.0
  9
$DIMTXT
 40
2.5
  9
$DIMCEN
 40
2.5
  9
$DIMTSZ
 40
0.0
  9
$DIMTOL
 70
     0
  9
$DIMLIM
 70
     0
  9
$DIMTIH
 70
     0
  9
$DIMTOH
 70
     0
  9
$DIMSE1
 70
     0
  9
$DIMSE2
 70
     0
  9
$DIMTAD
 70
     1
  9
$DIMZIN
 70
     8
  9
$DIMBLK
  1

  9
$DIMASO
 70
     1
  9
$DIMSHO
 70
     1
  9
$DIMPOST
  1

  9
$DIMAPOST
  1

  9
$DIMALT
 70
     0
  9
$DIMALTD
 70
     3
  9
$DIMALTF
 40
0.03937007874016
  9
$DIMLFAC
 40
1.0
  9
$DIMTOFL
 70
     1
  9
$DIMTVP
 40
0.0
  9
$DIMTIX
 70
     0
  9
$DIMSOXD
 70
     0
  9
$DIMSAH
 70
     0
  9
$DIMBLK1
  1

  9
$DIMBLK2
  1

  9
$DIMSTYLE
  2
ISO-25
  9
$DIMCLRD
 70
     0
  9
$DIMCLRE
 70
     0
  9
$DIMCLRT
 70
     0
  9
$DIMTFAC
 40
1.0
  9
$DIMGAP
 40
0.625
  9
$DIMJUST
 70
     0
  9
$DIMSD1
 70
     0
  9
$DIMSD2
 70
     0
  9
$DIMTOLJ
 70
     0
  9
$DIMTZIN
 70
     8
  9
$DIMALTZ
 70
     0
  9
$DIMALTTZ
 70
     0
  9
$DIMUPT
 70
     0
  9
$DIMDEC
 70
     2
  9
$DIMTDEC
 70
     2
  9
$DIMALTU
 70
     2
  9
$DIMALTTD
 70
     3
  9
$DIMTXSTY
  7
Standard
  9
$DIMAUNIT
 70
     0
  9
$DIMADEC
 70
     0
  9
$DIMALTRND
 40
0.0
  9
$DIMAZIN
 70
     0
  9
$DIMDSEP
 70
    44
  9
$DIMATFIT
 70
     3
  9
$DIMFRAC
 70
     0
  9
$DIMLDRBLK
  1

  9
$DIMLUNIT
 70
     2
  9
$DIMLWD
 70
    -2
  9
$DIMLWE
 70
    -2
  9
$DIMTMOVE
 70
     0
  9
$LUNITS
 70
     2
  9
$LUPREC
 70
     4
  9
$SKETCHINC
 40
1.0
  9
$FILLETRAD
 40
0.0
  9
$AUNITS
 70
     0
  9
$AUPREC
 70
     0
  9
$MENU
  1
.
  9
$ELEVATION
 40
0.0
  9
$PELEVATION
 40
0.0
  9
$THICKNESS
 40
0.0
  9
$LIMCHECK
 70
     0
  9
$CHAMFERA
 40
0.0
  9
$CHAMFERB
 40
0.0
  9
$CHAMFERC
 40
0.0
  9
$CHAMFERD
 40
0.0
  9
$SKPOLY
 70
     0
  9
$TDCREATE
 40
2454768.510881991
  9
$TDUCREATE
 40
2454768.469215324
  9
$TDUPDATE
 40
2455624.697198738
  9
$TDUUPDATE
 40
2455624.655532072
  9
$TDINDWG
 40
0.0373152894
  9
$TDUSRTIMER
 40
0.0373140278
  9
$USRTIMER
 70
     1
  9
$ANGBASE
 50
0.0
  9
$ANGDIR
 70
     0
  9
$PDMODE
 70
     0
  9
$PDSIZE
 40
0.0
  9
$PLINEWID
 40
0.0
  9
$SPLFRAME
 70
     0
  9
$SPLINETYPE
 70
     6
  9
$SPLINESEGS
 70
     8
  9
$HANDSEED
  5
E56
  9
$SURFTAB1
 70
     6
  9
$SURFTAB2
 70
     6
  9
$SURFTYPE
 70
     6
  9
$SURFU
 70
     6
  9
$SURFV
 70
     6
  9
$UCSBASE
  2

  9
$UCSNAME
  2

  9
$UCSORG
 10
0.0
 20
0.0
 30
0.0
  9
$UCSXDIR
 10
1.0
 20
0.0
 30
0.0
  9
$UCSYDIR
 10
0.0
 20
1.0
 30
0.0
  9
$UCSORTHOREF
  2

  9
$UCSORTHOVIEW
 70
     0
  9
$UCSORGTOP
 10
0.0
 20
0.0
 30
0.0
  9
$UCSORGBOTTOM
 10
0.0
 20
0.0
 30
0.0
  9
$UCSORGLEFT
 10
0.0
 20
0.0
 30
0.0
  9
$UCSORGRIGHT
 10
0.0
 20
0.0
 30
0.0
  9
$UCSORGFRONT
 10
0.0
 20
0.0
 30
0.0
  9
$UCSORGBACK
 10
0.0
 20
0.0
 30
0.0
  9
$PUCSBASE
  2

  9
$PUCSNAME
  2

  9
$PUCSORG
 10
0.0
 20
0.0
 30
0.0
  9
$PUCSXDIR
 10
1.0
 20
0.0
 30
0.0
  9
$PUCSYDIR
 10
0.0
 20
1.0
 30
0.0
  9
$PUCSORTHOREF
  2

  9
$PUCSORTHOVIEW
 70
     0
  9
$PUCSORGTOP
 10
0.0
 20
0.0
 30
0.0
  9
$PUCSORGBOTTOM
 10
0.0
 20
0.0
 30
0.0
  9
$PUCSORGLEFT
 10
0.0
 20
0.0
 30
0.0
  9
$PUCSORGRIGHT
 10
0.0
 20
0.0
 30
0.0
  9
$PUCSORGFRONT
 10
0.0
 20
0.0
 30
0.0
  9
$PUCSORGBACK
 10
0.0
 20
0.0
 30
0.0
  9
$USERI1
 70
     0
  9
$USERI2
 70
     0
  9
$USERI3
 70
     0
  9
$USERI4
 70
     0
  9
$USERI5
 70
     0
  9
$USERR1
 40
0.0
  9
$USERR2
 40
0.0
  9
$USERR3
 40
0.0
  9
$USERR4
 40
0.0
  9
$USERR5
 40
0.0
  9
$WORLDVIEW
 70
     1
  9
$SHADEDGE
 70
     3
  9
$SHADEDIF
 70
    70
  9
$TILEMODE
 70
     1
  9
$MAXACTVP
 70
    64
  9
$PINSBASE
 10
0.0
 20
0.0
 30
0.0
  9
$PLIMCHECK
 70
     0
  9
$PEXTMIN
 10
0.0
 20
0.0
 30
0.0
  9
$PEXTMAX
 10
0.0
 20
0.0
 30
0.0
  9
$PLIMMIN
 10
0.0
 20
0.0
  9
$PLIMMAX
 10
12.0
 20
9.0
  9
$UNITMODE
 70
     0
  9
$VISRETAIN
 70
     1
  9
$PLINEGEN
 70
     0
  9
$PSLTSCALE
 70
     1
  9
$TREEDEPTH
 70
  3020
  9
$CMLSTYLE
  2
Standard
  9
$CMLJUST
 70
     0
  9
$CMLSCALE
 40
20.0
  9
$PROXYGRAPHICS
 70
     1
  9
$MEASUREMENT
 70
     1
  9
$CELWEIGHT
370
    -1
  9
$ENDCAPS
280
     0
  9
$JOINSTYLE
280
     0
  9
$LWDISPLAY
290
     0
  9
$INSUNITS
 70
     4
  9
$HYPERLINKBASE
  1

  9
$STYLESHEET
  1

  9
$XEDIT
290
     1
  9
$CEPSNTYPE
380
     0
  9
$PSTYLEMODE
290
     1
  9
$FINGERPRINTGUID
  2
{A9F5D530-972F-4813-857A-78B9B08CAD27}
  9
$VERSIONGUID
  2
{9FAE8045-CF3A-4531-981F-DD302FF41343}
  9
$EXTNAMES
290
     1
  9
$PSVPSCALE
 40
0.0
  9
$OLESTARTUP
290
     0
  0
ENDSEC
  0
SECTION
  2
CLASSES
  0
CLASS
  1
ACDBDICTIONARYWDFLT
  2
AcDbDictionaryWithDefault
  3
ObjectDBX Classes
 90
        0
280
     0
281
     0
  0
CLASS
  1
DICTIONARYVAR
  2
AcDbDictionaryVar
  3
ObjectDBX Classes
 90
        0
280
     0
281
     0
  0
CLASS
  1
TABLESTYLE
  2
AcDbTableStyle
  3
ObjectDBX Classes
 90
     4095
280
     0
281
     0
  0
CLASS
  1
MATERIAL
  2
AcDbMaterial
  3
ObjectDBX Classes
 90
     1024
280
     0
281
     0
  0
CLASS
  1
VISUALSTYLE
  2
AcDbVisualStyle
  3
ObjectDBX Classes
 90
     4095
280
     0
281
     0
  0
CLASS
  1
SORTENTSTABLE
  2
AcDbSortentsTable
  3
ObjectDBX Classes
 90
        0
280
     0
281
     0
  0
CLASS
  1
DIMASSOC
  2
AcDbDimAssoc
  3
"AcDbDimAssoc|Product Desc:     AcDim ARX App For Dimension|Company:          Autodesk, Inc.|WEB Address:      www.autodesk.com"
 90
        0
280
     0
281
     0
  0
CLASS
  1
ACDBPLACEHOLDER
  2
AcDbPlaceHolder
  3
ObjectDBX Classes
 90
        0
280
     0
281
     0
  0
CLASS
  1
LAYOUT
  2
AcDbLayout
  3
ObjectDBX Classes
 90
        0
280
     0
281
     0
  0
ENDSEC
  0
SECTION
  2
TABLES
  0
TABLE
  2
VPORT
  5
8
330
0
100
AcDbSymbolTable
 70
     1
  0
VPORT
  5
EA
330
8
100
AcDbSymbolTableRecord
100
AcDbViewportTableRecord
  2
*Active
 70
     0
 10
0.0
 20
0.0
 11
1.0
 21
1.0
 12
313.4273564905377
 22
363.5839182529753
 13
0.0
 23
0.0
 14
10.0
 24
10.0
 15
10.0
 25
10.0
 16
0.0
 26
0.0
 36
1.0
 17
0.0
 27
0.0
 37
0.0
 40
797.8636883391009
 41
1.858662613981762
 42
50.0
 43
0.0
 44
0.0
 50
0.0
 51
0.0
 71
     0
 72
  1000
 73
     1
 74
     3
 75
     0
 76
     0
 77
     0
 78
     0
281
     0
 65
     1
110
0.0
120
0.0
130
0.0
111
1.0
121
0.0
131
0.0
112
0.0
122
1.0
132
0.0
 79
     0
146
0.0
  0
ENDTAB
  0
TABLE
  2
LTYPE
  5
5
330
0
100
AcDbSymbolTable
 70
     2
  0
LTYPE
  5
14
330
5
100
AcDbSymbolTableRecord
100
AcDbLinetypeTableRecord
  2
ByBlock
 70
     0
  3

 72
    65
 73
     0
 40
0.0
  0
LTYPE
  5
15
330
5
100
AcDbSymbolTableRecord
100
AcDbLinetypeTableRecord
  2
ByLayer
 70
     0
  3

 72
    65
 73
     0
 40
0.0
  0
LTYPE
  5
16
330
5
100
AcDbSymbolTableRecord
100
AcDbLinetypeTableRecord
  2
Continuous
 70
     0
  3
Solid line
 72
    65
 73
     0
 40
0.0
  0
ENDTAB
  0
TABLE
  2
LAYER
  5
2
102
{ACAD_XDICTIONARY
360
141
102
}
330
0
100
AcDbSymbolTable
 70
     7
  0
LAYER
  5
10
330
2
100
AcDbSymbolTableRecord
100
AcDbLayerTableRecord
  2
0
 70
     0
 62
     7
  6
Continuous
370
    -3
390
F
  0
LAYER
  5
124
330
2
100
AcDbSymbolTableRecord
100
AcDbLayerTableRecord
  2
Defpoints
 70
     0
 62
     7
  6
Continuous
290
     0
370
    -3
390
F
  0
LAYER
  5
13E
330
2
100
AcDbSymbolTableRecord
100
AcDbLayerTableRecord
  2
Hewi
 70
     0
 62
     7
  6
Continuous
370
    -3
390
F
  0
LAYER
  5
7E4
330
2
100
AcDbSymbolTableRecord
100
AcDbLayerTableRecord
  2
KK
 70
     0
 62
     2
  6
Continuous
370
    -3
390
F
  0
LAYER
  5
7E6
330
2
100
AcDbSymbolTableRecord
100
AcDbLayerTableRecord
  2
HILFSLINIE
 70
     0
 62
     5
  6
Continuous
370
    -3
390
F
  0
LAYER
  5
C51
330
2
100
AcDbSymbolTableRecord
100
AcDbLayerTableRecord
  2
ATTRIBUTE
 70
     0
 62
     3
  6
Continuous
370
    -3
390
F
  0
ENDTAB
  0
TABLE
  2
STYLE
  5
3
330
0
100
AcDbSymbolTable
 70
     1
  0
STYLE
  5
11
330
3
100
AcDbSymbolTableRecord
100
AcDbTextStyleTableRecord
  2
Standard
 70
     0
 40
0.0
 41
1.0
 50
0.0
 71
     0
 42
2.5
  3
txt
  4

  0
ENDTAB
  0
TABLE
  2
VIEW
  5
6
330
0
100
AcDbSymbolTable
 70
     0
  0
ENDTAB
  0
TABLE
  2
UCS
  5
7
330
0
100
AcDbSymbolTable
 70
     0
  0
ENDTAB
  0
TABLE
  2
APPID
  5
9
330
0
100
AcDbSymbolTable
 70
     4
  0
APPID
  5
12
330
9
100
AcDbSymbolTableRecord
100
AcDbRegAppTableRecord
  2
ACAD
 70
     0
  0
APPID
  5
9E
330
9
100
AcDbSymbolTableRecord
100
AcDbRegAppTableRecord
  2
ACAD_PSEXT
 70
     0
  0
APPID
  5
212
330
9
100
AcDbSymbolTableRecord
100
AcDbRegAppTableRecord
  2
ACAD_EXEMPT_FROM_CAD_STANDARDS
 70
     0
  0
APPID
  5
7EB
330
9
100
AcDbSymbolTableRecord
100
AcDbRegAppTableRecord
  2
DCO15
 70
     0
  0
ENDTAB
  0
TABLE
  2
DIMSTYLE
  5
A
330
0
100
AcDbSymbolTable
 70
     5
100
AcDbDimStyleTable
 71
     1
340
27
  0
DIMSTYLE
105
27
330
A
100
AcDbSymbolTableRecord
100
AcDbDimStyleTableRecord
  2
ISO-25
 70
     0
 41
2.5
 42
0.625
 43
3.75
 44
1.25
 73
     0
 74
     0
 77
     1
 78
     8
140
2.5
141
2.5
143
0.03937007874016
147
0.625
171
     3
172
     1
271
     2
272
     2
274
     3
278
    44
283
     0
284
     8
340
11
  0
DIMSTYLE
105
254
330
A
100
AcDbSymbolTableRecord
100
AcDbDimStyleTableRecord
  2
Standard
 70
     0
340
11
  0
ENDTAB
  0
TABLE
  2
BLOCK_RECORD
  5
1
330
0
100
AcDbSymbolTable
 70
    14
  0
BLOCK_RECORD
  5
1F
102
{ACAD_XDICTIONARY
360
116
102
}
330
1
100
AcDbSymbolTableRecord
100
AcDbBlockTableRecord
  2
*Model_Space
340
22
  0
BLOCK_RECORD
  5
D2
330
1
100
AcDbSymbolTableRecord
100
AcDbBlockTableRecord
  2
*Paper_Space
340
D3
  0
BLOCK_RECORD
  5
D6
330
1
100
AcDbSymbolTableRecord
100
AcDbBlockTableRecord
  2
*Paper_Space0
340
D7
  0
BLOCK_RECORD
  5
BF1
102
{ACAD_XDICTIONARY
360
BF2
102
}
330
1
100
AcDbSymbolTableRecord
100
AcDbBlockTableRecord
  2
A$C070E049A
340
0
102
{BLKREFS
331
C6B
102
}
  0
BLOCK_RECORD
  5
C1D
102
{ACAD_XDICTIONARY
360
C1E
102
}
330
1
100
AcDbSymbolTableRecord
100
AcDbBlockTableRecord
  2
A$C08D619D4
340
0
102
{BLKREFS
331
C6D
102
}
  0
BLOCK_RECORD
  5
C38
102
{ACAD_XDICTIONARY
360
C39
102
}
330
1
100
AcDbSymbolTableRecord
100
AcDbBlockTableRecord
  2
A$C6D2841EC
340
0
102
{BLKREFS
331
C6C
102
}
  0
BLOCK_RECORD
  5
E15
330
1
100
AcDbSymbolTableRecord
100
AcDbBlockTableRecord
  2
*D12
340
0
  0
BLOCK_RECORD
  5
E2D
330
1
100
AcDbSymbolTableRecord
100
AcDbBlockTableRecord
  2
*D13
340
0
  0
ENDTAB
  0
ENDSEC
  0
SECTION
  2
BLOCKS
  0
BLOCK
  5
20
330
1F
100
AcDbEntity
  8
0
100
AcDbBlockBegin
  2
*Model_Space
 70
     0
 10
0.0
 20
0.0
 30
0.0
  3
*Model_Space
  1

  0
ENDBLK
  5
21
330
1F
100
AcDbEntity
  8
0
100
AcDbBlockEnd
  0
BLOCK
  5
D4
330
D2
100
AcDbEntity
 67
     1
  8
0
100
AcDbBlockBegin
  2
*Paper_Space
 70
     0
 10
0.0
 20
0.0
 30
0.0
  3
*Paper_Space
  1

  0
ENDBLK
  5
D5
330
D2
100
AcDbEntity
 67
     1
  8
0
100
AcDbBlockEnd
  0
BLOCK
  5
D8
330
D6
100
AcDbEntity
 67
     1
  8
0
100
AcDbBlockBegin
  2
*Paper_Space0
 70
     0
 10
0.0
 20
0.0
 30
0.0
  3
*Paper_Space0
  1

  0
ENDBLK
  5
D9
330
D6
100
AcDbEntity
 67
     1
  8
0
100
AcDbBlockEnd
  0
BLOCK
  5
BF4
330
BF1
100
AcDbEntity
  8
0
100
AcDbBlockBegin
  2
A$C070E049A
 70
     0
 10
0.0
 20
0.0
 30
0.0
  3
A$C070E049A
  1

  0
LINE
  5
BF5
330
BF1
100
AcDbEntity
  8
KK
100
AcDbLine
 10
49.99999967360054
 20
124.000075576303
 30
0.0
 11
49.99999967360054
 21
134.500075576303
 31
0.0
  0
LINE
  5
BF6
330
BF1
100
AcDbEntity
  8
KK
100
AcDbLine
 10
22.89999967360927
 20
144.4999975763057
 30
0.0
 11
22.89999967360927
 21
134.500075576303
 31
0.0
  0
LINE
  5
BF7
330
BF1
100
AcDbEntity
  8
KK
100
AcDbLine
 10
47.09999967360634
 20
134.500075576303
 30
0.0
 11
47.09999967360634
 21
144.4999975763057
 31
0.0
  0
LINE
  5
BF8
330
BF1
100
AcDbEntity
  8
KK
100
AcDbLine
 10
19.99999967360054
 20
134.500075576303
 30
0.0
 11
19.99999967360054
 21
124.000075576303
 31
0.0
  0
LINE
  5
BF9
330
BF1
100
AcDbEntity
  8
KK
100
AcDbLine
 10
0.3499996736063622
 20
123.000075576303
 30
0.0
 11
0.3499996736063622
 21
110.750075576303
 31
0.0
  0
LINE
  5
BFA
330
BF1
100
AcDbEntity
  8
KK
100
AcDbLine
 10
49.99999967360054
 20
144.500075576303
 30
0.0
 11
49.99999967360054
 21
181.500075576303
 31
0.0
  0
LINE
  5
BFB
330
BF1
100
AcDbEntity
  8
KK
100
AcDbLine
 10
69.99999967360054
 20
0.0000755763030611
 30
0.0
 11
69.99999967360054
 21
110.000075576303
 31
0.0
  0
LINE
  5
BFC
330
BF1
100
AcDbEntity
  8
KK
100
AcDbLine
 10
19.99999967360054
 20
181.500075576303
 30
0.0
 11
19.99999967360054
 21
144.500075576303
 31
0.0
  0
LINE
  5
BFD
330
BF1
100
AcDbEntity
  8
KK
100
AcDbLine
 10
-0.0000003263994586
 20
110.000075576303
 30
0.0
 11
-0.0000003263994586
 21
0.0000755763030611
 31
0.0
  0
LINE
  5
BFE
330
BF1
100
AcDbEntity
  8
KK
100
AcDbLine
 10
69.64999967360927
 20
110.750075576303
 30
0.0
 11
69.64999967360927
 21
123.000075576303
 31
0.0
  0
LINE
  5
BFF
330
BF1
100
AcDbEntity
  8
KK
100
AcDbLine
 10
45.17199967360647
 20
133.5000245763076
 30
0.0
 11
45.17199967360647
 21
132.5000485763012
 31
0.0
  0
LINE
  5
C00
330
BF1
100
AcDbEntity
  8
KK
100
AcDbLine
 10
24.82799967360916
 20
133.5000245763076
 30
0.0
 11
24.82799967360916
 21
132.5000485763012
 31
0.0
  0
LINE
  5
C01
330
BF1
100
AcDbEntity
  8
KK
100
AcDbLine
 10
45.1745696736034
 20
125.9911735763016
 30
0.0
 11
45.74677067360608
 21
124.0090085763076
 31
0.0
  0
LINE
  5
C02
330
BF1
100
AcDbEntity
  8
KK
100
AcDbLine
 10
45.74934267360368
 20
124.0001015762973
 30
0.0
 11
45.86599967360962
 21
123.595989576308
 31
0.0
  0
LINE
  5
C03
330
BF1
100
AcDbEntity
  8
KK
100
AcDbLine
 10
24.82542967361224
 20
125.9911735763016
 30
0.0
 11
24.25322767360194
 21
124.0090085763076
 31
0.0
  0
LINE
  5
C04
330
BF1
100
AcDbEntity
  8
KK
100
AcDbLine
 10
24.25065667361196
 20
124.0001015762973
 30
0.0
 11
24.13399967360601
 21
123.595989576308
 31
0.0
  0
LINE
  5
C05
330
BF1
100
AcDbEntity
  8
KK
100
AcDbLine
 10
69.99999967360054
 20
110.000075576303
 30
0.0
 11
-0.0000003263994586
 21
110.000075576303
 31
0.0
  0
LINE
  5
C06
330
BF1
100
AcDbEntity
  8
KK
100
AcDbLine
 10
69.99999967360054
 20
0.0000755763030611
 30
0.0
 11
34.99999967360054
 21
0.0000755763030611
 31
0.0
  0
LINE
  5
C07
330
BF1
100
AcDbEntity
  8
KK
100
AcDbLine
 10
34.99999967360054
 20
0.0000755763030611
 30
0.0
 11
-0.0000003263994586
 21
0.0000755763030611
 31
0.0
  0
LINE
  5
C08
330
BF1
100
AcDbEntity
  8
KK
100
AcDbLine
 10
34.99999967360054
 20
124.000075576303
 30
0.0
 11
68.64999967360927
 21
124.000075576303
 31
0.0
  0
LINE
  5
C09
330
BF1
100
AcDbEntity
  8
KK
100
AcDbLine
 10
1.349999673606359
 20
124.000075576303
 30
0.0
 11
34.99999967360054
 21
124.000075576303
 31
0.0
  0
LINE
  5
C0A
330
BF1
100
AcDbEntity
  8
KK
100
AcDbLine
 10
48.99999967360054
 20
182.500075576303
 30
0.0
 11
34.99999967360054
 21
182.500075576303
 31
0.0
  0
LINE
  5
C0B
330
BF1
100
AcDbEntity
  8
KK
100
AcDbLine
 10
34.99999967360054
 20
182.500075576303
 30
0.0
 11
20.99999967360054
 21
182.500075576303
 31
0.0
  0
LINE
  5
C0C
330
BF1
100
AcDbEntity
  8
KK
100
AcDbLine
 10
19.99999967360054
 20
134.500075576303
 30
0.0
 11
49.99999967360054
 21
134.500075576303
 31
0.0
  0
LINE
  5
C0D
330
BF1
100
AcDbEntity
  8
KK
100
AcDbLine
 10
49.99999967360054
 20
144.500075576303
 30
0.0
 11
34.99999967360054
 21
144.500075576303
 31
0.0
  0
LINE
  5
C0E
330
BF1
100
AcDbEntity
  8
KK
100
AcDbLine
 10
34.99999967360054
 20
144.500075576303
 30
0.0
 11
19.99999967360054
 21
144.500075576303
 31
0.0
  0
LINE
  5
C0F
330
BF1
100
AcDbEntity
  8
KK
100
AcDbLine
 10
19.99999967360054
 20
181.500075576303
 30
0.0
 11
49.99999967360054
 21
181.500075576303
 31
0.0
  0
LINE
  5
C10
330
BF1
100
AcDbEntity
  8
KK
100
AcDbLine
 10
69.64999967360927
 20
110.750075576303
 30
0.0
 11
34.99999967360054
 21
110.750075576303
 31
0.0
  0
LINE
  5
C11
330
BF1
100
AcDbEntity
  8
KK
100
AcDbLine
 10
34.99999967360054
 20
110.750075576303
 30
0.0
 11
0.3499996736063622
 21
110.750075576303
 31
0.0
  0
LINE
  5
C12
330
BF1
100
AcDbEntity
  8
KK
100
AcDbLine
 10
69.64999967360927
 20
123.000075576303
 30
0.0
 11
0.3499996736063622
 21
123.000075576303
 31
0.0
  0
ARC
  5
C13
330
BF1
100
AcDbEntity
  8
KK
100
AcDbCircle
 10
20.99999967360054
 20
181.500075576303
 30
0.0
 40
1.0
100
AcDbArc
 50
90.0
 51
180.0
  0
ARC
  5
C14
330
BF1
100
AcDbEntity
  8
KK
100
AcDbCircle
 10
48.99999967360054
 20
181.500075576303
 30
0.0
 40
1.0
100
AcDbArc
 50
0.0
 51
90.0
  0
ARC
  5
C15
330
BF1
100
AcDbEntity
  8
KK
100
AcDbCircle
 10
68.89999967360927
 20
110.750075576303
 30
0.0
 40
0.75
100
AcDbArc
 50
270.0
 51
0.0
  0
ARC
  5
C16
330
BF1
100
AcDbEntity
  8
KK
100
AcDbCircle
 10
1.09999967360636
 20
110.750075576303
 30
0.0
 40
0.75
100
AcDbArc
 50
180.0
 51
270.0
  0
ARC
  5
C17
330
BF1
100
AcDbEntity
  8
KK
100
AcDbCircle
 10
1.349999673606359
 20
123.000075576303
 30
0.0
 40
1.0
100
AcDbArc
 50
90.0
 51
180.0
  0
ARC
  5
C18
330
BF1
100
AcDbEntity
  8
KK
100
AcDbCircle
 10
68.64999967360927
 20
123.000075576303
 30
0.0
 40
1.0
100
AcDbArc
 50
0.0
 51
90.0
  0
CIRCLE
  5
C19
330
BF1
100
AcDbEntity
  8
KK
100
AcDbCircle
 10
-34.99999967360054
 20
174.500075576303
 30
0.0
 40
3.0
210
0.0
220
0.0
230
-1.0
  0
CIRCLE
  5
C1A
330
BF1
100
AcDbEntity
  8
KK
100
AcDbCircle
 10
-34.99999967360054
 20
174.500075576303
 30
0.0
 40
2.0
210
0.0
220
0.0
230
-1.0
  0
SPLINE
  5
C1B
330
BF1
100
AcDbEntity
  8
KK
100
AcDbSpline
210
0.0
220
0.0
230
1.0
 70
    11
 71
     3
 72
    44
 73
    40
 74
     0
 42
0.0000000001
 43
0.0000000001
 40
0.0
 40
0.0
 40
0.0
 40
0.0
 40
0.0529580161093156
 40
0.0529580161093156
 40
0.105871446549853
 40
0.105871446549853
 40
0.1594563316668317
 40
0.1594563316668317
 40
0.2135666553231236
 40
0.2135666553231236
 40
0.2669337395316738
 40
0.2669337395316738
 40
0.3194426839102688
 40
0.3194426839102688
 40
0.3723177105449899
 40
0.3723177105449899
 40
0.4262007652828246
 40
0.4262007652828246
 40
0.4801839861271093
 40
0.4801839861271093
 40
0.5332154975854331
 40
0.5332154975854331
 40
0.5857335568930388
 40
0.5857335568930388
 40
0.6389222989979239
 40
0.6389222989979239
 40
0.6929741105875812
 40
0.6929741105875812
 40
0.7467388714272559
 40
0.7467388714272559
 40
0.7994696252733382
 40
0.7994696252733382
 40
0.8520512721945458
 40
0.8520512721945458
 40
0.9055771833105803
 40
0.9055771833105803
 40
0.9596889756734279
 40
0.9596889756734279
 40
1.0
 40
1.0
 40
1.0
 40
1.0
 10
35.00088479700207
 20
177.5500759627612
 30
0.0
 10
34.66250094998395
 20
177.5500759627612
 30
0.0
 10
34.32036224141484
 20
177.4924074987939
 30
0.0
 10
33.68393232757808
 20
177.2720451847416
 30
0.0
 10
33.38088214675372
 20
177.1065368845157
 30
0.0
 10
32.84947451521293
 20
176.6894270786724
 30
0.0
 10
32.61471944868389
 20
176.4310301268415
 30
0.0
 10
32.24629715827177
 20
175.8555892407021
 30
0.0
 10
32.10850435908652
 20
175.5298004238284
 30
0.0
 10
31.9527721752238
 20
174.8637630365992
 30
0.0
 10
31.9311490127584
 20
174.5144945639621
 30
0.0
 10
32.00272094663524
 20
173.8437039051786
 30
0.0
 10
32.09499507459987
 20
173.5127531977487
 30
0.0
 10
32.37822049236275
 20
172.9057967384286
 30
0.0
 10
32.57360187197628
 20
172.6218935293
 30
0.0
 10
33.04400783935853
 20
172.13506367222
 30
0.0
 10
33.32705688095302
 20
171.9269656613614
 30
0.0
 10
33.93939691862033
 20
171.6199551088356
 30
0.0
 10
34.27746880953782
 20
171.5170180799468
 30
0.0
 10
34.95373256846506
 20
171.4317715752258
 30
0.0
 10
35.30112670650125
 20
171.4462531343888
 30
0.0
 10
35.95878140813147
 20
171.5854283862572
 30
0.0
 10
36.27826300523884
 20
171.710853042663
 30
0.0
 10
36.85446121635323
 20
172.055175112735
 30
0.0
 10
37.1182616926526
 20
172.2798758844728
 30
0.0
 10
37.55568626288732
 20
172.8005527732312
 30
0.0
 10
37.73391475579411
 20
173.1049851596908
 30
0.0
 10
37.9751182297041
 20
173.7464610275638
 30
0.0
 10
38.04197187775571
 20
174.0923845353391
 30
0.0
 10
38.05649326593266
 20
174.7708233002195
 30
0.0
 10
38.00661335491168
 20
175.1127131123648
 30
0.0
 10
37.80181251750037
 20
175.7508173915556
 30
0.0
 10
37.64452794092358
 20
176.0558076464804
 30
0.0
 10
37.24209451947536
 20
176.5955012703343
 30
0.0
 10
36.98990186126322
 20
176.8363485811133
 30
0.0
 10
36.42422007418645
 20
177.2188778310665
 30
0.0
 10
36.10204518611136
 20
177.364784157573
 30
0.0
 10
35.51903806974588
 20
177.5166527897672
 30
0.0
 10
35.25845863550785
 20
177.5500759627612
 30
0.0
 10
35.00088479700207
 20
177.5500759627612
 30
0.0
  0
ENDBLK
  5
C1C
330
BF1
100
AcDbEntity
  8
0
100
AcDbBlockEnd
  0
BLOCK
  5
C20
330
C1D
100
AcDbEntity
  8
0
100
AcDbBlockBegin
  2
A$C08D619D4
 70
     0
 10
0.0
 20
0.0
 30
0.0
  3
A$C08D619D4
  1

  0
LINE
  5
C21
330
C1D
100
AcDbEntity
  8
KK
100
AcDbLine
 10
68.9999993450474
 20
0.0000329365866492
 30
0.0
 11
68.9999993450474
 21
110.0000329365866
 31
0.0
  0
LINE
  5
C22
330
C1D
100
AcDbEntity
  8
KK
100
AcDbLine
 10
0.9999993450473994
 20
110.0000329365866
 30
0.0
 11
0.9999993450473994
 21
0.0000329365866492
 31
0.0
  0
LINE
  5
C23
330
C1D
100
AcDbEntity
  8
KK
100
AcDbLine
 10
69.9999993450474
 20
0.0000329365866492
 30
0.0
 11
69.9999993450474
 21
110.0000329365866
 31
0.0
  0
LINE
  5
C24
330
C1D
100
AcDbEntity
  8
KK
100
AcDbLine
 10
-0.0000006549526006
 20
110.0000329365866
 30
0.0
 11
-0.0000006549526006
 21
0.0000329365866492
 31
0.0
  0
LINE
  5
C25
330
C1D
100
AcDbEntity
  8
KK
100
AcDbLine
 10
0.3999993450415786
 20
123.2500329365866
 30
0.0
 11
0.3999993450415786
 21
111.0000329365866
 31
0.0
  0
LINE
  5
C26
330
C1D
100
AcDbEntity
  8
KK
100
AcDbLine
 10
68.09999934503867
 20
15.06130893659429
 30
0.0
 11
68.09999934503867
 21
109.5000329365866
 31
0.0
  0
LINE
  5
C27
330
C1D
100
AcDbEntity
  8
KK
100
AcDbLine
 10
1.899999345041578
 20
109.5000329365866
 30
0.0
 11
1.899999345041578
 21
15.06130893659429
 31
0.0
  0
LINE
  5
C28
330
C1D
100
AcDbEntity
  8
KK
100
AcDbLine
 10
69.59999934503867
 20
111.0000329365866
 30
0.0
 11
69.59999934503867
 21
123.2500329365866
 31
0.0
  0
LINE
  5
C29
330
C1D
100
AcDbEntity
  8
KK
100
AcDbLine
 10
69.9999993450474
 20
110.0000329365866
 30
0.0
 11
-0.0000006549526006
 21
110.0000329365866
 31
0.0
  0
LINE
  5
C2A
330
C1D
100
AcDbEntity
  8
KK
100
AcDbLine
 10
68.09999934503867
 20
109.5000329365866
 30
0.0
 11
1.899999345041578
 21
109.5000329365866
 31
0.0
  0
LINE
  5
C2B
330
C1D
100
AcDbEntity
  8
KK
100
AcDbLine
 10
69.9999993450474
 20
0.0000329365866492
 30
0.0
 11
34.9999993450474
 21
0.0000329365866492
 31
0.0
  0
LINE
  5
C2C
330
C1D
100
AcDbEntity
  8
KK
100
AcDbLine
 10
34.9999993450474
 20
0.0000329365866492
 30
0.0
 11
-0.0000006549526006
 21
0.0000329365866492
 31
0.0
  0
LINE
  5
C2D
330
C1D
100
AcDbEntity
  8
KK
100
AcDbLine
 10
3.919124345047748
 20
123.2696649365971
 30
0.0
 11
66.08087434504705
 21
123.2696649365971
 31
0.0
  0
LINE
  5
C2E
330
C1D
100
AcDbEntity
  8
KK
100
AcDbLine
 10
34.9999993450474
 20
111.0000329365866
 30
0.0
 11
69.59999934503867
 21
111.0000329365866
 31
0.0
  0
LINE
  5
C2F
330
C1D
100
AcDbEntity
  8
KK
100
AcDbLine
 10
34.9999993450474
 20
111.0000329365866
 30
0.0
 11
69.59999934503867
 21
111.0000329365866
 31
0.0
  0
LINE
  5
C30
330
C1D
100
AcDbEntity
  8
KK
100
AcDbLine
 10
0.3999993450415786
 20
111.0000329365866
 30
0.0
 11
34.9999993450474
 21
111.0000329365866
 31
0.0
  0
LINE
  5
C31
330
C1D
100
AcDbEntity
  8
KK
100
AcDbLine
 10
0.3999993450415786
 20
111.0000329365866
 30
0.0
 11
34.9999993450474
 21
111.0000329365866
 31
0.0
  0
LINE
  5
C32
330
C1D
100
AcDbEntity
  8
KK
100
AcDbLine
 10
34.9999993450474
 20
123.2500329365866
 30
0.0
 11
69.59999934503867
 21
123.2500329365866
 31
0.0
  0
LINE
  5
C33
330
C1D
100
AcDbEntity
  8
KK
100
AcDbLine
 10
0.3999993450415786
 20
123.2500329365866
 30
0.0
 11
69.59999934503867
 21
123.2500329365866
 31
0.0
  0
LINE
  5
C34
330
C1D
100
AcDbEntity
  8
KK
100
AcDbLine
 10
0.3999993450415786
 20
123.2500329365866
 30
0.0
 11
34.9999993450474
 21
123.2500329365866
 31
0.0
  0
LINE
  5
C35
330
C1D
100
AcDbEntity
  8
KK
100
AcDbLine
 10
68.84999934503865
 20
124.0000329365866
 30
0.0
 11
34.9999993450474
 21
124.0000329365866
 31
0.0
  0
LINE
  5
C36
330
C1D
100
AcDbEntity
  8
KK
100
AcDbLine
 10
34.9999993450474
 20
124.0000329365866
 30
0.0
 11
1.149999345041577
 21
124.0000329365866
 31
0.0
  0
ENDBLK
  5
C37
330
C1D
100
AcDbEntity
  8
0
100
AcDbBlockEnd
  0
BLOCK
  5
C3B
330
C38
100
AcDbEntity
  8
0
100
AcDbBlockBegin
  2
A$C6D2841EC
 70
     0
 10
0.0
 20
0.0
 30
0.0
  3
A$C6D2841EC
  1

  0
LINE
  5
C3C
330
C38
100
AcDbEntity
  8
KK
100
AcDbLine
 10
33.94469445987488
 20
49.79989686785848
 30
0.0
 11
33.94469445987488
 21
50.7959516478586
 31
0.0
  0
LINE
  5
C3D
330
C38
100
AcDbEntity
  8
KK
100
AcDbLine
 10
38.5511944598984
 20
168.0748968678526
 30
0.0
 11
38.5511944598984
 21
174.2998968678584
 31
0.0
  0
LINE
  5
C3E
330
C38
100
AcDbEntity
  8
KK
100
AcDbLine
 10
38.5511944598984
 20
124.499896867841
 30
0.0
 11
38.5511944598984
 21
130.768006237864
 31
0.0
  0
LINE
  5
C3F
330
C38
100
AcDbEntity
  8
KK
100
AcDbLine
 10
38.5511944598984
 20
-0.0001031321589835
 30
0.0
 11
38.5511944598984
 21
6.224896867846838
 31
0.0
  0
LINE
  5
C40
330
C38
100
AcDbEntity
  8
KK
100
AcDbLine
 10
38.5511944598984
 20
43.53178749786457
 30
0.0
 11
38.5511944598984
 21
49.79989686785848
 31
0.0
  0
LINE
  5
C41
330
C38
100
AcDbEntity
  8
KK
100
AcDbLine
 10
33.94469445987488
 20
123.50384208787
 30
0.0
 11
33.94469445987488
 21
124.499896867841
 31
0.0
  0
LINE
  5
C42
330
C38
100
AcDbEntity
  8
KK
100
AcDbLine
 10
0.000115569884656
 20
123.5038968678564
 30
0.0
 11
39.17618445990957
 21
123.5038968678564
 31
0.0
  0
LINE
  5
C43
330
C38
100
AcDbEntity
  8
KK
100
AcDbLine
 10
38.5511944598984
 20
174.2998968678584
 30
0.0
 11
0.0051752499130089
 21
174.2998968678584
 31
0.0
  0
LINE
  5
C44
330
C38
100
AcDbEntity
  8
KK
100
AcDbLine
 10
0.0051752499130089
 20
49.79989686785848
 30
0.0
 11
38.5511944598984
 21
49.79989686785848
 31
0.0
  0
LINE
  5
C45
330
C38
100
AcDbEntity
  8
KK
100
AcDbLine
 10
0.0036687998799607
 20
50.79589686787222
 30
0.0
 11
0.0036687998799607
 21
-0.0001031321589835
 31
0.0
  0
LINE
  5
C46
330
C38
100
AcDbEntity
  8
KK
100
AcDbLine
 10
0.0036687998799607
 20
174.2998968678584
 30
0.0
 11
0.0036687998799607
 21
123.5038968678564
 31
0.0
  0
LINE
  5
C47
330
C38
100
AcDbEntity
  8
KK
100
AcDbLine
 10
38.5511944598984
 20
-0.0001031321589835
 30
0.0
 11
0.0036463899014052
 21
-0.0001031321589835
 31
0.0
  0
LINE
  5
C48
330
C38
100
AcDbEntity
  8
KK
100
AcDbLine
 10
0.000115569884656
 20
50.79589686787222
 30
0.0
 11
39.17618445990957
 21
50.79589686787222
 31
0.0
  0
LINE
  5
C49
330
C38
100
AcDbEntity
  8
KK
100
AcDbLine
 10
0.000115569884656
 20
123.5038968678564
 30
0.0
 11
0.000115569884656
 21
50.79589686787222
 31
0.0
  0
LINE
  5
C4A
330
C38
100
AcDbEntity
  8
KK
100
AcDbLine
 10
0.0036463899014052
 20
124.499896867841
 30
0.0
 11
38.5511944598984
 21
124.499896867841
 31
0.0
  0
LINE
  5
C4B
330
C38
100
AcDbEntity
  8
KK
100
AcDbLine
 10
38.5511944598984
 20
50.79589686787222
 30
0.0
 11
38.5511944598984
 21
-0.0001031321589835
 31
0.0
  0
LINE
  5
C4C
330
C38
100
AcDbEntity
  8
KK
100
AcDbLine
 10
38.5511944598984
 20
174.2998968678584
 30
0.0
 11
38.5511944598984
 21
123.5038968678564
 31
0.0
  0
LINE
  5
C4D
330
C38
100
AcDbEntity
  8
KK
100
AcDbLine
 10
38.54764122990309
 20
123.5038968678564
 30
0.0
 11
38.54764122990309
 21
50.79589686787222
 31
0.0
  0
CIRCLE
  5
C4E
330
C38
100
AcDbEntity
  8
KK
100
AcDbCircle
 10
19.2781848549057
 20
150.3799422091688
 30
0.0
 40
19.0
  0
CIRCLE
  5
C4F
330
C38
100
AcDbEntity
  8
KK
100
AcDbCircle
 10
19.2781848549057
 20
25.39399310809677
 30
0.0
 40
19.0
  0
ENDBLK
  5
C50
330
C38
100
AcDbEntity
  8
0
100
AcDbBlockEnd
  0
BLOCK
  5
E1F
330
E15
100
AcDbEntity
  8
0
100
AcDbBlockBegin
  2
*D12
 70
     1
 10
0.0
 20
0.0
 30
0.0
  3
*D12
  1

  0
LINE
  5
E22
330
E15
100
AcDbEntity
  8
0
 62
     0
370
    -2
100
AcDbLine
 10
71.07867682952747
 20
192.2475666836371
 30
0.0
 11
71.07867682952747
 21
140.7723787028317
 31
0.0
  0
LINE
  5
E23
330
E15
100
AcDbEntity
  8
0
 62
     0
370
    -2
100
AcDbLine
 10
86.07867682952747
 20
192.2475666836371
 30
0.0
 11
86.07867682952747
 21
140.7723787028317
 31
0.0
  0
LINE
  5
E24
330
E15
100
AcDbEntity
  8
0
 62
     0
370
    -2
100
AcDbLine
 10
73.57867682952747
 20
142.0223787028317
 30
0.0
 11
83.57867682952747
 21
142.0223787028317
 31
0.0
  0
SOLID
  5
E25
330
E15
100
AcDbEntity
  8
0
 62
     0
100
AcDbTrace
 10
73.57867682952747
 20
142.4390453694983
 30
0.0
 11
73.57867682952747
 21
141.605712036165
 31
0.0
 12
71.07867682952747
 22
142.0223787028317
 32
0.0
 13
71.07867682952747
 23
142.0223787028317
 33
0.0
  0
SOLID
  5
E26
330
E15
100
AcDbEntity
  8
0
 62
     0
100
AcDbTrace
 10
83.57867682952747
 20
142.4390453694983
 30
0.0
 11
83.57867682952747
 21
141.605712036165
 31
0.0
 12
86.07867682952747
 22
142.0223787028317
 32
0.0
 13
86.07867682952747
 23
142.0223787028317
 33
0.0
  0
MTEXT
  5
E27
330
E15
100
AcDbEntity
  8
0
 62
     0
100
AcDbMText
 10
78.57867682952747
 20
143.8973787028317
 30
0.0
 40
2.5
 41
0.0
 71
     5
 72
     1
  1
15
 73
     1
 44
1.0
1001
ACAD
1000
MTEXTBEGIN
1070
    73
1070
     1
1070
    44
1040
1.0
1070
    74
1070
     0
1000
MTEXTEND
  0
POINT
  5
E28
330
E15
100
AcDbEntity
  8
Defpoints
 62
     0
100
AcDbPoint
 10
71.07867682952747
 20
192.8725666836371
 30
0.0
  0
POINT
  5
E29
330
E15
100
AcDbEntity
  8
Defpoints
 62
     0
100
AcDbPoint
 10
86.07867682952747
 20
192.8725666836371
 30
0.0
  0
POINT
  5
E2A
330
E15
100
AcDbEntity
  8
Defpoints
 62
     0
100
AcDbPoint
 10
86.07867682952747
 20
142.0223787028317
 30
0.0
  0
ENDBLK
  5
E20
330
E15
100
AcDbEntity
  8
0
100
AcDbBlockEnd
  0
BLOCK
  5
E37
330
E2D
100
AcDbEntity
  8
0
100
AcDbBlockBegin
  2
*D13
 70
     1
 10
0.0
 20
0.0
 30
0.0
  3
*D13
  1

  0
LINE
  5
E3A
330
E2D
100
AcDbEntity
  8
0
 62
     0
370
    -2
100
AcDbLine
 10
79.20367682952747
 20
523.9196158011641
 30
0.0
 11
156.5677119633765
 21
523.9196158011641
 31
0.0
  0
LINE
  5
E3B
330
E2D
100
AcDbEntity
  8
0
 62
     0
370
    -2
100
AcDbLine
 10
79.20367682952747
 20
78.91961580116412
 30
0.0
 11
156.5677119633765
 21
78.91961580116412
 31
0.0
  0
LINE
  5
E3C
330
E2D
100
AcDbEntity
  8
0
 62
     0
370
    -2
100
AcDbLine
 10
155.3177119633765
 20
521.4196158011641
 30
0.0
 11
155.3177119633765
 21
81.41961580116412
 31
0.0
  0
SOLID
  5
E3D
330
E2D
100
AcDbEntity
  8
0
 62
     0
100
AcDbTrace
 10
154.9010452967099
 20
521.4196158011641
 30
0.0
 11
155.7343786300432
 21
521.4196158011641
 31
0.0
 12
155.3177119633765
 22
523.9196158011641
 32
0.0
 13
155.3177119633765
 23
523.9196158011641
 33
0.0
  0
SOLID
  5
E3E
330
E2D
100
AcDbEntity
  8
0
 62
     0
100
AcDbTrace
 10
154.9010452967098
 20
81.41961580116412
 30
0.0
 11
155.7343786300431
 21
81.41961580116412
 31
0.0
 12
155.3177119633765
 22
78.91961580116412
 32
0.0
 13
155.3177119633765
 23
78.91961580116412
 33
0.0
  0
MTEXT
  5
E3F
330
E2D
100
AcDbEntity
  8
0
 62
     0
100
AcDbMText
 10
153.4427119633765
 20
301.4196158011641
 30
0.0
 40
2.5
 41
0.0
 71
     5
 72
     1
  1
445
 11
0.0000000000000001
 21
1.0
 31
0.0
 73
     1
 44
1.0
1001
ACAD
1000
MTEXTBEGIN
1070
    73
1070
     1
1070
    44
1040
1.0
1070
    74
1070
     0
1000
MTEXTEND
  0
POINT
  5
E40
330
E2D
100
AcDbEntity
  8
Defpoints
 62
     0
100
AcDbPoint
 10
78.57867682952747
 20
523.9196158011641
 30
0.0
  0
POINT
  5
E41
330
E2D
100
AcDbEntity
  8
Defpoints
 62
     0
100
AcDbPoint
 10
78.57867682952747
 20
78.91961580116412
 30
0.0
  0
POINT
  5
E42
330
E2D
100
AcDbEntity
  8
Defpoints
 62
     0
100
AcDbPoint
 10
155.3177119633765
 20
78.91961580116412
 30
0.0
  0
ENDBLK
  5
E38
330
E2D
100
AcDbEntity
  8
0
100
AcDbBlockEnd
  0
ENDSEC
  0
SECTION
  2
ENTITIES
  0
LINE
  5
B5C
330
1F
100
AcDbEntity
  8
KK
100
AcDbLine
 10
1197.446854914626
 20
1371.978404220177
 30
0.0
 11
1272.146854914637
 21
1371.978404220177
 31
0.0
  0
LINE
  5
B5D
330
1F
100
AcDbEntity
  8
KK
100
AcDbLine
 10
879.1003549146116
 20
1287.940904220201
 30
0.0
 11
879.1003549146116
 21
1288.9369590002
 31
0.0
  0
LINE
  5
B5E
330
1F
100
AcDbEntity
  8
KK
100
AcDbLine
 10
883.7068549146351
 20
1406.215904220195
 30
0.0
 11
883.7068549146351
 21
1412.4409042202
 31
0.0
  0
LINE
  5
B5F
330
1F
100
AcDbEntity
  8
KK
100
AcDbLine
 10
883.7068549146351
 20
1362.640904220183
 30
0.0
 11
883.7068549146351
 21
1368.909013590206
 31
0.0
  0
LINE
  5
B60
330
1F
100
AcDbEntity
  8
KK
100
AcDbLine
 10
1197.446854914626
 20
1406.215904220195
 30
0.0
 11
883.7068549146351
 21
1406.215904220195
 31
0.0
  0
LINE
  5
B61
330
1F
100
AcDbEntity
  8
KK
100
AcDbLine
 10
883.6709715246398
 20
1368.865904220189
 30
0.0
 11
1197.446854914626
 21
1368.865904220189
 31
0.0
  0
LINE
  5
B62
330
1F
100
AcDbEntity
  8
KK
100
AcDbLine
 10
1272.146854914637
 20
1403.103404220177
 30
0.0
 11
1197.446854914626
 21
1403.103404220177
 31
0.0
  0
LINE
  5
B63
330
1F
100
AcDbEntity
  8
KK
100
AcDbLine
 10
883.7068549146351
 20
1238.140904220183
 30
0.0
 11
883.7068549146351
 21
1244.365904220189
 31
0.0
  0
LINE
  5
B64
330
1F
100
AcDbEntity
  8
KK
100
AcDbLine
 10
883.7068549146351
 20
1244.365904220189
 30
0.0
 11
1197.446854914626
 21
1244.365904220189
 31
0.0
  0
LINE
  5
B65
330
1F
100
AcDbEntity
  8
KK
100
AcDbLine
 10
884.3318449146464
 20
1288.936904220214
 30
0.0
 11
884.3318449146464
 21
1361.644904220198
 31
0.0
  0
LINE
  5
B66
330
1F
100
AcDbEntity
  8
KK
100
AcDbLine
 10
883.7068549146351
 20
1281.672794850206
 30
0.0
 11
883.7068549146351
 21
1287.940904220201
 31
0.0
  0
LINE
  5
B67
330
1F
100
AcDbEntity
  8
KK
100
AcDbLine
 10
879.1003549146116
 20
1361.644849440212
 30
0.0
 11
879.1003549146116
 21
1362.640904220183
 31
0.0
  0
LINE
  5
B68
330
1F
100
AcDbEntity
  8
KK
100
AcDbLine
 10
839.6008723746344
 20
1256.8159042202
 30
0.0
 11
839.6723104746197
 21
1256.8159042202
 31
0.0
  0
LINE
  5
B69
330
1F
100
AcDbEntity
  8
KK
100
AcDbLine
 10
849.3231022746185
 20
1256.8159042202
 30
0.0
 11
849.760938894644
 21
1256.8159042202
 31
0.0
  0
LINE
  5
B6A
330
1F
100
AcDbEntity
  8
KK
100
AcDbLine
 10
839.6008723746344
 20
1269.265904220183
 30
0.0
 11
839.6723104746197
 21
1269.265904220183
 31
0.0
  0
LINE
  5
B6B
330
1F
100
AcDbEntity
  8
KK
100
AcDbLine
 10
849.3225345546377
 20
1269.265904220183
 30
0.0
 11
849.7606749546246
 21
1269.265904220183
 31
0.0
  0
LINE
  5
B6C
330
1F
100
AcDbEntity
  8
KK
100
AcDbLine
 10
1197.446854914626
 20
1281.715904220195
 30
0.0
 11
883.6709715246398
 21
1281.715904220195
 31
0.0
  0
LINE
  5
B6D
330
1F
100
AcDbEntity
  8
KK
100
AcDbLine
 10
1197.446854914626
 20
1247.478404220177
 30
0.0
 11
1272.146854914637
 21
1247.478404220177
 31
0.0
  0
LINE
  5
B6E
330
1F
100
AcDbEntity
  8
KK
100
AcDbLine
 10
1272.146854914637
 20
1278.603404220177
 30
0.0
 11
1197.446854914626
 21
1278.603404220177
 31
0.0
  0
LINE
  5
B6F
330
1F
100
AcDbEntity
  8
KK
100
AcDbLine
 10
845.1557760246213
 20
1361.644904220198
 30
0.0
 11
884.3318449146464
 21
1361.644904220198
 31
0.0
  0
LINE
  5
B70
330
1F
100
AcDbEntity
  8
KK
100
AcDbLine
 10
883.7068549146351
 20
1412.4409042202
 30
0.0
 11
845.1608357046497
 21
1412.4409042202
 31
0.0
  0
LINE
  5
B71
330
1F
100
AcDbEntity
  8
KK
100
AcDbLine
 10
845.1608357046497
 20
1287.940904220201
 30
0.0
 11
883.7068549146351
 21
1287.940904220201
 31
0.0
  0
LINE
  5
B72
330
1F
100
AcDbEntity
  8
KK
100
AcDbLine
 10
845.1593292546167
 20
1238.140904220183
 30
0.0
 11
827.681854914641
 21
1238.140904220183
 31
0.0
  0
LINE
  5
B73
330
1F
100
AcDbEntity
  8
KK
100
AcDbLine
 10
827.681854914641
 20
1412.4409042202
 30
0.0
 11
845.1593292546167
 21
1412.4409042202
 31
0.0
  0
LINE
  5
B74
330
1F
100
AcDbEntity
  8
KK
100
AcDbLine
 10
845.1593292546167
 20
1288.936904220214
 30
0.0
 11
845.1593292546167
 21
1238.140904220183
 31
0.0
  0
LINE
  5
B75
330
1F
100
AcDbEntity
  8
KK
100
AcDbLine
 10
845.1593292546167
 20
1412.4409042202
 30
0.0
 11
845.1593292546167
 21
1361.644904220198
 31
0.0
  0
LINE
  5
B76
330
1F
100
AcDbEntity
  8
KK
100
AcDbLine
 10
827.681854914641
 20
1238.140904220183
 30
0.0
 11
827.681854914641
 21
1412.4409042202
 31
0.0
  0
LINE
  5
B77
330
1F
100
AcDbEntity
  8
KK
100
AcDbLine
 10
883.7068549146351
 20
1238.140904220183
 30
0.0
 11
845.1593068446381
 21
1238.140904220183
 31
0.0
  0
LINE
  5
B78
330
1F
100
AcDbEntity
  8
KK
100
AcDbLine
 10
1197.446854914626
 20
1244.365904220189
 30
0.0
 11
1197.446854914626
 21
1281.715904220195
 31
0.0
  0
LINE
  5
B79
330
1F
100
AcDbEntity
  8
KK
100
AcDbLine
 10
845.1557760246213
 20
1288.936904220214
 30
0.0
 11
884.3318449146464
 21
1288.936904220214
 31
0.0
  0
LINE
  5
B7A
330
1F
100
AcDbEntity
  8
KK
100
AcDbLine
 10
845.1557760246213
 20
1361.644904220198
 30
0.0
 11
845.1557760246213
 21
1288.936904220214
 31
0.0
  0
LINE
  5
B7B
330
1F
100
AcDbEntity
  8
KK
100
AcDbLine
 10
1197.446854914626
 20
1406.215904220195
 30
0.0
 11
1197.446854914626
 21
1368.865904220189
 31
0.0
  0
LINE
  5
B7C
330
1F
100
AcDbEntity
  8
KK
100
AcDbLine
 10
1272.146854914637
 20
1403.103404220177
 30
0.0
 11
1272.146854914637
 21
1371.978404220177
 31
0.0
  0
LINE
  5
B7D
330
1F
100
AcDbEntity
  8
KK
100
AcDbLine
 10
845.1593068446381
 20
1362.640904220183
 30
0.0
 11
883.7068549146351
 21
1362.640904220183
 31
0.0
  0
LINE
  5
B7E
330
1F
100
AcDbEntity
  8
KK
100
AcDbLine
 10
1272.146854914637
 20
1247.478404220177
 30
0.0
 11
1272.146854914637
 21
1278.603404220177
 31
0.0
  0
LINE
  5
B7F
330
1F
100
AcDbEntity
  8
KK
100
AcDbLine
 10
1196.824354914628
 20
1106.316940230213
 30
0.0
 11
873.0680609946428
 21
1106.316940230213
 31
0.0
  0
LINE
  5
B80
330
1F
100
AcDbEntity
  8
KK
100
AcDbLine
 10
873.0664649046085
 20
1068.966940230208
 30
0.0
 11
1196.824354914628
 21
1068.966940230208
 31
0.0
  0
LINE
  5
B81
330
1F
100
AcDbEntity
  8
KK
100
AcDbLine
 10
1271.52435491464
 20
1103.204440230225
 30
0.0
 11
1196.824354914628
 21
1103.204440230225
 31
0.0
  0
LINE
  5
B82
330
1F
100
AcDbEntity
  8
KK
100
AcDbLine
 10
1196.824354914628
 20
1072.079440230225
 30
0.0
 11
1271.52435491464
 21
1072.079440230225
 31
0.0
  0
LINE
  5
B83
330
1F
100
AcDbEntity
  8
KK
100
AcDbLine
 10
839.9228393346421
 20
1093.866940230231
 30
0.0
 11
839.9354935146401
 21
1093.866940230231
 31
0.0
  0
LINE
  5
B84
330
1F
100
AcDbEntity
  8
KK
100
AcDbLine
 10
839.9228393346421
 20
1081.416940230219
 30
0.0
 11
839.9354935146401
 21
1081.416940230219
 31
0.0
  0
LINE
  5
B85
330
1F
100
AcDbEntity
  8
KK
100
AcDbLine
 10
827.0593549146433
 20
1071.207940230217
 30
0.0
 11
844.536829254619
 21
1071.207940230217
 31
0.0
  0
LINE
  5
B86
330
1F
100
AcDbEntity
  8
KK
100
AcDbLine
 10
844.536829254619
 20
1104.075940230204
 30
0.0
 11
827.0593549146433
 21
1104.075940230204
 31
0.0
  0
LINE
  5
B87
330
1F
100
AcDbEntity
  8
KK
100
AcDbLine
 10
827.0593549146433
 20
1104.075940230204
 30
0.0
 11
827.0593549146433
 21
1071.207940230217
 31
0.0
  0
LINE
  5
B88
330
1F
100
AcDbEntity
  8
KK
100
AcDbLine
 10
1196.824354914628
 20
1106.316940230213
 30
0.0
 11
1196.824354914628
 21
1087.641940230225
 31
0.0
  0
LINE
  5
B89
330
1F
100
AcDbEntity
  8
KK
100
AcDbLine
 10
1196.824354914628
 20
1087.641940230225
 30
0.0
 11
1196.824354914628
 21
1068.966940230208
 31
0.0
  0
LINE
  5
B8A
330
1F
100
AcDbEntity
  8
KK
100
AcDbLine
 10
1271.52435491464
 20
1072.079440230225
 30
0.0
 11
1271.52435491464
 21
1103.204440230225
 31
0.0
  0
LINE
  5
B8B
330
1F
100
AcDbEntity
  8
HILFSLINIE
100
AcDbLine
 10
831.416854914627
 20
1087.641940230225
 30
0.0
 11
891.1768549146364
 21
1087.641940230225
 31
0.0
  0
LINE
  5
B8C
330
1F
100
AcDbEntity
  8
HILFSLINIE
100
AcDbLine
 10
861.2968549146316
 20
1057.76194023022
 30
0.0
 11
861.2968549146316
 21
1117.52194023023
 31
0.0
  0
ARC
  5
B8D
330
1F
100
AcDbEntity
  8
KK
100
AcDbCircle
 10
-860.6743549146338
 20
1087.641940230225
 30
0.0
 40
23.03499
210
0.0
220
0.0
230
-1.0
100
AcDbArc
 50
45.51520100026148
 51
125.8362479998713
  0
ARC
  5
B8E
330
1F
100
AcDbEntity
  8
KK
100
AcDbCircle
 10
-860.6743549146338
 20
1087.641940230225
 30
0.0
 40
23.03499
210
0.0
220
0.0
230
-1.0
100
AcDbArc
 50
234.1637520001286
 51
314.4847989997385
  0
CIRCLE
  5
B8F
330
1F
100
AcDbEntity
  8
KK
100
AcDbCircle
 10
-860.6743549146338
 20
1087.641940230225
 30
0.0
 40
22.41000000000001
210
0.0
220
0.0
230
-1.0
  0
ARC
  5
B90
330
1F
100
AcDbEntity
  8
KK
100
AcDbCircle
 10
860.6743549146338
 20
1087.641940230225
 30
0.0
 40
23.0325
100
AcDbArc
 50
134.4784919999697
 51
225.5215080000303
  0
SPLINE
  5
B91
330
1F
100
AcDbEntity
  8
KK
100
AcDbSpline
210
0.0
220
0.0
230
1.0
 70
     8
 71
     3
 72
    22
 73
    18
 74
     0
 42
0.0000000001
 43
0.0000000001
 40
0.0
 40
0.0
 40
0.0
 40
0.0
 40
0.0000351565911093
 40
0.0000351565911093
 40
0.1250307620172207
 40
0.1250307620172207
 40
0.2500263674433321
 40
0.2500263674433321
 40
0.3750219728694434
 40
0.3750219728694434
 40
0.5000175782955547
 40
0.5000175782955547
 40
0.625013183721666
 40
0.625013183721666
 40
0.7500087891477774
 40
0.7500087891477774
 40
1.0
 40
1.0
 40
1.0
 40
1.0
 10
883.7068099235182
 20
1281.715851241997
 30
0.0
 10
883.7068115199217
 20
1281.715853153246
 30
0.0
 10
883.70681311519
 20
1281.715855065425
 30
0.0
 10
883.7117500370077
 20
1281.721779376252
 30
0.0
 10
883.2323337627165
 20
1281.153085904296
 30
0.0
 10
881.6245913352467
 20
1279.168605796103
 30
0.0
 10
880.5064712934836
 20
1277.766469723383
 30
0.0
 10
878.1128042822528
 20
1274.469336598164
 30
0.0
 10
876.8039311376051
 20
1272.553561284452
 30
0.0
 10
874.5934936848641
 20
1268.219883792726
 30
0.0
 10
873.6880014158669
 20
1265.657955047367
 30
0.0
 10
873.6809172152716
 20
1260.457603894099
 30
0.0
 10
874.5743837136833
 20
1257.906782553078
 30
0.0
 10
876.7890512631275
 20
1253.550141161961
 30
0.0
 10
878.0956501167093
 20
1251.637377154618
 30
0.0
 10
881.6914759649662
 20
1246.680538193859
 30
0.0
 10
883.7068673114991
 20
1244.365889377759
 30
0.0
 10
883.7068567846436
 20
1244.36590146816
 30
0.0
  0
SPLINE
  5
B92
330
1F
100
AcDbEntity
  8
KK
100
AcDbSpline
210
0.0
220
0.0
230
1.0
 70
     8
 71
     3
 72
    18
 73
    14
 74
     0
 42
0.0000000001
 43
0.0000000001
 40
0.0
 40
0.0
 40
0.0
 40
0.0
 40
0.2500068573250007
 40
0.2500068573250007
 40
0.3750102859875011
 40
0.3750102859875011
 40
0.5000137146500016
 40
0.5000137146500016
 40
0.6250171433125021
 40
0.6250171433125021
 40
0.7500205719750026
 40
0.7500205719750026
 40
1.0
 40
1.0
 40
1.0
 40
1.0
 10
883.7068567846436
 20
1406.215907337215
 30
0.0
 10
883.7068462578463
 20
1406.215895246814
 30
0.0
 10
881.6959233239467
 20
1403.906139926561
 30
0.0
 10
878.104883449385
 20
1398.957787447738
 30
0.0
 10
876.7980347838603
 20
1397.044356357901
 30
0.0
 10
874.5883738938719
 20
1392.707479232731
 30
0.0
 10
873.6866849783691
 20
1390.148405557045
 30
0.0
 10
873.6822198207082
 20
1384.95470311264
 30
0.0
 10
874.5762911650817
 20
1382.40296115515
 30
0.0
 10
876.787462392007
 20
1378.053335866263
 30
0.0
 10
878.0944964359806
 20
1376.139189942491
 30
0.0
 10
881.6854486603697
 20
1371.188402736834
 30
0.0
 10
883.6965016659233
 20
1368.878304841941
 30
0.0
 10
883.7068110339169
 20
1368.865956233711
 30
0.0
  0
LINE
  5
B93
330
1F
100
AcDbEntity
  8
KK
100
AcDbLine
 10
755.5345165627803
 20
1287.940904220201
 30
0.0
 11
755.5345165627803
 21
1288.9369590002
 31
0.0
  0
LINE
  5
B94
330
1F
100
AcDbEntity
  8
KK
100
AcDbLine
 10
760.1410165628037
 20
1406.215904220195
 30
0.0
 11
760.1410165628037
 21
1412.4409042202
 31
0.0
  0
LINE
  5
B95
330
1F
100
AcDbEntity
  8
KK
100
AcDbLine
 10
760.1410165628037
 20
1362.640904220183
 30
0.0
 11
760.1410165628037
 21
1368.909013590206
 31
0.0
  0
LINE
  5
B96
330
1F
100
AcDbEntity
  8
KK
100
AcDbLine
 10
760.1410165628037
 20
1238.140904220183
 30
0.0
 11
760.1410165628037
 21
1244.365904220189
 31
0.0
  0
LINE
  5
B97
330
1F
100
AcDbEntity
  8
KK
100
AcDbLine
 10
760.1410165628037
 20
1281.672794850206
 30
0.0
 11
760.1410165628037
 21
1287.940904220201
 31
0.0
  0
LINE
  5
B98
330
1F
100
AcDbEntity
  8
KK
100
AcDbLine
 10
755.5345165627803
 20
1361.644849440212
 30
0.0
 11
755.5345165627803
 21
1362.640904220183
 31
0.0
  0
LINE
  5
B99
330
1F
100
AcDbEntity
  8
KK
100
AcDbLine
 10
721.5899376727902
 20
1361.644904220198
 30
0.0
 11
760.7660065628151
 21
1361.644904220198
 31
0.0
  0
LINE
  5
B9A
330
1F
100
AcDbEntity
  8
KK
100
AcDbLine
 10
760.1410165628037
 20
1412.4409042202
 30
0.0
 11
721.5949973528186
 21
1412.4409042202
 31
0.0
  0
LINE
  5
B9B
330
1F
100
AcDbEntity
  8
KK
100
AcDbLine
 10
721.5949973528186
 20
1287.940904220201
 30
0.0
 11
760.1410165628037
 21
1287.940904220201
 31
0.0
  0
LINE
  5
B9C
330
1F
100
AcDbEntity
  8
KK
100
AcDbLine
 10
721.5934909027851
 20
1288.936904220214
 30
0.0
 11
721.5934909027851
 21
1238.140904220183
 31
0.0
  0
LINE
  5
B9D
330
1F
100
AcDbEntity
  8
KK
100
AcDbLine
 10
721.5934909027851
 20
1412.4409042202
 30
0.0
 11
721.5934909027851
 21
1361.644904220198
 31
0.0
  0
LINE
  5
B9E
330
1F
100
AcDbEntity
  8
KK
100
AcDbLine
 10
760.1410165628037
 20
1238.140904220183
 30
0.0
 11
721.593468492807
 21
1238.140904220183
 31
0.0
  0
LINE
  5
B9F
330
1F
100
AcDbEntity
  8
KK
100
AcDbLine
 10
721.5899376727902
 20
1288.936904220214
 30
0.0
 11
760.7660065628151
 21
1288.936904220214
 31
0.0
  0
LINE
  5
BA0
330
1F
100
AcDbEntity
  8
KK
100
AcDbLine
 10
721.5899376727902
 20
1361.644904220198
 30
0.0
 11
721.5899376727902
 21
1288.936904220214
 31
0.0
  0
LINE
  5
BA1
330
1F
100
AcDbEntity
  8
KK
100
AcDbLine
 10
721.593468492807
 20
1362.640904220183
 30
0.0
 11
760.1410165628037
 21
1362.640904220183
 31
0.0
  0
CIRCLE
  5
BA2
330
1F
100
AcDbEntity
  8
KK
100
AcDbCircle
 10
776.9586164345819
 20
946.2873993342343
 30
0.0
 40
19.0
  0
LINE
  5
BA3
330
1F
100
AcDbEntity
  8
HILFSLINIE
100
AcDbLine
 10
740.8680069578113
 20
1412.4409042202
 30
0.0
 11
740.8680069578113
 21
1238.140904220183
 31
0.0
  0
LINE
  5
BA4
330
1F
100
AcDbEntity
  8
KK
100
AcDbLine
 10
760.1410165628037
 20
1288.936904220214
 30
0.0
 11
760.1410165628037
 21
1238.140904220183
 31
0.0
  0
LINE
  5
BA5
330
1F
100
AcDbEntity
  8
KK
100
AcDbLine
 10
760.1410165628037
 20
1412.4409042202
 30
0.0
 11
760.1410165628037
 21
1361.644904220198
 31
0.0
  0
LINE
  5
BA6
330
1F
100
AcDbEntity
  8
KK
100
AcDbLine
 10
760.1374633328086
 20
1361.644904220198
 30
0.0
 11
760.1374633328086
 21
1288.936904220214
 31
0.0
  0
CIRCLE
  5
BA7
330
1F
100
AcDbEntity
  8
KK
100
AcDbCircle
 10
740.8680069578113
 20
1388.520949561511
 30
0.0
 40
19.0
  0
CIRCLE
  5
BA8
330
1F
100
AcDbEntity
  8
KK
100
AcDbCircle
 10
740.8680069578113
 20
1263.535000460439
 30
0.0
 40
19.0
  0
LINE
  5
BA9
330
1F
100
AcDbEntity
  8
KK
100
AcDbLine
 10
382.5547248115471
 20
1986.260720198739
 30
0.0
 11
982.5547248115471
 21
1986.260720198739
 31
0.0
  0
LINE
  5
BAA
330
1F
100
AcDbEntity
  8
KK
100
AcDbLine
 10
982.5547248115471
 20
2004.26072019874
 30
0.0
 11
382.5547248115471
 21
2004.26072019874
 31
0.0
  0
LINE
  5
BAB
330
1F
100
AcDbEntity
  8
KK
100
AcDbLine
 10
373.5547248115472
 20
1890.559665198741
 30
0.0
 11
373.5547248115472
 21
1815.559665198741
 31
0.0
  0
LINE
  5
BAC
330
1F
100
AcDbEntity
  8
KK
100
AcDbLine
 10
976.6914478115358
 20
1873.059665198741
 30
0.0
 11
976.8201758115463
 21
1873.059665198741
 31
0.0
  0
LINE
  5
BAD
330
1F
100
AcDbEntity
  8
KK
100
AcDbLine
 10
991.5547248115471
 20
1815.559665198741
 30
0.0
 11
991.5547248115471
 21
1890.559665198741
 31
0.0
  0
LINE
  5
BAE
330
1F
100
AcDbEntity
  8
KK
100
AcDbLine
 10
391.5547248115471
 20
1833.559665198741
 30
0.0
 11
391.5547248115471
 21
1868.099526198739
 31
0.0
  0
LINE
  5
BAF
330
1F
100
AcDbEntity
  8
KK
100
AcDbLine
 10
388.418002811537
 20
1873.059665198741
 30
0.0
 11
388.2892748115409
 21
1873.059665198741
 31
0.0
  0
LINE
  5
BB0
330
1F
100
AcDbEntity
  8
KK
100
AcDbLine
 10
388.4175908115431
 20
1868.059665198742
 30
0.0
 11
388.2889448115457
 21
1868.059665198742
 31
0.0
  0
LINE
  5
BB1
330
1F
100
AcDbEntity
  8
KK
100
AcDbLine
 10
976.6918598115443
 20
1868.059665198742
 30
0.0
 11
976.8205058115416
 21
1868.059665198742
 31
0.0
  0
LINE
  5
BB2
330
1F
100
AcDbEntity
  8
KK
100
AcDbLine
 10
391.5547248115471
 20
1873.019845198736
 30
0.0
 11
391.5547248115471
 21
1890.559665198741
 31
0.0
  0
LINE
  5
BB3
330
1F
100
AcDbEntity
  8
KK
100
AcDbLine
 10
973.5547248115471
 20
1833.559665198741
 30
0.0
 11
391.5547248115471
 21
1833.559665198741
 31
0.0
  0
LINE
  5
BB4
330
1F
100
AcDbEntity
  8
KK
100
AcDbLine
 10
373.5547248115472
 20
1815.559665198741
 30
0.0
 11
991.5547248115471
 21
1815.559665198741
 31
0.0
  0
LINE
  5
BB5
330
1F
100
AcDbEntity
  8
KK
100
AcDbLine
 10
973.5547248115471
 20
1868.099526198739
 30
0.0
 11
973.5547248115471
 21
1833.559665198741
 31
0.0
  0
LINE
  5
BB6
330
1F
100
AcDbEntity
  8
KK
100
AcDbLine
 10
973.5547248115471
 20
1890.559665198741
 30
0.0
 11
973.5547248115471
 21
1873.019845198736
 31
0.0
  0
LINE
  5
BB7
330
1F
100
AcDbEntity
  8
KK
100
AcDbLine
 10
973.5547248115471
 20
1833.559665198741
 30
0.0
 11
991.5547248115471
 21
1815.559665198741
 31
0.0
  0
LINE
  5
BB8
330
1F
100
AcDbEntity
  8
KK
100
AcDbLine
 10
373.5547248115472
 20
1815.559665198741
 30
0.0
 11
391.5547248115471
 21
1833.559665198741
 31
0.0
  0
LINE
  5
BB9
330
1F
100
AcDbEntity
  8
KK
100
AcDbLine
 10
991.5547248115471
 20
1815.559665198741
 30
0.0
 11
973.5547248115471
 21
1833.559665198741
 31
0.0
  0
LINE
  5
BBA
330
1F
100
AcDbEntity
  8
KK
100
AcDbLine
 10
373.5547248115472
 20
1815.559665198741
 30
0.0
 11
391.5547248115471
 21
1833.559665198741
 31
0.0
  0
LINE
  5
BBB
330
1F
100
AcDbEntity
  8
KK
100
AcDbLine
 10
391.4603448115376
 20
1868.550425198742
 30
0.0
 11
391.4603448115376
 21
1872.568905198741
 31
0.0
  0
LINE
  5
BBC
330
1F
100
AcDbEntity
  8
KK
100
AcDbLine
 10
973.5547248115471
 20
1890.559665198741
 30
0.0
 11
991.5547248115471
 21
1890.559665198741
 31
0.0
  0
LINE
  5
BBD
330
1F
100
AcDbEntity
  8
KK
100
AcDbLine
 10
391.5547248115471
 20
1890.559665198741
 30
0.0
 11
373.5547248115472
 21
1890.559665198741
 31
0.0
  0
LINE
  5
BBE
330
1F
100
AcDbEntity
  8
KK
100
AcDbLine
 10
973.6491058115351
 20
1872.568905198741
 30
0.0
 11
973.6491058115351
 21
1870.559665198742
 31
0.0
  0
LINE
  5
BBF
330
1F
100
AcDbEntity
  8
KK
100
AcDbLine
 10
973.6491058115351
 20
1870.559665198742
 30
0.0
 11
973.6491058115351
 21
1868.550425198742
 31
0.0
  0
ARC
  5
BC0
330
1F
100
AcDbEntity
  8
KK
100
AcDbCircle
 10
982.5547248115471
 20
1995.260720198739
 30
0.0
 40
9.000000000000008
100
AcDbArc
 50
0.0
 51
90.0
  0
ARC
  5
BC1
330
1F
100
AcDbEntity
  8
KK
100
AcDbCircle
 10
982.5547248115471
 20
1995.260720198739
 30
0.0
 40
9.000000000000008
100
AcDbArc
 50
270.0
 51
0.0
  0
ARC
  5
BC2
330
1F
100
AcDbEntity
  8
KK
100
AcDbCircle
 10
382.5547248115471
 20
1995.260720198739
 30
0.0
 40
9.00000000000003
100
AcDbArc
 50
270.0
 51
0.0
  0
ARC
  5
BC3
330
1F
100
AcDbEntity
  8
KK
100
AcDbCircle
 10
382.5547248115471
 20
1995.260720198739
 30
0.0
 40
9.00000000000003
100
AcDbArc
 50
0.0
 51
90.0
  0
ARC
  5
BC4
330
1F
100
AcDbEntity
  8
KK
100
AcDbCircle
 10
982.5547248115471
 20
1995.260720198739
 30
0.0
 40
9.0
100
AcDbArc
 50
90.0
 51
180.0
  0
ARC
  5
BC5
330
1F
100
AcDbEntity
  8
KK
100
AcDbCircle
 10
982.5547248115471
 20
1995.260720198739
 30
0.0
 40
9.0
100
AcDbArc
 50
180.0
 51
270.0
  0
ARC
  5
BC6
330
1F
100
AcDbEntity
  8
KK
100
AcDbCircle
 10
382.5547248115471
 20
1995.260720198739
 30
0.0
 40
9.000000000000039
100
AcDbArc
 50
270.0
 51
0.0
  0
ARC
  5
BC7
330
1F
100
AcDbEntity
  8
KK
100
AcDbCircle
 10
382.5547248115471
 20
1995.260720198739
 30
0.0
 40
9.000000000000039
100
AcDbArc
 50
0.0
 51
90.0
  0
SPLINE
  5
BC8
330
1F
100
AcDbEntity
  8
KK
100
AcDbSpline
210
0.0
220
0.0
230
1.0
 70
     8
 71
     3
 72
    16
 73
    12
 74
     0
 42
0.0000000001
 43
0.0000000001
 40
0.0
 40
0.0
 40
0.0
 40
0.0
 40
0.1270122678282263
 40
0.2529229516625929
 40
0.3770128346536236
 40
0.499777255306544
 40
0.6227343273761014
 40
0.7470771781102222
 40
0.8728971374954157
 40
0.999897289039823
 40
1.0
 40
1.0
 40
1.0
 40
1.0
 10
973.5547252539983
 20
1873.019845670786
 30
-0.0000000000000029
 10
973.5547277636943
 20
1873.019915205905
 30
-0.0000000000000029
 10
973.5935937972099
 20
1872.887357050449
 30
-0.0000000000000029
 10
973.7358966975152
 20
1872.349720961325
 30
-0.0000000000000028
 10
973.8803176385699
 20
1871.534472237499
 30
-0.0000000000000028
 10
973.9448294695613
 20
1870.560664461924
 30
-0.0000000000000027
 10
973.880228277223
 20
1869.58636811211
 30
-0.0000000000000027
 10
973.7359521858596
 20
1868.769628924854
 30
-0.0000000000000026
 10
973.5936115882504
 20
1868.231064211662
 30
-0.0000000000000026
 10
973.5547186130425
 20
1868.099388399843
 30
-0.0000000000000026
 10
973.5547252223623
 20
1868.099485065844
 30
-0.0000000000000026
 10
973.5547253362893
 20
1868.099486059449
 30
-0.0000000000000026
  0
SPLINE
  5
BC9
330
1F
100
AcDbEntity
  8
KK
100
AcDbSpline
210
0.0
220
0.0
230
1.0
 70
     8
 71
     3
 72
    15
 73
    11
 74
     0
 42
0.0000000001
 43
0.0000000001
 40
0.0
 40
0.0
 40
0.0
 40
0.0
 40
0.1270791942810167
 40
0.2529899239696163
 40
0.3772379868924337
 40
0.5000761616470962
 40
0.6229073647092172
 40
0.7471039066915816
 40
0.8730053249949662
 40
1.0
 40
1.0
 40
1.0
 40
1.0
 10
391.5547252541583
 20
1868.099485410172
 30
-0.0000000000000026
 10
391.5547292964766
 20
1868.099546282318
 30
-0.0000000000000026
 10
391.5158360710775
 20
1868.231522281376
 30
-0.0000000000000026
 10
391.3734149153169
 20
1868.769949242645
 30
-0.0000000000000026
 10
391.2291786925052
 20
1869.5864103615
 30
-0.0000000000000027
 10
391.1646514113964
 20
1870.56019933961
 30
-0.0000000000000027
 10
391.2290647543268
 20
1871.53412080767
 30
-0.0000000000000028
 10
391.3735507540406
 20
1872.349842256297
 30
-0.0000000000000028
 10
391.5158878476068
 20
1872.886996144645
 30
-0.0000000000000029
 10
391.5547277631267
 20
1873.019776151208
 30
-0.0000000000000029
 10
391.5547252539982
 20
1873.019845670786
 30
-0.0000000000000029
  0
LINE
  5
BCA
330
1F
100
AcDbEntity
  8
KK
100
AcDbLine
 10
982.5547248115471
 20
1810.059665198741
 30
0.0
 11
982.5547248115471
 21
1896.059665198741
 31
0.0
  0
LINE
  5
BCB
330
1F
100
AcDbEntity
  8
KK
100
AcDbLine
 10
968.2700068115373
 20
1870.559665198742
 30
0.0
 11
982.9534068115462
 21
1870.559665198742
 31
0.0
  0
LINE
  5
BCC
330
1F
100
AcDbEntity
  8
KK
100
AcDbLine
 10
382.5547248115471
 20
1810.059665198741
 30
0.0
 11
382.5547248115471
 21
1896.059665198741
 31
0.0
  0
LINE
  5
BCD
330
1F
100
AcDbEntity
  8
KK
100
AcDbLine
 10
382.1560438115412
 20
1870.559665198742
 30
0.0
 11
396.8394438115357
 21
1870.559665198742
 31
0.0
  0
LINE
  5
BCE
330
1F
100
AcDbEntity
  8
KK
100
AcDbLine
 10
368.0547248115471
 20
1824.559665198741
 30
0.0
 11
997.0547248115472
 21
1824.559665198741
 31
0.0
  0
MTEXT
  5
BEF
330
1F
100
AcDbEntity
  8
0
100
AcDbMText
 10
1468.773890803582
 20
1762.369746790848
 30
0.0
 40
30.0
 41
0.0
 71
     7
 72
     5
  1
\W01.009;\fsimplex.shx,bigfont.shx;Griff , 
 73
     2
 44
0.9036139999999999
1001
ACAD
1000
MTEXTBEGIN
1070
    73
1070
     2
1070
    44
1040
0.9036139999999999
1070
    74
1070
     0
1000
MTEXTEND
  0
MTEXT
  5
BF0
330
1F
100
AcDbEntity
  8
0
100
AcDbMText
 10
1471.788593826452
 20
1671.273378449359
 30
0.0
 40
30.0
 41
0.0
 71
     7
 72
     5
  1
\W00.790;\fsimplex.shx,bigfont.shx;Handtuchhalter und\PHandtuchring Serie 162 
 73
     1
 44
0.9036139999999999
1001
ACAD
1000
MTEXTBEGIN
1070
    73
1070
     1
1070
    44
1040
0.9036139999999999
1070
    74
1070
     0
1000
MTEXTEND
  0
INSERT
  5
C6B
330
1F
100
AcDbEntity
  8
KK
100
AcDbBlockReference
  2
A$C070E049A
 10
4197.171054159102
 20
1412.98815225086
 30
0.0000000000000186
  0
INSERT
  5
C6C
330
1F
100
AcDbEntity
  8
KK
100
AcDbBlockReference
  2
A$C6D2841EC
 10
2958.921751989198
 20
1019.496879727181
 30
0.0
  0
INSERT
  5
C6D
330
1F
100
AcDbEntity
  8
KK
100
AcDbBlockReference
  2
A$C08D619D4
 10
3997.171054487655
 20
1413.309118179075
 30
-0.0000000000000247
  0
CIRCLE
  5
C6E
330
1F
100
AcDbEntity
  8
KK
100
AcDbCircle
 10
2245.588878515627
 20
1523.309151115662
 30
0.000000000000007
 40
9.0
  0
LWPOLYLINE
  5
C6F
330
1F
100
AcDbEntity
  8
KK
100
AcDbPolyline
 90
        3
 70
     0
 43
0.0
 10
1955.609127046518
 20
1530.809151115647
 10
1955.609127046518
 20
1515.809151115647
 10
1655.609127046518
 20
1515.809151115647
  0
LWPOLYLINE
  5
C70
330
1F
100
AcDbEntity
  8
KK
100
AcDbPolyline
 90
        2
 70
     0
 43
0.0
 10
1655.609127046518
 20
1530.809151115647
 10
1955.609127046518
 20
1530.809151115647
  0
LINE
  5
C71
330
1F
100
AcDbEntity
  8
KK
100
AcDbLine
 10
1955.609127046518
 20
1515.809151115647
 30
0.0000000000000211
 11
1940.609127046518
 21
1515.809151115647
 31
0.0000000000000211
  0
LINE
  5
C72
330
1F
100
AcDbEntity
  8
KK
100
AcDbLine
 10
1940.609127046518
 20
1530.809151115647
 30
0.0000000000000211
 11
1955.609127046518
 21
1515.809151115647
 31
0.0000000000000211
  0
LINE
  5
C73
330
1F
100
AcDbEntity
  8
KK
100
AcDbLine
 10
1692.609127046518
 20
1515.809151115647
 30
0.0000000000000211
 11
1707.609127046518
 21
1515.809151115647
 31
0.0000000000000211
  0
LINE
  5
C74
330
1F
100
AcDbEntity
  8
KK
100
AcDbLine
 10
1670.609127046519
 20
1530.809151115647
 30
0.000000000000007
 11
1655.609127046518
 21
1515.809151115647
 31
0.000000000000007
  0
LINE
  5
C75
330
1F
100
AcDbEntity
  8
KK
100
AcDbLine
 10
1655.609127046518
 20
1530.809151115647
 30
0.0
 11
1655.609127046518
 21
1515.809151115647
 31
0.0
  0
LWPOLYLINE
  5
C76
330
1F
100
AcDbEntity
  8
KK
100
AcDbPolyline
 90
        3
 70
     0
 43
0.0
 10
2255.609127046518
 20
1435.809151115647
 10
2255.609127046518
 20
1420.809151115647
 10
1655.609127046518
 20
1420.809151115647
  0
LWPOLYLINE
  5
C77
330
1F
100
AcDbEntity
  8
KK
100
AcDbPolyline
 90
        2
 70
     0
 43
0.0
 10
1655.609127046518
 20
1435.809151115647
 10
2255.609127046518
 20
1435.809151115647
  0
LINE
  5
C78
330
1F
100
AcDbEntity
  8
KK
100
AcDbLine
 10
2255.609127046518
 20
1420.809151115647
 30
0.0000000000000351
 11
2240.609127046519
 21
1420.809151115647
 31
0.0000000000000351
  0
LINE
  5
C79
330
1F
100
AcDbEntity
  8
KK
100
AcDbLine
 10
2240.609127046519
 20
1435.809151115647
 30
0.0000000000000351
 11
2255.609127046518
 21
1420.809151115647
 31
0.0000000000000351
  0
LINE
  5
C7A
330
1F
100
AcDbEntity
  8
KK
100
AcDbLine
 10
1692.609127046518
 20
1420.809151115647
 30
0.0000000000000281
 11
1707.609127046518
 21
1420.809151115647
 31
0.0000000000000281
  0
LINE
  5
C7B
330
1F
100
AcDbEntity
  8
KK
100
AcDbLine
 10
1670.609127046519
 20
1435.809151115647
 30
0.0000000000000141
 11
1655.609127046518
 21
1420.809151115647
 31
0.0000000000000141
  0
LINE
  5
C7C
330
1F
100
AcDbEntity
  8
KK
100
AcDbLine
 10
1655.609127046518
 20
1435.809151115647
 30
0.000000000000007
 11
1655.609127046518
 21
1420.809151115647
 31
0.000000000000007
  0
TEXT
  5
C7D
330
1F
100
AcDbEntity
  8
ATTRIBUTE
100
AcDbText
 10
3997.571053832697
 20
1575.167337340224
 30
-0.0000000000000247
 40
40.0
  1
Glas
100
AcDbText
  0
CIRCLE
  5
D46
330
1F
100
AcDbEntity
  8
Hewi
100
AcDbCircle
 10
78.57867682952747
 20
586.2083538566621
 30
0.0
 40
7.5
  0
LINE
  5
D9A
330
1F
100
AcDbEntity
  8
Hewi
100
AcDbLine
 10
69.57867682952747
 20
576.6875153314622
 30
0.0
 11
87.57867682952747
 21
576.6875153314622
 31
0.0
  0
LINE
  5
D9B
330
1F
100
AcDbEntity
  8
Hewi
100
AcDbLine
 10
87.57867682952747
 20
576.6875153314622
 30
0.0
 11
87.57867682952747
 21
646.6875153314622
 31
0.0
  0
LINE
  5
D9C
330
1F
100
AcDbEntity
  8
Hewi
100
AcDbLine
 10
87.57867682952747
 20
646.6875153314622
 30
0.0
 11
69.57867682952747
 21
646.6875153314622
 31
0.0
  0
LINE
  5
D9D
330
1F
100
AcDbEntity
  8
Hewi
100
AcDbLine
 10
69.57867682952747
 20
646.6875153314622
 30
0.0
 11
69.57867682952747
 21
576.6875153314622
 31
0.0
  0
LINE
  5
DA0
330
1F
100
AcDbEntity
  8
Hewi
100
AcDbLine
 10
69.57867682952747
 20
595.4939932040815
 30
0.0
 11
87.57867682952747
 21
595.4939932040815
 31
0.0
  0
LINE
  5
DA1
330
1F
100
AcDbEntity
  8
Hewi
100
AcDbLine
 10
69.57867682952747
 20
627.8810374588429
 30
0.0
 11
87.57867682952747
 21
627.8810374588429
 31
0.0
  0
CIRCLE
  5
DA2
330
1F
100
AcDbEntity
  8
Hewi
100
AcDbCircle
 10
78.57867682952747
 20
637.1666768062623
 30
0.0
 40
7.5
  0
LINE
  5
DA3
330
1F
100
AcDbEntity
  8
Hewi
100
AcDbLine
 10
112.4690424770888
 20
576.6875153314622
 30
0.0
 11
112.4690424770888
 21
646.6875153314622
 31
0.0
  0
LINE
  5
DA4
330
1F
100
AcDbEntity
  8
Hewi
100
AcDbLine
 10
137.4690424770888
 20
576.6875153314622
 30
0.0
 11
137.4690424770888
 21
578.7083538566621
 31
0.0
  0
LINE
  5
DA7
330
1F
100
AcDbEntity
  8
Hewi
100
AcDbLine
 10
112.4690424770888
 20
576.6875153314622
 30
0.0
 11
137.4690424770888
 21
576.6875153314622
 31
0.0
  0
LINE
  5
DA9
330
1F
100
AcDbEntity
  8
Hewi
100
AcDbLine
 10
122.9683646011444
 20
595.4939932040815
 30
0.0
 11
137.4690424770888
 21
595.4939932040815
 31
0.0
  0
LINE
  5
DAA
330
1F
100
AcDbEntity
  8
Hewi
100
AcDbLine
 10
122.9683646011444
 20
627.8810374588429
 30
0.0
 11
137.4690424770888
 21
627.8810374588429
 31
0.0
  0
LINE
  5
DAB
330
1F
100
AcDbEntity
  8
Hewi
100
AcDbLine
 10
122.9683646011444
 20
595.4939932040815
 30
0.0
 11
122.9683646011444
 21
576.6875153314622
 31
0.0
  0
LINE
  5
DAC
330
1F
100
AcDbEntity
  8
Hewi
100
AcDbLine
 10
122.9683646011444
 20
576.6875153314622
 30
0.0
 11
122.9683646011444
 21
595.4939932040815
 31
0.0
  0
LINE
  5
DAD
330
1F
100
AcDbEntity
  8
Hewi
100
AcDbLine
 10
122.9683646011444
 20
627.8810374588429
 30
0.0
 11
122.9683646011444
 21
646.6875153314622
 31
0.0
  0
ARC
  5
DB0
330
1F
100
AcDbEntity
  8
Hewi
100
AcDbCircle
 10
147.7317718873951
 20
586.2083538566621
 30
0.0
 40
12.71116103859776
100
AcDbArc
 50
143.8406750015462
 51
216.1593249984537
  0
ARC
  5
DB1
330
1F
100
AcDbEntity
  8
Hewi
100
AcDbCircle
 10
147.7317718873951
 20
637.2842763951525
 30
0.0
 40
12.71116103859776
100
AcDbArc
 50
143.8406750015462
 51
216.1593249984537
  0
LINE
  5
DB2
330
1F
100
AcDbEntity
  8
Hewi
100
AcDbLine
 10
112.4690424770888
 20
646.6875153314622
 30
0.0
 11
137.4690424770888
 21
646.6875153314622
 31
0.0
  0
LINE
  5
DB5
330
1F
100
AcDbEntity
  8
Hewi
100
AcDbLine
 10
137.4690424770888
 20
593.7083538566621
 30
0.0
 11
137.4690424770888
 21
629.7842763951526
 31
0.0
  0
LINE
  5
DB6
330
1F
100
AcDbEntity
  8
Hewi
100
AcDbLine
 10
137.4690424770888
 20
644.6666768062623
 30
0.0
 11
137.4690424770888
 21
646.6875153314622
 31
0.0
  0
LINE
  5
DB7
330
1F
100
AcDbEntity
  8
Hewi
100
AcDbLine
 10
137.4690424770888
 20
629.6666768062623
 30
0.0
 11
560.0264475357525
 21
629.6666768062623
 31
0.0
  0
LINE
  5
DB8
330
1F
100
AcDbEntity
  8
Hewi
100
AcDbLine
 10
560.0264475357525
 20
629.6666768062623
 30
0.0
 11
560.0264475357525
 21
644.6666768062623
 31
0.0
  0
LINE
  5
DB9
330
1F
100
AcDbEntity
  8
Hewi
100
AcDbLine
 10
560.0264475357525
 20
644.6666768062623
 30
0.0
 11
137.384125820815
 21
644.6666768062623
 31
0.0
  0
LINE
  5
DBA
330
1F
100
AcDbEntity
  8
Hewi
100
AcDbLine
 10
137.4690424770888
 20
578.7083538566621
 30
0.0
 11
560.0264475357525
 21
578.7083538566621
 31
0.0
  0
LINE
  5
DBB
330
1F
100
AcDbEntity
  8
Hewi
100
AcDbLine
 10
560.0264475357525
 20
578.7083538566621
 30
0.0
 11
560.0264475357525
 21
593.7083538566621
 31
0.0
  0
LINE
  5
DBC
330
1F
100
AcDbEntity
  8
Hewi
100
AcDbLine
 10
560.0264475357525
 20
593.7083538566621
 30
0.0
 11
137.4690424770887
 21
593.7083538566621
 31
0.0
  0
LINE
  5
DBD
330
1F
100
AcDbEntity
  8
Hewi
100
AcDbLine
 10
558.915982728473
 20
629.6666768062623
 30
0.0
 11
558.915982728473
 21
644.6666768062623
 31
0.0
  0
LINE
  5
DBE
330
1F
100
AcDbEntity
  8
Hewi
100
AcDbLine
 10
558.915982728473
 20
578.7083538566621
 30
0.0
 11
558.915982728473
 21
593.7083538566621
 31
0.0
  0
LWPOLYLINE
  5
DD7
330
1F
100
AcDbEntity
  8
Hewi
100
AcDbPolyline
 90
        4
 70
     0
 43
0.0
 10
71.07867682952747
 20
502.9446786156309
 10
71.07867682952747
 20
78.91961580116412
 10
86.07867682952747
 20
78.91961580116412
 10
86.07867682952747
 20
502.9446786156309
  0
CIRCLE
  5
DDA
330
1F
100
AcDbEntity
  8
Hewi
100
AcDbCircle
 10
78.57867682952747
 20
507.9196158011641
 30
0.0
 40
9.0
  0
LINE
  5
DF3
330
1F
100
AcDbEntity
  8
Hewi
100
AcDbLine
 10
122.9683646011444
 20
627.8810374588429
 30
0.0
 11
122.9683646011444
 21
595.4939932040815
 31
0.0
  0
LINE
  5
DF4
330
1F
100
AcDbEntity
  8
Hewi
100
AcDbLine
 10
112.4690424770888
 20
593.7083538566621
 30
0.0
 11
112.4690424770888
 21
629.7842763951526
 31
0.0
  0
LWPOLYLINE
  5
DFB
330
1F
100
AcDbEntity
  8
Hewi
100
AcDbPolyline
 90
        4
 70
     0
 43
0.0
 10
87.57867682952747
 20
507.9196158011641
 10
87.57867682952747
 20
523.9196158011641
 10
69.57867682952747
 20
523.9196158011641
 10
69.57867682952747
 20
507.9196158011641
  0
ENDSEC
  0
SECTION
  2
OBJECTS
  0
DICTIONARY
  5
C
330
0
100
AcDbDictionary
281
     1
  3
ACAD_COLOR
350
6B
  3
ACAD_GROUP
350
D
  3
ACAD_LAYOUT
350
1A
  3
ACAD_MATERIAL
350
6A
  3
ACAD_MLINESTYLE
350
17
  3
ACAD_PLOTSETTINGS
350
19
  3
ACAD_PLOTSTYLENAME
350
E
  3
ACAD_TABLESTYLE
350
7E
  3
ACAD_VISUALSTYLE
350
EF
  3
AcDbVariableDictionary
350
5E
  3
ASE_INDEX_DICTIONARY
350
C7F
  3
DWGPROPS
350
E4D
  0
DICTIONARY
  5
141
330
2
100
AcDbDictionary
280
     1
281
     1
  3
ACAD_LAYERSTATES
360
142
  0
DICTIONARY
  5
116
330
1F
100
AcDbDictionary
280
     1
281
     1
  3
ACAD_SORTENTS
360
117
  0
DICTIONARY
  5
BF2
330
BF1
100
AcDbDictionary
280
     1
281
     1
  3
ACAD_SORTENTS
360
BF3
  0
DICTIONARY
  5
C1E
330
C1D
100
AcDbDictionary
280
     1
281
     1
  3
ACAD_SORTENTS
360
C1F
  0
DICTIONARY
  5
C39
330
C38
100
AcDbDictionary
280
     1
281
     1
  3
ACAD_SORTENTS
360
C3A
  0
DICTIONARY
  5
6B
102
{ACAD_REACTORS
330
C
102
}
330
C
100
AcDbDictionary
281
     1
  0
DICTIONARY
  5
D
102
{ACAD_REACTORS
330
C
102
}
330
C
100
AcDbDictionary
281
     1
  0
DICTIONARY
  5
1A
102
{ACAD_REACTORS
330
C
102
}
330
C
100
AcDbDictionary
281
     1
  3
Layout1
350
D3
  3
Layout2
350
D7
  3
Model
350
22
  0
DICTIONARY
  5
6A
102
{ACAD_REACTORS
330
C
102
}
330
C
100
AcDbDictionary
281
     1
  3
ByBlock
350
ED
  3
ByLayer
350
EC
  3
Global
350
EE
  0
DICTIONARY
  5
17
102
{ACAD_REACTORS
330
C
102
}
330
C
100
AcDbDictionary
281
     1
  3
Standard
350
18
  0
DICTIONARY
  5
19
102
{ACAD_REACTORS
330
C
102
}
330
C
100
AcDbDictionary
281
     1
  0
ACDBDICTIONARYWDFLT
  5
E
102
{ACAD_REACTORS
330
C
102
}
330
C
100
AcDbDictionary
281
     1
  3
Normal
350
F
100
AcDbDictionaryWithDefault
340
F
  0
DICTIONARY
  5
7E
102
{ACAD_REACTORS
330
C
102
}
330
C
100
AcDbDictionary
281
     1
  3
Standard
350
7F
  0
DICTIONARY
  5
EF
102
{ACAD_REACTORS
330
C
102
}
330
C
100
AcDbDictionary
281
     1
  3
2dWireframe
350
F5
  3
3D Hidden
350
F7
  3
3dWireframe
350
F6
  3
Basic
350
F4
  3
Brighten
350
FB
  3
ColorChange
350
FF
  3
Conceptual
350
F8
  3
Dim
350
FA
  3
Facepattern
350
FE
  3
Flat
350
F0
  3
FlatWithEdges
350
F1
  3
Gouraud
350
F2
  3
GouraudWithEdges
350
F3
  3
Linepattern
350
FD
  3
Realistic
350
F9
  3
Thicken
350
FC
  0
DICTIONARY
  5
5E
102
{ACAD_REACTORS
330
C
102
}
330
C
100
AcDbDictionary
281
     1
  3
CTABLESTYLE
350
84
  3
DIMASSOC
350
5F
  3
HIDETEXT
350
63
  3
INDEXCTL
350
327
  3
PSOLHEIGHT
350
D21
  3
PSOLWIDTH
350
D20
  3
SORTENTS
350
326
  0
DICTIONARY
  5
C7F
102
{ACAD_REACTORS
330
C
102
}
330
C
100
AcDbDictionary
281
     1
  3
ASEBlockHierarchyIndexRecord
350
C80
1001
DCO15
1040
1711350710.59
  0
XRECORD
  5
E4D
102
{ACAD_REACTORS
330
C
102
}
330
C
100
AcDbXrecord
280
     1
  1
DWGPROPS COOKIE
  2

  3

  4

  6

  7

  8
kaschu
  9

300
=
301
=
302
=
303
=
304
=
305
=
306
=
307
=
308
=
309
=
 40
0.0373151041666667
 41
2454768.510881991
 42
2455624.697198738
  1

 90
        0
  0
DICTIONARY
  5
142
102
{ACAD_REACTORS
330
141
102
}
330
141
100
AcDbDictionary
281
     1
  0
SORTENTSTABLE
  5
117
102
{ACAD_REACTORS
330
116
102
}
330
116
100
AcDbSortentsTable
330
1F
331
D9A
  5
D45
331
DB9
  5
D73
331
DAB
  5
DB8
331
BC2
  5
BC2
331
BA0
  5
BA0
331
B7E
  5
B7E
331
C6F
  5
C6F
331
BB1
  5
BB1
331
B8F
  5
B8F
331
B6D
  5
B6D
331
B5C
  5
B5C
331
C7D
  5
C7D
331
DB7
  5
D71
331
DA9
  5
DB6
331
BC0
  5
BC0
331
B9E
  5
B9E
331
B7C
  5
B7C
331
C6D
  5
C6D
331
BAF
  5
BAF
331
B8D
  5
B8D
331
B6B
  5
B6B
331
C7B
  5
C7B
331
DB5
  5
DAB
331
DF3
  5
DF4
331
DD7
  5
DD9
331
DA7
  5
DAE
331
BBE
  5
BBE
331
B9C
  5
B9C
331
B7A
  5
B7A
331
C6B
  5
C6B
331
BAD
  5
BAD
331
B8B
  5
B8B
331
B69
  5
B69
331
C79
  5
C79
331
BBC
  5
BBC
331
B9A
  5
B9A
331
B78
  5
B78
331
BCD
  5
BCD
331
BAB
  5
BAB
331
B89
  5
B89
331
B67
  5
B67
331
DB1
  5
DBC
331
DA3
  5
DA9
331
BBA
  5
BBA
331
B98
  5
B98
331
BCB
  5
BCB
331
BA9
  5
BA9
331
B87
  5
B87
331
C77
  5
C77
331
B76
  5
B76
331
B65
  5
B65
331
DA1
  5
DA5
331
BB8
  5
BB8
331
BC9
  5
BC9
331
BA7
  5
BA7
331
B85
  5
B85
331
C75
  5
C75
331
B96
  5
B96
331
B74
  5
B74
331
B63
  5
B63
331
DBE
  5
DD7
331
BC7
  5
BC7
331
BA5
  5
BA5
331
B83
  5
B83
331
C73
  5
C73
331
BB6
  5
BB6
331
B94
  5
B94
331
B72
  5
B72
331
B61
  5
B61
331
D9D
  5
D6B
331
DBC
  5
DB5
331
BC5
  5
BC5
331
BA3
  5
BA3
331
B81
  5
B81
331
C71
  5
C71
331
BB4
  5
BB4
331
B92
  5
B92
331
B70
  5
B70
331
B5F
  5
B5F
331
D9B
  5
D47
331
DBA
  5
DB1
331
DAC
  5
DB9
331
BC3
  5
BC3
331
BA1
  5
BA1
331
B7F
  5
B7F
331
BEF
  5
BEF
331
BB2
  5
BB2
331
B90
  5
B90
331
B6E
  5
B6E
331
B5D
  5
B5D
331
DB8
  5
D72
331
DDA
  5
DF3
331
DAA
  5
DB7
331
BC1
  5
BC1
331
B9F
  5
B9F
331
B7D
  5
B7D
331
C6E
  5
C6E
331
BB0
  5
BB0
331
B8E
  5
B8E
331
B6C
  5
B6C
331
C7C
  5
C7C
331
DB6
  5
DAD
331
DF4
  5
DAC
331
BBF
  5
BBF
331
B9D
  5
B9D
331
B7B
  5
B7B
331
C6C
  5
C6C
331
BAE
  5
BAE
331
B8C
  5
B8C
331
B6A
  5
B6A
331
C7A
  5
C7A
331
BBD
  5
BBD
331
B9B
  5
B9B
331
B79
  5
B79
331
D46
  5
D6D
331
BCE
  5
BCE
331
BAC
  5
BAC
331
B8A
  5
B8A
331
B68
  5
B68
331
C78
  5
C78
331
DB2
  5
DBD
331
DA4
  5
DAA
331
BBB
  5
BBB
331
B99
  5
B99
331
BCC
  5
BCC
331
BAA
  5
BAA
331
B88
  5
B88
331
B77
  5
B77
331
B66
  5
B66
331
DB0
  5
DBB
331
DA2
  5
DA8
331
BB9
  5
BB9
331
BCA
  5
BCA
331
BA8
  5
BA8
331
B86
  5
B86
331
C76
  5
C76
331
B97
  5
B97
331
B75
  5
B75
331
B64
  5
B64
331
DA0
  5
D46
331
BC8
  5
BC8
331
BA6
  5
BA6
331
B84
  5
B84
331
C74
  5
C74
331
BB7
  5
BB7
331
B95
  5
B95
331
B73
  5
B73
331
B62
  5
B62
331
DBD
  5
DBE
331
BC6
  5
BC6
331
BA4
  5
BA4
331
B82
  5
B82
331
C72
  5
C72
331
BB5
  5
BB5
331
B93
  5
B93
331
B71
  5
B71
331
B60
  5
B60
331
D9C
  5
D69
331
DBB
  5
DB2
331
DAD
  5
DBA
331
BF0
  5
BF0
331
BC4
  5
BC4
331
BA2
  5
BA2
331
B80
  5
B80
331
C70
  5
C70
331
BB3
  5
BB3
331
B91
  5
B91
331
B6F
  5
B6F
331
B5E
  5
B5E
  0
SORTENTSTABLE
  5
BF3
102
{ACAD_REACTORS
330
BF2
102
}
330
BF2
100
AcDbSortentsTable
330
BF1
  0
SORTENTSTABLE
  5
C1F
102
{ACAD_REACTORS
330
C1E
102
}
330
C1E
100
AcDbSortentsTable
330
C1D
  0
SORTENTSTABLE
  5
C3A
102
{ACAD_REACTORS
330
C39
102
}
330
C39
100
AcDbSortentsTable
330
C38
  0
LAYOUT
  5
D3
102
{ACAD_XDICTIONARY
360
E52
102
}
102
{ACAD_REACTORS
330
1A
102
}
330
1A
100
AcDbPlotSettings
  1

  2
C:\Documents and Settings\basas\Application Data\Autodesk\AutoCAD 2005\R16.1\enu\plotters\Default Windows System Printer.pc3
  4

  6

 40
0.0
 41
0.0
 42
0.0
 43
0.0
 44
0.0
 45
0.0
 46
0.0
 47
0.0
 48
0.0
 49
0.0
140
0.0
141
0.0
142
1.0
143
1.0
 70
   688
 72
     0
 73
     0
 74
     5
  7

 75
    16
147
1.0
148
0.0
149
0.0
100
AcDbLayout
  1
Layout1
 70
     1
 71
     1
 10
0.0
 20
0.0
 11
12.0
 21
9.0
 12
0.0
 22
0.0
 32
0.0
 14
0.0
 24
0.0
 34
0.0
 15
0.0
 25
0.0
 35
0.0
146
0.0
 13
0.0
 23
0.0
 33
0.0
 16
1.0
 26
0.0
 36
0.0
 17
0.0
 27
1.0
 37
0.0
 76
     0
330
D2
  0
LAYOUT
  5
D7
102
{ACAD_XDICTIONARY
360
E54
102
}
102
{ACAD_REACTORS
330
1A
102
}
330
1A
100
AcDbPlotSettings
  1

  2
C:\Documents and Settings\basas\Application Data\Autodesk\AutoCAD 2005\R16.1\enu\plotters\Default Windows System Printer.pc3
  4

  6

 40
0.0
 41
0.0
 42
0.0
 43
0.0
 44
0.0
 45
0.0
 46
0.0
 47
0.0
 48
0.0
 49
0.0
140
0.0
141
0.0
142
1.0
143
1.0
 70
   688
 72
     0
 73
     0
 74
     5
  7

 75
    16
147
1.0
148
0.0
149
0.0
100
AcDbLayout
  1
Layout2
 70
     1
 71
     2
 10
0.0
 20
0.0
 11
12.0
 21
9.0
 12
0.0
 22
0.0
 32
0.0
 14
0.0
 24
0.0
 34
0.0
 15
0.0
 25
0.0
 35
0.0
146
0.0
 13
0.0
 23
0.0
 33
0.0
 16
1.0
 26
0.0
 36
0.0
 17
0.0
 27
1.0
 37
0.0
 76
     0
330
D6
  0
LAYOUT
  5
22
102
{ACAD_XDICTIONARY
360
E4E
102
}
102
{ACAD_REACTORS
330
1A
102
}
330
1A
100
AcDbPlotSettings
  1

  2
none_device
  4
ISO_A4_(210.00_x_297.00_MM)
  6

 40
7.5
 41
20.0
 42
7.5
 43
20.0
 44
210.0
 45
297.0
 46
11.54999923706054
 47
-13.65000009536743
 48
0.0
 49
0.0
140
0.0
141
0.0
142
1.0
143
8.704084754739808
 70
 11952
 72
     1
 73
     0
 74
     0
  7

 75
     0
147
0.1148885871608098
148
0.0
149
0.0
100
AcDbLayout
  1
Model
 70
     1
 71
     0
 10
0.0
 20
0.0
 11
12.0
 21
9.0
 12
0.0
 22
0.0
 32
0.0
 14
0.0
 24
0.0
 34
0.0
 15
0.0
 25
0.0
 35
0.0
146
0.0
 13
0.0
 23
0.0
 33
0.0
 16
1.0
 26
0.0
 36
0.0
 17
0.0
 27
1.0
 37
0.0
 76
     0
330
1F
331
EA
1001
ACAD_PSEXT
1000
None
1000
None
1000
Not applicable
1000
The layout will not be plotted unless a new plotter configuration name is selected.
1070
     0
  0
MATERIAL
  5
ED
102
{ACAD_XDICTIONARY
360
335
102
}
102
{ACAD_REACTORS
330
6A
102
}
330
6A
100
AcDbMaterial
  1
ByBlock
  0
MATERIAL
  5
EC
102
{ACAD_XDICTIONARY
360
333
102
}
102
{ACAD_REACTORS
330
6A
102
}
330
6A
100
AcDbMaterial
  1
ByLayer
  0
MATERIAL
  5
EE
102
{ACAD_XDICTIONARY
360
337
102
}
102
{ACAD_REACTORS
330
6A
102
}
330
6A
100
AcDbMaterial
  1
Global
  0
MLINESTYLE
  5
18
102
{ACAD_REACTORS
330
17
102
}
330
17
100
AcDbMlineStyle
  2
STANDARD
 70
     0
  3

 62
   256
 51
90.0
 52
90.0
 71
     2
 49
0.5
 62
   256
  6
BYLAYER
 49
-0.5
 62
   256
  6
BYLAYER
  0
ACDBPLACEHOLDER
  5
F
102
{ACAD_REACTORS
330
E
102
}
330
E
  0
TABLESTYLE
  5
7F
102
{ACAD_XDICTIONARY
360
E50
102
}
102
{ACAD_REACTORS
330
7E
102
}
330
7E
100
AcDbTableStyle
  3
Standard
 70
     0
 71
     0
 40
1.5
 41
1.5
280
     0
281
     0
  7
Standard
140
4.5
170
     2
 62
     0
 63
     7
283
     0
274
    -2
284
     1
 64
     0
275
    -2
285
     1
 65
     0
276
    -2
286
     1
 66
     0
277
    -2
287
     1
 67
     0
278
    -2
288
     1
 68
     0
279
    -2
289
     1
 69
     0
  7
Standard
140
6.0
170
     5
 62
     0
 63
     7
283
     0
274
    -2
284
     1
 64
     0
275
    -2
285
     1
 65
     0
276
    -2
286
     1
 66
     0
277
    -2
287
     1
 67
     0
278
    -2
288
     1
 68
     0
279
    -2
289
     1
 69
     0
  7
Standard
140
4.5
170
     5
 62
     0
 63
     7
283
     0
274
    -2
284
     1
 64
     0
275
    -2
285
     1
 65
     0
276
    -2
286
     1
 66
     0
277
    -2
287
     1
 67
     0
278
    -2
288
     1
 68
     0
279
    -2
289
     1
 69
     0
  0
VISUALSTYLE
  5
F5
102
{ACAD_REACTORS
330
EF
102
}
330
EF
100
AcDbVisualStyle
  2
2dWireframe
 70
     4
 71
     0
 72
     2
 73
     1
 90
        0
 40
-0.6
 41
-30.0
 62
     5
 63
     7
 74
     1
 91
        4
 64
     7
 65
   257
 75
     1
175
     1
 42
1.0
 92
        0
 66
   257
 43
1.0
 76
     1
 77
     6
 78
     2
 67
     7
 79
     5
170
     0
171
     0
290
     0
174
     0
 93
        1
 44
0.0
173
     0
291
     0
 45
0.0
1001
ACAD
1000
AcDbSavedByObjectVersion
1070
     0
1000
AcDbSavedByObjectVersion
1070
     0
1000
AcDbSavedByObjectVersion
1070
     0
1000
AcDbSavedByObjectVersion
1070
     0
1000
AcDbSavedByObjectVersion
1070
     0
1000
AcDbSavedByObjectVersion
1070
     0
  0
VISUALSTYLE
  5
F7
102
{ACAD_REACTORS
330
EF
102
}
330
EF
100
AcDbVisualStyle
  2
3D Hidden
 70
     6
 71
     1
 72
     2
 73
     2
 90
        0
 40
-0.6
 41
-30.0
 62
     5
 63
     7
 74
     2
 91
        2
 64
     7
 65
   257
 75
     2
175
     1
 42
40.0
 92
        0
 66
   257
 43
1.0
 76
     1
 77
     6
 78
     2
 67
     7
 79
     3
170
     0
171
     0
290
     0
174
     0
 93
        1
 44
0.0
173
     0
291
     0
 45
0.0
1001
ACAD
1000
AcDbSavedByObjectVersion
1070
     0
1000
AcDbSavedByObjectVersion
1070
     0
1000
AcDbSavedByObjectVersion
1070
     0
1000
AcDbSavedByObjectVersion
1070
     0
1000
AcDbSavedByObjectVersion
1070
     0
1000
AcDbSavedByObjectVersion
1070
     0
  0
VISUALSTYLE
  5
F6
102
{ACAD_REACTORS
330
EF
102
}
330
EF
100
AcDbVisualStyle
  2
3dWireframe
 70
     5
 71
     0
 72
     2
 73
     1
 90
        0
 40
-0.6
 41
-30.0
 62
     5
 63
     7
 74
     1
 91
        4
 64
     7
 65
   257
 75
     1
175
     1
 42
1.0
 92
        0
 66
   257
 43
1.0
 76
     1
 77
     6
 78
     2
 67
     7
 79
     5
170
     0
171
     0
290
     0
174
     0
 93
        1
 44
0.0
173
     0
291
     0
 45
0.0
1001
ACAD
1000
AcDbSavedByObjectVersion
1070
     0
1000
AcDbSavedByObjectVersion
1070
     0
1000
AcDbSavedByObjectVersion
1070
     0
1000
AcDbSavedByObjectVersion
1070
     0
1000
AcDbSavedByObjectVersion
1070
     0
1000
AcDbSavedByObjectVersion
1070
     0
  0
VISUALSTYLE
  5
F4
102
{ACAD_REACTORS
330
EF
102
}
330
EF
100
AcDbVisualStyle
  2
Basic
 70
     7
 71
     1
 72
     0
 73
     1
 90
        0
 40
-0.6
 41
-30.0
 62
     5
 63
     7
 74
     0
 91
        4
 64
     7
 65
   257
 75
     1
175
     1
 42
1.0
 92
        8
 66
     7
 43
1.0
 76
     1
 77
     6
 78
     2
 67
     7
 79
     5
170
     0
171
     0
290
     0
174
     0
 93
        1
 44
0.0
173
     0
291
     1
 45
0.0
1001
ACAD
1000
AcDbSavedByObjectVersion
1070
     0
1000
AcDbSavedByObjectVersion
1070
     0
1000
AcDbSavedByObjectVersion
1070
     0
1000
AcDbSavedByObjectVersion
1070
     0
1000
AcDbSavedByObjectVersion
1070
     0
1000
AcDbSavedByObjectVersion
1070
     0
  0
VISUALSTYLE
  5
FB
102
{ACAD_REACTORS
330
EF
102
}
330
EF
100
AcDbVisualStyle
  2
Brighten
 70
    12
 71
     2
 72
     2
 73
     1
 90
        0
 40
-0.6
 41
-30.0
 62
     5
 63
     7
 74
     1
 91
        4
 64
     7
 65
   257
 75
     1
175
     1
 42
1.0
 92
        8
 66
     7
 43
1.0
 76
     1
 77
     6
 78
     2
 67
     7
 79
     5
170
     0
171
     0
290
     0
174
     0
 93
        1
 44
50.0
173
     0
291
     1
 45
0.0
1001
ACAD
1000
AcDbSavedByObjectVersion
1070
     0
1000
AcDbSavedByObjectVersion
1070
     0
1000
AcDbSavedByObjectVersion
1070
     0
1000
AcDbSavedByObjectVersion
1070
     0
1000
AcDbSavedByObjectVersion
1070
     0
1000
AcDbSavedByObjectVersion
1070
     0
  0
VISUALSTYLE
  5
FF
102
{ACAD_REACTORS
330
EF
102
}
330
EF
100
AcDbVisualStyle
  2
ColorChange
 70
    16
 71
     2
 72
     2
 73
     3
 90
        0
 40
-0.6
 41
-30.0
 62
     5
 63
     8
 74
     1
 91
        4
 64
     7
 65
   257
 75
     1
175
     1
 42
1.0
 92
        8
 66
     8
 43
1.0
 76
     1
 77
     6
 78
     2
 67
     7
 79
     5
170
     0
171
     0
290
     0
174
     0
 93
        1
 44
0.0
173
     0
291
     1
 45
0.0
1001
ACAD
1000
AcDbSavedByObjectVersion
1070
     0
1000
AcDbSavedByObjectVersion
1070
     0
1000
AcDbSavedByObjectVersion
1070
     0
1000
AcDbSavedByObjectVersion
1070
     0
1000
AcDbSavedByObjectVersion
1070
     0
1000
AcDbSavedByObjectVersion
1070
     0
  0
VISUALSTYLE
  5
F8
102
{ACAD_REACTORS
330
EF
102
}
330
EF
100
AcDbVisualStyle
  2
Conceptual
 70
     9
 71
     3
 72
     2
 73
     1
 90
        0
 40
-0.6
 41
-30.0
 62
     5
 63
     7
 74
     2
 91
        2
 64
     7
 65
   257
 75
     1
175
     1
 42
40.0
 92
        8
 66
     7
 43
1.0
 76
     1
 77
     6
 78
     2
 67
     7
 79
     3
170
     0
171
     0
290
     0
174
     0
 93
        1
 44
0.0
173
     0
291
     0
 45
0.0
1001
ACAD
1000
AcDbSavedByObjectVersion
1070
     0
1000
AcDbSavedByObjectVersion
1070
     0
1000
AcDbSavedByObjectVersion
1070
     0
1000
AcDbSavedByObjectVersion
1070
     0
1000
AcDbSavedByObjectVersion
1070
     0
1000
AcDbSavedByObjectVersion
1070
     0
  0
VISUALSTYLE
  5
FA
102
{ACAD_REACTORS
330
EF
102
}
330
EF
100
AcDbVisualStyle
  2
Dim
 70
    11
 71
     2
 72
     2
 73
     1
 90
        0
 40
-0.6
 41
-30.0
 62
     5
 63
     7
 74
     1
 91
        4
 64
     7
 65
   257
 75
     1
175
     1
 42
1.0
 92
        8
 66
     7
 43
1.0
 76
     1
 77
     6
 78
     2
 67
     7
 79
     5
170
     0
171
     0
290
     0
174
     0
 93
        1
 44
-50.0
173
     0
291
     1
 45
0.0
1001
ACAD
1000
AcDbSavedByObjectVersion
1070
     0
1000
AcDbSavedByObjectVersion
1070
     0
1000
AcDbSavedByObjectVersion
1070
     0
1000
AcDbSavedByObjectVersion
1070
     0
1000
AcDbSavedByObjectVersion
1070
     0
1000
AcDbSavedByObjectVersion
1070
     0
  0
VISUALSTYLE
  5
FE
102
{ACAD_REACTORS
330
EF
102
}
330
EF
100
AcDbVisualStyle
  2
Facepattern
 70
    15
 71
     2
 72
     2
 73
     1
 90
        0
 40
-0.6
 41
-30.0
 62
     5
 63
     7
 74
     1
 91
        4
 64
     7
 65
   257
 75
     1
175
     1
 42
1.0
 92
        8
 66
     7
 43
1.0
 76
     1
 77
     6
 78
     2
 67
     7
 79
     5
170
     0
171
     0
290
     0
174
     0
 93
        1
 44
0.0
173
     0
291
     1
 45
0.0
1001
ACAD
1000
AcDbSavedByObjectVersion
1070
     0
1000
AcDbSavedByObjectVersion
1070
     0
1000
AcDbSavedByObjectVersion
1070
     0
1000
AcDbSavedByObjectVersion
1070
     0
1000
AcDbSavedByObjectVersion
1070
     0
1000
AcDbSavedByObjectVersion
1070
     0
  0
VISUALSTYLE
  5
F0
102
{ACAD_REACTORS
330
EF
102
}
330
EF
100
AcDbVisualStyle
  2
Flat
 70
     0
 71
     2
 72
     1
 73
     1
 90
        2
 40
-0.6
 41
30.0
 62
     5
 63
     7
 74
     0
 91
        4
 64
     7
 65
   257
 75
     1
175
     1
 42
1.0
 92
        8
 66
     7
 43
1.0
 76
     1
 77
     6
 78
     2
 67
     7
 79
     5
170
     0
171
     0
290
     0
174
     0
 93
       13
 44
0.0
173
     0
291
     1
 45
0.0
1001
ACAD
1000
AcDbSavedByObjectVersion
1070
     0
1000
AcDbSavedByObjectVersion
1070
     0
1000
AcDbSavedByObjectVersion
1070
     0
1000
AcDbSavedByObjectVersion
1070
     0
1000
AcDbSavedByObjectVersion
1070
     0
1000
AcDbSavedByObjectVersion
1070
     0
  0
VISUALSTYLE
  5
F1
102
{ACAD_REACTORS
330
EF
102
}
330
EF
100
AcDbVisualStyle
  2
FlatWithEdges
 70
     1
 71
     2
 72
     1
 73
     1
 90
        2
 40
-0.6
 41
30.0
 62
     5
 63
     7
 74
     1
 91
        4
 64
     7
 65
   257
 75
     1
175
     1
 42
1.0
 92
        0
 66
   257
 43
1.0
 76
     1
 77
     6
 78
     2
 67
     7
 79
     5
170
     0
171
     0
290
     0
174
     0
 93
       13
 44
0.0
173
     0
291
     1
 45
0.0
1001
ACAD
1000
AcDbSavedByObjectVersion
1070
     0
1000
AcDbSavedByObjectVersion
1070
     0
1000
AcDbSavedByObjectVersion
1070
     0
1000
AcDbSavedByObjectVersion
1070
     0
1000
AcDbSavedByObjectVersion
1070
     0
1000
AcDbSavedByObjectVersion
1070
     0
  0
VISUALSTYLE
  5
F2
102
{ACAD_REACTORS
330
EF
102
}
330
EF
100
AcDbVisualStyle
  2
Gouraud
 70
     2
 71
     2
 72
     2
 73
     1
 90
        2
 40
-0.6
 41
30.0
 62
     5
 63
     7
 74
     0
 91
        4
 64
     7
 65
   257
 75
     1
175
     1
 42
1.0
 92
        0
 66
     7
 43
1.0
 76
     1
 77
     6
 78
     2
 67
     7
 79
     5
170
     0
171
     0
290
     0
174
     0
 93
       13
 44
0.0
173
     0
291
     1
 45
0.0
1001
ACAD
1000
AcDbSavedByObjectVersion
1070
     0
1000
AcDbSavedByObjectVersion
1070
     0
1000
AcDbSavedByObjectVersion
1070
     0
1000
AcDbSavedByObjectVersion
1070
     0
1000
AcDbSavedByObjectVersion
1070
     0
1000
AcDbSavedByObjectVersion
1070
     0
  0
VISUALSTYLE
  5
F3
102
{ACAD_REACTORS
330
EF
102
}
330
EF
100
AcDbVisualStyle
  2
GouraudWithEdges
 70
     3
 71
     2
 72
     2
 73
     1
 90
        2
 40
-0.6
 41
30.0
 62
     5
 63
     7
 74
     1
 91
        4
 64
     7
 65
   257
 75
     1
175
     1
 42
1.0
 92
        0
 66
   257
 43
1.0
 76
     1
 77
     6
 78
     2
 67
     7
 79
     5
170
     0
171
     0
290
     0
174
     0
 93
       13
 44
0.0
173
     0
291
     1
 45
0.0
1001
ACAD
1000
AcDbSavedByObjectVersion
1070
     0
1000
AcDbSavedByObjectVersion
1070
     0
1000
AcDbSavedByObjectVersion
1070
     0
1000
AcDbSavedByObjectVersion
1070
     0
1000
AcDbSavedByObjectVersion
1070
     0
1000
AcDbSavedByObjectVersion
1070
     0
  0
VISUALSTYLE
  5
FD
102
{ACAD_REACTORS
330
EF
102
}
330
EF
100
AcDbVisualStyle
  2
Linepattern
 70
    14
 71
     2
 72
     2
 73
     1
 90
        0
 40
-0.6
 41
-30.0
 62
     5
 63
     7
 74
     1
 91
        4
 64
     7
 65
   257
 75
     7
175
     7
 42
1.0
 92
        8
 66
     7
 43
1.0
 76
     1
 77
     6
 78
     2
 67
     7
 79
     5
170
     0
171
     0
290
     0
174
     0
 93
        1
 44
0.0
173
     0
291
     1
 45
0.0
1001
ACAD
1000
AcDbSavedByObjectVersion
1070
     0
1000
AcDbSavedByObjectVersion
1070
     0
1000
AcDbSavedByObjectVersion
1070
     0
1000
AcDbSavedByObjectVersion
1070
     0
1000
AcDbSavedByObjectVersion
1070
     0
1000
AcDbSavedByObjectVersion
1070
     0
  0
VISUALSTYLE
  5
F9
102
{ACAD_REACTORS
330
EF
102
}
330
EF
100
AcDbVisualStyle
  2
Realistic
 70
     8
 71
     2
 72
     2
 73
     1
 90
        0
 40
-0.6
 41
-30.0
 62
     5
 63
     7
 74
     1
 91
        0
 64
     7
 65
   257
 75
     1
175
     1
 42
1.0
 92
        8
 66
     8
 43
1.0
 76
     1
 77
     6
 78
     2
 67
     7
 79
     5
170
     0
171
     0
290
     0
174
     0
 93
       13
 44
0.0
173
     0
291
     0
 45
0.0
1001
ACAD
1000
AcDbSavedByObjectVersion
1070
     0
1000
AcDbSavedByObjectVersion
1070
     0
1000
AcDbSavedByObjectVersion
1070
     0
1000
AcDbSavedByObjectVersion
1070
     0
1000
AcDbSavedByObjectVersion
1070
     0
1000
AcDbSavedByObjectVersion
1070
     0
  0
VISUALSTYLE
  5
FC
102
{ACAD_REACTORS
330
EF
102
}
330
EF
100
AcDbVisualStyle
  2
Thicken
 70
    13
 71
     2
 72
     2
 73
     1
 90
        0
 40
-0.6
 41
-30.0
 62
     5
 63
     7
 74
     1
 91
        4
 64
     7
 65
   257
 75
     1
175
     1
 42
1.0
 92
       12
 66
     7
 43
1.0
 76
     1
 77
     6
 78
     2
 67
     7
 79
     5
170
     0
171
     0
290
     0
174
     0
 93
        1
 44
0.0
173
     0
291
     1
 45
0.0
1001
ACAD
1000
AcDbSavedByObjectVersion
1070
     0
1000
AcDbSavedByObjectVersion
1070
     0
1000
AcDbSavedByObjectVersion
1070
     0
1000
AcDbSavedByObjectVersion
1070
     0
1000
AcDbSavedByObjectVersion
1070
     0
1000
AcDbSavedByObjectVersion
1070
     0
  0
DICTIONARYVAR
  5
84
102
{ACAD_REACTORS
330
5E
102
}
330
5E
100
DictionaryVariables
280
     0
  1
STANDARD
  0
DICTIONARYVAR
  5
5F
102
{ACAD_REACTORS
330
5E
102
}
330
5E
100
DictionaryVariables
280
     0
  1
2
  0
DICTIONARYVAR
  5
63
102
{ACAD_REACTORS
330
5E
102
}
330
5E
100
DictionaryVariables
280
     0
  1
1
  0
DICTIONARYVAR
  5
327
102
{ACAD_REACTORS
330
5E
102
}
330
5E
100
DictionaryVariables
280
     0
  1
0
  0
DICTIONARYVAR
  5
D21
102
{ACAD_REACTORS
330
5E
102
}
330
5E
100
DictionaryVariables
280
     0
  1
80.000000
  0
DICTIONARYVAR
  5
D20
102
{ACAD_REACTORS
330
5E
102
}
330
5E
100
DictionaryVariables
280
     0
  1
5.000000
  0
DICTIONARYVAR
  5
326
102
{ACAD_REACTORS
330
5E
102
}
330
5E
100
DictionaryVariables
280
     0
  1
127
  0
XRECORD
  5
C80
102
{ACAD_REACTORS
330
C7F
102
}
330
C7F
100
AcDbXrecord
280
     1
330
C6B
330
C6C
330
C6D
  0
DICTIONARY
  5
E52
330
D3
100
AcDbDictionary
280
     1
281
     1
  3
ACAD_XREC_ROUNDTRIP
360
E53
  0
DICTIONARY
  5
E54
330
D7
100
AcDbDictionary
280
     1
281
     1
  3
ACAD_XREC_ROUNDTRIP
360
E55
  0
DICTIONARY
  5
E4E
330
22
100
AcDbDictionary
280
     1
281
     1
  3
ACAD_XREC_ROUNDTRIP
360
E4F
  0
DICTIONARY
  5
335
330
ED
100
AcDbDictionary
280
     1
281
     1
  3
ACAD_XREC_ROUNDTRIP
360
336
  0
DICTIONARY
  5
333
330
EC
100
AcDbDictionary
280
     1
281
     1
  3
ACAD_XREC_ROUNDTRIP
360
334
  0
DICTIONARY
  5
337
330
EE
100
AcDbDictionary
280
     1
281
     1
  3
ACAD_XREC_ROUNDTRIP
360
338
  0
DICTIONARY
  5
E50
330
7F
100
AcDbDictionary
280
     1
281
     1
  3
ACAD_XREC_ROUNDTRIP
360
E51
  0
XRECORD
  5
E53
102
{ACAD_REACTORS
330
E52
102
}
330
E52
100
AcDbXrecord
280
     1
102
SHADEPLOT
 70
     0
102
SHADEPLOTRESLEVEL
 70
     2
102
SHADEPLOTCUSTOMDPI
 70
   300
  0
XRECORD
  5
E55
102
{ACAD_REACTORS
330
E54
102
}
330
E54
100
AcDbXrecord
280
     1
102
SHADEPLOT
 70
     0
102
SHADEPLOTRESLEVEL
 70
     2
102
SHADEPLOTCUSTOMDPI
 70
   300
  0
XRECORD
  5
E4F
102
{ACAD_REACTORS
330
E4E
102
}
330
E4E
100
AcDbXrecord
280
     1
102
SHADEPLOT
 70
     0
102
SHADEPLOTRESLEVEL
 70
     2
102
SHADEPLOTCUSTOMDPI
 70
   300
  0
XRECORD
  5
336
102
{ACAD_REACTORS
330
335
102
}
330
335
100
AcDbXrecord
280
     1
102
MATERIAL
148
0.0
149
0.0
149
0.0
 93
        0
 94
       63
282
     0
 72
     1
 77
     1
171
     1
175
     1
179
     1
273
     0
  0
XRECORD
  5
334
102
{ACAD_REACTORS
330
333
102
}
330
333
100
AcDbXrecord
280
     1
102
MATERIAL
148
0.0
149
0.0
149
0.0
 93
        0
 94
       63
282
     0
 72
     1
 77
     1
171
     1
175
     1
179
     1
273
     0
  0
XRECORD
  5
338
102
{ACAD_REACTORS
330
337
102
}
330
337
100
AcDbXrecord
280
     1
102
MATERIAL
148
0.0
149
0.0
149
0.0
 93
        0
 94
       63
282
     0
 72
     1
 77
     1
171
     1
175
     1
179
     1
273
     0
  0
XRECORD
  5
E51
102
{ACAD_REACTORS
330
E50
102
}
330
E50
100
AcDbXrecord
280
     1
102
ACAD_ROUNDTRIP_PRE2007_TABLESTYLE
 90
      512
 91
        0
  1

 92
      512
 93
        0
  2

 94
      512
 95
        0
  3

  0
ENDSEC
  0
EOF
