  0
SECTION
  2
HEADER
  9
$ACADVER
  1
AC1024
  9
$ACADMAINTVER
 70
   109
  9
$DWGCODEPAGE
  3
ANSI_1252
  9
$LASTSAVEDBY
  1
kaschu
  9
$INSBASE
 10
0.0
 20
0.0
 30
0.0
  9
$EXTMIN
 10
237.7078373457189
 20
223.8539385755576
 30
-0.0000000000000007
  9
$EXTMAX
 10
537.4548119321307
 20
1442.29794373265
 30
0.0000000000000007
  9
$LIMMIN
 10
0.0
 20
0.0
  9
$LIMMAX
 10
420.0
 20
297.0
  9
$ORTHOMODE
 70
     1
  9
$REGENMODE
 70
     1
  9
$FILLMODE
 70
     1
  9
$QTEXTMODE
 70
     0
  9
$MIRRTEXT
 70
     0
  9
$LTSCALE
 40
1.0
  9
$ATTMODE
 70
     1
  9
$TEXTSIZE
 40
2.5
  9
$TRACEWID
 40
1.0
  9
$TEXTSTYLE
  7
Standard
  9
$CLAYER
  8
0
  9
$CELTYPE
  6
ByLayer
  9
$CECOLOR
 62
   256
  9
$CELTSCALE
 40
1.0
  9
$DISPSILH
 70
     0
  9
$DIMSCALE
 40
1.0
  9
$DIMASZ
 40
2.5
  9
$DIMEXO
 40
0.625
  9
$DIMDLI
 40
3.75
  9
$DIMRND
 40
0.0
  9
$DIMDLE
 40
0.0
  9
$DIMEXE
 40
1.25
  9
$DIMTP
 40
0.0
  9
$DIMTM
 40
0.0
  9
$DIMTXT
 40
2.5
  9
$DIMCEN
 40
2.5
  9
$DIMTSZ
 40
0.0
  9
$DIMTOL
 70
     0
  9
$DIMLIM
 70
     0
  9
$DIMTIH
 70
     0
  9
$DIMTOH
 70
     0
  9
$DIMSE1
 70
     0
  9
$DIMSE2
 70
     0
  9
$DIMTAD
 70
     1
  9
$DIMZIN
 70
     8
  9
$DIMBLK
  1

  9
$DIMASO
 70
     1
  9
$DIMSHO
 70
     1
  9
$DIMPOST
  1

  9
$DIMAPOST
  1

  9
$DIMALT
 70
     0
  9
$DIMALTD
 70
     3
  9
$DIMALTF
 40
0.03937007874016
  9
$DIMLFAC
 40
1.0
  9
$DIMTOFL
 70
     1
  9
$DIMTVP
 40
0.0
  9
$DIMTIX
 70
     0
  9
$DIMSOXD
 70
     0
  9
$DIMSAH
 70
     0
  9
$DIMBLK1
  1

  9
$DIMBLK2
  1

  9
$DIMSTYLE
  2
ISO-25
  9
$DIMCLRD
 70
     0
  9
$DIMCLRE
 70
     0
  9
$DIMCLRT
 70
     0
  9
$DIMTFAC
 40
1.0
  9
$DIMGAP
 40
0.625
  9
$DIMJUST
 70
     0
  9
$DIMSD1
 70
     0
  9
$DIMSD2
 70
     0
  9
$DIMTOLJ
 70
     0
  9
$DIMTZIN
 70
     8
  9
$DIMALTZ
 70
     0
  9
$DIMALTTZ
 70
     0
  9
$DIMUPT
 70
     0
  9
$DIMDEC
 70
     2
  9
$DIMTDEC
 70
     2
  9
$DIMALTU
 70
     2
  9
$DIMALTTD
 70
     3
  9
$DIMTXSTY
  7
Standard
  9
$DIMAUNIT
 70
     0
  9
$DIMADEC
 70
     0
  9
$DIMALTRND
 40
0.0
  9
$DIMAZIN
 70
     0
  9
$DIMDSEP
 70
    44
  9
$DIMATFIT
 70
     3
  9
$DIMFRAC
 70
     0
  9
$DIMLDRBLK
  1

  9
$DIMLUNIT
 70
     2
  9
$DIMLWD
 70
    -2
  9
$DIMLWE
 70
    -2
  9
$DIMTMOVE
 70
     0
  9
$DIMFXL
 40
1.0
  9
$DIMFXLON
 70
     0
  9
$DIMJOGANG
 40
0.7853981633974483
  9
$DIMTFILL
 70
     0
  9
$DIMTFILLCLR
 70
     0
  9
$DIMARCSYM
 70
     0
  9
$DIMLTYPE
  6

  9
$DIMLTEX1
  6

  9
$DIMLTEX2
  6

  9
$DIMTXTDIRECTION
 70
     0
  9
$LUNITS
 70
     2
  9
$LUPREC
 70
     4
  9
$SKETCHINC
 40
1.0
  9
$FILLETRAD
 40
0.0
  9
$AUNITS
 70
     0
  9
$AUPREC
 70
     0
  9
$MENU
  1
.
  9
$ELEVATION
 40
0.0
  9
$PELEVATION
 40
0.0
  9
$THICKNESS
 40
0.0
  9
$LIMCHECK
 70
     0
  9
$CHAMFERA
 40
0.0
  9
$CHAMFERB
 40
0.0
  9
$CHAMFERC
 40
0.0
  9
$CHAMFERD
 40
0.0
  9
$SKPOLY
 70
     0
  9
$TDCREATE
 40
2454768.552548658
  9
$TDUCREATE
 40
2454768.469215324
  9
$TDUPDATE
 40
2457490.496480451
  9
$TDUUPDATE
 40
2457490.413147118
  9
$TDINDWG
 40
0.0287996412
  9
$TDUSRTIMER
 40
0.0287987037
  9
$USRTIMER
 70
     1
  9
$ANGBASE
 50
0.0
  9
$ANGDIR
 70
     0
  9
$PDMODE
 70
     0
  9
$PDSIZE
 40
0.0
  9
$PLINEWID
 40
0.0
  9
$SPLFRAME
 70
     0
  9
$SPLINETYPE
 70
     6
  9
$SPLINESEGS
 70
     8
  9
$HANDSEED
  5
B87
  9
$SURFTAB1
 70
     6
  9
$SURFTAB2
 70
     6
  9
$SURFTYPE
 70
     6
  9
$SURFU
 70
     6
  9
$SURFV
 70
     6
  9
$UCSBASE
  2

  9
$UCSNAME
  2

  9
$UCSORG
 10
0.0
 20
0.0
 30
0.0
  9
$UCSXDIR
 10
1.0
 20
0.0
 30
0.0
  9
$UCSYDIR
 10
0.0
 20
1.0
 30
0.0
  9
$UCSORTHOREF
  2

  9
$UCSORTHOVIEW
 70
     0
  9
$UCSORGTOP
 10
0.0
 20
0.0
 30
0.0
  9
$UCSORGBOTTOM
 10
0.0
 20
0.0
 30
0.0
  9
$UCSORGLEFT
 10
0.0
 20
0.0
 30
0.0
  9
$UCSORGRIGHT
 10
0.0
 20
0.0
 30
0.0
  9
$UCSORGFRONT
 10
0.0
 20
0.0
 30
0.0
  9
$UCSORGBACK
 10
0.0
 20
0.0
 30
0.0
  9
$PUCSBASE
  2

  9
$PUCSNAME
  2

  9
$PUCSORG
 10
0.0
 20
0.0
 30
0.0
  9
$PUCSXDIR
 10
1.0
 20
0.0
 30
0.0
  9
$PUCSYDIR
 10
0.0
 20
1.0
 30
0.0
  9
$PUCSORTHOREF
  2

  9
$PUCSORTHOVIEW
 70
     0
  9
$PUCSORGTOP
 10
0.0
 20
0.0
 30
0.0
  9
$PUCSORGBOTTOM
 10
0.0
 20
0.0
 30
0.0
  9
$PUCSORGLEFT
 10
0.0
 20
0.0
 30
0.0
  9
$PUCSORGRIGHT
 10
0.0
 20
0.0
 30
0.0
  9
$PUCSORGFRONT
 10
0.0
 20
0.0
 30
0.0
  9
$PUCSORGBACK
 10
0.0
 20
0.0
 30
0.0
  9
$USERI1
 70
     0
  9
$USERI2
 70
     0
  9
$USERI3
 70
     0
  9
$USERI4
 70
     0
  9
$USERI5
 70
     0
  9
$USERR1
 40
0.0
  9
$USERR2
 40
0.0
  9
$USERR3
 40
0.0
  9
$USERR4
 40
0.0
  9
$USERR5
 40
0.0
  9
$WORLDVIEW
 70
     1
  9
$SHADEDGE
 70
     3
  9
$SHADEDIF
 70
    70
  9
$TILEMODE
 70
     1
  9
$MAXACTVP
 70
    64
  9
$PINSBASE
 10
0.0
 20
0.0
 30
0.0
  9
$PLIMCHECK
 70
     0
  9
$PEXTMIN
 10
0.0
 20
0.0
 30
0.0
  9
$PEXTMAX
 10
0.0
 20
0.0
 30
0.0
  9
$PLIMMIN
 10
0.0
 20
0.0
  9
$PLIMMAX
 10
12.0
 20
9.0
  9
$UNITMODE
 70
     0
  9
$VISRETAIN
 70
     1
  9
$PLINEGEN
 70
     0
  9
$PSLTSCALE
 70
     1
  9
$TREEDEPTH
 70
  3020
  9
$CMLSTYLE
  2
Standard
  9
$CMLJUST
 70
     0
  9
$CMLSCALE
 40
20.0
  9
$PROXYGRAPHICS
 70
     1
  9
$MEASUREMENT
 70
     1
  9
$CELWEIGHT
370
    -1
  9
$ENDCAPS
280
     0
  9
$JOINSTYLE
280
     0
  9
$LWDISPLAY
290
     0
  9
$INSUNITS
 70
     4
  9
$HYPERLINKBASE
  1

  9
$STYLESHEET
  1

  9
$XEDIT
290
     1
  9
$CEPSNTYPE
380
     0
  9
$PSTYLEMODE
290
     1
  9
$FINGERPRINTGUID
  2
{A9F5D530-972F-4813-857A-78B9B08CAD27}
  9
$VERSIONGUID
  2
{B36AEA13-CF12-4980-945D-9CAF7E8DB03F}
  9
$EXTNAMES
290
     1
  9
$PSVPSCALE
 40
0.0
  9
$OLESTARTUP
290
     0
  9
$SORTENTS
280
   127
  9
$INDEXCTL
280
     0
  9
$HIDETEXT
280
     1
  9
$XCLIPFRAME
280
     2
  9
$HALOGAP
280
     0
  9
$OBSCOLOR
 70
   257
  9
$OBSLTYPE
280
     0
  9
$INTERSECTIONDISPLAY
280
     0
  9
$INTERSECTIONCOLOR
 70
   257
  9
$DIMASSOC
280
     2
  9
$PROJECTNAME
  1

  9
$CAMERADISPLAY
290
     0
  9
$LENSLENGTH
 40
50.0
  9
$CAMERAHEIGHT
 40
0.0
  9
$STEPSPERSEC
 40
2.0
  9
$STEPSIZE
 40
6.0
  9
$3DDWFPREC
 40
2.0
  9
$PSOLWIDTH
 40
5.0
  9
$PSOLHEIGHT
 40
80.0
  9
$LOFTANG1
 40
1.570796326794896
  9
$LOFTANG2
 40
1.570796326794896
  9
$LOFTMAG1
 40
0.0
  9
$LOFTMAG2
 40
0.0
  9
$LOFTPARAM
 70
     7
  9
$LOFTNORMALS
280
     1
  9
$LATITUDE
 40
37.795
  9
$LONGITUDE
 40
-122.394
  9
$NORTHDIRECTION
 40
0.0
  9
$TIMEZONE
 70
 -8000
  9
$LIGHTGLYPHDISPLAY
280
     1
  9
$TILEMODELIGHTSYNCH
280
     1
  9
$CMATERIAL
347
EC
  9
$SOLIDHIST
280
     0
  9
$SHOWHIST
280
     1
  9
$DWFFRAME
280
     2
  9
$DGNFRAME
280
     0
  9
$REALWORLDSCALE
290
     1
  9
$INTERFERECOLOR
 62
     1
  9
$INTERFEREOBJVS
345
F9
  9
$INTERFEREVPVS
346
84D
  9
$CSHADOW
280
     0
  9
$SHADOWPLANELOCATION
 40
0.0
  0
ENDSEC
  0
SECTION
  2
CLASSES
  0
CLASS
  1
ACDBDICTIONARYWDFLT
  2
AcDbDictionaryWithDefault
  3
ObjectDBX Classes
 90
        0
 91
        1
280
     0
281
     0
  0
CLASS
  1
DICTIONARYVAR
  2
AcDbDictionaryVar
  3
ObjectDBX Classes
 90
        0
 91
       13
280
     0
281
     0
  0
CLASS
  1
TABLESTYLE
  2
AcDbTableStyle
  3
ObjectDBX Classes
 90
     4095
 91
        1
280
     0
281
     0
  0
CLASS
  1
MATERIAL
  2
AcDbMaterial
  3
ObjectDBX Classes
 90
     1153
 91
        3
280
     0
281
     0
  0
CLASS
  1
VISUALSTYLE
  2
AcDbVisualStyle
  3
ObjectDBX Classes
 90
     4095
 91
       26
280
     0
281
     0
  0
CLASS
  1
SORTENTSTABLE
  2
AcDbSortentsTable
  3
ObjectDBX Classes
 90
        0
 91
        1
280
     0
281
     0
  0
CLASS
  1
DIMASSOC
  2
AcDbDimAssoc
  3
"AcDbDimAssoc|Product Desc:     AcDim ARX App For Dimension|Company:          Autodesk, Inc.|WEB Address:      www.autodesk.com"
 90
        0
 91
        0
280
     0
281
     0
  0
CLASS
  1
SCALE
  2
AcDbScale
  3
ObjectDBX Classes
 90
     1153
 91
       17
280
     0
281
     0
  0
CLASS
  1
MLEADERSTYLE
  2
AcDbMLeaderStyle
  3
ACDB_MLEADERSTYLE_CLASS
 90
     4095
 91
        1
280
     0
281
     0
  0
CLASS
  1
ACDBSECTIONVIEWSTYLE
  2
AcDbSectionViewStyle
  3
ObjectDBX Classes
 90
     1025
 91
        1
280
     0
281
     0
  0
CLASS
  1
ACDBDETAILVIEWSTYLE
  2
AcDbDetailViewStyle
  3
ObjectDBX Classes
 90
     1025
 91
        1
280
     0
281
     0
  0
CLASS
  1
CELLSTYLEMAP
  2
AcDbCellStyleMap
  3
ObjectDBX Classes
 90
     1152
 91
        1
280
     0
281
     0
  0
ENDSEC
  0
SECTION
  2
TABLES
  0
TABLE
  2
VPORT
  5
8
330
0
100
AcDbSymbolTable
 70
     1
  0
VPORT
  5
EA
330
8
100
AcDbSymbolTableRecord
100
AcDbViewportTableRecord
  2
*Active
 70
     0
 10
0.0
 20
0.0
 11
1.0
 21
1.0
 12
509.8300427032754
 22
1592.818217061309
 13
0.0
 23
0.0
 14
10.0
 24
10.0
 15
10.0
 25
10.0
 16
0.0
 26
0.0
 36
1.0
 17
0.0
 27
0.0
 37
0.0
 40
4596.796100259282
 41
2.003764115432873
 42
50.0
 43
0.0
 44
0.0
 50
0.0
 51
0.0
 71
     0
 72
  1000
 73
     1
 74
     3
 75
     0
 76
     0
 77
     0
 78
     0
281
     0
 65
     1
110
0.0
120
0.0
130
0.0
111
1.0
121
0.0
131
0.0
112
0.0
122
1.0
132
0.0
 79
     0
146
0.0
348
F5
 60
     3
 61
     5
292
     1
282
     1
141
0.0
142
0.0
 63
   250
421
  3355443
1001
ACAD_NAV_VCDISPLAY
1070
     3
  0
ENDTAB
  0
TABLE
  2
LTYPE
  5
5
330
0
100
AcDbSymbolTable
 70
     1
  0
LTYPE
  5
14
330
5
100
AcDbSymbolTableRecord
100
AcDbLinetypeTableRecord
  2
ByBlock
 70
     0
  3

 72
    65
 73
     0
 40
0.0
  0
LTYPE
  5
15
330
5
100
AcDbSymbolTableRecord
100
AcDbLinetypeTableRecord
  2
ByLayer
 70
     0
  3

 72
    65
 73
     0
 40
0.0
  0
LTYPE
  5
16
330
5
100
AcDbSymbolTableRecord
100
AcDbLinetypeTableRecord
  2
Continuous
 70
     0
  3
Solid line
 72
    65
 73
     0
 40
0.0
  0
ENDTAB
  0
TABLE
  2
LAYER
  5
2
102
{ACAD_XDICTIONARY
360
141
102
}
330
0
100
AcDbSymbolTable
 70
     3
  0
LAYER
  5
10
102
{ACAD_XDICTIONARY
360
8D9
102
}
330
2
100
AcDbSymbolTableRecord
100
AcDbLayerTableRecord
  2
0
 70
     0
 62
     7
  6
Continuous
370
    -3
390
F
347
EE
  0
LAYER
  5
124
330
2
100
AcDbSymbolTableRecord
100
AcDbLayerTableRecord
  2
Defpoints
 70
     0
 62
     7
  6
Continuous
290
     0
370
    -3
390
F
347
EE
  0
LAYER
  5
13E
102
{ACAD_XDICTIONARY
360
8DB
102
}
330
2
100
AcDbSymbolTableRecord
100
AcDbLayerTableRecord
  2
Hewi
 70
     0
 62
     7
  6
Continuous
370
    -3
390
F
347
EE
  0
ENDTAB
  0
TABLE
  2
STYLE
  5
3
330
0
100
AcDbSymbolTable
 70
     1
  0
STYLE
  5
11
330
3
100
AcDbSymbolTableRecord
100
AcDbTextStyleTableRecord
  2
Standard
 70
     0
 40
0.0
 41
1.0
 50
0.0
 71
     0
 42
2.5
  3
txt
  4

  0
ENDTAB
  0
TABLE
  2
VIEW
  5
6
330
0
100
AcDbSymbolTable
 70
     0
  0
ENDTAB
  0
TABLE
  2
UCS
  5
7
330
0
100
AcDbSymbolTable
 70
     0
  0
ENDTAB
  0
TABLE
  2
APPID
  5
9
330
0
100
AcDbSymbolTable
 70
     4
  0
APPID
  5
12
330
9
100
AcDbSymbolTableRecord
100
AcDbRegAppTableRecord
  2
ACAD
 70
     0
  0
APPID
  5
9E
330
9
100
AcDbSymbolTableRecord
100
AcDbRegAppTableRecord
  2
ACAD_PSEXT
 70
     0
  0
APPID
  5
212
330
9
100
AcDbSymbolTableRecord
100
AcDbRegAppTableRecord
  2
ACAD_EXEMPT_FROM_CAD_STANDARDS
 70
     0
  0
APPID
  5
8DF
330
9
100
AcDbSymbolTableRecord
100
AcDbRegAppTableRecord
  2
ACAD_NAV_VCDISPLAY
 70
     0
  0
ENDTAB
  0
TABLE
  2
DIMSTYLE
  5
A
330
0
100
AcDbSymbolTable
 70
     2
100
AcDbDimStyleTable
 71
     1
340
27
  0
DIMSTYLE
105
27
330
A
100
AcDbSymbolTableRecord
100
AcDbDimStyleTableRecord
  2
ISO-25
 70
     0
 41
2.5
 42
0.625
 43
3.75
 44
1.25
 73
     0
 74
     0
 77
     1
 78
     8
140
2.5
141
2.5
143
0.03937007874016
147
0.625
171
     3
172
     1
271
     2
272
     2
274
     3
278
    44
283
     0
284
     8
340
11
  0
DIMSTYLE
105
254
330
A
100
AcDbSymbolTableRecord
100
AcDbDimStyleTableRecord
  2
Standard
 70
     0
340
11
  0
ENDTAB
  0
TABLE
  2
BLOCK_RECORD
  5
1
330
0
100
AcDbSymbolTable
 70
     1
  0
BLOCK_RECORD
  5
1F
102
{ACAD_XDICTIONARY
360
116
102
}
330
1
100
AcDbSymbolTableRecord
100
AcDbBlockTableRecord
  2
*Model_Space
340
22
 70
     0
280
     1
281
     0
  0
BLOCK_RECORD
  5
D2
330
1
100
AcDbSymbolTableRecord
100
AcDbBlockTableRecord
  2
*Paper_Space
340
D3
 70
     0
280
     1
281
     0
  0
BLOCK_RECORD
  5
D6
330
1
100
AcDbSymbolTableRecord
100
AcDbBlockTableRecord
  2
*Paper_Space0
340
D7
 70
     0
280
     1
281
     0
  0
ENDTAB
  0
ENDSEC
  0
SECTION
  2
BLOCKS
  0
BLOCK
  5
20
330
1F
100
AcDbEntity
  8
0
100
AcDbBlockBegin
  2
*Model_Space
 70
     0
 10
0.0
 20
0.0
 30
0.0
  3
*Model_Space
  1

  0
ENDBLK
  5
21
330
1F
100
AcDbEntity
  8
0
100
AcDbBlockEnd
  0
BLOCK
  5
D4
330
D2
100
AcDbEntity
 67
     1
  8
0
100
AcDbBlockBegin
  2
*Paper_Space
 70
     0
 10
0.0
 20
0.0
 30
0.0
  3
*Paper_Space
  1

  0
ENDBLK
  5
D5
330
D2
100
AcDbEntity
 67
     1
  8
0
100
AcDbBlockEnd
  0
BLOCK
  5
D8
330
D6
100
AcDbEntity
 67
     1
  8
0
100
AcDbBlockBegin
  2
*Paper_Space0
 70
     0
 10
0.0
 20
0.0
 30
0.0
  3
*Paper_Space0
  1

  0
ENDBLK
  5
D9
330
D6
100
AcDbEntity
 67
     1
  8
0
100
AcDbBlockEnd
  0
ENDSEC
  0
SECTION
  2
ENTITIES
  0
LINE
  5
A5C
330
1F
100
AcDbEntity
  8
Hewi
100
AcDbLine
 10
523.6805743457516
 20
482.297943575555
 30
0.0
 11
523.6805743457516
 21
484.320973575559
 31
0.0
  0
LINE
  5
A5D
330
1F
100
AcDbEntity
  8
Hewi
100
AcDbLine
 10
504.3805743457633
 20
484.320973575559
 30
0.0
 11
504.3805743457633
 21
482.297943575555
 31
0.0
  0
LINE
  5
A5E
330
1F
100
AcDbEntity
  8
Hewi
100
AcDbLine
 10
505.0305743457284
 20
481.797943575555
 30
0.0
 11
505.0305743457284
 21
442.2979435755551
 31
0.0
  0
LINE
  5
A5F
330
1F
100
AcDbEntity
  8
Hewi
100
AcDbLine
 10
523.0305743457283
 20
424.297943575555
 30
0.0
 11
523.0305743457283
 21
481.797943575555
 31
0.0
  0
LINE
  5
A60
330
1F
100
AcDbEntity
  8
Hewi
100
AcDbLine
 10
523.6805743457516
 20
484.320973575559
 30
0.0
 11
504.3805743457633
 21
484.320973575559
 31
0.0
  0
LINE
  5
A61
330
1F
100
AcDbEntity
  8
Hewi
100
AcDbLine
 10
514.0305743457283
 20
1279.597943575558
 30
0.0
 11
517.2805743457283
 21
1279.597943575558
 31
0.0
  0
LINE
  5
A62
330
1F
100
AcDbEntity
  8
Hewi
100
AcDbLine
 10
510.7805743457284
 20
1279.597943575558
 30
0.0
 11
514.0305743457283
 21
1279.597943575558
 31
0.0
  0
LINE
  5
A63
330
1F
100
AcDbEntity
  8
Hewi
100
AcDbLine
 10
523.0305743457283
 20
1442.297943575555
 30
0.0
 11
505.0305743457284
 21
1424.297943575555
 31
0.0
  0
LINE
  5
A64
330
1F
100
AcDbEntity
  8
Hewi
100
AcDbLine
 10
444.0305743457283
 20
442.2979435755551
 30
0.0
 11
444.0305743457283
 21
424.297943575555
 31
0.0
  0
LINE
  5
A65
330
1F
100
AcDbEntity
  8
Hewi
100
AcDbLine
 10
523.3305743457749
 20
484.7979435755551
 30
0.0
 11
504.73057434574
 21
484.7979435755551
 31
0.0
  0
LINE
  5
A66
330
1F
100
AcDbEntity
  8
Hewi
100
AcDbLine
 10
523.6805743457516
 20
482.297943575555
 30
0.0
 11
514.0305743457283
 21
482.297943575555
 31
0.0
  0
LINE
  5
A67
330
1F
100
AcDbEntity
  8
Hewi
100
AcDbLine
 10
514.0305743457283
 20
482.297943575555
 30
0.0
 11
504.3805743457633
 21
482.297943575555
 31
0.0
  0
LINE
  5
A68
330
1F
100
AcDbEntity
  8
Hewi
100
AcDbLine
 10
523.0305743457283
 20
1442.297943575555
 30
0.0
 11
505.0305743457284
 21
1424.297943575555
 31
0.0
  0
LINE
  5
A69
330
1F
100
AcDbEntity
  8
Hewi
100
AcDbLine
 10
444.0305743457283
 20
1424.297943575555
 30
0.0
 11
444.0305743457283
 21
1442.297943575555
 31
0.0
  0
LINE
  5
A6A
330
1F
100
AcDbEntity
  8
Hewi
100
AcDbLine
 10
523.0305743457283
 20
424.297943575555
 30
0.0
 11
505.0305743457284
 21
442.2979435755551
 31
0.0
  0
LINE
  5
A6B
330
1F
100
AcDbEntity
  8
Hewi
100
AcDbLine
 10
504.3805743457633
 20
1384.297943575555
 30
0.0
 11
523.6805743457516
 21
1384.297943575555
 31
0.0
  0
LINE
  5
A6C
330
1F
100
AcDbEntity
  8
Hewi
100
AcDbLine
 10
523.1805743457516
 20
1384.797943575555
 30
0.0
 11
514.0305743457283
 21
1384.797943575555
 31
0.0
  0
LINE
  5
A6D
330
1F
100
AcDbEntity
  8
Hewi
100
AcDbLine
 10
514.0305743457283
 20
1384.797943575555
 30
0.0
 11
504.8805743457632
 21
1384.797943575555
 31
0.0
  0
LINE
  5
A6E
330
1F
100
AcDbEntity
  8
Hewi
100
AcDbLine
 10
514.0305743457283
 20
1382.274912575558
 30
0.0
 11
523.6805743457516
 21
1382.274912575558
 31
0.0
  0
LINE
  5
A6F
330
1F
100
AcDbEntity
  8
Hewi
100
AcDbLine
 10
504.3805743457633
 20
1382.274912575558
 30
0.0
 11
514.0305743457283
 21
1382.274912575558
 31
0.0
  0
LINE
  5
A70
330
1F
100
AcDbEntity
  8
Hewi
100
AcDbLine
 10
514.0305743457283
 20
1381.797943575555
 30
0.0
 11
523.3305743457749
 21
1381.797943575555
 31
0.0
  0
LINE
  5
A71
330
1F
100
AcDbEntity
  8
Hewi
100
AcDbLine
 10
504.73057434574
 20
1381.797943575555
 30
0.0
 11
514.0305743457283
 21
1381.797943575555
 31
0.0
  0
LINE
  5
A72
330
1F
100
AcDbEntity
  8
Hewi
100
AcDbLine
 10
523.0305743457283
 20
424.297943575555
 30
0.0
 11
505.0305743457284
 21
442.2979435755551
 31
0.0
  0
LINE
  5
A73
330
1F
100
AcDbEntity
  8
Hewi
100
AcDbLine
 10
504.8805743457632
 20
481.797943575555
 30
0.0
 11
523.1805743457516
 21
481.797943575555
 31
0.0
  0
LINE
  5
A74
330
1F
100
AcDbEntity
  8
Hewi
100
AcDbLine
 10
516.7805743457283
 20
1279.097943575558
 30
0.0
 11
511.2805743457284
 21
1279.097943575558
 31
0.0
  0
LINE
  5
A75
330
1F
100
AcDbEntity
  8
Hewi
100
AcDbLine
 10
444.0305743457283
 20
1424.297943575555
 30
0.0
 11
461.8842173457379
 21
1424.297943575555
 31
0.0
  0
LINE
  5
A76
330
1F
100
AcDbEntity
  8
Hewi
100
AcDbLine
 10
505.0305743457284
 20
1381.790712575559
 30
0.0
 11
505.0305743457284
 21
1327.519530575555
 31
0.0
  0
LINE
  5
A77
330
1F
100
AcDbEntity
  8
Hewi
100
AcDbLine
 10
505.0305743457284
 20
1298.662049575556
 30
0.0
 11
505.0305743457284
 21
484.8051745755583
 31
0.0
  0
LINE
  5
A78
330
1F
100
AcDbEntity
  8
Hewi
100
AcDbLine
 10
444.0305743457283
 20
424.297943575555
 30
0.0
 11
523.0305743457283
 21
424.297943575555
 31
0.0
  0
LINE
  5
A79
330
1F
100
AcDbEntity
  8
Hewi
100
AcDbLine
 10
517.2805743457283
 20
1279.597943575558
 30
0.0
 11
517.2805743457283
 21
1296.409800575558
 31
0.0
  0
LINE
  5
A7A
330
1F
100
AcDbEntity
  8
Hewi
100
AcDbLine
 10
510.7805743457284
 20
1296.403835575555
 30
0.0
 11
510.7805743457284
 21
1279.597943575558
 31
0.0
  0
LINE
  5
A7B
330
1F
100
AcDbEntity
  8
Hewi
100
AcDbLine
 10
466.2058243457577
 20
1424.297943575555
 30
0.0
 11
505.0305743457284
 21
1424.297943575555
 31
0.0
  0
LINE
  5
A7C
330
1F
100
AcDbEntity
  8
Hewi
100
AcDbLine
 10
505.0305743457284
 20
442.2979435755551
 30
0.0
 11
466.2058243457577
 21
442.2979435755551
 31
0.0
  0
LINE
  5
A7D
330
1F
100
AcDbEntity
  8
Hewi
100
AcDbLine
 10
461.8842173457379
 20
442.2979435755551
 30
0.0
 11
444.0305743457283
 21
442.2979435755551
 31
0.0
  0
LINE
  5
A7E
330
1F
100
AcDbEntity
  8
Hewi
100
AcDbLine
 10
523.0305743457283
 20
484.8051745755583
 30
0.0
 11
523.0305743457283
 21
1298.662049575556
 31
0.0
  0
LINE
  5
A7F
330
1F
100
AcDbEntity
  8
Hewi
100
AcDbLine
 10
523.0305743457283
 20
1327.519530575555
 30
0.0
 11
523.0305743457283
 21
1381.790712575559
 31
0.0
  0
LINE
  5
A80
330
1F
100
AcDbEntity
  8
Hewi
100
AcDbLine
 10
505.0305743457284
 20
1424.297943575555
 30
0.0
 11
505.0305743457284
 21
1384.797943575555
 31
0.0
  0
LINE
  5
A81
330
1F
100
AcDbEntity
  8
Hewi
100
AcDbLine
 10
523.0305743457283
 20
1384.797943575555
 30
0.0
 11
523.0305743457283
 21
1442.297943575555
 31
0.0
  0
LINE
  5
A82
330
1F
100
AcDbEntity
  8
Hewi
100
AcDbLine
 10
504.3805743457633
 20
1384.297943575555
 30
0.0
 11
504.3805743457633
 21
1382.274912575558
 31
0.0
  0
LINE
  5
A83
330
1F
100
AcDbEntity
  8
Hewi
100
AcDbLine
 10
523.0305743457283
 20
1442.297943575555
 30
0.0
 11
444.0305743457283
 21
1442.297943575555
 31
0.0
  0
LINE
  5
A84
330
1F
100
AcDbEntity
  8
Hewi
100
AcDbLine
 10
523.6805743457516
 20
1382.274912575558
 30
0.0
 11
523.6805743457516
 21
1384.297943575555
 31
0.0
  0
LINE
  5
A85
330
1F
100
AcDbEntity
  8
Hewi
100
AcDbLine
 10
237.7078373457189
 20
1296.597943575558
 30
0.0
 11
237.7078373457189
 21
1329.597943575558
 31
0.0
  0
LINE
  5
A86
330
1F
100
AcDbEntity
  8
Hewi
100
AcDbLine
 10
297.3578373457422
 20
484.320973575559
 30
0.0
 11
278.0578373457538
 21
484.320973575559
 31
0.0
  0
LINE
  5
A87
330
1F
100
AcDbEntity
  8
Hewi
100
AcDbLine
 10
250.9578373457189
 20
1279.597943575558
 30
0.0
 11
244.4578373457189
 21
1279.597943575558
 31
0.0
  0
LINE
  5
A88
330
1F
100
AcDbEntity
  8
Hewi
100
AcDbLine
 10
238.2078373457189
 20
1296.097943575558
 30
0.0
 11
238.2078373457189
 21
1330.097943575558
 31
0.0
  0
LINE
  5
A89
330
1F
100
AcDbEntity
  8
Hewi
100
AcDbLine
 10
297.0078373457655
 20
484.7979435755551
 30
0.0
 11
278.4078373457305
 21
484.7979435755551
 31
0.0
  0
LINE
  5
A8A
330
1F
100
AcDbEntity
  8
Hewi
100
AcDbLine
 10
278.0578373457538
 20
482.297943575555
 30
0.0
 11
297.3578373457422
 21
482.297943575555
 31
0.0
  0
LINE
  5
A8B
330
1F
100
AcDbEntity
  8
Hewi
100
AcDbLine
 10
336.7427373457467
 20
1300.233894575554
 30
0.0
 11
336.7427373457467
 21
1325.961991575554
 31
0.0
  0
LINE
  5
A8C
330
1F
100
AcDbEntity
  8
Hewi
100
AcDbLine
 10
266.7078373457189
 20
1296.097943575558
 30
0.0
 11
266.7078373457189
 21
1330.097943575558
 31
0.0
  0
LINE
  5
A8D
330
1F
100
AcDbEntity
  8
Hewi
100
AcDbLine
 10
308.7078373457189
 20
1330.099725575557
 30
0.0
 11
308.7078373457189
 21
1296.096160575558
 31
0.0
  0
LINE
  5
A8E
330
1F
100
AcDbEntity
  8
Hewi
100
AcDbLine
 10
278.0578373457538
 20
1384.297943575555
 30
0.0
 11
297.3578373457422
 21
1384.297943575555
 31
0.0
  0
LINE
  5
A8F
330
1F
100
AcDbEntity
  8
Hewi
100
AcDbLine
 10
278.5578373457538
 20
1384.797943575555
 30
0.0
 11
296.8578373457422
 21
1384.797943575555
 31
0.0
  0
LINE
  5
A90
330
1F
100
AcDbEntity
  8
Hewi
100
AcDbLine
 10
297.3578373457422
 20
1382.274912575558
 30
0.0
 11
278.0578373457538
 21
1382.274912575558
 31
0.0
  0
LINE
  5
A91
330
1F
100
AcDbEntity
  8
Hewi
100
AcDbLine
 10
297.0078373457655
 20
1381.797943575555
 30
0.0
 11
278.4078373457305
 21
1381.797943575555
 31
0.0
  0
LINE
  5
A92
330
1F
100
AcDbEntity
  8
Hewi
100
AcDbLine
 10
266.7078373457189
 20
1296.097943575558
 30
0.0
 11
266.7078373457189
 21
1330.097943575558
 31
0.0
  0
LINE
  5
A93
330
1F
100
AcDbEntity
  8
Hewi
100
AcDbLine
 10
278.5578373457538
 20
481.797943575555
 30
0.0
 11
296.8578373457422
 21
481.797943575555
 31
0.0
  0
LINE
  5
A94
330
1F
100
AcDbEntity
  8
Hewi
100
AcDbLine
 10
337.7078373457189
 20
1324.830340575558
 30
0.0
 11
337.7078373457189
 21
1301.365546575558
 31
0.0
  0
LINE
  5
A95
330
1F
100
AcDbEntity
  8
Hewi
100
AcDbLine
 10
336.8431553457631
 20
1300.149171575562
 30
0.0
 11
336.8513093457441
 21
1300.152386575559
 31
0.0
  0
LINE
  5
A96
330
1F
100
AcDbEntity
  8
Hewi
100
AcDbLine
 10
250.4578373457189
 20
1279.097943575558
 30
0.0
 11
244.9578373457189
 21
1279.097943575558
 31
0.0
  0
LINE
  5
A97
330
1F
100
AcDbEntity
  8
Hewi
100
AcDbLine
 10
296.7141633457504
 20
1296.097943575558
 30
0.0
 11
308.7078373457189
 21
1296.097943575558
 31
0.0
  0
LINE
  5
A98
330
1F
100
AcDbEntity
  8
Hewi
100
AcDbLine
 10
266.7078373457189
 20
1296.097943575558
 30
0.0
 11
278.6078373457422
 21
1296.097943575558
 31
0.0
  0
LINE
  5
A99
330
1F
100
AcDbEntity
  8
Hewi
100
AcDbLine
 10
250.9578373457189
 20
1296.097943575558
 30
0.0
 11
266.7078373457189
 21
1296.097943575558
 31
0.0
  0
LINE
  5
A9A
330
1F
100
AcDbEntity
  8
Hewi
100
AcDbLine
 10
238.2078373457189
 20
1296.097943575558
 30
0.0
 11
244.5000113457208
 21
1296.097943575558
 31
0.0
  0
LINE
  5
A9B
330
1F
100
AcDbEntity
  8
Hewi
100
AcDbLine
 10
266.7078373457189
 20
1330.097943575558
 30
0.0
 11
238.2078373457189
 21
1330.097943575558
 31
0.0
  0
LINE
  5
A9C
330
1F
100
AcDbEntity
  8
Hewi
100
AcDbLine
 10
244.4578373457189
 20
1296.105925575561
 30
0.0
 11
244.4578373457189
 21
1279.597943575558
 31
0.0
  0
LINE
  5
A9F
330
1F
100
AcDbEntity
  8
Hewi
100
AcDbLine
 10
278.6078373457422
 20
1330.097943575558
 30
0.0
 11
266.7078373457189
 21
1330.097943575558
 31
0.0
  0
LINE
  5
AA0
330
1F
100
AcDbEntity
  8
Hewi
100
AcDbLine
 10
250.9578373457189
 20
1279.597943575558
 30
0.0
 11
250.9578373457189
 21
1296.097943575558
 31
0.0
  0
LINE
  5
AA3
330
1F
100
AcDbEntity
  8
Hewi
100
AcDbLine
 10
278.0578373457538
 20
484.320973575559
 30
0.0
 11
278.0578373457538
 21
482.297943575555
 31
0.0
  0
LINE
  5
AA4
330
1F
100
AcDbEntity
  8
Hewi
100
AcDbLine
 10
278.7078373457189
 20
481.797943575555
 30
0.0
 11
278.7078373457189
 21
433.2979435755551
 31
0.0
  0
LINE
  5
AA5
330
1F
100
AcDbEntity
  8
Hewi
100
AcDbLine
 10
296.7078373457189
 20
433.2979435755551
 30
0.0
 11
296.7078373457189
 21
481.797943575555
 31
0.0
  0
LINE
  5
AA6
330
1F
100
AcDbEntity
  8
Hewi
100
AcDbLine
 10
297.3578373457422
 20
482.297943575555
 30
0.0
 11
297.3578373457422
 21
484.320973575559
 31
0.0
  0
LINE
  5
AA7
330
1F
100
AcDbEntity
  8
Hewi
100
AcDbLine
 10
278.7078373457189
 20
1433.297943575555
 30
0.0
 11
278.7078373457189
 21
1384.797943575555
 31
0.0
  0
LINE
  5
AA8
330
1F
100
AcDbEntity
  8
Hewi
100
AcDbLine
 10
308.7078373457189
 20
1296.096160575558
 30
0.0
 11
316.3380983457319
 21
1296.362615575555
 31
0.0
  0
LINE
  5
AA9
330
1F
100
AcDbEntity
  8
Hewi
100
AcDbLine
 10
317.4387893457315
 20
1329.794833575557
 30
0.0
 11
308.7078373457189
 21
1330.099725575557
 31
0.0
  0
LINE
  5
AAA
330
1F
100
AcDbEntity
  8
Hewi
100
AcDbLine
 10
278.0578373457538
 20
1384.297943575555
 30
0.0
 11
278.0578373457538
 21
1382.274912575558
 31
0.0
  0
LINE
  5
AAB
330
1F
100
AcDbEntity
  8
Hewi
100
AcDbLine
 10
297.3578373457422
 20
1382.274912575558
 30
0.0
 11
297.3578373457422
 21
1384.297943575555
 31
0.0
  0
LINE
  5
AAC
330
1F
100
AcDbEntity
  8
Hewi
100
AcDbLine
 10
296.7078373457189
 20
1384.797943575555
 30
0.0
 11
296.7078373457189
 21
1433.297943575555
 31
0.0
  0
LINE
  5
AAD
330
1F
100
AcDbEntity
  8
Hewi
100
AcDbLine
 10
278.7078373457189
 20
1381.790712575559
 30
0.0
 11
278.7078373457189
 21
1330.03559957556
 31
0.0
  0
LINE
  5
AAE
330
1F
100
AcDbEntity
  8
Hewi
100
AcDbLine
 10
278.7078373457189
 20
1296.145980575558
 30
0.0
 11
278.7078373457189
 21
484.8051745755583
 31
0.0
  0
LINE
  5
AAF
330
1F
100
AcDbEntity
  8
Hewi
100
AcDbLine
 10
308.7078373457189
 20
1330.097943575558
 30
0.0
 11
296.7141633457504
 21
1330.097943575558
 31
0.0
  0
LINE
  5
AB0
330
1F
100
AcDbEntity
  8
Hewi
100
AcDbLine
 10
296.7078373457189
 20
484.8051745755583
 30
0.0
 11
296.7078373457189
 21
1296.145980575558
 31
0.0
  0
LINE
  5
AB1
330
1F
100
AcDbEntity
  8
Hewi
100
AcDbLine
 10
296.7078373457189
 20
1330.03559957556
 30
0.0
 11
296.7078373457189
 21
1381.790712575559
 31
0.0
  0
LINE
  5
AB2
330
1F
100
AcDbEntity
  8
Hewi
100
AcDbLine
 10
237.7078373457189
 20
224.3557205755569
 30
0.0
 11
237.7078373457189
 21
257.3557205755569
 31
0.0
  0
LINE
  5
AB3
330
1F
100
AcDbEntity
  8
Hewi
100
AcDbLine
 10
336.854697345756
 20
249.6271225755554
 30
0.0
 11
333.9474493457237
 21
248.8481275755548
 31
0.0
  0
LINE
  5
AB4
330
1F
100
AcDbEntity
  8
Hewi
100
AcDbLine
 10
238.2078373457189
 20
240.8557205755569
 30
0.0
 11
238.2078373457189
 21
223.8557205755569
 31
0.0
  0
LINE
  5
AB5
330
1F
100
AcDbEntity
  8
Hewi
100
AcDbLine
 10
238.2078373457189
 20
257.8557205755569
 30
0.0
 11
238.2078373457189
 21
240.8557205755569
 31
0.0
  0
LINE
  5
AB6
330
1F
100
AcDbEntity
  8
Hewi
100
AcDbLine
 10
336.7427373457467
 20
231.3034535755578
 30
0.0
 11
336.7427373457467
 21
224.8329385755569
 31
0.0
  0
LINE
  5
AB7
330
1F
100
AcDbEntity
  8
Hewi
100
AcDbLine
 10
336.7427373457467
 20
250.407987575556
 30
0.0
 11
336.7427373457467
 21
256.8785025755569
 31
0.0
  0
LINE
  5
AB8
330
1F
100
AcDbEntity
  8
Hewi
100
AcDbLine
 10
266.7078373457189
 20
223.8557205755569
 30
0.0
 11
266.7078373457189
 21
257.8557205755569
 31
0.0
  0
LINE
  5
AB9
330
1F
100
AcDbEntity
  8
Hewi
100
AcDbLine
 10
308.7078373457189
 20
223.8539385755576
 30
0.0
 11
308.7078373457189
 21
240.8557205755569
 31
0.0
  0
LINE
  5
ABA
330
1F
100
AcDbEntity
  8
Hewi
100
AcDbLine
 10
308.7078373457189
 20
240.8557205755569
 30
0.0
 11
308.7078373457189
 21
257.8575025755563
 31
0.0
  0
LINE
  5
ABB
330
1F
100
AcDbEntity
  8
Hewi
100
AcDbLine
 10
296.7078373457189
 20
310.8557205755569
 30
0.0
 11
278.7078373457189
 21
310.8557205755569
 31
0.0
  0
LINE
  5
ABC
330
1F
100
AcDbEntity
  8
Hewi
100
AcDbLine
 10
266.7078373457189
 20
240.8557205755569
 30
0.0
 11
266.7078373457189
 21
223.8557205755569
 31
0.0
  0
LINE
  5
ABD
330
1F
100
AcDbEntity
  8
Hewi
100
AcDbLine
 10
266.7078373457189
 20
257.8557205755569
 30
0.0
 11
266.7078373457189
 21
240.8557205755569
 31
0.0
  0
LINE
  5
ABE
330
1F
100
AcDbEntity
  8
Hewi
100
AcDbLine
 10
337.7078373457189
 20
225.8323295755618
 30
0.0
 11
337.7078373457189
 21
231.4720575755564
 31
0.0
  0
LINE
  5
ABF
330
1F
100
AcDbEntity
  8
Hewi
100
AcDbLine
 10
333.9474493457237
 20
232.863313575559
 30
0.0
 11
336.854697345756
 21
232.0843185755584
 31
0.0
  0
LINE
  5
AC0
330
1F
100
AcDbEntity
  8
Hewi
100
AcDbLine
 10
337.7078373457189
 20
255.8791115755594
 30
0.0
 11
337.7078373457189
 21
250.2393845755578
 31
0.0
  0
LINE
  5
AC1
330
1F
100
AcDbEntity
  8
Hewi
100
AcDbLine
 10
308.7078373457189
 20
257.8557205755569
 30
0.0
 11
296.7076503457501
 21
257.8557205755569
 31
0.0
  0
LINE
  5
AC2
330
1F
100
AcDbEntity
  8
Hewi
100
AcDbLine
 10
278.7080253457534
 20
257.8557205755569
 30
0.0
 11
266.7078373457189
 21
257.8557205755569
 31
0.0
  0
LINE
  5
AC3
330
1F
100
AcDbEntity
  8
Hewi
100
AcDbLine
 10
266.7078373457189
 20
257.8557205755569
 30
0.0
 11
238.2078373457189
 21
257.8557205755569
 31
0.0
  0
LINE
  5
AC4
330
1F
100
AcDbEntity
  8
Hewi
100
AcDbLine
 10
238.2078373457189
 20
223.8557205755569
 30
0.0
 11
266.7078373457189
 21
223.8557205755569
 31
0.0
  0
LINE
  5
AC5
330
1F
100
AcDbEntity
  8
Hewi
100
AcDbLine
 10
278.7078373457189
 20
310.8557205755569
 30
0.0
 11
278.7078373457189
 21
240.8557205755569
 31
0.0
  0
LINE
  5
AC6
330
1F
100
AcDbEntity
  8
Hewi
100
AcDbLine
 10
336.7427373457467
 20
256.8785025755569
 30
0.0
 11
308.7078373457189
 21
257.8575025755563
 31
0.0
  0
LINE
  5
AC7
330
1F
100
AcDbEntity
  8
Hewi
100
AcDbLine
 10
266.7078373457189
 20
223.8557205755569
 30
0.0
 11
308.7078373457189
 21
223.8557205755569
 31
0.0
  0
LINE
  5
AC8
330
1F
100
AcDbEntity
  8
Hewi
100
AcDbLine
 10
308.7078373457189
 20
223.8539385755576
 30
0.0
 11
336.7427373457467
 21
224.8329385755569
 31
0.0
  0
LINE
  5
AC9
330
1F
100
AcDbEntity
  8
Hewi
100
AcDbLine
 10
296.7078373457189
 20
240.8557205755569
 30
0.0
 11
296.7078373457189
 21
310.8557205755569
 31
0.0
  0
ARC
  5
ACE
330
1F
100
AcDbEntity
  8
Hewi
100
AcDbCircle
 10
523.1805743457516
 20
484.320973575559
 30
0.0
 40
0.5
100
AcDbArc
 50
0.0
 51
72.5423969993128
  0
ARC
  5
ACF
330
1F
100
AcDbEntity
  8
Hewi
100
AcDbCircle
 10
523.1805743457516
 20
482.297943575555
 30
0.0
 40
0.5
100
AcDbArc
 50
270.0
 51
0.0
  0
ARC
  5
AD0
330
1F
100
AcDbEntity
  8
Hewi
100
AcDbCircle
 10
504.8805743457632
 20
482.297943575555
 30
0.0
 40
0.5
100
AcDbArc
 50
180.0
 51
270.0
  0
CIRCLE
  5
AD1
330
1F
100
AcDbEntity
  8
Hewi
100
AcDbCircle
 10
514.0305743457283
 20
1313.097943575558
 30
0.0
 40
16.5
  0
CIRCLE
  5
AD2
330
1F
100
AcDbEntity
  8
Hewi
100
AcDbCircle
 10
-514.0305743457283
 20
1313.097943575558
 30
0.0
 40
17.0
210
0.0
220
0.0
230
-1.0
  0
ARC
  5
AD3
330
1F
100
AcDbEntity
  8
Hewi
100
AcDbCircle
 10
-514.0305743457283
 20
1313.097943575558
 30
0.0
 40
17.00178228911972
210
0.0
220
0.0
230
-1.0
100
AcDbArc
 50
121.9612489997291
 51
238.033122998573
  0
ARC
  5
AD4
330
1F
100
AcDbEntity
  8
Hewi
100
AcDbCircle
 10
-514.0305743457283
 20
1313.097943575558
 30
0.0
 40
17.00178228911972
210
0.0
220
0.0
230
-1.0
100
AcDbArc
 50
301.966875998986
 51
58.03875000176787
  0
ARC
  5
AD5
330
1F
100
AcDbEntity
  8
Hewi
100
AcDbCircle
 10
504.8805743457632
 20
1384.297943575555
 30
0.0
 40
0.5
100
AcDbArc
 50
90.0
 51
180.0
  0
ARC
  5
AD6
330
1F
100
AcDbEntity
  8
Hewi
100
AcDbCircle
 10
511.2805743457284
 20
1279.597943575558
 30
0.0
 40
0.5
100
AcDbArc
 50
180.0
 51
270.0
  0
ARC
  5
AD7
330
1F
100
AcDbEntity
  8
Hewi
100
AcDbCircle
 10
523.1805743457516
 20
1384.297943575555
 30
0.0
 40
0.5
100
AcDbArc
 50
0.0
 51
90.0
  0
ARC
  5
AD8
330
1F
100
AcDbEntity
  8
Hewi
100
AcDbCircle
 10
504.8805743457632
 20
484.320973575559
 30
0.0
 40
0.5
100
AcDbArc
 50
107.4576030006872
 51
180.0
  0
ARC
  5
AD9
330
1F
100
AcDbEntity
  8
Hewi
100
AcDbCircle
 10
504.8805743457632
 20
1382.274912575558
 30
0.0
 40
0.5
100
AcDbArc
 50
180.0
 51
252.5423969993128
  0
ARC
  5
ADA
330
1F
100
AcDbEntity
  8
Hewi
100
AcDbCircle
 10
523.1805743457516
 20
1382.274912575558
 30
0.0
 40
0.5
100
AcDbArc
 50
287.4576030006872
 51
0.0
  0
ARC
  5
ADB
330
1F
100
AcDbEntity
  8
Hewi
100
AcDbCircle
 10
516.7805743457283
 20
1279.597943575558
 30
0.0
 40
0.5
100
AcDbArc
 50
270.0
 51
0.0
  0
ARC
  5
ADC
330
1F
100
AcDbEntity
  8
Hewi
100
AcDbCircle
 10
-287.7078373457189
 20
1433.297943575555
 30
0.0
 40
9.000000000000042
210
0.0
220
0.0
230
-1.0
100
AcDbArc
 50
359.9999989999009
 51
180.0
  0
ARC
  5
ADD
330
1F
100
AcDbEntity
  8
Hewi
100
AcDbCircle
 10
-287.7078373457189
 20
1433.297943575555
 30
0.0
 40
9.000000000000042
210
0.0
220
0.0
230
-1.0
100
AcDbArc
 50
359.9999989999009
 51
180.0
  0
ARC
  5
ADE
330
1F
100
AcDbEntity
  8
Hewi
100
AcDbCircle
 10
-287.7078373457189
 20
433.2979435755551
 30
0.0
 40
9.000000000000001
210
0.0
220
0.0
230
-1.0
100
AcDbArc
 50
179.9999989999009
 51
0.0
  0
ARC
  5
ADF
330
1F
100
AcDbEntity
  8
Hewi
100
AcDbCircle
 10
-287.7078373457189
 20
433.2979435755551
 30
0.0
 40
9.000000000000003
210
0.0
220
0.0
230
-1.0
100
AcDbArc
 50
179.9999989999009
 51
0.0
  0
ARC
  5
AE0
330
1F
100
AcDbEntity
  8
Hewi
100
AcDbCircle
 10
238.2078373457189
 20
1329.597943575558
 30
0.0
 40
0.5
100
AcDbArc
 50
90.0
 51
180.0
  0
ARC
  5
AE1
330
1F
100
AcDbEntity
  8
Hewi
100
AcDbCircle
 10
250.4578373457189
 20
1279.597943575558
 30
0.0
 40
0.5
100
AcDbArc
 50
270.0
 51
0.0
  0
ARC
  5
AE2
330
1F
100
AcDbEntity
  8
Hewi
100
AcDbCircle
 10
244.9578373457189
 20
1279.597943575558
 30
0.0
 40
0.5
100
AcDbArc
 50
180.0
 51
270.0
  0
ARC
  5
AE3
330
1F
100
AcDbEntity
  8
Hewi
100
AcDbCircle
 10
296.8578373457422
 20
482.297943575555
 30
0.0
 40
0.5
100
AcDbArc
 50
270.0
 51
0.0
  0
ARC
  5
AE4
330
1F
100
AcDbEntity
  8
Hewi
100
AcDbCircle
 10
278.5578373457538
 20
482.297943575555
 30
0.0
 40
0.5
100
AcDbArc
 50
180.0
 51
270.0
  0
ARC
  5
AE5
330
1F
100
AcDbEntity
  8
Hewi
100
AcDbCircle
 10
296.8578373457422
 20
1382.274912575558
 30
0.0
 40
0.5
100
AcDbArc
 50
287.4576030006872
 51
0.0
  0
ARC
  5
AE6
330
1F
100
AcDbEntity
  8
Hewi
100
AcDbCircle
 10
278.5578373457538
 20
484.320973575559
 30
0.0
 40
0.5
100
AcDbArc
 50
107.4576030006872
 51
180.0
  0
ARC
  5
AE7
330
1F
100
AcDbEntity
  8
Hewi
100
AcDbCircle
 10
296.8578373457422
 20
484.320973575559
 30
0.0
 40
0.5
100
AcDbArc
 50
0.0
 51
72.5423969993128
  0
ARC
  5
AE8
330
1F
100
AcDbEntity
  8
Hewi
100
AcDbCircle
 10
334.9216823457391
 20
1300.21409457556
 30
0.0
 40
0.5
100
AcDbArc
 50
243.3337269998226
 51
282.6618350004297
  0
ARC
  5
AE9
330
1F
100
AcDbEntity
  8
Hewi
100
AcDbCircle
 10
333.8180393457296
 20
1326.224121575556
 30
0.0
 40
0.5
100
AcDbArc
 50
77.88921999882173
 51
113.5596340005363
  0
ARC
  5
AEA
330
1F
100
AcDbEntity
  8
Hewi
100
AcDbCircle
 10
296.8578373457422
 20
1384.297943575555
 30
0.0
 40
0.5
100
AcDbArc
 50
0.0
 51
90.0
  0
ARC
  5
AEB
330
1F
100
AcDbEntity
  8
Hewi
100
AcDbCircle
 10
278.5578373457538
 20
1382.274912575558
 30
0.0
 40
0.5
100
AcDbArc
 50
180.0
 51
252.5423969993128
  0
ARC
  5
AEC
330
1F
100
AcDbEntity
  8
Hewi
100
AcDbCircle
 10
278.5578373457538
 20
1384.297943575555
 30
0.0
 40
0.5
100
AcDbArc
 50
90.0
 51
180.0
  0
ARC
  5
AED
330
1F
100
AcDbEntity
  8
Hewi
100
AcDbCircle
 10
238.2078373457189
 20
1296.597943575558
 30
0.0
 40
0.5
100
AcDbArc
 50
180.0
 51
270.0
  0
ARC
  5
AEE
330
1F
100
AcDbEntity
  8
Hewi
100
AcDbCircle
 10
287.7078373457189
 20
240.8557205755569
 30
0.0
 40
9.000000000000021
100
AcDbArc
 50
179.9999989999009
 51
0.0
  0
ARC
  5
AEF
330
1F
100
AcDbEntity
  8
Hewi
100
AcDbCircle
 10
-337.2078373457189
 20
250.2393845755578
 30
0.0
 40
0.5
210
0.0
220
0.0
230
-1.0
100
AcDbArc
 50
180.0
 51
255.0000000006394
  0
ARC
  5
AF0
330
1F
100
AcDbEntity
  8
Hewi
100
AcDbCircle
 10
287.7078373457189
 20
240.8557205755569
 30
0.0
 40
9.000000000000021
100
AcDbArc
 50
179.9999989999009
 51
0.0
  0
ARC
  5
AF1
330
1F
100
AcDbEntity
  8
Hewi
100
AcDbCircle
 10
-287.7078373457189
 20
240.8557205755569
 30
0.0
 40
9.65
210
0.0
220
0.0
230
-1.0
100
AcDbArc
 50
180.0000010000991
 51
0.0
  0
ARC
  5
AF2
330
1F
100
AcDbEntity
  8
Hewi
100
AcDbCircle
 10
-287.7078373457189
 20
240.8557205755569
 30
0.0
 40
9.65
210
0.0
220
0.0
230
-1.0
100
AcDbArc
 50
0.0
 51
21.1443749989746
  0
ARC
  5
AF3
330
1F
100
AcDbEntity
  8
Hewi
100
AcDbCircle
 10
-287.7078373457189
 20
240.8557205755569
 30
0.0
 40
9.65
210
0.0
220
0.0
230
-1.0
100
AcDbArc
 50
158.8500030000474
 51
180.0000010000991
  0
ARC
  5
AF4
330
1F
100
AcDbEntity
  8
Hewi
100
AcDbCircle
 10
287.7078373457189
 20
240.8557205755569
 30
0.0
 40
9.15
100
AcDbArc
 50
180.0
 51
10.38375000000187
  0
ARC
  5
AF5
330
1F
100
AcDbEntity
  8
Hewi
100
AcDbCircle
 10
287.7078373457189
 20
240.8557205755569
 30
0.0
 40
9.15
100
AcDbArc
 50
169.6106220001109
 51
180.0
  0
ARC
  5
AF6
330
1F
100
AcDbEntity
  8
Hewi
100
AcDbCircle
 10
-337.2078373457189
 20
231.4720575755564
 30
0.0
 40
0.5
210
0.0
220
0.0
230
-1.0
100
AcDbArc
 50
104.9999999993606
 51
180.0
  0
ARC
  5
AF9
330
1F
100
AcDbEntity
  8
Hewi
100
AcDbCircle
 10
238.2078373457189
 20
257.3557205755569
 30
0.0
 40
0.5
100
AcDbArc
 50
90.0
 51
180.0
  0
ARC
  5
AFA
330
1F
100
AcDbEntity
  8
Hewi
100
AcDbCircle
 10
336.7078373457189
 20
255.8791115755594
 30
0.0
 40
1.0
100
AcDbArc
 50
0.0
 51
87.99999999978778
  0
ARC
  5
AFB
330
1F
100
AcDbEntity
  8
Hewi
100
AcDbCircle
 10
336.7078373457189
 20
225.8323295755618
 30
0.0
 40
1.0
100
AcDbArc
 50
272.0000000002122
 51
0.0
  0
ARC
  5
AFD
330
1F
100
AcDbEntity
  8
Hewi
100
AcDbCircle
 10
333.8180393457296
 20
249.331090575557
 30
0.0
 40
0.5
100
AcDbArc
 50
233.5093660014424
 51
270.0
  0
ARC
  5
AFE
330
1F
100
AcDbEntity
  8
Hewi
100
AcDbCircle
 10
333.8180393457296
 20
249.331090575557
 30
0.0
 40
0.5
100
AcDbArc
 50
270.0
 51
284.9999999993606
  0
ARC
  5
AFF
330
1F
100
AcDbEntity
  8
Hewi
100
AcDbCircle
 10
238.2078373457189
 20
224.3557205755569
 30
0.0
 40
0.5
100
AcDbArc
 50
180.0
 51
270.0
  0
ELLIPSE
  5
B00
330
1F
100
AcDbEntity
  8
Hewi
100
AcDbEllipse
 10
336.7252873457619
 20
1325.560806575558
 30
0.0
 11
0.1178175970765334
 21
0.4859207896551779
 31
0.0
210
0.0
220
0.0
230
1.0
 40
0.252
 41
6.28083587770151
 42
6.946426544720876
  0
ELLIPSE
  5
B01
330
1F
100
AcDbEntity
  8
Hewi
100
AcDbEllipse
 10
336.7252873457619
 20
1325.560806575558
 30
0.0
 11
0.1178175970765334
 21
0.4859207896551779
 31
0.0
210
0.0
220
0.0
230
1.0
 40
0.252
 41
6.168794959433585
 42
6.282780288963
  0
ELLIPSE
  5
B02
330
1F
100
AcDbEntity
  8
Hewi
100
AcDbEllipse
 10
333.8180393457296
 20
1326.224121575556
 30
0.0
 11
0.1998516677024854
 21
-0.4583222784422937
 31
0.0
210
0.0
220
0.0
230
1.0
 40
0.5612060000000002
 41
3.141613420788579
 42
4.509381856138992
  0
ELLIPSE
  5
B03
330
1F
100
AcDbEntity
  8
Hewi
100
AcDbEllipse
 10
333.8180393457296
 20
1326.224121575556
 30
0.0
 11
0.1049012616426358
 21
0.4888718904843921
 31
0.0
210
0.0
220
0.0
230
1.0
 40
0.253433
 41
0.0004932845097008
 42
0.5948713381778843
  0
ELLIPSE
  5
B04
330
1F
100
AcDbEntity
  8
Hewi
100
AcDbEllipse
 10
333.8180393457296
 20
1326.224121575556
 30
0.0
 11
0.1998516677024854
 21
-0.4583222784422937
 31
0.0
210
0.0
220
0.0
230
1.0
 40
0.5612060000000002
 41
2.427444104868308
 42
3.141612955523295
  0
ELLIPSE
  5
B05
330
1F
100
AcDbEntity
  8
Hewi
100
AcDbEllipse
 10
336.7252873457619
 20
1300.635080575557
 30
0.0
 11
0.1178175970764925
 21
-0.485920789655188
 31
0.0
210
0.0
220
0.0
230
1.0
 40
0.252
 41
5.619944069638624
 42
6.285058562260369
  0
ELLIPSE
  5
B06
330
1F
100
AcDbEntity
  8
Hewi
100
AcDbEllipse
 10
334.9216823457391
 20
1300.21409457556
 30
0.0
 11
-0.2243965164626582
 21
-0.4468178637872752
 31
0.0
210
0.0
220
0.0
230
1.0
 40
0.581453
 41
6.212315713439681
 42
6.283159979676576
  0
ELLIPSE
  5
B07
330
1F
100
AcDbEntity
  8
Hewi
100
AcDbEllipse
 10
334.9216823457391
 20
1300.21409457556
 30
0.0
 11
-0.2243965164626582
 21
-0.4468178637872752
 31
0.0
210
0.0
220
0.0
230
1.0
 40
0.581453
 41
6.283159979676576
 42
7.046440273994263
  0
ELLIPSE
  5
B08
330
1F
100
AcDbEntity
  8
Hewi
100
AcDbEllipse
 10
334.9216823457391
 20
1300.21409457556
 30
0.0
 11
-0.1095981701933786
 21
0.4878403848496589
 31
0.0
210
0.0
220
0.0
230
1.0
 40
0.252932
 41
2.521253743036727
 42
3.14172113834318
  0
ELLIPSE
  5
B09
330
1F
100
AcDbEntity
  8
Hewi
100
AcDbEllipse
 10
336.7252873457619
 20
231.6013565755566
 30
0.0
 11
0.1294095225512598
 21
0.4829629131445345
 31
0.0
210
0.0
220
0.0
230
1.0
 40
0.228031
 41
4.110172487958397
 42
6.283185307179524
  0
ELLIPSE
  5
B0A
330
1F
100
AcDbEntity
  8
Hewi
100
AcDbEllipse
 10
336.7252873457619
 20
250.1100855755576
 30
0.0
 11
-0.1294095225512598
 21
0.4829629131445345
 31
0.0
210
0.0
220
0.0
230
1.0
 40
0.228031
 41
3.141592653589854
 42
5.314605472810953
  0
ELLIPSE
  5
B0B
330
1F
100
AcDbEntity
  8
Hewi
100
AcDbEllipse
 10
333.8180393457296
 20
249.331090575557
 30
0.0
 11
-0.1294095225512598
 21
0.4829629131445345
 31
0.0
210
0.0
220
0.0
230
1.0
 40
0.202953
 41
3.141592653589863
 42
5.252932709211315
  0
ELLIPSE
  5
B0C
330
1F
100
AcDbEntity
  8
Hewi
100
AcDbEllipse
 10
333.8180393457296
 20
249.331090575557
 30
0.0
 11
-0.2973456887764331
 21
-0.4019770408444601
 31
0.0
210
0.0
220
0.0
230
1.0
 40
0.330825
 41
4.238237858633055
 42
6.320175609903882
  0
ELLIPSE
  5
B0D
330
1F
100
AcDbEntity
  8
Hewi
100
AcDbEllipse
 10
333.8180393457296
 20
232.3803505755568
 30
0.0
 11
0.1294095225512598
 21
0.4829629131445345
 31
0.0
210
0.0
220
0.0
230
1.0
 40
0.202953
 41
4.171845251558101
 42
6.283185307179516
  0
ELLIPSE
  5
B0E
330
1F
100
AcDbEntity
  8
Hewi
100
AcDbEllipse
 10
333.8180393457296
 20
232.3803505755568
 30
0.0
 11
0.2973456887764354
 21
-0.4019770408444582
 31
0.0
210
0.0
220
0.0
230
1.0
 40
0.330825
 41
3.104602350865413
 42
5.186540102136208
  0
ELLIPSE
  5
B0F
330
1F
100
AcDbEntity
  8
Hewi
100
AcDbEllipse
 10
333.8180393457296
 20
232.3803505755568
 30
0.0
 11
-0.1294095225512644
 21
-0.4829629131445332
 31
0.0
210
0.0
220
0.0
230
1.0
 40
0.998986
 41
3.141592653589821
 42
4.028528383494533
  0
SPLINE
  5
B10
330
1F
100
AcDbEntity
  8
Hewi
100
AcDbSpline
210
0.0
220
0.0
230
1.0
 70
     8
 71
     3
 72
    30
 73
    26
 74
     0
 42
0.000000001
 43
0.0000000001
 40
0.0
 40
0.0
 40
0.0
 40
0.0
 40
0.1249799886289227
 40
0.1249799886289227
 40
0.1874814180125715
 40
0.1874814180125715
 40
0.2499828473962205
 40
0.2499828473962205
 40
0.3124842767798693
 40
0.3124842767798693
 40
0.3749857061635184
 40
0.3749857061635184
 40
0.4999885649308192
 40
0.4999885649308192
 40
0.562489994314468
 40
0.562489994314468
 40
0.6249914236981168
 40
0.6249914236981168
 40
0.7499942824654119
 40
0.7499942824654119
 40
0.8749971412327067
 40
0.8749971412327067
 40
0.9374985706163535
 40
0.9374985706163535
 40
1.0
 40
1.0
 40
1.0
 40
1.0
 10
461.8553240524488
 20
442.2979432979409
 30
0.0
 10
461.8552253388916
 20
442.2979669911073
 30
0.0
 10
461.9125124248675
 20
442.2836693372373
 30
0.0
 10
462.075415963598
 20
442.2471404466559
 30
0.0
 10
462.1434472317341
 20
442.2323458450263
 30
0.0
 10
462.301471016719
 20
442.2003080727663
 30
0.0
 10
462.3910785344196
 20
442.1831272790805
 30
0.0
 10
462.5914911043365
 20
442.148339255611
 30
0.0
 10
462.7028391432832
 20
442.1307017152648
 30
0.0
 10
462.9378415156388
 20
442.0984436091312
 30
0.0
 10
463.0625215673354
 20
442.0836185546067
 30
0.0
 10
463.4591838204069
 20
442.0458276177305
 30
0.0
 10
463.7423145846114
 20
442.0311550281694
 30
0.0
 10
464.1728807447943
 20
442.0310951145147
 30
0.0
 10
464.3144422636833
 20
442.0346138160457
 30
0.0
 10
464.5937503685127
 20
442.0481431938533
 30
0.0
 10
464.7325936846319
 20
442.0583115317931
 30
0.0
 10
465.1263091409928
 20
442.095707277891
 30
0.0
 10
465.367821818334
 20
442.1307113141738
 30
0.0
 10
465.767465864541
 20
442.199985340012
 30
0.0
 10
465.9295929762302
 20
442.2345685736727
 30
0.0
 10
466.0931340313982
 20
442.2712158175126
 30
0.0
 10
466.1355048237019
 20
442.2811654099496
 30
0.0
 10
466.19160864898
 20
442.2944768806774
 30
0.0
 10
466.2058316927868
 20
442.2979452254148
 30
0.0
 10
466.205825437908
 20
442.2979437002577
 30
0.0
  0
SPLINE
  5
B11
330
1F
100
AcDbEntity
  8
Hewi
100
AcDbSpline
210
0.0
220
0.0
230
1.0
 70
     8
 71
     3
 72
    34
 73
    30
 74
     0
 42
0.000000001
 43
0.0000000001
 40
0.0
 40
0.0
 40
0.0
 40
0.0
 40
0.0625013826085059
 40
0.0625013826085059
 40
0.1250027652170119
 40
0.1250027652170119
 40
0.1875041478255177
 40
0.1875041478255177
 40
0.2500055304340236
 40
0.2500055304340236
 40
0.3750082956510332
 40
0.3750082956510332
 40
0.4375096782595394
 40
0.4375096782595394
 40
0.5000110608680456
 40
0.5000110608680456
 40
0.5625124434765519
 40
0.5625124434765519
 40
0.6250138260850582
 40
0.6250138260850582
 40
0.7500165913020706
 40
0.7500165913020706
 40
0.8125179739105767
 40
0.8125179739105767
 40
0.8750193565190828
 40
0.8750193565190828
 40
0.9375207391275893
 40
0.9375207391275893
 40
1.0
 40
1.0
 40
1.0
 40
1.0
 10
466.205825437908
 20
1424.297942959834
 30
0.0
 10
466.2058191830292
 20
1424.297944484984
 30
0.0
 10
466.1916122971452
 20
1424.301408143663
 30
0.0
 10
466.1360266649863
 20
1424.314598198434
 30
0.0
 10
466.0939421053626
 20
1424.3244860794
 30
0.0
 10
465.9845628218609
 20
1424.349003762181
 30
0.0
 10
465.9177079430082
 20
1424.363538525365
 30
0.0
 10
465.7598585239611
 20
1424.395542550796
 30
0.0
 10
465.6683554539922
 20
1424.41307256151
 30
0.0
 10
465.36854145932
 20
1424.465067484452
 30
0.0
 10
465.1267613579403
 20
1424.500093604249
 30
0.0
 10
464.734536468517
 20
1424.537411835175
 30
0.0
 10
464.5968950783717
 20
1424.547554173296
 30
0.0
 10
464.3158717853366
 20
1424.561239969392
 30
0.0
 10
464.174383773934
 20
1424.564749385281
 30
0.0
 10
463.8894821399007
 20
1424.564793721052
 30
0.0
 10
463.7447323150699
 20
1424.56120923721
 30
0.0
 10
463.4653295199386
 20
1424.547610855363
 30
0.0
 10
463.3294737470569
 20
1424.537660247435
 30
0.0
 10
462.9334469476598
 20
1424.500051638162
 30
0.0
 10
462.6942732431926
 20
1424.465358856629
 30
0.0
 10
462.3918026134488
 20
1424.412899761337
 30
0.0
 10
462.3021732713096
 20
1424.395712793186
 30
0.0
 10
462.1446627792902
 20
1424.363795325916
 30
0.0
 10
462.076304953196
 20
1424.348941767988
 30
0.0
 10
461.9672145475051
 20
1424.324487269921
 30
0.0
 10
461.9258289163117
 20
1424.314764853894
 30
0.0
 10
461.8697042504209
 20
1424.301449443046
 30
0.0
 10
461.8553941129357
 20
1424.297960316937
 30
0.0
 10
461.8553241813206
 20
1424.297943393278
 30
0.0
  0
SPLINE
  5
B12
330
1F
100
AcDbEntity
  8
Hewi
100
AcDbSpline
210
0.0
220
0.0
230
1.0
 70
     8
 71
     3
 72
     8
 73
     4
 74
     0
 42
0.000000001
 43
0.0000000001
 40
0.0
 40
0.0
 40
0.0
 40
0.0
 40
1.0
 40
1.0
 40
1.0
 40
1.0
 10
336.7427371911472
 20
1325.961991744763
 30
0.0
 10
335.7766736418707
 20
1326.202894212983
 30
0.0
 10
334.8073819804704
 20
1326.429608623169
 30
0.0
 10
333.8354892908828
 20
1326.643913376676
 30
0.0
  0
SPLINE
  5
B13
330
1F
100
AcDbEntity
  8
Hewi
100
AcDbSpline
210
0.0
220
0.0
230
1.0
 70
     8
 71
     3
 72
    50
 73
    46
 74
     0
 42
0.000000001
 43
0.0000000001
 40
0.0
 40
0.0
 40
0.0
 40
0.0
 40
0.0553449354793227
 40
0.0553449354793227
 40
0.1106898709586455
 40
0.1106898709586455
 40
0.1383623386983068
 40
0.1383623386983068
 40
0.1660348064379682
 40
0.1660348064379682
 40
0.2213797419172909
 40
0.2213797419172909
 40
0.2490522096569525
 40
0.2490522096569525
 40
0.2767246773966141
 40
0.2767246773966141
 40
0.3320696128759371
 40
0.3320696128759371
 40
0.3597420806155985
 40
0.3597420806155985
 40
0.3874145483552598
 40
0.3874145483552598
 40
0.4427594838345827
 40
0.4427594838345827
 40
0.4981044193139055
 40
0.4981044193139055
 40
0.5534493547932283
 40
0.5534493547932283
 40
0.6087942902725511
 40
0.6087942902725511
 40
0.6641392257518738
 40
0.6641392257518738
 40
0.7194841612311967
 40
0.7194841612311967
 40
0.7748290967105194
 40
0.7748290967105194
 40
0.8855189676691649
 40
0.8855189676691649
 40
0.9131914354088264
 40
0.9131914354088264
 40
0.9408639031484876
 40
0.9408639031484876
 40
0.9962088386278104
 40
0.9962088386278104
 40
1.0
 40
1.0
 40
1.0
 40
1.0
 10
333.8354892908828
 20
1326.643913376676
 30
0.0
 10
333.4575913652079
 20
1326.473506272683
 30
0.0
 10
333.0583552753087
 20
1326.307497266425
 30
0.0
 10
332.2236693873419
 20
1326.000509161291
 30
0.0
 10
331.7904699760839
 20
1325.860231296196
 30
0.0
 10
331.1136307023117
 20
1325.679546772357
 30
0.0
 10
330.8834891035222
 20
1325.624295148031
 30
0.0
 10
330.4133018478751
 20
1325.525703664003
 30
0.0
 10
330.1719721767586
 20
1325.482189559618
 30
0.0
 10
329.4416333951522
 20
1325.374235715695
 30
0.0
 10
328.9491585952346
 20
1325.33256602152
 30
0.0
 10
328.2017902561347
 20
1325.32030564468
 30
0.0
 10
327.951221698313
 20
1325.324573284546
 30
0.0
 10
327.447108363267
 20
1325.350352088709
 30
0.0
 10
327.1946017347509
 20
1325.37191371114
 30
0.0
 10
326.4496520214598
 20
1325.459896327898
 30
0.0
 10
325.9642655716161
 20
1325.549818380801
 30
0.0
 10
325.250990398752
 20
1325.723030893874
 30
0.0
 10
325.0146844453411
 20
1325.787477305021
 30
0.0
 10
324.5522922725068
 20
1325.926054594172
 30
0.0
 10
324.3265412059845
 20
1326.000001185603
 30
0.0
 10
323.663910333009
 20
1326.233019174368
 30
0.0
 10
323.2415434792638
 20
1326.403171219739
 30
0.0
 10
322.4297550605843
 20
1326.761284333632
 30
0.0
 10
322.0381099249353
 20
1326.950491839605
 30
0.0
 10
321.2973803517525
 20
1327.331168489996
 30
0.0
 10
320.9489247472957
 20
1327.522107420642
 30
0.0
 10
320.2920677121729
 20
1327.897509932118
 30
0.0
 10
319.9836866506375
 20
1328.082019800095
 30
0.0
 10
319.4068001092528
 20
1328.437775358696
 30
0.0
 10
319.1412010965869
 20
1328.607276103292
 30
0.0
 10
318.6641294177971
 20
1328.91804749117
 30
0.0
 10
318.4510667803697
 20
1329.060329489839
 30
0.0
 10
318.0772829001653
 20
1329.313356983613
 30
0.0
 10
317.9161531830905
 20
1329.424405084363
 30
0.0
 10
317.5214892316726
 20
1329.698601547563
 30
0.0
 10
317.3869598988677
 20
1329.794865483272
 30
0.0
 10
317.3837080500671
 20
1329.79717040337
 30
0.0
 10
317.3915765395504
 20
1329.791589570137
 30
0.0
 10
317.4240482414607
 20
1329.768599599811
 30
0.0
 10
317.4485716714408
 20
1329.751247224434
 30
0.0
 10
317.5462215051521
 20
1329.68235771708
 30
0.0
 10
317.6433131913072
 20
1329.614025402341
 30
0.0
 10
317.7805865340634
 20
1329.518590175823
 30
0.0
 10
317.7895405460731
 20
1329.512369216471
 30
0.0
 10
317.7986458980595
 20
1329.506047603048
 30
0.0
  0
SPLINE
  5
B14
330
1F
100
AcDbEntity
  8
Hewi
100
AcDbSpline
210
0.0
220
0.0
230
1.0
 70
     8
 71
     3
 72
    12
 73
     8
 74
     0
 42
0.000000001
 43
0.0000000001
 40
0.0
 40
0.0
 40
0.0
 40
0.0
 40
0.2499999999999999
 40
0.2499999999999999
 40
0.4999999999999999
 40
0.4999999999999999
 40
1.0
 40
1.0
 40
1.0
 40
1.0
 10
337.7078376944992
 20
1324.830340465814
 30
0.0
 10
337.7078376944992
 20
1324.96210902174
 30
0.0
 10
337.684195458889
 20
1325.09088432548
 30
0.0
 10
337.5915152231464
 20
1325.34267038745
 30
0.0
 10
337.5229743357631
 20
1325.461637901375
 30
0.0
 10
337.2616621008492
 20
1325.775458562959
 30
0.0
 10
337.0137159107835
 20
1325.924406790924
 30
0.0
 10
336.7427371911472
 20
1325.961991744763
 30
0.0
  0
SPLINE
  5
B15
330
1F
100
AcDbEntity
  8
Hewi
100
AcDbSpline
210
0.0
220
0.0
230
1.0
 70
     8
 71
     3
 72
    54
 73
    50
 74
     0
 42
0.000000001
 43
0.0000000001
 40
0.0
 40
0.0
 40
0.0
 40
0.0
 40
0.0625157274028892
 40
0.0625157274028892
 40
0.0937735911043338
 40
0.0937735911043338
 40
0.1250314548057784
 40
0.1250314548057784
 40
0.1875471822086674
 40
0.1875471822086674
 40
0.2188050459101119
 40
0.2188050459101119
 40
0.2500629096115565
 40
0.2500629096115565
 40
0.281320773313001
 40
0.281320773313001
 40
0.3125786370144455
 40
0.3125786370144455
 40
0.375094364417335
 40
0.375094364417335
 40
0.4063522281187796
 40
0.4063522281187796
 40
0.4376100918202244
 40
0.4376100918202244
 40
0.5001258192231136
 40
0.5001258192231136
 40
0.5313836829245585
 40
0.5313836829245585
 40
0.5626415466260032
 40
0.5626415466260032
 40
0.5938994103274481
 40
0.5938994103274481
 40
0.6251572740288929
 40
0.6251572740288929
 40
0.6876730014317821
 40
0.6876730014317821
 40
0.7189308651332267
 40
0.7189308651332267
 40
0.750188728834671
 40
0.750188728834671
 40
0.81270445623756
 40
0.81270445623756
 40
0.8752201836404488
 40
0.8752201836404488
 40
0.9064780473418931
 40
0.9064780473418931
 40
0.9377359110433378
 40
0.9377359110433378
 40
1.0
 40
1.0
 40
1.0
 40
1.0
 10
278.6078344268608
 20
1330.097945084271
 30
0.0
 10
278.6078419886762
 20
1330.097941021362
 30
0.0
 10
278.6692380712484
 20
1330.064852801377
 30
0.0
 10
278.8481543516391
 20
1329.970448253756
 30
0.0
 10
278.9223794846912
 20
1329.931495345852
 30
0.0
 10
279.1004890449112
 20
1329.839229071833
 30
0.0
 10
279.2036100358818
 20
1329.786321409389
 30
0.0
 10
279.5497508822591
 20
1329.611715758976
 30
0.0
 10
279.830455113377
 20
1329.473466457683
 30
0.0
 10
280.3256604804774
 20
1329.243072340447
 30
0.0
 10
280.5027950064978
 20
1329.16264608386
 30
0.0
 10
280.8750711728353
 20
1328.99916129512
 30
0.0
 10
281.0709684739122
 20
1328.915743404446
 30
0.0
 10
281.4823151606834
 20
1328.747604571152
 30
0.0
 10
281.6977630775655
 20
1328.662878399649
 30
0.0
 10
282.1489829128259
 20
1328.49427644231
 30
0.0
 10
282.3859723580536
 20
1328.410017654219
 30
0.0
 10
283.1159894343582
 20
1328.166604459846
 30
0.0
 10
283.6298998888815
 20
1328.015751375853
 30
0.0
 10
284.4452397228451
 20
1327.82088123526
 30
0.0
 10
284.7244896861957
 20
1327.761181852016
 30
0.0
 10
285.2993437711266
 20
1327.655107943821
 30
0.0
 10
285.59320580645
 20
1327.609193734963
 30
0.0
 10
286.4762975407066
 20
1327.498136812042
 30
0.0
 10
287.0738618965843
 20
1327.458431397062
 30
0.0
 10
287.984189022216
 20
1327.456713928848
 30
0.0
 10
288.2921656097169
 20
1327.465961437549
 30
0.0
 10
288.8982817704091
 20
1327.503347257836
 30
0.0
 10
289.1971006156527
 20
1327.531318353518
 30
0.0
 10
289.7867130423547
 20
1327.604015618286
 30
0.0
 10
290.0775061471504
 20
1327.648741811812
 30
0.0
 10
290.6513227383257
 20
1327.753130537479
 30
0.0
 10
290.9355407862459
 20
1327.813130721122
 30
0.0
 10
291.7602475373424
 20
1328.008567607976
 30
0.0
 10
292.2776961104246
 20
1328.159861692489
 30
0.0
 10
293.0103287193924
 20
1328.403280823004
 30
0.0
 10
293.2479634312331
 20
1328.487513023639
 30
0.0
 10
293.7007593963644
 20
1328.656252129534
 30
0.0
 10
293.9168681489537
 20
1328.741044067923
 30
0.0
 10
294.5355961625464
 20
1328.993428592847
 30
0.0
 10
294.9097748270724
 20
1329.159428072206
 30
0.0
 10
295.5744539259467
 20
1329.468253180312
 30
0.0
 10
295.855698407162
 20
1329.60666379358
 30
0.0
 10
296.2020919638453
 20
1329.781240662407
 30
0.0
 10
296.3048740455997
 20
1329.833927434316
 30
0.0
 10
296.4839637849946
 20
1329.926624771928
 30
0.0
 10
296.5605559604592
 20
1329.966788442347
 30
0.0
 10
296.7430411062087
 20
1330.063032362843
 30
0.0
 10
296.8051153478445
 20
1330.096484250069
 30
0.0
 10
296.80775066762
 20
1330.097896734158
 30
0.0
  0
SPLINE
  5
B16
330
1F
100
AcDbEntity
  8
Hewi
100
AcDbSpline
210
0.0
220
0.0
230
1.0
 70
     8
 71
     3
 72
    52
 73
    48
 74
     0
 42
0.000000001
 43
0.0000000001
 40
0.0
 40
0.0
 40
0.0
 40
0.0
 40
0.0002474313734473
 40
0.0002474313734473
 40
0.0314896991430269
 40
0.0314896991430269
 40
0.0627319669126064
 40
0.0627319669126064
 40
0.0939742346821859
 40
0.0939742346821859
 40
0.1252165024517652
 40
0.1252165024517652
 40
0.1877010379909244
 40
0.1877010379909244
 40
0.2501855735300836
 40
0.2501855735300836
 40
0.3126701090692426
 40
0.3126701090692426
 40
0.3439123768388221
 40
0.3439123768388221
 40
0.3751546446084016
 40
0.3751546446084016
 40
0.4376391801475612
 40
0.4376391801475612
 40
0.5001237156867206
 40
0.5001237156867206
 40
0.5313659834563003
 40
0.5313659834563003
 40
0.5626082512258803
 40
0.5626082512258803
 40
0.6250927867650404
 40
0.6250927867650404
 40
0.6875773223042005
 40
0.6875773223042005
 40
0.7500618578433605
 40
0.7500618578433605
 40
0.8125463933825205
 40
0.8125463933825205
 40
0.8437886611521005
 40
0.8437886611521005
 40
0.8750309289216804
 40
0.8750309289216804
 40
0.93751546446084
 40
0.93751546446084
 40
0.9687577322304202
 40
0.9687577322304202
 40
1.0
 40
1.0
 40
1.0
 40
1.0
 10
296.8077511853771
 20
1296.097989648442
 30
0.0
 10
296.8077616320806
 20
1296.09798404928
 30
0.0
 10
296.8077711392543
 20
1296.097978956582
 30
0.0
 10
296.8088615003507
 20
1296.09739529535
 30
0.0
 10
296.7947164478828
 20
1296.104981925266
 30
0.0
 10
296.7354510403238
 20
1296.136599794001
 30
0.0
 10
296.6907914071344
 20
1296.160383215632
 30
0.0
 10
296.5727058731136
 20
1296.222713759736
 30
0.0
 10
296.4992763210903
 20
1296.26126385745
 30
0.0
 10
296.3239894920844
 20
1296.352124319404
 30
0.0
 10
296.2216982605168
 20
1296.404656368315
 30
0.0
 10
295.8742939658696
 20
1296.580042754372
 30
0.0
 10
295.5934308513533
 20
1296.718428168875
 30
0.0
 10
294.9381413543015
 20
1297.023639970546
 30
0.0
 10
294.5604692742345
 20
1297.19173762184
 30
0.0
 10
293.7368576116278
 20
1297.528810354
 30
0.0
 10
293.2886177834007
 20
1297.699118827651
 30
0.0
 10
292.557002849062
 20
1297.943684024154
 30
0.0
 10
292.3030317789526
 20
1298.023315081773
 30
0.0
 10
291.7853807111387
 20
1298.172965433819
 30
0.0
 10
291.5203864852083
 20
1298.243445807413
 30
0.0
 10
290.7062070984393
 20
1298.438390384755
 30
0.0
 10
290.1374896958587
 20
1298.546583264404
 30
0.0
 10
288.9427573946305
 20
1298.69780799812
 30
0.0
 10
288.3419630046119
 20
1298.737335816244
 30
0.0
 10
287.4356497375993
 20
1298.739224041826
 30
0.0
 10
287.1326877517276
 20
1298.73031227255
 30
0.0
 10
286.5250039584935
 20
1298.693182992065
 30
0.0
 10
286.2213639296242
 20
1298.664887177794
 30
0.0
 10
285.3322917799232
 20
1298.555342429448
 30
0.0
 10
284.7603206310887
 20
1298.449077135068
 30
0.0
 10
283.6544725082349
 20
1298.187168927201
 30
0.0
 10
283.1338312874432
 20
1298.034722970587
 30
0.0
 10
282.1599137869198
 20
1297.710983504607
 30
0.0
 10
281.7012061169953
 20
1297.5375179654
 30
0.0
 10
280.8733596825623
 20
1297.199600513362
 30
0.0
 10
280.5014548104955
 20
1297.034429280873
 30
0.0
 10
280.0061923992471
 20
1296.804264414953
 30
0.0
 10
279.8508243326796
 20
1296.730069516045
 30
0.0
 10
279.5670363258105
 20
1296.591966196058
 30
0.0
 10
279.4385325549519
 20
1296.528046080391
 30
0.0
 10
279.0926547518466
 20
1296.353639025867
 30
0.0
 10
278.9144528917968
 20
1296.260399434628
 30
0.0
 10
278.73154624569
 20
1296.163920618084
 30
0.0
 10
278.6850672389264
 20
1296.13917844728
 30
0.0
 10
278.6233969773748
 20
1296.106287060051
 30
0.0
 10
278.6078306459822
 20
1296.097939544372
 30
0.0
 10
278.6078344268608
 20
1296.097941575826
 30
0.0
  0
SPLINE
  5
B17
330
1F
100
AcDbEntity
  8
Hewi
100
AcDbSpline
210
0.0
220
0.0
230
1.0
 70
     8
 71
     3
 72
    14
 73
    10
 74
     0
 42
0.000000001
 43
0.0000000001
 40
0.0
 40
0.0
 40
0.0
 40
0.0
 40
0.25
 40
0.25
 40
0.5
 40
0.5
 40
0.75
 40
0.75
 40
1.0
 40
1.0
 40
1.0
 40
1.0
 10
336.7427371911472
 20
1300.233894915334
 30
0.0
 10
336.8782435258617
 20
1300.252689746681
 30
0.0
 10
337.0079748383141
 20
1300.298988914648
 30
0.0
 10
337.2446574229398
 20
1300.436081980217
 30
0.0
 10
337.3503563045524
 20
1300.526725122123
 30
0.0
 10
337.5229745500837
 20
1300.73447055601
 30
0.0
 10
337.591608213319
 20
1300.853895065091
 30
0.0
 10
337.6832070781384
 20
1301.101895170526
 30
0.0
 10
337.7078376944992
 20
1301.233777907335
 30
0.0
 10
337.7078376944992
 20
1301.365546194283
 30
0.0
  0
SPLINE
  5
B18
330
1F
100
AcDbEntity
  8
Hewi
100
AcDbSpline
210
0.0
220
0.0
230
1.0
 70
     8
 71
     3
 72
    38
 73
    34
 74
     0
 42
0.000000001
 43
0.0000000001
 40
0.0
 40
0.0
 40
0.0
 40
0.0
 40
0.0000246577712564
 40
0.0000246577712564
 40
0.0625231166605529
 40
0.0625231166605529
 40
0.1250215755498493
 40
0.1250215755498493
 40
0.1875200344391455
 40
0.1875200344391455
 40
0.2500184933284419
 40
0.2500184933284419
 40
0.3125169522177383
 40
0.3125169522177383
 40
0.3750154111070345
 40
0.3750154111070345
 40
0.437513869996331
 40
0.437513869996331
 40
0.5000123288856273
 40
0.5000123288856273
 40
0.5625107877749237
 40
0.5625107877749237
 40
0.6250092466642201
 40
0.6250092466642201
 40
0.6875077055535164
 40
0.6875077055535164
 40
0.7500061644428128
 40
0.7500061644428128
 40
0.8750030822214062
 40
0.8750030822214062
 40
0.937501541110703
 40
0.937501541110703
 40
1.0
 40
1.0
 40
1.0
 40
1.0
 10
244.4578390109236
 20
1296.097943582004
 30
0.0
 10
244.4578380286694
 20
1296.097943393943
 30
0.0
 10
244.4578370463569
 20
1296.097943206143
 30
0.0
 10
244.4577526985668
 20
1296.097927080838
 30
0.0
 10
244.4782774521154
 20
1296.101888635297
 30
0.0
 10
244.5618391163298
 20
1296.117568691021
 30
0.0
 10
244.6240615081624
 20
1296.129124362647
 30
0.0
 10
244.7861025048769
 20
1296.157822961548
 30
0.0
 10
244.8873859870364
 20
1296.175212740534
 30
0.0
 10
245.1239856100292
 20
1296.213034258166
 30
0.0
 10
245.2580512365675
 20
1296.233276925726
 30
0.0
 10
245.5573732412304
 20
1296.274150160716
 30
0.0
 10
245.7241607633768
 20
1296.294911519959
 30
0.0
 10
246.0760428506183
 20
1296.332811112959
 30
0.0
 10
246.2623868144001
 20
1296.350161260663
 30
0.0
 10
246.6565450770431
 20
1296.379567447075
 30
0.0
 10
246.8622898159083
 20
1296.391377997214
 30
0.0
 10
247.2779290162725
 20
1296.407251448734
 30
0.0
 10
247.4908073490369
 20
1296.411465900004
 30
0.0
 10
247.9201004816569
 20
1296.411527227617
 30
0.0
 10
248.1314777804655
 20
1296.407416776929
 30
0.0
 10
248.5479216853273
 20
1296.391658679968
 30
0.0
 10
248.7550979874213
 20
1296.379812581675
 30
0.0
 10
249.1478904371033
 20
1296.350618364551
 30
0.0
 10
249.3345104105538
 20
1296.333318933008
 30
0.0
 10
249.6883144782041
 20
1296.295299033998
 30
0.0
 10
249.8546778362943
 20
1296.274611911103
 30
0.0
 10
250.3032569010975
 20
1296.213455460806
 30
0.0
 10
250.5457054962171
 20
1296.172655592643
 30
0.0
 10
250.7896912628785
 20
1296.129475094807
 30
0.0
 10
250.8527272136998
 20
1296.117774581238
 30
0.0
 10
250.9366637216299
 20
1296.102028580804
 30
0.0
 10
250.9578455504379
 20
1296.097941814492
 30
0.0
 10
250.9578392288531
 20
1296.097943034016
 30
0.0
  0
SPLINE
  5
B19
330
1F
100
AcDbEntity
  8
Hewi
100
AcDbSpline
210
0.0
220
0.0
230
1.0
 70
     8
 71
     3
 72
    46
 73
    42
 74
     0
 42
0.000000001
 43
0.0000000001
 40
0.0
 40
0.0
 40
0.0
 40
0.0
 40
0.0000031292340639
 40
0.0000031292340639
 40
0.0625029336569352
 40
0.0625029336569352
 40
0.1250027380798068
 40
0.1250027380798068
 40
0.1562526402912426
 40
0.1562526402912426
 40
0.1875025425026781
 40
0.1875025425026781
 40
0.2500023469255495
 40
0.2500023469255495
 40
0.3125021513484211
 40
0.3125021513484211
 40
0.3750019557712924
 40
0.3750019557712924
 40
0.5000015646170353
 40
0.5000015646170353
 40
0.531251466828471
 40
0.531251466828471
 40
0.5625013690399065
 40
0.5625013690399065
 40
0.6250011734627771
 40
0.6250011734627771
 40
0.6562510756742123
 40
0.6562510756742123
 40
0.6875009778856473
 40
0.6875009778856473
 40
0.7500007823085183
 40
0.7500007823085183
 40
0.8125005867313889
 40
0.8125005867313889
 40
0.8437504889428241
 40
0.8437504889428241
 40
0.875000391154259
 40
0.875000391154259
 40
0.9375001955771297
 40
0.9375001955771297
 40
1.0
 40
1.0
 40
1.0
 40
1.0
 10
316.2515938195284
 20
1296.359612102409
 30
0.0
 10
316.2515946215717
 20
1296.359612699809
 30
0.0
 10
316.2515954236733
 20
1296.359613297209
 30
0.0
 10
316.252760423813
 20
1296.360481020201
 30
0.0
 10
316.2940202236641
 20
1296.391283624347
 30
0.0
 10
316.4559490367537
 20
1296.511299202517
 30
0.0
 10
316.577699266898
 20
1296.60130024868
 30
0.0
 10
316.8134282220854
 20
1296.773413377923
 30
0.0
 10
316.9009935365757
 20
1296.837061543025
 30
0.0
 10
317.093777603528
 20
1296.976203183709
 30
0.0
 10
317.1994033811497
 20
1297.051983619174
 30
0.0
 10
317.5374947196687
 20
1297.29247183579
 30
0.0
 10
317.7919092093944
 20
1297.470921423555
 30
0.0
 10
318.3544684585649
 20
1297.855834636044
 30
0.0
 10
318.6626338068163
 20
1298.062354637331
 30
0.0
 10
319.3329452531179
 20
1298.49636792043
 30
0.0
 10
319.697326991125
 20
1298.725149276011
 30
0.0
 10
320.8447307376191
 20
1299.411969532324
 30
0.0
 10
321.6867735232809
 20
1299.877085176915
 30
0.0
 10
322.8627639860497
 20
1300.411962890386
 30
0.0
 10
323.1043532543699
 20
1300.516424189867
 30
0.0
 10
323.5938723372528
 20
1300.715312920074
 30
0.0
 10
323.8426828285446
 20
1300.810155662039
 30
0.0
 10
324.6023306437419
 20
1301.077882821752
 30
0.0
 10
325.126250735193
 20
1301.234138033695
 30
0.0
 10
325.9447066815919
 20
1301.420507352879
 30
0.0
 10
326.2237551936996
 20
1301.474578920577
 30
0.0
 10
326.7805854706676
 20
1301.562006108281
 30
0.0
 10
327.059857746237
 20
1301.595754654037
 30
0.0
 10
327.9003392758895
 20
1301.665743381425
 30
0.0
 10
328.4646605491289
 20
1301.670524793844
 30
0.0
 10
329.598988406884
 20
1301.59286951954
 30
0.0
 10
330.1478820060729
 20
1301.512211220579
 30
0.0
 10
330.9478368334822
 20
1301.34230022211
 30
0.0
 10
331.2105740606203
 20
1301.277502029254
 30
0.0
 10
331.7286977086333
 20
1301.133754526345
 30
0.0
 10
331.9849645724171
 20
1301.054467814654
 30
0.0
 10
332.7315577683621
 20
1300.802655790176
 30
0.0
 10
333.2031420113053
 20
1300.615688733902
 30
0.0
 10
334.1028631810914
 20
1300.220900034066
 30
0.0
 10
334.5309403303545
 20
1300.012982049789
 30
0.0
 10
334.9391324815224
 20
1299.801033669522
 30
0.0
  0
SPLINE
  5
B1A
330
1F
100
AcDbEntity
  8
Hewi
100
AcDbSpline
210
0.0
220
0.0
230
1.0
 70
     8
 71
     3
 72
    10
 73
     6
 74
     0
 42
0.000000001
 43
0.0000000001
 40
0.0
 40
0.0
 40
0.0
 40
0.0
 40
0.5205562047146874
 40
0.5205562047146874
 40
1.0
 40
1.0
 40
1.0
 40
1.0
 10
334.9391324815224
 20
1299.801033669522
 30
0.0
 10
335.2526874414762
 20
1299.873445146055
 30
0.0
 10
335.5659509663237
 20
1299.947222996961
 30
0.0
 10
336.1671180186677
 20
1300.091688958979
 30
0.0
 10
336.455075361242
 20
1300.162162113804
 30
0.0
 10
336.7427371911472
 20
1300.233894915334
 30
0.0
  0
SPLINE
  5
B1B
330
1F
100
AcDbEntity
  8
Hewi
100
AcDbSpline
210
0.0
220
0.0
230
1.0
 70
    24
 71
     1
 72
     4
 73
     2
 74
     0
 42
0.000000001
 43
0.0000000001
 40
0.0
 40
0.0
 40
1.0
 40
1.0
 10
334.6594660658738
 20
1299.770006431521
 30
0.0
 10
334.6703413528739
 20
1299.764598822883
 30
0.0
  0
SPLINE
  5
B1C
330
1F
100
AcDbEntity
  8
Hewi
100
AcDbSpline
210
0.0
220
0.0
230
1.0
 70
     8
 71
     3
 72
    13
 73
     9
 74
     0
 42
0.000000001
 43
0.0000000001
 40
0.0
 40
0.0
 40
0.0
 40
0.0
 40
0.0441289191368714
 40
0.2270900541684285
 40
0.4310730658012535
 40
0.6689539201999212
 40
0.953008863967398
 40
1.0
 40
1.0
 40
1.0
 40
1.0
 10
336.8409912480856
 20
1300.159565620423
 30
0.0
 10
336.8661290981108
 20
1300.161377516764
 30
0.0
 10
336.993026627868
 20
1300.17745369843
 30
0.0
 10
337.2086241335491
 20
1300.309599416847
 30
0.0
 10
337.4654408250935
 20
1300.554689333345
 30
0.0
 10
337.6527150284382
 20
1300.924123498997
 30
0.0
 10
337.7342899105861
 20
1301.253443693153
 30
0.0
 10
337.6994570184615
 20
1301.437848138929
 30
0.0
 10
337.6933962102048
 20
1301.464082198145
 30
0.0
  0
SPLINE
  5
B1D
330
1F
100
AcDbEntity
  8
Hewi
100
AcDbSpline
210
0.0
220
0.0
230
1.0
 70
     8
 71
     2
 72
     6
 73
     3
 74
     0
 42
0.000000001
 43
0.0000000001
 40
0.0
 40
0.0
 40
0.0
 40
1.0
 40
1.0
 40
1.0
 10
336.8431050399085
 20
1326.046727148416
 30
0.0
 10
335.3872368305456
 20
1326.39947662274
 30
0.0
 10
333.9229408041574
 20
1326.712992975161
 30
0.0
  0
SPLINE
  5
B1E
330
1F
100
AcDbEntity
  8
Hewi
100
AcDbSpline
210
0.0
220
0.0
230
1.0
 70
     8
 71
     3
 72
    12
 73
     8
 74
     0
 42
0.000000001
 43
0.0000000001
 40
0.0
 40
0.0
 40
0.0
 40
0.0
 40
0.1323361337567671
 40
0.4339367643524805
 40
0.7018372064962908
 40
0.9297284434763652
 40
1.0
 40
1.0
 40
1.0
 40
1.0
 10
337.6921031282982
 20
1324.848824780391
 30
0.0
 10
337.6976321856491
 20
1324.919961832565
 30
0.0
 10
337.6950894428883
 20
1325.147814682474
 30
0.0
 10
337.555765260011
 20
1325.506953096424
 30
0.0
 10
337.2888599550933
 20
1325.830803402699
 30
0.0
 10
337.0314168010955
 20
1326.004037221421
 30
0.0
 10
336.877740464115
 20
1326.030239706663
 30
0.0
 10
336.8404346583411
 20
1326.033935420986
 30
0.0
  0
SPLINE
  5
B1F
330
1F
100
AcDbEntity
  8
Hewi
100
AcDbSpline
210
0.0
220
0.0
230
1.0
 70
     8
 71
     2
 72
     6
 73
     3
 74
     0
 42
0.000000001
 43
0.0000000001
 40
0.0
 40
0.0
 40
0.0
 40
1.0
 40
1.0
 40
1.0
 10
335.0312809033203
 20
1299.726254438516
 30
0.0
 10
335.9388263620203
 20
1299.930085750413
 30
0.0
 10
336.8431050399085
 20
1300.149159511682
 30
0.0
  0
SPLINE
  5
B20
330
1F
100
AcDbEntity
  8
Hewi
100
AcDbSpline
210
0.0
220
0.0
230
1.0
 70
     8
 71
     3
 72
    74
 73
    70
 74
     0
 42
0.000000001
 43
0.0000000001
 40
0.0
 40
0.0
 40
0.0
 40
0.0
 40
0.0624999999999997
 40
0.0624999999999997
 40
0.0781249999999997
 40
0.0781249999999997
 40
0.0937499999999998
 40
0.0937499999999998
 40
0.1249999999999997
 40
0.1249999999999997
 40
0.1562499999999996
 40
0.1562499999999996
 40
0.1874999999999994
 40
0.1874999999999994
 40
0.2031249999999994
 40
0.2031249999999994
 40
0.2187499999999994
 40
0.2187499999999994
 40
0.2499999999999994
 40
0.2499999999999994
 40
0.2812499999999994
 40
0.2812499999999994
 40
0.3124999999999994
 40
0.3124999999999994
 40
0.3437499999999994
 40
0.3437499999999994
 40
0.3749999999999994
 40
0.3749999999999994
 40
0.4062499999999994
 40
0.4062499999999994
 40
0.4374999999999994
 40
0.4374999999999994
 40
0.4687499999999994
 40
0.4687499999999994
 40
0.4843749999999994
 40
0.4843749999999994
 40
0.4999999999999994
 40
0.4999999999999994
 40
0.5624999999999995
 40
0.5624999999999995
 40
0.6249999999999995
 40
0.6249999999999995
 40
0.6562499999999993
 40
0.6562499999999993
 40
0.6874999999999995
 40
0.6874999999999995
 40
0.7187499999999995
 40
0.7187499999999995
 40
0.7499999999999996
 40
0.7499999999999996
 40
0.7812499999999996
 40
0.7812499999999996
 40
0.8124999999999996
 40
0.8124999999999996
 40
0.8437499999999996
 40
0.8437499999999996
 40
0.8593749999999998
 40
0.8593749999999998
 40
0.8749999999999998
 40
0.8749999999999998
 40
0.9062499999999998
 40
0.9062499999999998
 40
0.921875
 40
0.921875
 40
0.9375
 40
0.9375
 40
0.96875
 40
0.96875
 40
1.0
 40
1.0
 40
1.0
 40
1.0
 10
333.5258152563474
 20
248.9257505715577
 30
-0.0000000000000005
 10
332.8070586638059
 20
249.4581047062457
 30
-0.0000000000000005
 10
332.0102164892596
 20
249.8973427298115
 30
-0.0000000000000006
 10
330.9375306268339
 20
250.3026344568279
 30
-0.0000000000000006
 10
330.7187674401212
 20
250.3766619947492
 30
-0.0000000000000006
 10
330.2719981165719
 20
250.5100166496995
 30
-0.0000000000000006
 10
330.0434354805038
 20
250.5693814218612
 30
-0.0000000000000006
 10
329.3560954710701
 20
250.7213551817768
 30
-0.0000000000000006
 10
328.8917407617555
 20
250.789331342552
 30
-0.0000000000000006
 10
327.9501554602175
 20
250.8572875941536
 30
-0.0000000000000006
 10
327.4680849963333
 20
250.8563910103185
 30
-0.0000000000000006
 10
326.5310311948997
 20
250.7859234527787
 30
-0.0000000000000006
 10
326.0723812710494
 20
250.7173322715171
 30
-0.0000000000000006
 10
325.3974759221892
 20
250.5672654633745
 30
-0.0000000000000006
 10
325.1736717038439
 20
250.5090194321092
 30
-0.0000000000000006
 10
324.7356372792856
 20
250.3784325189845
 30
-0.0000000000000006
 10
324.5218197183567
 20
250.3063187654552
 30
-0.0000000000000006
 10
323.8942779641948
 20
250.0707085541872
 30
-0.0000000000000006
 10
323.4943594033248
 20
249.8880781707194
 30
-0.0000000000000006
 10
322.725611996837
 20
249.4740678105227
 30
-0.0000000000000005
 10
322.3568144252058
 20
249.2426677707117
 30
-0.0000000000000005
 10
321.6476554388646
 20
248.7292407605492
 30
-0.0000000000000005
 10
321.3119225177798
 20
248.4503294942624
 30
-0.0000000000000005
 10
320.6812498064828
 20
247.8528150197162
 30
-0.0000000000000004
 10
320.3852060072823
 20
247.5334107955205
 30
-0.0000000000000004
 10
319.8311971628573
 20
246.8499444287227
 30
-0.0000000000000004
 10
319.5725303956424
 20
246.4841023055488
 30
-0.0000000000000003
 10
319.107361768256
 20
245.7219924148958
 30
-0.0000000000000003
 10
318.8991227662773
 20
245.3239633948615
 30
-0.0000000000000003
 10
318.5333917067619
 20
244.4908382107169
 30
-0.0000000000000002
 10
318.3750387222972
 20
244.051792633225
 30
-0.0000000000000002
 10
318.1220891863341
 20
243.1591706311519
 30
-0.0000000000000001
 10
318.0263263892266
 20
242.7043435144733
 30
-0.0000000000000001
 10
317.9299356470001
 20
242.0087863382578
 30
-0.0000000000000001
 10
317.9057103221421
 20
241.7747077313034
 30
-0.0000000000000001
 10
317.8736523041152
 20
241.3019158606694
 30
0.0
 10
317.8659046294051
 20
241.0624036985464
 30
0.0
 10
317.8694379600929
 20
239.8784280241307
 30
0.0000000000000001
 10
318.0028967771213
 20
238.9559774890003
 30
0.0000000000000001
 10
318.5222986069275
 20
237.1578434941985
 30
0.0000000000000002
 10
318.8916380626615
 20
236.3379323553163
 30
0.0000000000000003
 10
319.5873530279496
 20
235.2056548455075
 30
0.0000000000000003
 10
319.84534132306
 20
234.8423973002573
 30
0.0000000000000004
 10
320.401652057597
 20
234.1594853922288
 30
0.0000000000000004
 10
320.6983093557647
 20
233.8411011890276
 30
0.0000000000000004
 10
321.3287928611971
 20
233.2465665502314
 30
0.0000000000000005
 10
321.6626014457434
 20
232.9704249619899
 30
0.0000000000000005
 10
322.3708807938965
 20
232.4595844796277
 30
0.0000000000000005
 10
322.7434718577424
 20
232.2266646355056
 30
0.0000000000000005
 10
323.5154814748093
 20
231.8131349227697
 30
0.0000000000000006
 10
323.9167126584798
 20
231.6311275629705
 30
0.0000000000000006
 10
324.7551489687757
 20
231.3187690826162
 30
0.0000000000000006
 10
325.1964804340387
 20
231.1877409909503
 30
0.0000000000000006
 10
326.0949810220627
 20
230.990270773611
 30
0.0000000000000006
 10
326.5533854798996
 20
230.9227560645886
 30
0.0000000000000006
 10
327.2566555562662
 20
230.8715307249877
 30
0.0000000000000006
 10
327.4950668375823
 20
230.8628649235834
 30
0.0000000000000006
 10
327.9697108610999
 20
230.8632328771127
 30
0.0000000000000006
 10
328.2056926973164
 20
230.87214105358
 30
0.0000000000000006
 10
328.9097254889784
 20
230.9243778983582
 30
0.0000000000000006
 10
329.3738743013236
 20
230.993087353163
 30
0.0000000000000006
 10
330.0625293797348
 20
231.1467755648264
 30
0.0000000000000006
 10
330.2898260769434
 20
231.2063432896175
 30
0.0000000000000006
 10
330.7331887656474
 20
231.3395172564197
 30
0.0000000000000006
 10
330.9503533968236
 20
231.4133577897301
 30
0.0000000000000006
 10
331.5894333673059
 20
231.6557266383097
 30
0.0000000000000006
 10
331.9990130042425
 20
231.8449613606063
 30
0.0000000000000006
 10
332.7891298886389
 20
232.2776770994896
 30
0.0000000000000005
 10
333.1674330526148
 20
232.5202515311612
 30
0.0000000000000005
 10
333.5258152563474
 20
232.7856908327449
 30
0.0000000000000005
  0
SPLINE
  5
B21
330
1F
100
AcDbEntity
  8
Hewi
100
AcDbSpline
210
-0.0000000032850013
220
-0.0000000118513241
230
-1.0
 70
     8
 71
     3
 72
     8
 73
     4
 74
     0
 42
0.000000001
 43
0.0000000001
 40
0.0
 40
0.0
 40
0.0
 40
0.0
 40
1.0
 40
1.0
 40
1.0
 40
1.0
 10
336.7427371911472
 20
231.3034538382708
 30
0.0000000000000006
 10
335.7766736418707
 20
231.5712898989005
 30
0.0000000000000006
 10
334.8073819804704
 20
231.8399623626901
 30
0.0000000000000006
 10
333.8354892908828
 20
232.1092974998537
 30
0.0000000000000005
  0
SPLINE
  5
B22
330
1F
100
AcDbEntity
  8
Hewi
100
AcDbSpline
210
-0.0000000032849894
220
0.0000000118512812
230
1.0
 70
     8
 71
     3
 72
     8
 73
     4
 74
     0
 42
0.000000001
 43
0.0000000001
 40
0.0
 40
0.0
 40
0.0
 40
0.0
 40
1.0
 40
1.0
 40
1.0
 40
1.0
 10
333.8354892908828
 20
249.6021439044562
 30
-0.0000000000000005
 10
334.8073836605181
 20
249.8714795071937
 30
-0.0000000000000006
 10
335.7766717139748
 20
250.1401509709176
 30
-0.0000000000000006
 10
336.7427371911472
 20
250.4079875660318
 30
-0.0000000000000006
  0
SPLINE
  5
B23
330
1F
100
AcDbEntity
  8
Hewi
100
AcDbSpline
210
0.0
220
0.0
230
1.0
 70
     8
 71
     3
 72
    78
 73
    74
 74
     0
 42
0.000000001
 43
0.0000000001
 40
0.0
 40
0.0
 40
0.0
 40
0.0
 40
0.0312499999999999
 40
0.0312499999999999
 40
0.0624999999999999
 40
0.0624999999999999
 40
0.0781249999999999
 40
0.0781249999999999
 40
0.0937499999999998
 40
0.0937499999999998
 40
0.1249999999999998
 40
0.1249999999999998
 40
0.1406249999999999
 40
0.1406249999999999
 40
0.1562499999999999
 40
0.1562499999999999
 40
0.1875000000000001
 40
0.1875000000000001
 40
0.2031250000000001
 40
0.2031250000000001
 40
0.2187500000000001
 40
0.2187500000000001
 40
0.2500000000000001
 40
0.2500000000000001
 40
0.2812500000000001
 40
0.2812500000000001
 40
0.3125000000000001
 40
0.3125000000000001
 40
0.34375
 40
0.34375
 40
0.3749999999999999
 40
0.3749999999999999
 40
0.40625
 40
0.40625
 40
0.4375
 40
0.4375
 40
0.5
 40
0.5
 40
0.515625
 40
0.515625
 40
0.5312499999999999
 40
0.5312499999999999
 40
0.5624999999999999
 40
0.5624999999999999
 40
0.5937499999999997
 40
0.5937499999999997
 40
0.6249999999999997
 40
0.6249999999999997
 40
0.6562499999999996
 40
0.6562499999999996
 40
0.6874999999999996
 40
0.6874999999999996
 40
0.7187499999999995
 40
0.7187499999999995
 40
0.7499999999999995
 40
0.7499999999999995
 40
0.7812499999999993
 40
0.7812499999999993
 40
0.7968749999999993
 40
0.7968749999999993
 40
0.8124999999999992
 40
0.8124999999999992
 40
0.8437499999999994
 40
0.8437499999999994
 40
0.8749999999999996
 40
0.8749999999999996
 40
0.9062499999999998
 40
0.9062499999999998
 40
0.921875
 40
0.921875
 40
0.9375
 40
0.9375
 40
1.0
 40
1.0
 40
1.0
 40
1.0
 10
333.8354892908828
 20
232.1092974998537
 30
0.0000000000000005
 10
333.4575913652079
 20
231.821052391686
 30
0.0000000000000006
 10
333.0583552753087
 20
231.557583650887
 30
0.0000000000000006
 10
332.2236693873419
 20
231.0877182014519
 30
0.0000000000000006
 10
331.7904699760839
 20
230.882241725747
 30
0.0000000000000006
 10
331.1136307023117
 20
230.6194145208138
 30
0.0000000000000006
 10
330.8834891035222
 20
230.5394085493899
 30
0.0000000000000006
 10
330.4133018478751
 20
230.3953328594726
 30
0.0000000000000006
 10
330.1719721767586
 20
230.3309904638736
 30
0.0000000000000006
 10
329.4416333951522
 20
230.1657929431531
 30
0.0000000000000007
 10
328.9491585952346
 20
230.092816944074
 30
0.0000000000000007
 10
328.2017902561347
 20
230.0395100538226
 30
0.0000000000000007
 10
327.951221698313
 20
230.0311374248631
 30
0.0000000000000007
 10
327.447108363267
 20
230.033714755351
 30
0.0000000000000007
 10
327.1946017347509
 20
230.0447789405662
 30
0.0000000000000007
 10
326.4496520214598
 20
230.1056424214185
 30
0.0000000000000007
 10
325.9642655716161
 20
230.1828932082062
 30
0.0000000000000007
 10
325.250990398752
 20
230.3502919279126
 30
0.0000000000000006
 10
325.0146844453411
 20
230.4150628572533
 30
0.0000000000000006
 10
324.5522922725068
 20
230.5599885937045
 30
0.0000000000000006
 10
324.3265412059845
 20
230.6399290560148
 30
0.0000000000000006
 10
323.663910333009
 20
230.9009215098704
 30
0.0000000000000006
 10
323.2415434792638
 20
231.1029976461504
 30
0.0000000000000006
 10
322.4297550605843
 20
231.5608952712137
 30
0.0000000000000006
 10
322.0381099249353
 20
231.8185565745153
 30
0.0000000000000006
 10
321.2973803517525
 20
232.3801741650459
 30
0.0000000000000005
 10
320.9489247472957
 20
232.683066738864
 30
0.0000000000000005
 10
320.2920677121729
 20
233.3335867804199
 30
0.0000000000000005
 10
319.9836866506375
 20
233.6812084443009
 30
0.0000000000000004
 10
319.4068001092528
 20
234.4249135348364
 30
0.0000000000000004
 10
319.1412010965869
 20
234.8178946235857
 30
0.0000000000000004
 10
318.6641294177971
 20
235.6332999417209
 30
0.0000000000000003
 10
318.4510667803697
 20
236.0577198241808
 30
0.0000000000000003
 10
318.0772829001653
 20
236.9424005031033
 30
0.0000000000000002
 10
317.9161531830905
 20
237.4040271739577
 30
0.0000000000000002
 10
317.5214892316726
 20
238.8410308250241
 30
0.0000000000000001
 10
317.3869598988677
 20
239.821859071475
 30
0.0000000000000001
 10
317.3837080500671
 20
241.0777651377284
 30
0.0
 10
317.3915765395504
 20
241.3315890001904
 30
0.0
 10
317.4240482414607
 20
241.8332819892094
 30
-0.0000000000000001
 10
317.4485716714408
 20
242.0818858010243
 30
-0.0000000000000001
 10
317.5462215051521
 20
242.8212046951958
 30
-0.0000000000000001
 10
317.6433131913072
 20
243.3054526444394
 30
-0.0000000000000002
 10
317.9002589384909
 20
244.2572668793218
 30
-0.0000000000000002
 10
318.0614538976224
 20
244.7268397439548
 30
-0.0000000000000002
 10
318.4355807002285
 20
245.6214264712835
 30
-0.0000000000000003
 10
318.6491769506829
 20
246.0500809764271
 30
-0.0000000000000003
 10
319.1277047045878
 20
246.8728385530558
 30
-0.0000000000000004
 10
319.3945591137163
 20
247.2691416094094
 30
-0.0000000000000004
 10
319.9689024185645
 20
248.012705377063
 30
-0.0000000000000004
 10
320.2765458153444
 20
248.3611073966021
 30
-0.0000000000000005
 10
320.9333870176342
 20
249.0142984525155
 30
-0.0000000000000005
 10
321.2828946205555
 20
249.3193430344691
 30
-0.0000000000000005
 10
322.0263597173034
 20
249.8848844527456
 30
-0.0000000000000006
 10
322.4135368367424
 20
250.1402937742023
 30
-0.0000000000000006
 10
323.2215709271259
 20
250.598233985038
 30
-0.0000000000000006
 10
323.6423935218482
 20
250.8007884075851
 30
-0.0000000000000006
 10
324.3034319939325
 20
251.06299148994
 30
-0.0000000000000006
 10
324.5287741275388
 20
251.1434179843636
 30
-0.0000000000000006
 10
324.9906532543246
 20
251.289445221737
 30
-0.0000000000000006
 10
325.2275334271835
 20
251.3550159402003
 30
-0.0000000000000006
 10
325.9418357771938
 20
251.524453718579
 30
-0.0000000000000007
 10
326.4274277625955
 20
251.6028079872413
 30
-0.0000000000000007
 10
327.4198750733631
 20
251.6861904604811
 30
-0.0000000000000007
 10
327.9314551030984
 20
251.6901865977998
 30
-0.0000000000000007
 10
328.9309301761678
 20
251.6209116011305
 30
-0.0000000000000007
 10
329.4235518639907
 20
251.5487105745633
 30
-0.0000000000000007
 10
330.1523449248052
 20
251.3853746452223
 30
-0.0000000000000006
 10
330.3947064452223
 20
251.3213340322254
 30
-0.0000000000000006
 10
330.8684547345038
 20
251.1770798646394
 30
-0.0000000000000006
 10
331.1002637423225
 20
251.0968799231487
 30
-0.0000000000000006
 10
332.23619297822
 20
250.6574260354901
 30
-0.0000000000000006
 10
333.0775796529488
 20
250.1802464309076
 30
-0.0000000000000006
 10
333.8354892908828
 20
249.6021439044562
 30
-0.0000000000000005
  0
SPLINE
  5
B24
330
1F
100
AcDbEntity
  8
Hewi
100
AcDbSpline
210
0.0
220
0.0
230
1.0
 70
     8
 71
     3
 72
    12
 73
     8
 74
     0
 42
0.000000001
 43
0.0000000001
 40
0.0
 40
0.0
 40
0.0
 40
0.0
 40
0.2499999999999999
 40
0.2499999999999999
 40
0.4999999999999999
 40
0.4999999999999999
 40
1.0
 40
1.0
 40
1.0
 40
1.0
 10
337.7078376944992
 20
231.4720572081642
 30
0.0000000000000006
 10
337.7078376944992
 20
231.4321322841424
 30
0.0000000000000006
 10
337.684195458889
 20
231.397581359779
 30
0.0000000000000006
 10
337.5915152231464
 20
231.3387340780828
 30
0.0000000000000006
 10
337.5229743357631
 20
231.315563439588
 30
0.0000000000000006
 10
337.2616621008492
 20
231.2688322889444
 30
0.0000000000000006
 10
337.0137159107835
 20
231.2687108267273
 30
0.0000000000000006
 10
336.7427371911472
 20
231.3034538382708
 30
0.0000000000000006
  0
SPLINE
  5
B25
330
1F
100
AcDbEntity
  8
Hewi
100
AcDbSpline
210
0.0
220
0.0
230
1.0
 70
    24
 71
     3
 72
    10
 73
     6
 74
     0
 42
0.000000001
 43
0.0000000001
 40
0.0
 40
0.0
 40
0.0
 40
0.0
 40
0.5
 40
0.5
 40
1.0
 40
1.0
 40
1.0
 40
1.0
 10
337.3372520471457
 20
249.7564225772221
 30
-0.0000000000000005
 10
337.3372423868859
 20
249.7564199887784
 30
-0.0000000000000005
 10
337.2924231133656
 20
249.7444107006231
 30
-0.0000000000000005
 10
337.1283016761881
 20
249.7004344940724
 30
-0.0000000000000005
 10
337.0051256148727
 20
249.667429567904
 30
-0.0000000000000005
 10
336.8546969653689
 20
249.627122332764
 30
-0.0000000000000005
  0
SPLINE
  5
B26
330
1F
100
AcDbEntity
  8
Hewi
100
AcDbSpline
210
0.0
220
0.0
230
1.0
 70
    24
 71
     3
 72
    10
 73
     6
 74
     0
 42
0.000000001
 43
0.0000000001
 40
0.0
 40
0.0
 40
0.0
 40
0.0
 40
0.5001683574889027
 40
0.5001683574889027
 40
1.0
 40
1.0
 40
1.0
 40
1.0
 10
336.8546969653689
 20
232.0843190715459
 30
0.0000000000000005
 10
337.0055665870314
 20
232.0438936782666
 30
0.0000000000000005
 10
337.1285620109993
 20
232.0109371537401
 30
0.0000000000000005
 10
337.2926574394806
 20
231.9669679161889
 30
0.0000000000000005
 10
337.3371978504001
 20
231.9550333490624
 30
0.0000000000000005
 10
337.3372425985872
 20
231.9550213588227
 30
0.0000000000000005
  0
SPLINE
  5
B27
330
1F
100
AcDbEntity
  8
Hewi
100
AcDbSpline
210
0.0
220
0.0
230
1.0
 70
     8
 71
     3
 72
    14
 73
    10
 74
     0
 42
0.000000001
 43
0.0000000001
 40
0.0
 40
0.0
 40
0.0
 40
0.0
 40
0.25
 40
0.25
 40
0.5
 40
0.5
 40
0.75
 40
0.75
 40
1.0
 40
1.0
 40
1.0
 40
1.0
 10
336.7427371911472
 20
250.4079875660318
 30
-0.0000000000000006
 10
336.8782435258617
 20
250.4253612482135
 30
-0.0000000000000006
 10
337.0079748383141
 20
250.4340992334619
 30
-0.0000000000000006
 10
337.2446574229398
 20
250.4349166597167
 30
-0.0000000000000006
 10
337.3503563045524
 20
250.4268129834963
 30
-0.0000000000000006
 10
337.5229745500837
 20
250.3958120379029
 30
-0.0000000000000006
 10
337.591608213319
 20
250.3725193912469
 30
-0.0000000000000006
 10
337.6832070781384
 20
250.3146152516783
 30
-0.0000000000000006
 10
337.7078376944992
 20
250.2793090386622
 30
-0.0000000000000006
 10
337.7078376944992
 20
250.2393841961457
 30
-0.0000000000000006
  0
ENDSEC
  0
SECTION
  2
OBJECTS
  0
DICTIONARY
  5
C
330
0
100
AcDbDictionary
281
     1
  3
ACAD_CIP_PREVIOUS_PRODUCT_INFO
350
872
  3
ACAD_COLOR
350
6B
  3
ACAD_DETAILVIEWSTYLE
350
86D
  3
ACAD_GROUP
350
D
  3
ACAD_LAYOUT
350
1A
  3
ACAD_MATERIAL
350
6A
  3
ACAD_MLEADERSTYLE
350
869
  3
ACAD_MLINESTYLE
350
17
  3
ACAD_PLOTSETTINGS
350
19
  3
ACAD_PLOTSTYLENAME
350
E
  3
ACAD_SCALELIST
350
857
  3
ACAD_SECTIONVIEWSTYLE
350
86B
  3
ACAD_TABLESTYLE
350
7E
  3
ACAD_VISUALSTYLE
350
EF
  3
ACDB_RECOMPOSE_DATA
350
B4A
  3
AcDbVariableDictionary
350
5E
  3
AcDsDecomposeData
350
B50
  0
DICTIONARY
  5
141
330
2
100
AcDbDictionary
280
     1
281
     1
  3
ACAD_LAYERSTATES
360
142
  0
DICTIONARY
  5
8D9
330
10
100
AcDbDictionary
280
     1
281
     1
  3
ADSK_XREC_LAYER_RECONCILED
360
8DA
  0
DICTIONARY
  5
8DB
330
13E
100
AcDbDictionary
280
     1
281
     1
  3
ADSK_XREC_LAYER_RECONCILED
360
8DC
  0
DICTIONARY
  5
116
330
1F
100
AcDbDictionary
280
     1
281
     1
  3
ACAD_SORTENTS
360
117
  0
XRECORD
  5
872
102
{ACAD_REACTORS
330
C
102
}
330
C
100
AcDbXrecord
280
     1
300
ACDLT
300
2013
300
ACDLT_F_S
  0
DICTIONARY
  5
6B
102
{ACAD_REACTORS
330
C
102
}
330
C
100
AcDbDictionary
281
     1
  0
DICTIONARY
  5
86D
102
{ACAD_REACTORS
330
C
102
}
330
C
100
AcDbDictionary
281
     1
  3
Metric50
350
86E
  0
DICTIONARY
  5
D
102
{ACAD_REACTORS
330
C
102
}
330
C
100
AcDbDictionary
281
     1
  0
DICTIONARY
  5
1A
102
{ACAD_REACTORS
330
C
102
}
330
C
100
AcDbDictionary
281
     1
  3
Layout1
350
D3
  3
Layout2
350
D7
  3
Model
350
22
  0
DICTIONARY
  5
6A
102
{ACAD_REACTORS
330
C
102
}
330
C
100
AcDbDictionary
281
     1
  3
ByBlock
350
ED
  3
ByLayer
350
EC
  3
Global
350
EE
  0
DICTIONARY
  5
869
102
{ACAD_REACTORS
330
C
102
}
330
C
100
AcDbDictionary
281
     1
  3
Standard
350
86A
  0
DICTIONARY
  5
17
102
{ACAD_REACTORS
330
C
102
}
330
C
100
AcDbDictionary
281
     1
  3
Standard
350
18
  0
DICTIONARY
  5
19
102
{ACAD_REACTORS
330
C
102
}
330
C
100
AcDbDictionary
281
     1
  0
ACDBDICTIONARYWDFLT
  5
E
102
{ACAD_REACTORS
330
C
102
}
330
C
100
AcDbDictionary
281
     1
  3
Normal
350
F
100
AcDbDictionaryWithDefault
340
F
  0
DICTIONARY
  5
857
102
{ACAD_REACTORS
330
C
102
}
330
C
100
AcDbDictionary
281
     1
  3
A0
350
858
  3
A1
350
859
  3
A2
350
85A
  3
A3
350
85B
  3
A4
350
85C
  3
A5
350
85D
  3
A6
350
85E
  3
A7
350
85F
  3
A8
350
860
  3
A9
350
861
  3
B0
350
862
  3
B1
350
863
  3
B2
350
864
  3
B3
350
865
  3
B4
350
866
  3
B5
350
867
  3
B6
350
868
  0
DICTIONARY
  5
86B
102
{ACAD_REACTORS
330
C
102
}
330
C
100
AcDbDictionary
281
     1
  3
Metric50
350
86C
  0
DICTIONARY
  5
7E
102
{ACAD_REACTORS
330
C
102
}
330
C
100
AcDbDictionary
281
     1
  3
Standard
350
7F
  0
DICTIONARY
  5
EF
102
{ACAD_REACTORS
330
C
102
}
330
C
100
AcDbDictionary
281
     1
  3
2dWireframe
350
F5
  3
3D Hidden
350
F7
  3
3dWireframe
350
F6
  3
Basic
350
F4
  3
Brighten
350
FB
  3
ColorChange
350
FF
  3
Conceptual
350
F8
  3
Dim
350
FA
  3
EdgeColorOff
350
856
  3
Facepattern
350
FE
  3
Flat
350
F0
  3
FlatWithEdges
350
F1
  3
Gouraud
350
F2
  3
GouraudWithEdges
350
F3
  3
Hidden
350
84E
  3
JitterOff
350
854
  3
Linepattern
350
FD
  3
OverhangOff
350
855
  3
Realistic
350
F9
  3
Shaded
350
853
  3
Shaded with edges
350
852
  3
Shades of Gray
350
84F
  3
Sketchy
350
850
  3
Thicken
350
FC
  3
Wireframe
350
84D
  3
X-Ray
350
851
  0
XRECORD
  5
B4A
102
{ACAD_REACTORS
330
C
102
}
330
C
100
AcDbXrecord
280
     1
 90
        1
330
7F
  0
DICTIONARY
  5
5E
102
{ACAD_REACTORS
330
C
102
}
330
C
100
AcDbDictionary
281
     1
  3
CANNOSCALE
350
91A
  3
CMLEADERSTYLE
350
916
  3
CTABLESTYLE
350
84
  3
CVIEWDETAILSTYLE
350
917
  3
CVIEWSECTIONSTYLE
350
918
  3
DIMASSOC
350
5F
  3
HIDETEXT
350
63
  3
INDEXCTL
350
327
  3
LAYEREVAL
350
91C
  3
LAYERNOTIFY
350
91D
  3
LIGHTINGUNITS
350
91B
  3
MSLTSCALE
350
919
  3
SORTENTS
350
326
  0
DICTIONARY
  5
B50
102
{ACAD_REACTORS
330
C
102
}
330
C
100
AcDbDictionary
281
     1
  3
AcDsRecords
350
B52
  3
AcDsSchemas
350
B51
1001
ACAD
1070
     2
  0
DICTIONARY
  5
142
102
{ACAD_REACTORS
330
141
102
}
330
141
100
AcDbDictionary
281
     1
  0
XRECORD
  5
8DA
102
{ACAD_REACTORS
330
8D9
102
}
330
8D9
100
AcDbXrecord
280
     1
290
     1
  0
XRECORD
  5
8DC
102
{ACAD_REACTORS
330
8DB
102
}
330
8DB
100
AcDbXrecord
280
     1
290
     1
  0
SORTENTSTABLE
  5
117
102
{ACAD_REACTORS
330
116
102
}
330
116
100
AcDbSortentsTable
330
1F
  0
ACDBDETAILVIEWSTYLE
  5
86E
102
{ACAD_REACTORS
330
86D
102
}
330
86D
100
AcDbModelDocViewStyle
 70
     0
  3
Metric50
290
     0
100
AcDbDetailViewStyle
 70
     0
 71
     0
 90
        3
 71
     1
340
11
 62
   256
 40
5.0
340
0
 62
   256
 40
5.0
300

 40
0.0
280
     1
 71
     2
340
16
 90
       25
 62
   256
 71
     3
340
11
 62
   256
 40
5.0
 90
        0
 40
15.0
 90
        1
300
%<\AcVar ViewDetailId>% (%<\AcVar ViewScale \f "%sn">%)
 71
     4
340
16
 90
       25
 62
   256
340
16
 90
       25
 62
   256
280
     0
  0
LAYOUT
  5
D3
102
{ACAD_REACTORS
330
1A
102
}
330
1A
100
AcDbPlotSettings
  1

  2
C:\Documents and Settings\basas\Application Data\Autodesk\AutoCAD 2005\R16.1\enu\plotters\Default Windows System Printer.pc3
  4

  6

 40
0.0
 41
0.0
 42
0.0
 43
0.0
 44
0.0
 45
0.0
 46
0.0
 47
0.0
 48
0.0
 49
0.0
140
0.0
141
0.0
142
1.0
143
1.0
 70
   688
 72
     0
 73
     0
 74
     5
  7

 75
    16
147
1.0
 76
     0
 77
     2
 78
   300
148
0.0
149
0.0
100
AcDbLayout
  1
Layout1
 70
     1
 71
     1
 10
0.0
 20
0.0
 11
12.0
 21
9.0
 12
0.0
 22
0.0
 32
0.0
 14
0.0
 24
0.0
 34
0.0
 15
0.0
 25
0.0
 35
0.0
146
0.0
 13
0.0
 23
0.0
 33
0.0
 16
1.0
 26
0.0
 36
0.0
 17
0.0
 27
1.0
 37
0.0
 76
     0
330
D2
  0
LAYOUT
  5
D7
102
{ACAD_REACTORS
330
1A
102
}
330
1A
100
AcDbPlotSettings
  1

  2
C:\Documents and Settings\basas\Application Data\Autodesk\AutoCAD 2005\R16.1\enu\plotters\Default Windows System Printer.pc3
  4

  6

 40
0.0
 41
0.0
 42
0.0
 43
0.0
 44
0.0
 45
0.0
 46
0.0
 47
0.0
 48
0.0
 49
0.0
140
0.0
141
0.0
142
1.0
143
1.0
 70
   688
 72
     0
 73
     0
 74
     5
  7

 75
    16
147
1.0
 76
     0
 77
     2
 78
   300
148
0.0
149
0.0
100
AcDbLayout
  1
Layout2
 70
     1
 71
     2
 10
0.0
 20
0.0
 11
12.0
 21
9.0
 12
0.0
 22
0.0
 32
0.0
 14
0.0
 24
0.0
 34
0.0
 15
0.0
 25
0.0
 35
0.0
146
0.0
 13
0.0
 23
0.0
 33
0.0
 16
1.0
 26
0.0
 36
0.0
 17
0.0
 27
1.0
 37
0.0
 76
     0
330
D6
  0
LAYOUT
  5
22
102
{ACAD_REACTORS
330
1A
102
}
330
1A
100
AcDbPlotSettings
  1

  2
none_device
  4
ISO_A4_(210.00_x_297.00_MM)
  6

 40
7.5
 41
20.0
 42
7.5
 43
20.0
 44
210.0
 45
297.0
 46
11.54999923706054
 47
-13.65000009536743
 48
0.0
 49
0.0
140
0.0
141
0.0
142
1.0
143
8.704084754739808
 70
 11952
 72
     1
 73
     0
 74
     0
  7

 75
     0
147
0.1148885871608098
 76
     0
 77
     2
 78
   300
148
0.0
149
0.0
100
AcDbLayout
  1
Model
 70
     1
 71
     0
 10
0.0
 20
0.0
 11
12.0
 21
9.0
 12
0.0
 22
0.0
 32
0.0
 14
0.0
 24
0.0
 34
0.0
 15
0.0
 25
0.0
 35
0.0
146
0.0
 13
0.0
 23
0.0
 33
0.0
 16
1.0
 26
0.0
 36
0.0
 17
0.0
 27
1.0
 37
0.0
 76
     0
330
1F
331
EA
1001
ACAD_PSEXT
1000
None
1000
None
1000
Not applicable
1000
The layout will not be plotted unless a new plotter configuration name is selected.
1070
     0
  0
MATERIAL
  5
ED
102
{ACAD_XDICTIONARY
360
335
102
}
102
{ACAD_REACTORS
330
6A
102
}
330
6A
100
AcDbMaterial
  1
ByBlock
  0
MATERIAL
  5
EC
102
{ACAD_XDICTIONARY
360
333
102
}
102
{ACAD_REACTORS
330
6A
102
}
330
6A
100
AcDbMaterial
  1
ByLayer
  0
MATERIAL
  5
EE
102
{ACAD_XDICTIONARY
360
337
102
}
102
{ACAD_REACTORS
330
6A
102
}
330
6A
100
AcDbMaterial
  1
Global
  0
MLEADERSTYLE
  5
86A
102
{ACAD_REACTORS
330
869
102
}
330
869
100
AcDbMLeaderStyle
179
     2
170
     2
171
     1
172
     0
 90
        2
 40
0.0
 41
0.0
173
     1
 91
-1056964608
340
14
 92
       -2
290
     1
 42
2.0
291
     1
 43
0.36
  3
Standard
 44
4.0
300

342
11
174
     1
178
     6
175
     1
176
     0
 93
-1056964608
 45
4.0
292
     0
297
     0
 46
4.0
 94
-1056964608
 47
1.0
 49
1.0
140
1.0
293
     1
141
0.0
294
     1
177
     0
142
1.0
295
     0
296
     0
143
0.125
271
     0
272
     9
273
     9
  0
MLINESTYLE
  5
18
102
{ACAD_REACTORS
330
17
102
}
330
17
100
AcDbMlineStyle
  2
STANDARD
 70
     0
  3

 62
   256
 51
90.0
 52
90.0
 71
     2
 49
0.5
 62
   256
  6
BYLAYER
 49
-0.5
 62
   256
  6
BYLAYER
  0
ACDBPLACEHOLDER
  5
F
102
{ACAD_REACTORS
330
E
102
}
330
E
  0
SCALE
  5
858
102
{ACAD_REACTORS
330
857
102
}
330
857
100
AcDbScale
 70
     0
300
1:1
140
1.0
141
1.0
290
     1
  0
SCALE
  5
859
102
{ACAD_REACTORS
330
857
102
}
330
857
100
AcDbScale
 70
     0
300
1:2
140
1.0
141
2.0
290
     0
  0
SCALE
  5
85A
102
{ACAD_REACTORS
330
857
102
}
330
857
100
AcDbScale
 70
     0
300
1:4
140
1.0
141
4.0
290
     0
  0
SCALE
  5
85B
102
{ACAD_REACTORS
330
857
102
}
330
857
100
AcDbScale
 70
     0
300
1:5
140
1.0
141
5.0
290
     0
  0
SCALE
  5
85C
102
{ACAD_REACTORS
330
857
102
}
330
857
100
AcDbScale
 70
     0
300
1:8
140
1.0
141
8.0
290
     0
  0
SCALE
  5
85D
102
{ACAD_REACTORS
330
857
102
}
330
857
100
AcDbScale
 70
     0
300
1:10
140
1.0
141
10.0
290
     0
  0
SCALE
  5
85E
102
{ACAD_REACTORS
330
857
102
}
330
857
100
AcDbScale
 70
     0
300
1:16
140
1.0
141
16.0
290
     0
  0
SCALE
  5
85F
102
{ACAD_REACTORS
330
857
102
}
330
857
100
AcDbScale
 70
     0
300
1:20
140
1.0
141
20.0
290
     0
  0
SCALE
  5
860
102
{ACAD_REACTORS
330
857
102
}
330
857
100
AcDbScale
 70
     0
300
1:30
140
1.0
141
30.0
290
     0
  0
SCALE
  5
861
102
{ACAD_REACTORS
330
857
102
}
330
857
100
AcDbScale
 70
     0
300
1:40
140
1.0
141
40.0
290
     0
  0
SCALE
  5
862
102
{ACAD_REACTORS
330
857
102
}
330
857
100
AcDbScale
 70
     0
300
1:50
140
1.0
141
50.0
290
     0
  0
SCALE
  5
863
102
{ACAD_REACTORS
330
857
102
}
330
857
100
AcDbScale
 70
     0
300
1:100
140
1.0
141
100.0
290
     0
  0
SCALE
  5
864
102
{ACAD_REACTORS
330
857
102
}
330
857
100
AcDbScale
 70
     0
300
2:1
140
2.0
141
1.0
290
     0
  0
SCALE
  5
865
102
{ACAD_REACTORS
330
857
102
}
330
857
100
AcDbScale
 70
     0
300
4:1
140
4.0
141
1.0
290
     0
  0
SCALE
  5
866
102
{ACAD_REACTORS
330
857
102
}
330
857
100
AcDbScale
 70
     0
300
8:1
140
8.0
141
1.0
290
     0
  0
SCALE
  5
867
102
{ACAD_REACTORS
330
857
102
}
330
857
100
AcDbScale
 70
     0
300
10:1
140
10.0
141
1.0
290
     0
  0
SCALE
  5
868
102
{ACAD_REACTORS
330
857
102
}
330
857
100
AcDbScale
 70
     0
300
100:1
140
100.0
141
1.0
290
     0
  0
ACDBSECTIONVIEWSTYLE
  5
86C
102
{ACAD_REACTORS
330
86B
102
}
330
86B
100
AcDbModelDocViewStyle
 70
     0
  3
Metric50
290
     0
100
AcDbSectionViewStyle
 70
     0
 71
     0
 90
      102
 71
     1
340
11
 62
   256
 40
5.0
340
0
340
0
 62
   256
 40
5.0
300
I, O, Q, S, X, Z
 40
10.0
 90
        0
 40
2.5
 90
        0
 71
     2
340
16
 90
       25
 62
   256
340
16
 90
       50
 62
   256
 40
5.0
 40
2.5
 40
5.0
 71
     3
340
11
 62
   256
 40
5.0
 90
        0
 40
15.0
 90
        1
300
%<\AcVar ViewSectionStartId>%-%<\AcVar ViewSectionEndId>% (%<\AcVar ViewScale \f "%sn">%)
 71
     4
 62
   256
 62
   257
300
ANSI31
 40
1.0
 90
        0
290
     0
290
     0
 90
        6
 40
0.0
 40
1.570796326794896
 40
0.2617993877991494
 40
1.308996938995747
 40
-0.2617993877991494
 40
1.832595714594046
  0
TABLESTYLE
  5
7F
102
{ACAD_XDICTIONARY
360
B48
102
}
102
{ACAD_REACTORS
330
7E
102
}
330
7E
100
AcDbTableStyle
280
     0
  3
Standard
 70
     0
 71
     0
 40
1.5
 41
1.5
280
     0
281
     0
  7
Standard
140
4.5
170
     2
 62
     0
 63
     7
283
     0
 90
      512
 91
        0
  1

274
    -2
284
     1
 64
     0
275
    -2
285
     1
 65
     0
276
    -2
286
     1
 66
     0
277
    -2
287
     1
 67
     0
278
    -2
288
     1
 68
     0
279
    -2
289
     1
 69
     0
  7
Standard
140
6.0
170
     5
 62
     0
 63
     7
283
     0
 90
      512
 91
        0
  1

274
    -2
284
     1
 64
     0
275
    -2
285
     1
 65
     0
276
    -2
286
     1
 66
     0
277
    -2
287
     1
 67
     0
278
    -2
288
     1
 68
     0
279
    -2
289
     1
 69
     0
  7
Standard
140
4.5
170
     5
 62
     0
 63
     7
283
     0
 90
      512
 91
        0
  1

274
    -2
284
     1
 64
     0
275
    -2
285
     1
 65
     0
276
    -2
286
     1
 66
     0
277
    -2
287
     1
 67
     0
278
    -2
288
     1
 68
     0
279
    -2
289
     1
 69
     0
  0
VISUALSTYLE
  5
F5
102
{ACAD_XDICTIONARY
360
B5D
102
}
102
{ACAD_REACTORS
330
EF
102
}
330
EF
100
AcDbVisualStyle
  2

 70
     4
177
     2
291
     0
 71
     0
176
     1
 72
     2
176
     1
 73
     1
176
     1
 90
        0
176
     1
 40
0.6
176
     1
 41
30.0
176
     1
 63
     7
176
     1
 74
     1
176
     1
 91
        4
176
     1
 64
     7
176
     1
 65
   257
176
     1
 75
     1
176
     1
175
     1
176
     1
 42
1.0
176
     1
 92
        0
176
     1
 66
   257
176
     1
 43
1.0
176
     1
 76
     1
176
     1
 77
     6
176
     1
 78
     2
176
     1
 67
     7
176
     1
 79
     5
176
     1
170
     0
176
     1
171
     0
176
     1
290
     0
176
     1
 93
        1
176
     1
 44
0.0
176
     1
173
     0
176
     1
1001
ACAD
1000
AcDbSavedByObjectVersion
1070
     0
  0
VISUALSTYLE
  5
F7
102
{ACAD_XDICTIONARY
360
B61
102
}
102
{ACAD_REACTORS
330
EF
102
}
330
EF
100
AcDbVisualStyle
  2

 70
     6
177
     2
291
     0
 71
     1
176
     1
 72
     2
176
     1
 73
     2
176
     1
 90
        0
176
     1
 40
0.6
176
     1
 41
30.0
176
     1
 63
     7
176
     1
 74
     2
176
     1
 91
        2
176
     1
 64
     7
176
     1
 65
   257
176
     1
 75
     2
176
     1
175
     1
176
     1
 42
40.0
176
     1
 92
        0
176
     1
 66
   257
176
     1
 43
1.0
176
     1
 76
     1
176
     1
 77
     6
176
     1
 78
     2
176
     1
 67
     7
176
     1
 79
     3
176
     1
170
     0
176
     1
171
     0
176
     1
290
     0
176
     1
 93
        1
176
     1
 44
0.0
176
     1
173
     0
176
     1
1001
ACAD
1000
AcDbSavedByObjectVersion
1070
     0
  0
VISUALSTYLE
  5
F6
102
{ACAD_XDICTIONARY
360
B5F
102
}
102
{ACAD_REACTORS
330
EF
102
}
330
EF
100
AcDbVisualStyle
  2

 70
     5
177
     2
291
     0
 71
     0
176
     1
 72
     2
176
     1
 73
     1
176
     1
 90
        0
176
     1
 40
0.6
176
     1
 41
30.0
176
     1
 63
     7
176
     1
 74
     1
176
     1
 91
        4
176
     1
 64
     7
176
     1
 65
   257
176
     1
 75
     1
176
     1
175
     1
176
     1
 42
1.0
176
     1
 92
        0
176
     1
 66
   257
176
     1
 43
1.0
176
     1
 76
     1
176
     1
 77
     6
176
     1
 78
     2
176
     1
 67
     7
176
     1
 79
     5
176
     1
170
     0
176
     1
171
     0
176
     1
290
     0
176
     1
 93
        1
176
     1
 44
0.0
176
     1
173
     0
176
     1
1001
ACAD
1000
AcDbSavedByObjectVersion
1070
     0
  0
VISUALSTYLE
  5
F4
102
{ACAD_XDICTIONARY
360
B5B
102
}
102
{ACAD_REACTORS
330
EF
102
}
330
EF
100
AcDbVisualStyle
  2

 70
     7
177
     2
291
     1
 71
     1
176
     1
 72
     0
176
     1
 73
     1
176
     1
 90
        0
176
     1
 40
0.6
176
     1
 41
30.0
176
     1
 63
     7
176
     1
 74
     0
176
     1
 91
        4
176
     1
 64
     7
176
     1
 65
   257
176
     1
 75
     1
176
     1
175
     1
176
     1
 42
1.0
176
     1
 92
        8
176
     1
 66
     7
176
     1
 43
1.0
176
     1
 76
     1
176
     1
 77
     6
176
     1
 78
     2
176
     1
 67
     7
176
     1
 79
     5
176
     1
170
     0
176
     1
171
     0
176
     1
290
     0
176
     1
 93
        1
176
     1
 44
0.0
176
     1
173
     0
176
     1
1001
ACAD
1000
AcDbSavedByObjectVersion
1070
     0
  0
VISUALSTYLE
  5
FB
102
{ACAD_XDICTIONARY
360
B69
102
}
102
{ACAD_REACTORS
330
EF
102
}
330
EF
100
AcDbVisualStyle
  2

 70
    12
177
     2
291
     1
 71
     2
176
     1
 72
     2
176
     1
 73
     1
176
     1
 90
        0
176
     1
 40
0.6
176
     1
 41
30.0
176
     1
 63
     7
176
     1
 74
     1
176
     1
 91
        4
176
     1
 64
     7
176
     1
 65
   257
176
     1
 75
     1
176
     1
175
     1
176
     1
 42
1.0
176
     1
 92
        8
176
     1
 66
     7
176
     1
 43
1.0
176
     1
 76
     1
176
     1
 77
     6
176
     1
 78
     2
176
     1
 67
     7
176
     1
 79
     5
176
     1
170
     0
176
     1
171
     0
176
     1
290
     0
176
     1
 93
        1
176
     1
 44
50.0
176
     1
173
     0
176
     1
1001
ACAD
1000
AcDbSavedByObjectVersion
1070
     0
  0
VISUALSTYLE
  5
FF
102
{ACAD_XDICTIONARY
360
B71
102
}
102
{ACAD_REACTORS
330
EF
102
}
330
EF
100
AcDbVisualStyle
  2

 70
    16
177
     2
291
     1
 71
     2
176
     1
 72
     2
176
     1
 73
     3
176
     1
 90
        0
176
     1
 40
0.6
176
     1
 41
30.0
176
     1
 63
     8
176
     1
 74
     1
176
     1
 91
        4
176
     1
 64
     7
176
     1
 65
   257
176
     1
 75
     1
176
     1
175
     1
176
     1
 42
1.0
176
     1
 92
        8
176
     1
 66
     8
176
     1
 43
1.0
176
     1
 76
     1
176
     1
 77
     6
176
     1
 78
     2
176
     1
 67
     7
176
     1
 79
     5
176
     1
170
     0
176
     1
171
     0
176
     1
290
     0
176
     1
 93
        1
176
     1
 44
0.0
176
     1
173
     0
176
     1
1001
ACAD
1000
AcDbSavedByObjectVersion
1070
     0
  0
VISUALSTYLE
  5
F8
102
{ACAD_XDICTIONARY
360
B63
102
}
102
{ACAD_REACTORS
330
EF
102
}
330
EF
100
AcDbVisualStyle
  2

 70
     9
177
     2
291
     0
 71
     3
176
     1
 72
     2
176
     1
 73
     1
176
     1
 90
        0
176
     1
 40
0.6
176
     1
 41
30.0
176
     1
 63
     7
176
     1
 74
     2
176
     1
 91
        2
176
     1
 64
     7
176
     1
 65
   257
176
     1
 75
     1
176
     1
175
     1
176
     1
 42
40.0
176
     1
 92
        8
176
     1
 66
     7
176
     1
 43
1.0
176
     1
 76
     1
176
     1
 77
     6
176
     1
 78
     2
176
     1
 67
     7
176
     1
 79
     3
176
     1
170
     0
176
     1
171
     0
176
     1
290
     0
176
     1
 93
        1
176
     1
 44
0.0
176
     1
173
     0
176
     1
1001
ACAD
1000
AcDbSavedByObjectVersion
1070
     0
  0
VISUALSTYLE
  5
FA
102
{ACAD_XDICTIONARY
360
B67
102
}
102
{ACAD_REACTORS
330
EF
102
}
330
EF
100
AcDbVisualStyle
  2

 70
    11
177
     2
291
     1
 71
     2
176
     1
 72
     2
176
     1
 73
     1
176
     1
 90
        0
176
     1
 40
0.6
176
     1
 41
30.0
176
     1
 63
     7
176
     1
 74
     1
176
     1
 91
        4
176
     1
 64
     7
176
     1
 65
   257
176
     1
 75
     1
176
     1
175
     1
176
     1
 42
1.0
176
     1
 92
        8
176
     1
 66
     7
176
     1
 43
1.0
176
     1
 76
     1
176
     1
 77
     6
176
     1
 78
     2
176
     1
 67
     7
176
     1
 79
     5
176
     1
170
     0
176
     1
171
     0
176
     1
290
     0
176
     1
 93
        1
176
     1
 44
-50.0
176
     1
173
     0
176
     1
1001
ACAD
1000
AcDbSavedByObjectVersion
1070
     0
  0
VISUALSTYLE
  5
856
102
{ACAD_XDICTIONARY
360
B85
102
}
102
{ACAD_REACTORS
330
EF
102
}
330
EF
100
AcDbVisualStyle
  2
EdgeColorOff
 70
    22
177
     2
291
     1
 71
     2
176
     0
 72
     2
176
     0
 73
     0
176
     0
 90
        0
176
     0
 40
0.6
176
     0
 41
30.0
176
     0
 63
     7
421
 16777215
176
     0
 74
     1
176
     0
 91
        4
176
     0
 64
     7
176
     0
 65
   257
176
     0
 75
     1
176
     0
175
     1
176
     0
 42
1.0
176
     0
 92
        8
176
     2
 66
     7
176
     0
 43
1.0
176
     0
 76
     1
176
     0
 77
     6
176
     0
 78
     2
176
     0
 67
     7
176
     0
 79
     5
176
     0
170
     0
176
     0
171
     0
176
     0
290
     0
176
     0
 93
        1
176
     0
 44
0.0
176
     0
173
     0
176
     0
1001
ACAD
1000
AcDbSavedByObjectVersion
1070
     0
  0
VISUALSTYLE
  5
FE
102
{ACAD_XDICTIONARY
360
B6F
102
}
102
{ACAD_REACTORS
330
EF
102
}
330
EF
100
AcDbVisualStyle
  2

 70
    15
177
     2
291
     1
 71
     2
176
     1
 72
     2
176
     1
 73
     1
176
     1
 90
        0
176
     1
 40
0.6
176
     1
 41
30.0
176
     1
 63
     7
176
     1
 74
     1
176
     1
 91
        4
176
     1
 64
     7
176
     1
 65
   257
176
     1
 75
     1
176
     1
175
     1
176
     1
 42
1.0
176
     1
 92
        8
176
     1
 66
     7
176
     1
 43
1.0
176
     1
 76
     1
176
     1
 77
     6
176
     1
 78
     2
176
     1
 67
     7
176
     1
 79
     5
176
     1
170
     0
176
     1
171
     0
176
     1
290
     0
176
     1
 93
        1
176
     1
 44
0.0
176
     1
173
     0
176
     1
1001
ACAD
1000
AcDbSavedByObjectVersion
1070
     0
  0
VISUALSTYLE
  5
F0
102
{ACAD_XDICTIONARY
360
B53
102
}
102
{ACAD_REACTORS
330
EF
102
}
330
EF
100
AcDbVisualStyle
  2

 70
     0
177
     2
291
     1
 71
     2
176
     1
 72
     1
176
     1
 73
     1
176
     1
 90
        2
176
     1
 40
0.6
176
     1
 41
30.0
176
     1
 63
     7
176
     1
 74
     0
176
     1
 91
        4
176
     1
 64
     7
176
     1
 65
   257
176
     1
 75
     1
176
     1
175
     1
176
     1
 42
1.0
176
     1
 92
        8
176
     1
 66
     7
176
     1
 43
1.0
176
     1
 76
     1
176
     1
 77
     6
176
     1
 78
     2
176
     1
 67
     7
176
     1
 79
     5
176
     1
170
     0
176
     1
171
     0
176
     1
290
     0
176
     1
 93
       13
176
     1
 44
0.0
176
     1
173
     0
176
     1
1001
ACAD
1000
AcDbSavedByObjectVersion
1070
     0
  0
VISUALSTYLE
  5
F1
102
{ACAD_XDICTIONARY
360
B55
102
}
102
{ACAD_REACTORS
330
EF
102
}
330
EF
100
AcDbVisualStyle
  2

 70
     1
177
     2
291
     1
 71
     2
176
     1
 72
     1
176
     1
 73
     1
176
     1
 90
        2
176
     1
 40
0.6
176
     1
 41
30.0
176
     1
 63
     7
176
     1
 74
     1
176
     1
 91
        4
176
     1
 64
     7
176
     1
 65
   257
176
     1
 75
     1
176
     1
175
     1
176
     1
 42
1.0
176
     1
 92
        0
176
     1
 66
   257
176
     1
 43
1.0
176
     1
 76
     1
176
     1
 77
     6
176
     1
 78
     2
176
     1
 67
     7
176
     1
 79
     5
176
     1
170
     0
176
     1
171
     0
176
     1
290
     0
176
     1
 93
       13
176
     1
 44
0.0
176
     1
173
     0
176
     1
1001
ACAD
1000
AcDbSavedByObjectVersion
1070
     0
  0
VISUALSTYLE
  5
F2
102
{ACAD_XDICTIONARY
360
B57
102
}
102
{ACAD_REACTORS
330
EF
102
}
330
EF
100
AcDbVisualStyle
  2

 70
     2
177
     2
291
     1
 71
     2
176
     1
 72
     2
176
     1
 73
     1
176
     1
 90
        2
176
     1
 40
0.6
176
     1
 41
30.0
176
     1
 63
     7
176
     1
 74
     0
176
     1
 91
        4
176
     1
 64
     7
176
     1
 65
   257
176
     1
 75
     1
176
     1
175
     1
176
     1
 42
1.0
176
     1
 92
        0
176
     1
 66
     7
176
     1
 43
1.0
176
     1
 76
     1
176
     1
 77
     6
176
     1
 78
     2
176
     1
 67
     7
176
     1
 79
     5
176
     1
170
     0
176
     1
171
     0
176
     1
290
     0
176
     1
 93
       13
176
     1
 44
0.0
176
     1
173
     0
176
     1
1001
ACAD
1000
AcDbSavedByObjectVersion
1070
     0
  0
VISUALSTYLE
  5
F3
102
{ACAD_XDICTIONARY
360
B59
102
}
102
{ACAD_REACTORS
330
EF
102
}
330
EF
100
AcDbVisualStyle
  2

 70
     3
177
     2
291
     1
 71
     2
176
     1
 72
     2
176
     1
 73
     1
176
     1
 90
        2
176
     1
 40
0.6
176
     1
 41
30.0
176
     1
 63
     7
176
     1
 74
     1
176
     1
 91
        4
176
     1
 64
     7
176
     1
 65
   257
176
     1
 75
     1
176
     1
175
     1
176
     1
 42
1.0
176
     1
 92
        0
176
     1
 66
   257
176
     1
 43
1.0
176
     1
 76
     1
176
     1
 77
     6
176
     1
 78
     2
176
     1
 67
     7
176
     1
 79
     5
176
     1
170
     0
176
     1
171
     0
176
     1
290
     0
176
     1
 93
       13
176
     1
 44
0.0
176
     1
173
     0
176
     1
1001
ACAD
1000
AcDbSavedByObjectVersion
1070
     0
  0
VISUALSTYLE
  5
84E
102
{ACAD_XDICTIONARY
360
B75
102
}
102
{ACAD_REACTORS
330
EF
102
}
330
EF
100
AcDbVisualStyle
  2
Hidden
 70
     6
177
     2
291
     0
 71
     1
176
     1
 72
     2
176
     1
 73
     2
176
     1
 90
        0
176
     1
 40
0.6
176
     1
 41
30.0
176
     1
 63
     7
421
 16777215
176
     1
 74
     2
176
     1
 91
        2
176
     1
 64
     7
176
     1
 65
   257
176
     1
 75
     2
176
     1
175
     1
176
     1
 42
40.0
176
     1
 92
        0
176
     1
 66
   257
176
     1
 43
1.0
176
     1
 76
     1
176
     1
 77
     6
176
     1
 78
     2
176
     1
 67
     7
176
     1
 79
     3
176
     1
170
     0
176
     1
171
     0
176
     1
290
     0
176
     1
 93
        1
176
     1
 44
0.0
176
     1
173
     0
176
     1
1001
ACAD
1000
AcDbSavedByObjectVersion
1070
     0
  0
VISUALSTYLE
  5
854
102
{ACAD_XDICTIONARY
360
B81
102
}
102
{ACAD_REACTORS
330
EF
102
}
330
EF
100
AcDbVisualStyle
  2
JitterOff
 70
    20
177
     2
291
     1
 71
     2
176
     0
 72
     2
176
     0
 73
     0
176
     0
 90
        0
176
     0
 40
0.6
176
     0
 41
30.0
176
     0
 63
     7
421
 16777215
176
     0
 74
     1
176
     0
 91
        4
176
     0
 64
     7
176
     0
 65
   257
176
     0
 75
     1
176
     0
175
     1
176
     0
 42
1.0
176
     0
 92
       10
176
     2
 66
     7
176
     0
 43
1.0
176
     0
 76
     1
176
     0
 77
     6
176
     0
 78
     2
176
     0
 67
     7
176
     0
 79
     5
176
     0
170
     0
176
     0
171
     0
176
     0
290
     0
176
     0
 93
        1
176
     0
 44
0.0
176
     0
173
     0
176
     0
1001
ACAD
1000
AcDbSavedByObjectVersion
1070
     0
  0
VISUALSTYLE
  5
FD
102
{ACAD_XDICTIONARY
360
B6D
102
}
102
{ACAD_REACTORS
330
EF
102
}
330
EF
100
AcDbVisualStyle
  2

 70
    14
177
     2
291
     1
 71
     2
176
     1
 72
     2
176
     1
 73
     1
176
     1
 90
        0
176
     1
 40
0.6
176
     1
 41
30.0
176
     1
 63
     7
176
     1
 74
     1
176
     1
 91
        4
176
     1
 64
     7
176
     1
 65
   257
176
     1
 75
     7
176
     1
175
     7
176
     1
 42
1.0
176
     1
 92
        8
176
     1
 66
     7
176
     1
 43
1.0
176
     1
 76
     1
176
     1
 77
     6
176
     1
 78
     2
176
     1
 67
     7
176
     1
 79
     5
176
     1
170
     0
176
     1
171
     0
176
     1
290
     0
176
     1
 93
        1
176
     1
 44
0.0
176
     1
173
     0
176
     1
1001
ACAD
1000
AcDbSavedByObjectVersion
1070
     0
  0
VISUALSTYLE
  5
855
102
{ACAD_XDICTIONARY
360
B83
102
}
102
{ACAD_REACTORS
330
EF
102
}
330
EF
100
AcDbVisualStyle
  2
OverhangOff
 70
    21
177
     2
291
     1
 71
     2
176
     0
 72
     2
176
     0
 73
     0
176
     0
 90
        0
176
     0
 40
0.6
176
     0
 41
30.0
176
     0
 63
     7
421
 16777215
176
     0
 74
     1
176
     0
 91
        4
176
     0
 64
     7
176
     0
 65
   257
176
     0
 75
     1
176
     0
175
     1
176
     0
 42
1.0
176
     0
 92
        9
176
     2
 66
     7
176
     0
 43
1.0
176
     0
 76
     1
176
     0
 77
     6
176
     0
 78
     2
176
     0
 67
     7
176
     0
 79
     5
176
     0
170
     0
176
     0
171
     0
176
     0
290
     0
176
     0
 93
        1
176
     0
 44
0.0
176
     0
173
     0
176
     0
1001
ACAD
1000
AcDbSavedByObjectVersion
1070
     0
  0
VISUALSTYLE
  5
F9
102
{ACAD_XDICTIONARY
360
B65
102
}
102
{ACAD_REACTORS
330
EF
102
}
330
EF
100
AcDbVisualStyle
  2

 70
     8
177
     2
291
     0
 71
     2
176
     1
 72
     2
176
     1
 73
     1
176
     1
 90
        0
176
     1
 40
0.6
176
     1
 41
30.0
176
     1
 63
     7
176
     1
 74
     1
176
     1
 91
        0
176
     1
 64
     7
176
     1
 65
   257
176
     1
 75
     1
176
     1
175
     1
176
     1
 42
1.0
176
     1
 92
        8
176
     1
 66
     8
176
     1
 43
1.0
176
     1
 76
     1
176
     1
 77
     6
176
     1
 78
     2
176
     1
 67
     7
176
     1
 79
     5
176
     1
170
     0
176
     1
171
     0
176
     1
290
     0
176
     1
 93
       13
176
     1
 44
0.0
176
     1
173
     0
176
     1
1001
ACAD
1000
AcDbSavedByObjectVersion
1070
     0
  0
VISUALSTYLE
  5
853
102
{ACAD_XDICTIONARY
360
B7F
102
}
102
{ACAD_REACTORS
330
EF
102
}
330
EF
100
AcDbVisualStyle
  2
Shaded
 70
    27
177
     2
291
     0
 71
     2
176
     1
 72
     2
176
     1
 73
     1
176
     1
 90
        2
176
     1
 40
0.6
176
     1
 41
30.0
176
     1
 63
     7
421
 16777215
176
     1
 74
     0
176
     1
 91
        4
176
     1
 64
     7
176
     1
 65
   257
176
     1
 75
     1
176
     1
175
     1
176
     1
 42
1.0
176
     1
 92
        8
176
     1
 66
   257
176
     1
 43
1.0
176
     1
 76
     1
176
     1
 77
     6
176
     1
 78
     2
176
     1
 67
     8
425
  7895160
176
     1
 79
     3
176
     1
170
     0
176
     1
171
     0
176
     1
290
     0
176
     1
 93
        5
176
     1
 44
0.0
176
     1
173
     0
176
     1
1001
ACAD
1000
AcDbSavedByObjectVersion
1070
     0
  0
VISUALSTYLE
  5
852
102
{ACAD_XDICTIONARY
360
B7D
102
}
102
{ACAD_REACTORS
330
EF
102
}
330
EF
100
AcDbVisualStyle
  2
Shaded with edges
 70
    26
177
     2
291
     0
 71
     2
176
     1
 72
     2
176
     1
 73
     1
176
     1
 90
        2
176
     1
 40
0.6
176
     1
 41
30.0
176
     1
 63
     7
421
 16777215
176
     1
 74
     1
176
     1
 91
       10
176
     1
 64
     7
176
     1
 65
   257
176
     1
 75
     2
176
     1
175
     1
176
     1
 42
1.0
176
     1
 92
        8
176
     1
 66
   257
176
     1
 43
1.0
176
     1
 76
     1
176
     1
 77
     6
176
     1
 78
     2
176
     1
 67
     7
176
     1
 79
     3
176
     1
170
     0
176
     1
171
     0
176
     1
290
     0
176
     1
 93
        5
176
     1
 44
0.0
176
     1
173
     0
176
     1
1001
ACAD
1000
AcDbSavedByObjectVersion
1070
     0
  0
VISUALSTYLE
  5
84F
102
{ACAD_XDICTIONARY
360
B77
102
}
102
{ACAD_REACTORS
330
EF
102
}
330
EF
100
AcDbVisualStyle
  2
Shades of Gray
 70
    23
177
     2
291
     0
 71
     2
176
     1
 72
     2
176
     1
 73
     3
176
     1
 90
        0
176
     1
 40
0.6
176
     1
 41
30.0
176
     1
 63
     7
421
 16777215
176
     1
 74
     2
176
     1
 91
        2
176
     1
 64
     7
176
     1
 65
     7
176
     1
 75
     1
176
     1
175
     1
176
     1
 42
40.0
176
     1
 92
        8
176
     1
 66
     7
176
     1
 43
1.0
176
     1
 76
     1
176
     1
 77
     6
176
     1
 78
     2
176
     1
 67
     7
176
     1
 79
     3
176
     1
170
     0
176
     1
171
     0
176
     1
290
     0
176
     1
 93
        1
176
     1
 44
0.0
176
     1
173
     0
176
     1
1001
ACAD
1000
AcDbSavedByObjectVersion
1070
     0
  0
VISUALSTYLE
  5
850
102
{ACAD_XDICTIONARY
360
B79
102
}
102
{ACAD_REACTORS
330
EF
102
}
330
EF
100
AcDbVisualStyle
  2
Sketchy
 70
    24
177
     2
291
     0
 71
     1
176
     1
 72
     2
176
     1
 73
     2
176
     1
 90
        0
176
     1
 40
0.6
176
     1
 41
30.0
176
     1
 63
     7
421
 16777215
176
     1
 74
     2
176
     1
 91
        2
176
     1
 64
     7
176
     1
 65
     7
176
     1
 75
     1
176
     1
175
     1
176
     1
 42
40.0
176
     1
 92
       11
176
     1
 66
     7
176
     1
 43
1.0
176
     1
 76
     1
176
     1
 77
     6
176
     1
 78
     2
176
     1
 67
     7
176
     1
 79
     6
176
     1
170
     0
176
     1
171
     0
176
     1
290
     0
176
     1
 93
        1
176
     1
 44
0.0
176
     1
173
     0
176
     1
1001
ACAD
1000
AcDbSavedByObjectVersion
1070
     0
  0
VISUALSTYLE
  5
FC
102
{ACAD_XDICTIONARY
360
B6B
102
}
102
{ACAD_REACTORS
330
EF
102
}
330
EF
100
AcDbVisualStyle
  2

 70
    13
177
     2
291
     1
 71
     2
176
     1
 72
     2
176
     1
 73
     1
176
     1
 90
        0
176
     1
 40
0.6
176
     1
 41
30.0
176
     1
 63
     7
176
     1
 74
     1
176
     1
 91
        4
176
     1
 64
     7
176
     1
 65
   257
176
     1
 75
     1
176
     1
175
     1
176
     1
 42
1.0
176
     1
 92
       12
176
     1
 66
     7
176
     1
 43
1.0
176
     1
 76
     1
176
     1
 77
     6
176
     1
 78
     2
176
     1
 67
     7
176
     1
 79
     5
176
     1
170
     0
176
     1
171
     0
176
     1
290
     0
176
     1
 93
        1
176
     1
 44
0.0
176
     1
173
     0
176
     1
1001
ACAD
1000
AcDbSavedByObjectVersion
1070
     0
  0
VISUALSTYLE
  5
84D
102
{ACAD_XDICTIONARY
360
B73
102
}
102
{ACAD_REACTORS
330
EF
102
}
330
EF
100
AcDbVisualStyle
  2
Wireframe
 70
     5
177
     2
291
     0
 71
     0
176
     1
 72
     2
176
     1
 73
     0
176
     1
 90
        0
176
     1
 40
0.6
176
     1
 41
30.0
176
     1
 63
     7
421
 16777215
176
     1
 74
     1
176
     1
 91
        4
176
     1
 64
     7
176
     1
 65
   257
176
     1
 75
     1
176
     1
175
     1
176
     1
 42
1.0
176
     1
 92
        0
176
     1
 66
   257
176
     1
 43
1.0
176
     1
 76
     1
176
     1
 77
     6
176
     1
 78
     2
176
     1
 67
     7
176
     1
 79
     3
176
     1
170
     0
176
     1
171
     0
176
     1
290
     0
176
     1
 93
        1
176
     1
 44
0.0
176
     1
173
     0
176
     1
1001
ACAD
1000
AcDbSavedByObjectVersion
1070
     0
  0
VISUALSTYLE
  5
851
102
{ACAD_XDICTIONARY
360
B7B
102
}
102
{ACAD_REACTORS
330
EF
102
}
330
EF
100
AcDbVisualStyle
  2
X-Ray
 70
    25
177
     2
291
     0
 71
     2
176
     1
 72
     2
176
     1
 73
     1
176
     1
 90
        1
176
     1
 40
0.5
176
     1
 41
30.0
176
     1
 63
     7
421
 16777215
176
     1
 74
     1
176
     1
 91
        0
176
     1
 64
     7
176
     1
 65
   257
176
     1
 75
     1
176
     1
175
     1
176
     1
 42
1.0
176
     1
 92
        8
176
     1
 66
     7
176
     1
 43
1.0
176
     1
 76
     1
176
     1
 77
     6
176
     1
 78
     2
176
     1
 67
     7
176
     1
 79
     3
176
     1
170
     0
176
     1
171
     0
176
     1
290
     0
176
     1
 93
       13
176
     1
 44
0.0
176
     1
173
     0
176
     1
1001
ACAD
1000
AcDbSavedByObjectVersion
1070
     0
  0
DICTIONARYVAR
  5
91A
102
{ACAD_REACTORS
330
5E
102
}
330
5E
100
DictionaryVariables
280
     0
  1
1:1
  0
DICTIONARYVAR
  5
916
102
{ACAD_REACTORS
330
5E
102
}
330
5E
100
DictionaryVariables
280
     0
  1
STANDARD
  0
DICTIONARYVAR
  5
84
102
{ACAD_REACTORS
330
5E
102
}
330
5E
100
DictionaryVariables
280
     0
  1
STANDARD
  0
DICTIONARYVAR
  5
917
102
{ACAD_REACTORS
330
5E
102
}
330
5E
100
DictionaryVariables
280
     0
  1
Metric50
  0
DICTIONARYVAR
  5
918
102
{ACAD_REACTORS
330
5E
102
}
330
5E
100
DictionaryVariables
280
     0
  1
Metric50
  0
DICTIONARYVAR
  5
5F
102
{ACAD_REACTORS
330
5E
102
}
330
5E
100
DictionaryVariables
280
     0
  1
2
  0
DICTIONARYVAR
  5
63
102
{ACAD_REACTORS
330
5E
102
}
330
5E
100
DictionaryVariables
280
     0
  1
1
  0
DICTIONARYVAR
  5
327
102
{ACAD_REACTORS
330
5E
102
}
330
5E
100
DictionaryVariables
280
     0
  1
0
  0
DICTIONARYVAR
  5
91C
102
{ACAD_REACTORS
330
5E
102
}
330
5E
100
DictionaryVariables
280
     0
  1
1
  0
DICTIONARYVAR
  5
91D
102
{ACAD_REACTORS
330
5E
102
}
330
5E
100
DictionaryVariables
280
     0
  1
15
  0
DICTIONARYVAR
  5
91B
102
{ACAD_REACTORS
330
5E
102
}
330
5E
100
DictionaryVariables
280
     0
  1
0
  0
DICTIONARYVAR
  5
919
102
{ACAD_REACTORS
330
5E
102
}
330
5E
100
DictionaryVariables
280
     0
  1
0
  0
DICTIONARYVAR
  5
326
102
{ACAD_REACTORS
330
5E
102
}
330
5E
100
DictionaryVariables
280
     0
  1
127
  0
DICTIONARY
  5
B52
102
{ACAD_REACTORS
330
B50
102
}
330
B50
100
AcDbDictionary
281
     1
  0
DICTIONARY
  5
B51
102
{ACAD_REACTORS
330
B50
102
}
330
B50
100
AcDbDictionary
281
     1
  3
8796084189360
350
B4B
  3
8796084189376
350
B4C
  3
8796084189392
350
B4D
  3
8796084189408
350
B4E
  3
8796084189424
350
B4F
  0
DICTIONARY
  5
335
330
ED
100
AcDbDictionary
280
     1
281
     1
  3
ACAD_XREC_ROUNDTRIP
360
336
  0
DICTIONARY
  5
333
330
EC
100
AcDbDictionary
280
     1
281
     1
  3
ACAD_XREC_ROUNDTRIP
360
334
  0
DICTIONARY
  5
337
330
EE
100
AcDbDictionary
280
     1
281
     1
  3
ACAD_XREC_ROUNDTRIP
360
338
  0
DICTIONARY
  5
B48
330
7F
100
AcDbDictionary
280
     1
281
     1
  3
ACAD_ROUNDTRIP_2008_TABLESTYLE_CELLSTYLEMAP
360
B49
  0
DICTIONARY
  5
B5D
330
F5
100
AcDbDictionary
280
     1
281
     1
  3
ACAD_XREC_ROUNDTRIP
360
B5E
  0
DICTIONARY
  5
B61
330
F7
100
AcDbDictionary
280
     1
281
     1
  3
ACAD_XREC_ROUNDTRIP
360
B62
  0
DICTIONARY
  5
B5F
330
F6
100
AcDbDictionary
280
     1
281
     1
  3
ACAD_XREC_ROUNDTRIP
360
B60
  0
DICTIONARY
  5
B5B
330
F4
100
AcDbDictionary
280
     1
281
     1
  3
ACAD_XREC_ROUNDTRIP
360
B5C
  0
DICTIONARY
  5
B69
330
FB
100
AcDbDictionary
280
     1
281
     1
  3
ACAD_XREC_ROUNDTRIP
360
B6A
  0
DICTIONARY
  5
B71
330
FF
100
AcDbDictionary
280
     1
281
     1
  3
ACAD_XREC_ROUNDTRIP
360
B72
  0
DICTIONARY
  5
B63
330
F8
100
AcDbDictionary
280
     1
281
     1
  3
ACAD_XREC_ROUNDTRIP
360
B64
  0
DICTIONARY
  5
B67
330
FA
100
AcDbDictionary
280
     1
281
     1
  3
ACAD_XREC_ROUNDTRIP
360
B68
  0
DICTIONARY
  5
B85
330
856
100
AcDbDictionary
280
     1
281
     1
  3
ACAD_XREC_ROUNDTRIP
360
B86
  0
DICTIONARY
  5
B6F
330
FE
100
AcDbDictionary
280
     1
281
     1
  3
ACAD_XREC_ROUNDTRIP
360
B70
  0
DICTIONARY
  5
B53
330
F0
100
AcDbDictionary
280
     1
281
     1
  3
ACAD_XREC_ROUNDTRIP
360
B54
  0
DICTIONARY
  5
B55
330
F1
100
AcDbDictionary
280
     1
281
     1
  3
ACAD_XREC_ROUNDTRIP
360
B56
  0
DICTIONARY
  5
B57
330
F2
100
AcDbDictionary
280
     1
281
     1
  3
ACAD_XREC_ROUNDTRIP
360
B58
  0
DICTIONARY
  5
B59
330
F3
100
AcDbDictionary
280
     1
281
     1
  3
ACAD_XREC_ROUNDTRIP
360
B5A
  0
DICTIONARY
  5
B75
330
84E
100
AcDbDictionary
280
     1
281
     1
  3
ACAD_XREC_ROUNDTRIP
360
B76
  0
DICTIONARY
  5
B81
330
854
100
AcDbDictionary
280
     1
281
     1
  3
ACAD_XREC_ROUNDTRIP
360
B82
  0
DICTIONARY
  5
B6D
330
FD
100
AcDbDictionary
280
     1
281
     1
  3
ACAD_XREC_ROUNDTRIP
360
B6E
  0
DICTIONARY
  5
B83
330
855
100
AcDbDictionary
280
     1
281
     1
  3
ACAD_XREC_ROUNDTRIP
360
B84
  0
DICTIONARY
  5
B65
330
F9
100
AcDbDictionary
280
     1
281
     1
  3
ACAD_XREC_ROUNDTRIP
360
B66
  0
DICTIONARY
  5
B7F
330
853
100
AcDbDictionary
280
     1
281
     1
  3
ACAD_XREC_ROUNDTRIP
360
B80
  0
DICTIONARY
  5
B7D
330
852
100
AcDbDictionary
280
     1
281
     1
  3
ACAD_XREC_ROUNDTRIP
360
B7E
  0
DICTIONARY
  5
B77
330
84F
100
AcDbDictionary
280
     1
281
     1
  3
ACAD_XREC_ROUNDTRIP
360
B78
  0
DICTIONARY
  5
B79
330
850
100
AcDbDictionary
280
     1
281
     1
  3
ACAD_XREC_ROUNDTRIP
360
B7A
  0
DICTIONARY
  5
B6B
330
FC
100
AcDbDictionary
280
     1
281
     1
  3
ACAD_XREC_ROUNDTRIP
360
B6C
  0
DICTIONARY
  5
B73
330
84D
100
AcDbDictionary
280
     1
281
     1
  3
ACAD_XREC_ROUNDTRIP
360
B74
  0
DICTIONARY
  5
B7B
330
851
100
AcDbDictionary
280
     1
281
     1
  3
ACAD_XREC_ROUNDTRIP
360
B7C
  0
XRECORD
  5
B4B
102
{ACAD_REACTORS
330
B51
102
}
330
B51
100
AcDbXrecord
280
     1
  1
AcDb_Thumbnail_Schema
102
{ATTRRECORD
341
B4C
  2
AcDbDs::TreatedAsObjectData
280
     1
291
     1
102
ATTRRECORD}
102
{ATTRRECORD
341
B4D
  2
AcDbDs::Legacy
280
     1
291
     1
102
ATTRRECORD}
  2
AcDbDs::ID
280
    10
 91
        8
102
{ATTRRECORD
341
B4E
  2
AcDs:Indexable
280
     1
291
     1
102
ATTRRECORD}
102
{ATTRRECORD
341
B4F
  2
AcDbDs::HandleAttribute
280
     7
282
     1
102
ATTRRECORD}
  2
Thumbnail_Data
280
    15
 91
        0
  0
XRECORD
  5
B4C
102
{ACAD_REACTORS
330
B51
102
}
330
B51
100
AcDbXrecord
280
     1
  1
AcDbDs::TreatedAsObjectDataSchema
  2
AcDbDs::TreatedAsObjectData
280
     1
 91
        0
  0
XRECORD
  5
B4D
102
{ACAD_REACTORS
330
B51
102
}
330
B51
100
AcDbXrecord
280
     1
  1
AcDbDs::LegacySchema
  2
AcDbDs::Legacy
280
     1
 91
        0
  0
XRECORD
  5
B4E
102
{ACAD_REACTORS
330
B51
102
}
330
B51
100
AcDbXrecord
280
     1
  1
AcDbDs::IndexedPropertySchema
  2
AcDs:Indexable
280
     1
 91
        0
  0
XRECORD
  5
B4F
102
{ACAD_REACTORS
330
B51
102
}
330
B51
100
AcDbXrecord
280
     1
  1
AcDbDs::HandleAttributeSchema
  2
AcDbDs::HandleAttribute
280
     7
 91
        1
284
     1
  0
XRECORD
  5
336
102
{ACAD_REACTORS
330
335
102
}
330
335
100
AcDbXrecord
280
     1
102
MATERIAL
148
0.0
149
0.0
149
0.0
 93
        0
 94
       63
282
     0
 72
     1
 77
     1
171
     1
175
     1
179
     1
273
     0
  0
XRECORD
  5
334
102
{ACAD_REACTORS
330
333
102
}
330
333
100
AcDbXrecord
280
     1
102
MATERIAL
148
0.0
149
0.0
149
0.0
 93
        0
 94
       63
282
     0
 72
     1
 77
     1
171
     1
175
     1
179
     1
273
     0
  0
XRECORD
  5
338
102
{ACAD_REACTORS
330
337
102
}
330
337
100
AcDbXrecord
280
     1
102
MATERIAL
148
0.0
149
0.0
149
0.0
 93
        0
 94
       63
282
     0
 72
     1
 77
     1
171
     1
175
     1
179
     1
273
     0
  0
CELLSTYLEMAP
  5
B49
102
{ACAD_REACTORS
330
B48
102
}
330
B48
100
AcDbCellStyleMap
 90
        3
300
CELLSTYLE
  1
TABLEFORMAT_BEGIN
 90
        5
170
     1
 91
        0
 92
    32768
 62
   257
 93
        1
300
CONTENTFORMAT
  1
CONTENTFORMAT_BEGIN
 90
        0
 91
        0
 92
      512
 93
        0
300

 40
0.0
140
1.0
 94
        5
 62
     0
340
11
144
6.0
309
CONTENTFORMAT_END
171
     1
301
MARGIN
  1
CELLMARGIN_BEGIN
 40
1.5
 40
1.5
 40
1.5
 40
1.5
 40
0.18
 40
0.18
309
CELLMARGIN_END
 94
        6
 95
        1
302
GRIDFORMAT
  1
GRIDFORMAT_BEGIN
 90
        0
 91
        1
 62
     0
 92
       -2
340
0
 93
        0
 40
0.045
309
GRIDFORMAT_END
 95
        2
302
GRIDFORMAT
  1
GRIDFORMAT_BEGIN
 90
        0
 91
        1
 62
     0
 92
       -2
340
0
 93
        0
 40
0.045
309
GRIDFORMAT_END
 95
        4
302
GRIDFORMAT
  1
GRIDFORMAT_BEGIN
 90
        0
 91
        1
 62
     0
 92
       -2
340
0
 93
        0
 40
0.045
309
GRIDFORMAT_END
 95
        8
302
GRIDFORMAT
  1
GRIDFORMAT_BEGIN
 90
        0
 91
        1
 62
     0
 92
       -2
340
0
 93
        0
 40
0.045
309
GRIDFORMAT_END
 95
       16
302
GRIDFORMAT
  1
GRIDFORMAT_BEGIN
 90
        0
 91
        1
 62
     0
 92
       -2
340
0
 93
        0
 40
0.045
309
GRIDFORMAT_END
 95
       32
302
GRIDFORMAT
  1
GRIDFORMAT_BEGIN
 90
        0
 91
        1
 62
     0
 92
       -2
340
0
 93
        0
 40
0.045
309
GRIDFORMAT_END
309
TABLEFORMAT_END
  1
CELLSTYLE_BEGIN
 90
        1
 91
        1
300
_TITLE
309
CELLSTYLE_END
300
CELLSTYLE
  1
TABLEFORMAT_BEGIN
 90
        5
170
     1
 91
        0
 92
        0
 62
   257
 93
        1
300
CONTENTFORMAT
  1
CONTENTFORMAT_BEGIN
 90
        0
 91
        0
 92
      512
 93
        0
300

 40
0.0
140
1.0
 94
        5
 62
     0
340
11
144
4.5
309
CONTENTFORMAT_END
171
     1
301
MARGIN
  1
CELLMARGIN_BEGIN
 40
1.5
 40
1.5
 40
1.5
 40
1.5
 40
0.18
 40
0.18
309
CELLMARGIN_END
 94
        6
 95
        1
302
GRIDFORMAT
  1
GRIDFORMAT_BEGIN
 90
        0
 91
        1
 62
     0
 92
       -2
340
0
 93
        0
 40
0.045
309
GRIDFORMAT_END
 95
        2
302
GRIDFORMAT
  1
GRIDFORMAT_BEGIN
 90
        0
 91
        1
 62
     0
 92
       -2
340
0
 93
        0
 40
0.045
309
GRIDFORMAT_END
 95
        4
302
GRIDFORMAT
  1
GRIDFORMAT_BEGIN
 90
        0
 91
        1
 62
     0
 92
       -2
340
0
 93
        0
 40
0.045
309
GRIDFORMAT_END
 95
        8
302
GRIDFORMAT
  1
GRIDFORMAT_BEGIN
 90
        0
 91
        1
 62
     0
 92
       -2
340
0
 93
        0
 40
0.045
309
GRIDFORMAT_END
 95
       16
302
GRIDFORMAT
  1
GRIDFORMAT_BEGIN
 90
        0
 91
        1
 62
     0
 92
       -2
340
0
 93
        0
 40
0.045
309
GRIDFORMAT_END
 95
       32
302
GRIDFORMAT
  1
GRIDFORMAT_BEGIN
 90
        0
 91
        1
 62
     0
 92
       -2
340
0
 93
        0
 40
0.045
309
GRIDFORMAT_END
309
TABLEFORMAT_END
  1
CELLSTYLE_BEGIN
 90
        2
 91
        1
300
_HEADER
309
CELLSTYLE_END
300
CELLSTYLE
  1
TABLEFORMAT_BEGIN
 90
        5
170
     1
 91
        0
 92
        0
 62
   257
 93
        1
300
CONTENTFORMAT
  1
CONTENTFORMAT_BEGIN
 90
        0
 91
        0
 92
      512
 93
        0
300

 40
0.0
140
1.0
 94
        2
 62
     0
340
11
144
4.5
309
CONTENTFORMAT_END
171
     1
301
MARGIN
  1
CELLMARGIN_BEGIN
 40
1.5
 40
1.5
 40
1.5
 40
1.5
 40
0.18
 40
0.18
309
CELLMARGIN_END
 94
        6
 95
        1
302
GRIDFORMAT
  1
GRIDFORMAT_BEGIN
 90
        0
 91
        1
 62
     0
 92
       -2
340
0
 93
        0
 40
0.045
309
GRIDFORMAT_END
 95
        2
302
GRIDFORMAT
  1
GRIDFORMAT_BEGIN
 90
        0
 91
        1
 62
     0
 92
       -2
340
0
 93
        0
 40
0.045
309
GRIDFORMAT_END
 95
        4
302
GRIDFORMAT
  1
GRIDFORMAT_BEGIN
 90
        0
 91
        1
 62
     0
 92
       -2
340
0
 93
        0
 40
0.045
309
GRIDFORMAT_END
 95
        8
302
GRIDFORMAT
  1
GRIDFORMAT_BEGIN
 90
        0
 91
        1
 62
     0
 92
       -2
340
0
 93
        0
 40
0.045
309
GRIDFORMAT_END
 95
       16
302
GRIDFORMAT
  1
GRIDFORMAT_BEGIN
 90
        0
 91
        1
 62
     0
 92
       -2
340
0
 93
        0
 40
0.045
309
GRIDFORMAT_END
 95
       32
302
GRIDFORMAT
  1
GRIDFORMAT_BEGIN
 90
        0
 91
        1
 62
     0
 92
       -2
340
0
 93
        0
 40
0.045
309
GRIDFORMAT_END
309
TABLEFORMAT_END
  1
CELLSTYLE_BEGIN
 90
        3
 91
        2
300
_DATA
309
CELLSTYLE_END
  0
XRECORD
  5
B5E
102
{ACAD_REACTORS
330
B5D
102
}
330
B5D
100
AcDbXrecord
280
     1
102
RTVSPost2010Prop28
280
     1
102
RTVSPost2010PropOp28
 70
     1
102
RTVSPost2010Prop29
280
     1
102
RTVSPost2010PropOp29
 70
     1
102
RTVSPost2010Prop30
280
     0
102
RTVSPost2010PropOp30
 70
     1
102
RTVSPost2010Prop31
280
     0
102
RTVSPost2010PropOp31
 70
     1
102
RTVSPost2010Prop32
280
     0
102
RTVSPost2010PropOp32
 70
     1
102
RTVSPost2010Prop33
280
     0
102
RTVSPost2010PropOp33
 70
     1
102
RTVSPost2010Prop34
280
     0
102
RTVSPost2010PropOp34
 70
     1
102
RTVSPost2010Prop35
280
     0
102
RTVSPost2010PropOp35
 70
     1
102
RTVSPost2010Prop36
280
     0
102
RTVSPost2010PropOp36
 70
     1
102
RTVSPost2010Prop37
 90
       50
102
RTVSPost2010PropOp37
 70
     1
102
RTVSPost2010Prop38
140
0.0
102
RTVSPost2010PropOp38
 70
     1
102
RTVSPost2010Prop39
140
1.0
102
RTVSPost2010PropOp39
 70
     1
102
RTVSPost2010Prop40
 90
        0
102
RTVSPost2010PropOp40
 70
     1
102
RTVSPost2010Prop41ColorIndex
 90
       18
102
RTVSPost2010Prop41ColorRGB
 90
        0
102
RTVSPost2010PropOp41
 70
     1
102
RTVSPost2010Prop42
 90
       50
102
RTVSPost2010PropOp42
 70
     1
102
RTVSPost2010Prop43
 90
        3
102
RTVSPost2010PropOp43
 70
     1
102
RTVSPost2010Prop44ColorIndex
 90
        5
102
RTVSPost2010Prop44ColorRGB
 90
      255
102
RTVSPost2010PropOp44
 70
     1
102
RTVSPost2010Prop45
280
     0
102
RTVSPost2010PropOp45
 70
     1
102
RTVSPost2010Prop46
 90
       50
102
RTVSPost2010PropOp46
 70
     1
102
RTVSPost2010Prop47
 90
       50
102
RTVSPost2010PropOp47
 70
     1
102
RTVSPost2010Prop48
 90
       50
102
RTVSPost2010PropOp48
 70
     1
102
RTVSPost2010Prop49
280
     0
102
RTVSPost2010PropOp49
 70
     1
102
RTVSPost2010Prop50
 90
       50
102
RTVSPost2010PropOp50
 70
     1
102
RTVSPost2010Prop51ColorIndex
 90
      256
102
RTVSPost2010Prop51ColorRGB
 90
-16777216
102
RTVSPost2010PropOp51
 70
     0
102
RTVSPost2010Prop52
140
1.0
102
RTVSPost2010PropOp52
 70
     0
102
RTVSPost2010Prop53
 90
        2
102
RTVSPost2010PropOp53
 70
     1
102
RTVSPost2010Prop54
  1
strokes_ogs.tif
102
RTVSPost2010PropOp54
 70
     1
102
RTVSPost2010Prop55
280
     0
102
RTVSPost2010PropOp55
 70
     1
102
RTVSPost2010Prop56
140
1.0
102
RTVSPost2010PropOp56
 70
     1
102
RTVSPost2010Prop57
140
1.0
102
RTVSPost2010PropOp57
 70
     1
  0
XRECORD
  5
B62
102
{ACAD_REACTORS
330
B61
102
}
330
B61
100
AcDbXrecord
280
     1
102
RTVSPost2010Prop28
280
     0
102
RTVSPost2010PropOp28
 70
     1
102
RTVSPost2010Prop29
280
     1
102
RTVSPost2010PropOp29
 70
     1
102
RTVSPost2010Prop30
280
     1
102
RTVSPost2010PropOp30
 70
     1
102
RTVSPost2010Prop31
280
     0
102
RTVSPost2010PropOp31
 70
     1
102
RTVSPost2010Prop32
280
     0
102
RTVSPost2010PropOp32
 70
     1
102
RTVSPost2010Prop33
280
     0
102
RTVSPost2010PropOp33
 70
     1
102
RTVSPost2010Prop34
280
     0
102
RTVSPost2010PropOp34
 70
     1
102
RTVSPost2010Prop35
280
     0
102
RTVSPost2010PropOp35
 70
     1
102
RTVSPost2010Prop36
280
     0
102
RTVSPost2010PropOp36
 70
     1
102
RTVSPost2010Prop37
 90
       50
102
RTVSPost2010PropOp37
 70
     1
102
RTVSPost2010Prop38
140
0.0
102
RTVSPost2010PropOp38
 70
     1
102
RTVSPost2010Prop39
140
1.0
102
RTVSPost2010PropOp39
 70
     1
102
RTVSPost2010Prop40
 90
        0
102
RTVSPost2010PropOp40
 70
     1
102
RTVSPost2010Prop41ColorIndex
 90
       18
102
RTVSPost2010Prop41ColorRGB
 90
        0
102
RTVSPost2010PropOp41
 70
     1
102
RTVSPost2010Prop42
 90
       50
102
RTVSPost2010PropOp42
 70
     1
102
RTVSPost2010Prop43
 90
        3
102
RTVSPost2010PropOp43
 70
     1
102
RTVSPost2010Prop44ColorIndex
 90
        5
102
RTVSPost2010Prop44ColorRGB
 90
      255
102
RTVSPost2010PropOp44
 70
     1
102
RTVSPost2010Prop45
280
     0
102
RTVSPost2010PropOp45
 70
     1
102
RTVSPost2010Prop46
 90
       50
102
RTVSPost2010PropOp46
 70
     1
102
RTVSPost2010Prop47
 90
       50
102
RTVSPost2010PropOp47
 70
     1
102
RTVSPost2010Prop48
 90
       50
102
RTVSPost2010PropOp48
 70
     1
102
RTVSPost2010Prop49
280
     0
102
RTVSPost2010PropOp49
 70
     1
102
RTVSPost2010Prop50
 90
       50
102
RTVSPost2010PropOp50
 70
     1
102
RTVSPost2010Prop51ColorIndex
 90
      256
102
RTVSPost2010Prop51ColorRGB
 90
-16777216
102
RTVSPost2010PropOp51
 70
     0
102
RTVSPost2010Prop52
140
1.0
102
RTVSPost2010PropOp52
 70
     0
102
RTVSPost2010Prop53
 90
        2
102
RTVSPost2010PropOp53
 70
     1
102
RTVSPost2010Prop54
  1
strokes_ogs.tif
102
RTVSPost2010PropOp54
 70
     1
102
RTVSPost2010Prop55
280
     0
102
RTVSPost2010PropOp55
 70
     1
102
RTVSPost2010Prop56
140
1.0
102
RTVSPost2010PropOp56
 70
     1
102
RTVSPost2010Prop57
140
1.0
102
RTVSPost2010PropOp57
 70
     1
  0
XRECORD
  5
B60
102
{ACAD_REACTORS
330
B5F
102
}
330
B5F
100
AcDbXrecord
280
     1
102
RTVSPost2010Prop28
280
     0
102
RTVSPost2010PropOp28
 70
     1
102
RTVSPost2010Prop29
280
     1
102
RTVSPost2010PropOp29
 70
     1
102
RTVSPost2010Prop30
280
     1
102
RTVSPost2010PropOp30
 70
     1
102
RTVSPost2010Prop31
280
     0
102
RTVSPost2010PropOp31
 70
     1
102
RTVSPost2010Prop32
280
     0
102
RTVSPost2010PropOp32
 70
     1
102
RTVSPost2010Prop33
280
     0
102
RTVSPost2010PropOp33
 70
     1
102
RTVSPost2010Prop34
280
     0
102
RTVSPost2010PropOp34
 70
     1
102
RTVSPost2010Prop35
280
     0
102
RTVSPost2010PropOp35
 70
     1
102
RTVSPost2010Prop36
280
     0
102
RTVSPost2010PropOp36
 70
     1
102
RTVSPost2010Prop37
 90
       50
102
RTVSPost2010PropOp37
 70
     1
102
RTVSPost2010Prop38
140
0.0
102
RTVSPost2010PropOp38
 70
     1
102
RTVSPost2010Prop39
140
1.0
102
RTVSPost2010PropOp39
 70
     1
102
RTVSPost2010Prop40
 90
        0
102
RTVSPost2010PropOp40
 70
     1
102
RTVSPost2010Prop41ColorIndex
 90
       18
102
RTVSPost2010Prop41ColorRGB
 90
        0
102
RTVSPost2010PropOp41
 70
     1
102
RTVSPost2010Prop42
 90
       50
102
RTVSPost2010PropOp42
 70
     1
102
RTVSPost2010Prop43
 90
        3
102
RTVSPost2010PropOp43
 70
     1
102
RTVSPost2010Prop44ColorIndex
 90
        5
102
RTVSPost2010Prop44ColorRGB
 90
      255
102
RTVSPost2010PropOp44
 70
     1
102
RTVSPost2010Prop45
280
     0
102
RTVSPost2010PropOp45
 70
     1
102
RTVSPost2010Prop46
 90
       50
102
RTVSPost2010PropOp46
 70
     1
102
RTVSPost2010Prop47
 90
       50
102
RTVSPost2010PropOp47
 70
     1
102
RTVSPost2010Prop48
 90
       50
102
RTVSPost2010PropOp48
 70
     1
102
RTVSPost2010Prop49
280
     0
102
RTVSPost2010PropOp49
 70
     1
102
RTVSPost2010Prop50
 90
       50
102
RTVSPost2010PropOp50
 70
     1
102
RTVSPost2010Prop51ColorIndex
 90
      256
102
RTVSPost2010Prop51ColorRGB
 90
-16777216
102
RTVSPost2010PropOp51
 70
     0
102
RTVSPost2010Prop52
140
1.0
102
RTVSPost2010PropOp52
 70
     0
102
RTVSPost2010Prop53
 90
        2
102
RTVSPost2010PropOp53
 70
     1
102
RTVSPost2010Prop54
  1
strokes_ogs.tif
102
RTVSPost2010PropOp54
 70
     1
102
RTVSPost2010Prop55
280
     0
102
RTVSPost2010PropOp55
 70
     1
102
RTVSPost2010Prop56
140
1.0
102
RTVSPost2010PropOp56
 70
     1
102
RTVSPost2010Prop57
140
1.0
102
RTVSPost2010PropOp57
 70
     1
  0
XRECORD
  5
B5C
102
{ACAD_REACTORS
330
B5B
102
}
330
B5B
100
AcDbXrecord
280
     1
102
RTVSPost2010Prop28
280
     0
102
RTVSPost2010PropOp28
 70
     1
102
RTVSPost2010Prop29
280
     1
102
RTVSPost2010PropOp29
 70
     1
102
RTVSPost2010Prop30
280
     1
102
RTVSPost2010PropOp30
 70
     1
102
RTVSPost2010Prop31
280
     0
102
RTVSPost2010PropOp31
 70
     1
102
RTVSPost2010Prop32
280
     0
102
RTVSPost2010PropOp32
 70
     1
102
RTVSPost2010Prop33
280
     0
102
RTVSPost2010PropOp33
 70
     1
102
RTVSPost2010Prop34
280
     0
102
RTVSPost2010PropOp34
 70
     1
102
RTVSPost2010Prop35
280
     0
102
RTVSPost2010PropOp35
 70
     1
102
RTVSPost2010Prop36
280
     0
102
RTVSPost2010PropOp36
 70
     1
102
RTVSPost2010Prop37
 90
       50
102
RTVSPost2010PropOp37
 70
     1
102
RTVSPost2010Prop38
140
0.0
102
RTVSPost2010PropOp38
 70
     1
102
RTVSPost2010Prop39
140
1.0
102
RTVSPost2010PropOp39
 70
     1
102
RTVSPost2010Prop40
 90
        0
102
RTVSPost2010PropOp40
 70
     1
102
RTVSPost2010Prop41ColorIndex
 90
       18
102
RTVSPost2010Prop41ColorRGB
 90
        0
102
RTVSPost2010PropOp41
 70
     1
102
RTVSPost2010Prop42
 90
       50
102
RTVSPost2010PropOp42
 70
     1
102
RTVSPost2010Prop43
 90
        3
102
RTVSPost2010PropOp43
 70
     1
102
RTVSPost2010Prop44ColorIndex
 90
        5
102
RTVSPost2010Prop44ColorRGB
 90
      255
102
RTVSPost2010PropOp44
 70
     1
102
RTVSPost2010Prop45
280
     0
102
RTVSPost2010PropOp45
 70
     1
102
RTVSPost2010Prop46
 90
       50
102
RTVSPost2010PropOp46
 70
     1
102
RTVSPost2010Prop47
 90
       50
102
RTVSPost2010PropOp47
 70
     1
102
RTVSPost2010Prop48
 90
       50
102
RTVSPost2010PropOp48
 70
     1
102
RTVSPost2010Prop49
280
     0
102
RTVSPost2010PropOp49
 70
     1
102
RTVSPost2010Prop50
 90
       50
102
RTVSPost2010PropOp50
 70
     1
102
RTVSPost2010Prop51ColorIndex
 90
      256
102
RTVSPost2010Prop51ColorRGB
 90
-16777216
102
RTVSPost2010PropOp51
 70
     0
102
RTVSPost2010Prop52
140
1.0
102
RTVSPost2010PropOp52
 70
     0
102
RTVSPost2010Prop53
 90
        2
102
RTVSPost2010PropOp53
 70
     1
102
RTVSPost2010Prop54
  1
strokes_ogs.tif
102
RTVSPost2010PropOp54
 70
     1
102
RTVSPost2010Prop55
280
     0
102
RTVSPost2010PropOp55
 70
     1
102
RTVSPost2010Prop56
140
1.0
102
RTVSPost2010PropOp56
 70
     1
102
RTVSPost2010Prop57
140
1.0
102
RTVSPost2010PropOp57
 70
     1
  0
XRECORD
  5
B6A
102
{ACAD_REACTORS
330
B69
102
}
330
B69
100
AcDbXrecord
280
     1
102
RTVSPost2010Prop28
280
     0
102
RTVSPost2010PropOp28
 70
     1
102
RTVSPost2010Prop29
280
     1
102
RTVSPost2010PropOp29
 70
     1
102
RTVSPost2010Prop30
280
     1
102
RTVSPost2010PropOp30
 70
     1
102
RTVSPost2010Prop31
280
     0
102
RTVSPost2010PropOp31
 70
     1
102
RTVSPost2010Prop32
280
     0
102
RTVSPost2010PropOp32
 70
     1
102
RTVSPost2010Prop33
280
     0
102
RTVSPost2010PropOp33
 70
     1
102
RTVSPost2010Prop34
280
     0
102
RTVSPost2010PropOp34
 70
     1
102
RTVSPost2010Prop35
280
     0
102
RTVSPost2010PropOp35
 70
     1
102
RTVSPost2010Prop36
280
     0
102
RTVSPost2010PropOp36
 70
     1
102
RTVSPost2010Prop37
 90
       50
102
RTVSPost2010PropOp37
 70
     1
102
RTVSPost2010Prop38
140
0.0
102
RTVSPost2010PropOp38
 70
     1
102
RTVSPost2010Prop39
140
1.0
102
RTVSPost2010PropOp39
 70
     1
102
RTVSPost2010Prop40
 90
        0
102
RTVSPost2010PropOp40
 70
     1
102
RTVSPost2010Prop41ColorIndex
 90
       18
102
RTVSPost2010Prop41ColorRGB
 90
        0
102
RTVSPost2010PropOp41
 70
     1
102
RTVSPost2010Prop42
 90
       50
102
RTVSPost2010PropOp42
 70
     1
102
RTVSPost2010Prop43
 90
        3
102
RTVSPost2010PropOp43
 70
     1
102
RTVSPost2010Prop44ColorIndex
 90
        5
102
RTVSPost2010Prop44ColorRGB
 90
      255
102
RTVSPost2010PropOp44
 70
     1
102
RTVSPost2010Prop45
280
     0
102
RTVSPost2010PropOp45
 70
     1
102
RTVSPost2010Prop46
 90
       50
102
RTVSPost2010PropOp46
 70
     1
102
RTVSPost2010Prop47
 90
       50
102
RTVSPost2010PropOp47
 70
     1
102
RTVSPost2010Prop48
 90
       50
102
RTVSPost2010PropOp48
 70
     1
102
RTVSPost2010Prop49
280
     0
102
RTVSPost2010PropOp49
 70
     1
102
RTVSPost2010Prop50
 90
       50
102
RTVSPost2010PropOp50
 70
     1
102
RTVSPost2010Prop51ColorIndex
 90
      256
102
RTVSPost2010Prop51ColorRGB
 90
-16777216
102
RTVSPost2010PropOp51
 70
     0
102
RTVSPost2010Prop52
140
1.0
102
RTVSPost2010PropOp52
 70
     0
102
RTVSPost2010Prop53
 90
        2
102
RTVSPost2010PropOp53
 70
     1
102
RTVSPost2010Prop54
  1
strokes_ogs.tif
102
RTVSPost2010PropOp54
 70
     1
102
RTVSPost2010Prop55
280
     0
102
RTVSPost2010PropOp55
 70
     1
102
RTVSPost2010Prop56
140
1.0
102
RTVSPost2010PropOp56
 70
     1
102
RTVSPost2010Prop57
140
1.0
102
RTVSPost2010PropOp57
 70
     1
  0
XRECORD
  5
B72
102
{ACAD_REACTORS
330
B71
102
}
330
B71
100
AcDbXrecord
280
     1
102
RTVSPost2010Prop28
280
     0
102
RTVSPost2010PropOp28
 70
     1
102
RTVSPost2010Prop29
280
     1
102
RTVSPost2010PropOp29
 70
     1
102
RTVSPost2010Prop30
280
     1
102
RTVSPost2010PropOp30
 70
     1
102
RTVSPost2010Prop31
280
     0
102
RTVSPost2010PropOp31
 70
     1
102
RTVSPost2010Prop32
280
     0
102
RTVSPost2010PropOp32
 70
     1
102
RTVSPost2010Prop33
280
     0
102
RTVSPost2010PropOp33
 70
     1
102
RTVSPost2010Prop34
280
     0
102
RTVSPost2010PropOp34
 70
     1
102
RTVSPost2010Prop35
280
     0
102
RTVSPost2010PropOp35
 70
     1
102
RTVSPost2010Prop36
280
     0
102
RTVSPost2010PropOp36
 70
     1
102
RTVSPost2010Prop37
 90
       50
102
RTVSPost2010PropOp37
 70
     1
102
RTVSPost2010Prop38
140
0.0
102
RTVSPost2010PropOp38
 70
     1
102
RTVSPost2010Prop39
140
1.0
102
RTVSPost2010PropOp39
 70
     1
102
RTVSPost2010Prop40
 90
        0
102
RTVSPost2010PropOp40
 70
     1
102
RTVSPost2010Prop41ColorIndex
 90
       18
102
RTVSPost2010Prop41ColorRGB
 90
        0
102
RTVSPost2010PropOp41
 70
     1
102
RTVSPost2010Prop42
 90
       50
102
RTVSPost2010PropOp42
 70
     1
102
RTVSPost2010Prop43
 90
        3
102
RTVSPost2010PropOp43
 70
     1
102
RTVSPost2010Prop44ColorIndex
 90
        5
102
RTVSPost2010Prop44ColorRGB
 90
      255
102
RTVSPost2010PropOp44
 70
     1
102
RTVSPost2010Prop45
280
     0
102
RTVSPost2010PropOp45
 70
     1
102
RTVSPost2010Prop46
 90
       50
102
RTVSPost2010PropOp46
 70
     1
102
RTVSPost2010Prop47
 90
       50
102
RTVSPost2010PropOp47
 70
     1
102
RTVSPost2010Prop48
 90
       50
102
RTVSPost2010PropOp48
 70
     1
102
RTVSPost2010Prop49
280
     0
102
RTVSPost2010PropOp49
 70
     1
102
RTVSPost2010Prop50
 90
       50
102
RTVSPost2010PropOp50
 70
     1
102
RTVSPost2010Prop51ColorIndex
 90
      256
102
RTVSPost2010Prop51ColorRGB
 90
-16777216
102
RTVSPost2010PropOp51
 70
     0
102
RTVSPost2010Prop52
140
1.0
102
RTVSPost2010PropOp52
 70
     0
102
RTVSPost2010Prop53
 90
        2
102
RTVSPost2010PropOp53
 70
     1
102
RTVSPost2010Prop54
  1
strokes_ogs.tif
102
RTVSPost2010PropOp54
 70
     1
102
RTVSPost2010Prop55
280
     0
102
RTVSPost2010PropOp55
 70
     1
102
RTVSPost2010Prop56
140
1.0
102
RTVSPost2010PropOp56
 70
     1
102
RTVSPost2010Prop57
140
1.0
102
RTVSPost2010PropOp57
 70
     1
  0
XRECORD
  5
B64
102
{ACAD_REACTORS
330
B63
102
}
330
B63
100
AcDbXrecord
280
     1
102
RTVSPost2010Prop28
280
     0
102
RTVSPost2010PropOp28
 70
     1
102
RTVSPost2010Prop29
280
     1
102
RTVSPost2010PropOp29
 70
     1
102
RTVSPost2010Prop30
280
     1
102
RTVSPost2010PropOp30
 70
     1
102
RTVSPost2010Prop31
280
     0
102
RTVSPost2010PropOp31
 70
     1
102
RTVSPost2010Prop32
280
     0
102
RTVSPost2010PropOp32
 70
     1
102
RTVSPost2010Prop33
280
     0
102
RTVSPost2010PropOp33
 70
     1
102
RTVSPost2010Prop34
280
     0
102
RTVSPost2010PropOp34
 70
     1
102
RTVSPost2010Prop35
280
     0
102
RTVSPost2010PropOp35
 70
     1
102
RTVSPost2010Prop36
280
     0
102
RTVSPost2010PropOp36
 70
     1
102
RTVSPost2010Prop37
 90
       50
102
RTVSPost2010PropOp37
 70
     1
102
RTVSPost2010Prop38
140
0.0
102
RTVSPost2010PropOp38
 70
     1
102
RTVSPost2010Prop39
140
1.0
102
RTVSPost2010PropOp39
 70
     1
102
RTVSPost2010Prop40
 90
        0
102
RTVSPost2010PropOp40
 70
     1
102
RTVSPost2010Prop41ColorIndex
 90
       18
102
RTVSPost2010Prop41ColorRGB
 90
        0
102
RTVSPost2010PropOp41
 70
     1
102
RTVSPost2010Prop42
 90
       50
102
RTVSPost2010PropOp42
 70
     1
102
RTVSPost2010Prop43
 90
        3
102
RTVSPost2010PropOp43
 70
     1
102
RTVSPost2010Prop44ColorIndex
 90
        5
102
RTVSPost2010Prop44ColorRGB
 90
      255
102
RTVSPost2010PropOp44
 70
     1
102
RTVSPost2010Prop45
280
     0
102
RTVSPost2010PropOp45
 70
     1
102
RTVSPost2010Prop46
 90
       50
102
RTVSPost2010PropOp46
 70
     1
102
RTVSPost2010Prop47
 90
       50
102
RTVSPost2010PropOp47
 70
     1
102
RTVSPost2010Prop48
 90
       50
102
RTVSPost2010PropOp48
 70
     1
102
RTVSPost2010Prop49
280
     0
102
RTVSPost2010PropOp49
 70
     1
102
RTVSPost2010Prop50
 90
       50
102
RTVSPost2010PropOp50
 70
     1
102
RTVSPost2010Prop51ColorIndex
 90
      256
102
RTVSPost2010Prop51ColorRGB
 90
-16777216
102
RTVSPost2010PropOp51
 70
     0
102
RTVSPost2010Prop52
140
1.0
102
RTVSPost2010PropOp52
 70
     0
102
RTVSPost2010Prop53
 90
        2
102
RTVSPost2010PropOp53
 70
     1
102
RTVSPost2010Prop54
  1
strokes_ogs.tif
102
RTVSPost2010PropOp54
 70
     1
102
RTVSPost2010Prop55
280
     0
102
RTVSPost2010PropOp55
 70
     1
102
RTVSPost2010Prop56
140
1.0
102
RTVSPost2010PropOp56
 70
     1
102
RTVSPost2010Prop57
140
1.0
102
RTVSPost2010PropOp57
 70
     1
  0
XRECORD
  5
B68
102
{ACAD_REACTORS
330
B67
102
}
330
B67
100
AcDbXrecord
280
     1
102
RTVSPost2010Prop28
280
     0
102
RTVSPost2010PropOp28
 70
     1
102
RTVSPost2010Prop29
280
     1
102
RTVSPost2010PropOp29
 70
     1
102
RTVSPost2010Prop30
280
     1
102
RTVSPost2010PropOp30
 70
     1
102
RTVSPost2010Prop31
280
     0
102
RTVSPost2010PropOp31
 70
     1
102
RTVSPost2010Prop32
280
     0
102
RTVSPost2010PropOp32
 70
     1
102
RTVSPost2010Prop33
280
     0
102
RTVSPost2010PropOp33
 70
     1
102
RTVSPost2010Prop34
280
     0
102
RTVSPost2010PropOp34
 70
     1
102
RTVSPost2010Prop35
280
     0
102
RTVSPost2010PropOp35
 70
     1
102
RTVSPost2010Prop36
280
     0
102
RTVSPost2010PropOp36
 70
     1
102
RTVSPost2010Prop37
 90
       50
102
RTVSPost2010PropOp37
 70
     1
102
RTVSPost2010Prop38
140
0.0
102
RTVSPost2010PropOp38
 70
     1
102
RTVSPost2010Prop39
140
1.0
102
RTVSPost2010PropOp39
 70
     1
102
RTVSPost2010Prop40
 90
        0
102
RTVSPost2010PropOp40
 70
     1
102
RTVSPost2010Prop41ColorIndex
 90
       18
102
RTVSPost2010Prop41ColorRGB
 90
        0
102
RTVSPost2010PropOp41
 70
     1
102
RTVSPost2010Prop42
 90
       50
102
RTVSPost2010PropOp42
 70
     1
102
RTVSPost2010Prop43
 90
        3
102
RTVSPost2010PropOp43
 70
     1
102
RTVSPost2010Prop44ColorIndex
 90
        5
102
RTVSPost2010Prop44ColorRGB
 90
      255
102
RTVSPost2010PropOp44
 70
     1
102
RTVSPost2010Prop45
280
     0
102
RTVSPost2010PropOp45
 70
     1
102
RTVSPost2010Prop46
 90
       50
102
RTVSPost2010PropOp46
 70
     1
102
RTVSPost2010Prop47
 90
       50
102
RTVSPost2010PropOp47
 70
     1
102
RTVSPost2010Prop48
 90
       50
102
RTVSPost2010PropOp48
 70
     1
102
RTVSPost2010Prop49
280
     0
102
RTVSPost2010PropOp49
 70
     1
102
RTVSPost2010Prop50
 90
       50
102
RTVSPost2010PropOp50
 70
     1
102
RTVSPost2010Prop51ColorIndex
 90
      256
102
RTVSPost2010Prop51ColorRGB
 90
-16777216
102
RTVSPost2010PropOp51
 70
     0
102
RTVSPost2010Prop52
140
1.0
102
RTVSPost2010PropOp52
 70
     0
102
RTVSPost2010Prop53
 90
        2
102
RTVSPost2010PropOp53
 70
     1
102
RTVSPost2010Prop54
  1
strokes_ogs.tif
102
RTVSPost2010PropOp54
 70
     1
102
RTVSPost2010Prop55
280
     0
102
RTVSPost2010PropOp55
 70
     1
102
RTVSPost2010Prop56
140
1.0
102
RTVSPost2010PropOp56
 70
     1
102
RTVSPost2010Prop57
140
1.0
102
RTVSPost2010PropOp57
 70
     1
  0
XRECORD
  5
B86
102
{ACAD_REACTORS
330
B85
102
}
330
B85
100
AcDbXrecord
280
     1
102
RTVSPost2010Prop28
280
     0
102
RTVSPost2010PropOp28
 70
     1
102
RTVSPost2010Prop29
280
     1
102
RTVSPost2010PropOp29
 70
     1
102
RTVSPost2010Prop30
280
     1
102
RTVSPost2010PropOp30
 70
     1
102
RTVSPost2010Prop31
280
     0
102
RTVSPost2010PropOp31
 70
     1
102
RTVSPost2010Prop32
280
     0
102
RTVSPost2010PropOp32
 70
     1
102
RTVSPost2010Prop33
280
     0
102
RTVSPost2010PropOp33
 70
     1
102
RTVSPost2010Prop34
280
     0
102
RTVSPost2010PropOp34
 70
     1
102
RTVSPost2010Prop35
280
     0
102
RTVSPost2010PropOp35
 70
     1
102
RTVSPost2010Prop36
280
     0
102
RTVSPost2010PropOp36
 70
     1
102
RTVSPost2010Prop37
 90
       50
102
RTVSPost2010PropOp37
 70
     0
102
RTVSPost2010Prop38
140
0.0
102
RTVSPost2010PropOp38
 70
     0
102
RTVSPost2010Prop39
140
1.0
102
RTVSPost2010PropOp39
 70
     0
102
RTVSPost2010Prop40
 90
        0
102
RTVSPost2010PropOp40
 70
     0
102
RTVSPost2010Prop41ColorIndex
 90
       18
102
RTVSPost2010Prop41ColorRGB
 90
        0
102
RTVSPost2010PropOp41
 70
     0
102
RTVSPost2010Prop42
 90
       50
102
RTVSPost2010PropOp42
 70
     0
102
RTVSPost2010Prop43
 90
        3
102
RTVSPost2010PropOp43
 70
     0
102
RTVSPost2010Prop44ColorIndex
 90
        5
102
RTVSPost2010Prop44ColorRGB
 90
      255
102
RTVSPost2010PropOp44
 70
     0
102
RTVSPost2010Prop45
280
     0
102
RTVSPost2010PropOp45
 70
     1
102
RTVSPost2010Prop46
 90
       50
102
RTVSPost2010PropOp46
 70
     0
102
RTVSPost2010Prop47
 90
       50
102
RTVSPost2010PropOp47
 70
     0
102
RTVSPost2010Prop48
 90
       50
102
RTVSPost2010PropOp48
 70
     0
102
RTVSPost2010Prop49
280
     0
102
RTVSPost2010PropOp49
 70
     1
102
RTVSPost2010Prop50
 90
       50
102
RTVSPost2010PropOp50
 70
     0
102
RTVSPost2010Prop51ColorIndex
 90
      256
102
RTVSPost2010Prop51ColorRGB
 90
-16777216
102
RTVSPost2010PropOp51
 70
     0
102
RTVSPost2010Prop52
140
1.0
102
RTVSPost2010PropOp52
 70
     0
102
RTVSPost2010Prop53
 90
        2
102
RTVSPost2010PropOp53
 70
     0
102
RTVSPost2010Prop54
  1
strokes_ogs.tif
102
RTVSPost2010PropOp54
 70
     0
102
RTVSPost2010Prop55
280
     0
102
RTVSPost2010PropOp55
 70
     1
102
RTVSPost2010Prop56
140
1.0
102
RTVSPost2010PropOp56
 70
     0
102
RTVSPost2010Prop57
140
1.0
102
RTVSPost2010PropOp57
 70
     0
  0
XRECORD
  5
B70
102
{ACAD_REACTORS
330
B6F
102
}
330
B6F
100
AcDbXrecord
280
     1
102
RTVSPost2010Prop28
280
     0
102
RTVSPost2010PropOp28
 70
     1
102
RTVSPost2010Prop29
280
     1
102
RTVSPost2010PropOp29
 70
     1
102
RTVSPost2010Prop30
280
     1
102
RTVSPost2010PropOp30
 70
     1
102
RTVSPost2010Prop31
280
     0
102
RTVSPost2010PropOp31
 70
     1
102
RTVSPost2010Prop32
280
     0
102
RTVSPost2010PropOp32
 70
     1
102
RTVSPost2010Prop33
280
     0
102
RTVSPost2010PropOp33
 70
     1
102
RTVSPost2010Prop34
280
     0
102
RTVSPost2010PropOp34
 70
     1
102
RTVSPost2010Prop35
280
     0
102
RTVSPost2010PropOp35
 70
     1
102
RTVSPost2010Prop36
280
     0
102
RTVSPost2010PropOp36
 70
     1
102
RTVSPost2010Prop37
 90
       50
102
RTVSPost2010PropOp37
 70
     1
102
RTVSPost2010Prop38
140
0.0
102
RTVSPost2010PropOp38
 70
     1
102
RTVSPost2010Prop39
140
1.0
102
RTVSPost2010PropOp39
 70
     1
102
RTVSPost2010Prop40
 90
        0
102
RTVSPost2010PropOp40
 70
     1
102
RTVSPost2010Prop41ColorIndex
 90
       18
102
RTVSPost2010Prop41ColorRGB
 90
        0
102
RTVSPost2010PropOp41
 70
     1
102
RTVSPost2010Prop42
 90
       50
102
RTVSPost2010PropOp42
 70
     1
102
RTVSPost2010Prop43
 90
        3
102
RTVSPost2010PropOp43
 70
     1
102
RTVSPost2010Prop44ColorIndex
 90
        5
102
RTVSPost2010Prop44ColorRGB
 90
      255
102
RTVSPost2010PropOp44
 70
     1
102
RTVSPost2010Prop45
280
     0
102
RTVSPost2010PropOp45
 70
     1
102
RTVSPost2010Prop46
 90
       50
102
RTVSPost2010PropOp46
 70
     1
102
RTVSPost2010Prop47
 90
       50
102
RTVSPost2010PropOp47
 70
     1
102
RTVSPost2010Prop48
 90
       50
102
RTVSPost2010PropOp48
 70
     1
102
RTVSPost2010Prop49
280
     0
102
RTVSPost2010PropOp49
 70
     1
102
RTVSPost2010Prop50
 90
       50
102
RTVSPost2010PropOp50
 70
     1
102
RTVSPost2010Prop51ColorIndex
 90
      256
102
RTVSPost2010Prop51ColorRGB
 90
-16777216
102
RTVSPost2010PropOp51
 70
     0
102
RTVSPost2010Prop52
140
1.0
102
RTVSPost2010PropOp52
 70
     0
102
RTVSPost2010Prop53
 90
        2
102
RTVSPost2010PropOp53
 70
     1
102
RTVSPost2010Prop54
  1
strokes_ogs.tif
102
RTVSPost2010PropOp54
 70
     1
102
RTVSPost2010Prop55
280
     0
102
RTVSPost2010PropOp55
 70
     1
102
RTVSPost2010Prop56
140
1.0
102
RTVSPost2010PropOp56
 70
     1
102
RTVSPost2010Prop57
140
1.0
102
RTVSPost2010PropOp57
 70
     1
  0
XRECORD
  5
B54
102
{ACAD_REACTORS
330
B53
102
}
330
B53
100
AcDbXrecord
280
     1
102
RTVSPost2010Prop28
280
     0
102
RTVSPost2010PropOp28
 70
     1
102
RTVSPost2010Prop29
280
     1
102
RTVSPost2010PropOp29
 70
     1
102
RTVSPost2010Prop30
280
     1
102
RTVSPost2010PropOp30
 70
     1
102
RTVSPost2010Prop31
280
     0
102
RTVSPost2010PropOp31
 70
     1
102
RTVSPost2010Prop32
280
     0
102
RTVSPost2010PropOp32
 70
     1
102
RTVSPost2010Prop33
280
     0
102
RTVSPost2010PropOp33
 70
     1
102
RTVSPost2010Prop34
280
     0
102
RTVSPost2010PropOp34
 70
     1
102
RTVSPost2010Prop35
280
     0
102
RTVSPost2010PropOp35
 70
     1
102
RTVSPost2010Prop36
280
     0
102
RTVSPost2010PropOp36
 70
     1
102
RTVSPost2010Prop37
 90
       50
102
RTVSPost2010PropOp37
 70
     1
102
RTVSPost2010Prop38
140
0.0
102
RTVSPost2010PropOp38
 70
     1
102
RTVSPost2010Prop39
140
1.0
102
RTVSPost2010PropOp39
 70
     1
102
RTVSPost2010Prop40
 90
        0
102
RTVSPost2010PropOp40
 70
     1
102
RTVSPost2010Prop41ColorIndex
 90
       18
102
RTVSPost2010Prop41ColorRGB
 90
        0
102
RTVSPost2010PropOp41
 70
     1
102
RTVSPost2010Prop42
 90
       50
102
RTVSPost2010PropOp42
 70
     1
102
RTVSPost2010Prop43
 90
        3
102
RTVSPost2010PropOp43
 70
     1
102
RTVSPost2010Prop44ColorIndex
 90
        5
102
RTVSPost2010Prop44ColorRGB
 90
      255
102
RTVSPost2010PropOp44
 70
     1
102
RTVSPost2010Prop45
280
     0
102
RTVSPost2010PropOp45
 70
     1
102
RTVSPost2010Prop46
 90
       50
102
RTVSPost2010PropOp46
 70
     1
102
RTVSPost2010Prop47
 90
       50
102
RTVSPost2010PropOp47
 70
     1
102
RTVSPost2010Prop48
 90
       50
102
RTVSPost2010PropOp48
 70
     1
102
RTVSPost2010Prop49
280
     0
102
RTVSPost2010PropOp49
 70
     1
102
RTVSPost2010Prop50
 90
       50
102
RTVSPost2010PropOp50
 70
     1
102
RTVSPost2010Prop51ColorIndex
 90
      256
102
RTVSPost2010Prop51ColorRGB
 90
-16777216
102
RTVSPost2010PropOp51
 70
     0
102
RTVSPost2010Prop52
140
1.0
102
RTVSPost2010PropOp52
 70
     0
102
RTVSPost2010Prop53
 90
        2
102
RTVSPost2010PropOp53
 70
     1
102
RTVSPost2010Prop54
  1
strokes_ogs.tif
102
RTVSPost2010PropOp54
 70
     1
102
RTVSPost2010Prop55
280
     0
102
RTVSPost2010PropOp55
 70
     1
102
RTVSPost2010Prop56
140
1.0
102
RTVSPost2010PropOp56
 70
     1
102
RTVSPost2010Prop57
140
1.0
102
RTVSPost2010PropOp57
 70
     1
  0
XRECORD
  5
B56
102
{ACAD_REACTORS
330
B55
102
}
330
B55
100
AcDbXrecord
280
     1
102
RTVSPost2010Prop28
280
     0
102
RTVSPost2010PropOp28
 70
     1
102
RTVSPost2010Prop29
280
     1
102
RTVSPost2010PropOp29
 70
     1
102
RTVSPost2010Prop30
280
     1
102
RTVSPost2010PropOp30
 70
     1
102
RTVSPost2010Prop31
280
     0
102
RTVSPost2010PropOp31
 70
     1
102
RTVSPost2010Prop32
280
     0
102
RTVSPost2010PropOp32
 70
     1
102
RTVSPost2010Prop33
280
     0
102
RTVSPost2010PropOp33
 70
     1
102
RTVSPost2010Prop34
280
     0
102
RTVSPost2010PropOp34
 70
     1
102
RTVSPost2010Prop35
280
     0
102
RTVSPost2010PropOp35
 70
     1
102
RTVSPost2010Prop36
280
     0
102
RTVSPost2010PropOp36
 70
     1
102
RTVSPost2010Prop37
 90
       50
102
RTVSPost2010PropOp37
 70
     1
102
RTVSPost2010Prop38
140
0.0
102
RTVSPost2010PropOp38
 70
     1
102
RTVSPost2010Prop39
140
1.0
102
RTVSPost2010PropOp39
 70
     1
102
RTVSPost2010Prop40
 90
        0
102
RTVSPost2010PropOp40
 70
     1
102
RTVSPost2010Prop41ColorIndex
 90
       18
102
RTVSPost2010Prop41ColorRGB
 90
        0
102
RTVSPost2010PropOp41
 70
     1
102
RTVSPost2010Prop42
 90
       50
102
RTVSPost2010PropOp42
 70
     1
102
RTVSPost2010Prop43
 90
        3
102
RTVSPost2010PropOp43
 70
     1
102
RTVSPost2010Prop44ColorIndex
 90
        5
102
RTVSPost2010Prop44ColorRGB
 90
      255
102
RTVSPost2010PropOp44
 70
     1
102
RTVSPost2010Prop45
280
     0
102
RTVSPost2010PropOp45
 70
     1
102
RTVSPost2010Prop46
 90
       50
102
RTVSPost2010PropOp46
 70
     1
102
RTVSPost2010Prop47
 90
       50
102
RTVSPost2010PropOp47
 70
     1
102
RTVSPost2010Prop48
 90
       50
102
RTVSPost2010PropOp48
 70
     1
102
RTVSPost2010Prop49
280
     0
102
RTVSPost2010PropOp49
 70
     1
102
RTVSPost2010Prop50
 90
       50
102
RTVSPost2010PropOp50
 70
     1
102
RTVSPost2010Prop51ColorIndex
 90
      256
102
RTVSPost2010Prop51ColorRGB
 90
-16777216
102
RTVSPost2010PropOp51
 70
     0
102
RTVSPost2010Prop52
140
1.0
102
RTVSPost2010PropOp52
 70
     0
102
RTVSPost2010Prop53
 90
        2
102
RTVSPost2010PropOp53
 70
     1
102
RTVSPost2010Prop54
  1
strokes_ogs.tif
102
RTVSPost2010PropOp54
 70
     1
102
RTVSPost2010Prop55
280
     0
102
RTVSPost2010PropOp55
 70
     1
102
RTVSPost2010Prop56
140
1.0
102
RTVSPost2010PropOp56
 70
     1
102
RTVSPost2010Prop57
140
1.0
102
RTVSPost2010PropOp57
 70
     1
  0
XRECORD
  5
B58
102
{ACAD_REACTORS
330
B57
102
}
330
B57
100
AcDbXrecord
280
     1
102
RTVSPost2010Prop28
280
     0
102
RTVSPost2010PropOp28
 70
     1
102
RTVSPost2010Prop29
280
     1
102
RTVSPost2010PropOp29
 70
     1
102
RTVSPost2010Prop30
280
     1
102
RTVSPost2010PropOp30
 70
     1
102
RTVSPost2010Prop31
280
     0
102
RTVSPost2010PropOp31
 70
     1
102
RTVSPost2010Prop32
280
     0
102
RTVSPost2010PropOp32
 70
     1
102
RTVSPost2010Prop33
280
     0
102
RTVSPost2010PropOp33
 70
     1
102
RTVSPost2010Prop34
280
     0
102
RTVSPost2010PropOp34
 70
     1
102
RTVSPost2010Prop35
280
     0
102
RTVSPost2010PropOp35
 70
     1
102
RTVSPost2010Prop36
280
     0
102
RTVSPost2010PropOp36
 70
     1
102
RTVSPost2010Prop37
 90
       50
102
RTVSPost2010PropOp37
 70
     1
102
RTVSPost2010Prop38
140
0.0
102
RTVSPost2010PropOp38
 70
     1
102
RTVSPost2010Prop39
140
1.0
102
RTVSPost2010PropOp39
 70
     1
102
RTVSPost2010Prop40
 90
        0
102
RTVSPost2010PropOp40
 70
     1
102
RTVSPost2010Prop41ColorIndex
 90
       18
102
RTVSPost2010Prop41ColorRGB
 90
        0
102
RTVSPost2010PropOp41
 70
     1
102
RTVSPost2010Prop42
 90
       50
102
RTVSPost2010PropOp42
 70
     1
102
RTVSPost2010Prop43
 90
        3
102
RTVSPost2010PropOp43
 70
     1
102
RTVSPost2010Prop44ColorIndex
 90
        5
102
RTVSPost2010Prop44ColorRGB
 90
      255
102
RTVSPost2010PropOp44
 70
     1
102
RTVSPost2010Prop45
280
     0
102
RTVSPost2010PropOp45
 70
     1
102
RTVSPost2010Prop46
 90
       50
102
RTVSPost2010PropOp46
 70
     1
102
RTVSPost2010Prop47
 90
       50
102
RTVSPost2010PropOp47
 70
     1
102
RTVSPost2010Prop48
 90
       50
102
RTVSPost2010PropOp48
 70
     1
102
RTVSPost2010Prop49
280
     0
102
RTVSPost2010PropOp49
 70
     1
102
RTVSPost2010Prop50
 90
       50
102
RTVSPost2010PropOp50
 70
     1
102
RTVSPost2010Prop51ColorIndex
 90
      256
102
RTVSPost2010Prop51ColorRGB
 90
-16777216
102
RTVSPost2010PropOp51
 70
     0
102
RTVSPost2010Prop52
140
1.0
102
RTVSPost2010PropOp52
 70
     0
102
RTVSPost2010Prop53
 90
        2
102
RTVSPost2010PropOp53
 70
     1
102
RTVSPost2010Prop54
  1
strokes_ogs.tif
102
RTVSPost2010PropOp54
 70
     1
102
RTVSPost2010Prop55
280
     0
102
RTVSPost2010PropOp55
 70
     1
102
RTVSPost2010Prop56
140
1.0
102
RTVSPost2010PropOp56
 70
     1
102
RTVSPost2010Prop57
140
1.0
102
RTVSPost2010PropOp57
 70
     1
  0
XRECORD
  5
B5A
102
{ACAD_REACTORS
330
B59
102
}
330
B59
100
AcDbXrecord
280
     1
102
RTVSPost2010Prop28
280
     0
102
RTVSPost2010PropOp28
 70
     1
102
RTVSPost2010Prop29
280
     1
102
RTVSPost2010PropOp29
 70
     1
102
RTVSPost2010Prop30
280
     1
102
RTVSPost2010PropOp30
 70
     1
102
RTVSPost2010Prop31
280
     0
102
RTVSPost2010PropOp31
 70
     1
102
RTVSPost2010Prop32
280
     0
102
RTVSPost2010PropOp32
 70
     1
102
RTVSPost2010Prop33
280
     0
102
RTVSPost2010PropOp33
 70
     1
102
RTVSPost2010Prop34
280
     0
102
RTVSPost2010PropOp34
 70
     1
102
RTVSPost2010Prop35
280
     0
102
RTVSPost2010PropOp35
 70
     1
102
RTVSPost2010Prop36
280
     0
102
RTVSPost2010PropOp36
 70
     1
102
RTVSPost2010Prop37
 90
       50
102
RTVSPost2010PropOp37
 70
     1
102
RTVSPost2010Prop38
140
0.0
102
RTVSPost2010PropOp38
 70
     1
102
RTVSPost2010Prop39
140
1.0
102
RTVSPost2010PropOp39
 70
     1
102
RTVSPost2010Prop40
 90
        0
102
RTVSPost2010PropOp40
 70
     1
102
RTVSPost2010Prop41ColorIndex
 90
       18
102
RTVSPost2010Prop41ColorRGB
 90
        0
102
RTVSPost2010PropOp41
 70
     1
102
RTVSPost2010Prop42
 90
       50
102
RTVSPost2010PropOp42
 70
     1
102
RTVSPost2010Prop43
 90
        3
102
RTVSPost2010PropOp43
 70
     1
102
RTVSPost2010Prop44ColorIndex
 90
        5
102
RTVSPost2010Prop44ColorRGB
 90
      255
102
RTVSPost2010PropOp44
 70
     1
102
RTVSPost2010Prop45
280
     0
102
RTVSPost2010PropOp45
 70
     1
102
RTVSPost2010Prop46
 90
       50
102
RTVSPost2010PropOp46
 70
     1
102
RTVSPost2010Prop47
 90
       50
102
RTVSPost2010PropOp47
 70
     1
102
RTVSPost2010Prop48
 90
       50
102
RTVSPost2010PropOp48
 70
     1
102
RTVSPost2010Prop49
280
     0
102
RTVSPost2010PropOp49
 70
     1
102
RTVSPost2010Prop50
 90
       50
102
RTVSPost2010PropOp50
 70
     1
102
RTVSPost2010Prop51ColorIndex
 90
      256
102
RTVSPost2010Prop51ColorRGB
 90
-16777216
102
RTVSPost2010PropOp51
 70
     0
102
RTVSPost2010Prop52
140
1.0
102
RTVSPost2010PropOp52
 70
     0
102
RTVSPost2010Prop53
 90
        2
102
RTVSPost2010PropOp53
 70
     1
102
RTVSPost2010Prop54
  1
strokes_ogs.tif
102
RTVSPost2010PropOp54
 70
     1
102
RTVSPost2010Prop55
280
     0
102
RTVSPost2010PropOp55
 70
     1
102
RTVSPost2010Prop56
140
1.0
102
RTVSPost2010PropOp56
 70
     1
102
RTVSPost2010Prop57
140
1.0
102
RTVSPost2010PropOp57
 70
     1
  0
XRECORD
  5
B76
102
{ACAD_REACTORS
330
B75
102
}
330
B75
100
AcDbXrecord
280
     1
102
RTVSPost2010Prop28
280
     0
102
RTVSPost2010PropOp28
 70
     1
102
RTVSPost2010Prop29
280
     1
102
RTVSPost2010PropOp29
 70
     1
102
RTVSPost2010Prop30
280
     1
102
RTVSPost2010PropOp30
 70
     1
102
RTVSPost2010Prop31
280
     0
102
RTVSPost2010PropOp31
 70
     1
102
RTVSPost2010Prop32
280
     0
102
RTVSPost2010PropOp32
 70
     1
102
RTVSPost2010Prop33
280
     0
102
RTVSPost2010PropOp33
 70
     1
102
RTVSPost2010Prop34
280
     0
102
RTVSPost2010PropOp34
 70
     1
102
RTVSPost2010Prop35
280
     0
102
RTVSPost2010PropOp35
 70
     1
102
RTVSPost2010Prop36
280
     0
102
RTVSPost2010PropOp36
 70
     1
102
RTVSPost2010Prop37
 90
       50
102
RTVSPost2010PropOp37
 70
     1
102
RTVSPost2010Prop38
140
0.0
102
RTVSPost2010PropOp38
 70
     1
102
RTVSPost2010Prop39
140
1.0
102
RTVSPost2010PropOp39
 70
     1
102
RTVSPost2010Prop40
 90
        0
102
RTVSPost2010PropOp40
 70
     1
102
RTVSPost2010Prop41ColorIndex
 90
       18
102
RTVSPost2010Prop41ColorRGB
 90
        0
102
RTVSPost2010PropOp41
 70
     1
102
RTVSPost2010Prop42
 90
       50
102
RTVSPost2010PropOp42
 70
     1
102
RTVSPost2010Prop43
 90
        3
102
RTVSPost2010PropOp43
 70
     1
102
RTVSPost2010Prop44ColorIndex
 90
        5
102
RTVSPost2010Prop44ColorRGB
 90
      255
102
RTVSPost2010PropOp44
 70
     1
102
RTVSPost2010Prop45
280
     0
102
RTVSPost2010PropOp45
 70
     1
102
RTVSPost2010Prop46
 90
       50
102
RTVSPost2010PropOp46
 70
     1
102
RTVSPost2010Prop47
 90
       50
102
RTVSPost2010PropOp47
 70
     1
102
RTVSPost2010Prop48
 90
       50
102
RTVSPost2010PropOp48
 70
     1
102
RTVSPost2010Prop49
280
     0
102
RTVSPost2010PropOp49
 70
     1
102
RTVSPost2010Prop50
 90
       50
102
RTVSPost2010PropOp50
 70
     1
102
RTVSPost2010Prop51ColorIndex
 90
      256
102
RTVSPost2010Prop51ColorRGB
 90
-16777216
102
RTVSPost2010PropOp51
 70
     0
102
RTVSPost2010Prop52
140
1.0
102
RTVSPost2010PropOp52
 70
     0
102
RTVSPost2010Prop53
 90
        2
102
RTVSPost2010PropOp53
 70
     1
102
RTVSPost2010Prop54
  1
strokes_ogs.tif
102
RTVSPost2010PropOp54
 70
     1
102
RTVSPost2010Prop55
280
     0
102
RTVSPost2010PropOp55
 70
     1
102
RTVSPost2010Prop56
140
1.0
102
RTVSPost2010PropOp56
 70
     1
102
RTVSPost2010Prop57
140
1.0
102
RTVSPost2010PropOp57
 70
     1
  0
XRECORD
  5
B82
102
{ACAD_REACTORS
330
B81
102
}
330
B81
100
AcDbXrecord
280
     1
102
RTVSPost2010Prop28
280
     0
102
RTVSPost2010PropOp28
 70
     1
102
RTVSPost2010Prop29
280
     1
102
RTVSPost2010PropOp29
 70
     1
102
RTVSPost2010Prop30
280
     1
102
RTVSPost2010PropOp30
 70
     1
102
RTVSPost2010Prop31
280
     0
102
RTVSPost2010PropOp31
 70
     1
102
RTVSPost2010Prop32
280
     0
102
RTVSPost2010PropOp32
 70
     1
102
RTVSPost2010Prop33
280
     0
102
RTVSPost2010PropOp33
 70
     1
102
RTVSPost2010Prop34
280
     0
102
RTVSPost2010PropOp34
 70
     1
102
RTVSPost2010Prop35
280
     0
102
RTVSPost2010PropOp35
 70
     1
102
RTVSPost2010Prop36
280
     0
102
RTVSPost2010PropOp36
 70
     1
102
RTVSPost2010Prop37
 90
       50
102
RTVSPost2010PropOp37
 70
     0
102
RTVSPost2010Prop38
140
0.0
102
RTVSPost2010PropOp38
 70
     0
102
RTVSPost2010Prop39
140
1.0
102
RTVSPost2010PropOp39
 70
     0
102
RTVSPost2010Prop40
 90
        0
102
RTVSPost2010PropOp40
 70
     0
102
RTVSPost2010Prop41ColorIndex
 90
       18
102
RTVSPost2010Prop41ColorRGB
 90
        0
102
RTVSPost2010PropOp41
 70
     0
102
RTVSPost2010Prop42
 90
       50
102
RTVSPost2010PropOp42
 70
     0
102
RTVSPost2010Prop43
 90
        3
102
RTVSPost2010PropOp43
 70
     0
102
RTVSPost2010Prop44ColorIndex
 90
        5
102
RTVSPost2010Prop44ColorRGB
 90
      255
102
RTVSPost2010PropOp44
 70
     0
102
RTVSPost2010Prop45
280
     0
102
RTVSPost2010PropOp45
 70
     1
102
RTVSPost2010Prop46
 90
       50
102
RTVSPost2010PropOp46
 70
     0
102
RTVSPost2010Prop47
 90
       50
102
RTVSPost2010PropOp47
 70
     0
102
RTVSPost2010Prop48
 90
       50
102
RTVSPost2010PropOp48
 70
     0
102
RTVSPost2010Prop49
280
     0
102
RTVSPost2010PropOp49
 70
     1
102
RTVSPost2010Prop50
 90
       50
102
RTVSPost2010PropOp50
 70
     0
102
RTVSPost2010Prop51ColorIndex
 90
      256
102
RTVSPost2010Prop51ColorRGB
 90
-16777216
102
RTVSPost2010PropOp51
 70
     0
102
RTVSPost2010Prop52
140
1.0
102
RTVSPost2010PropOp52
 70
     0
102
RTVSPost2010Prop53
 90
        2
102
RTVSPost2010PropOp53
 70
     0
102
RTVSPost2010Prop54
  1
strokes_ogs.tif
102
RTVSPost2010PropOp54
 70
     0
102
RTVSPost2010Prop55
280
     0
102
RTVSPost2010PropOp55
 70
     1
102
RTVSPost2010Prop56
140
1.0
102
RTVSPost2010PropOp56
 70
     0
102
RTVSPost2010Prop57
140
1.0
102
RTVSPost2010PropOp57
 70
     0
  0
XRECORD
  5
B6E
102
{ACAD_REACTORS
330
B6D
102
}
330
B6D
100
AcDbXrecord
280
     1
102
RTVSPost2010Prop28
280
     0
102
RTVSPost2010PropOp28
 70
     1
102
RTVSPost2010Prop29
280
     1
102
RTVSPost2010PropOp29
 70
     1
102
RTVSPost2010Prop30
280
     1
102
RTVSPost2010PropOp30
 70
     1
102
RTVSPost2010Prop31
280
     0
102
RTVSPost2010PropOp31
 70
     1
102
RTVSPost2010Prop32
280
     0
102
RTVSPost2010PropOp32
 70
     1
102
RTVSPost2010Prop33
280
     0
102
RTVSPost2010PropOp33
 70
     1
102
RTVSPost2010Prop34
280
     0
102
RTVSPost2010PropOp34
 70
     1
102
RTVSPost2010Prop35
280
     0
102
RTVSPost2010PropOp35
 70
     1
102
RTVSPost2010Prop36
280
     0
102
RTVSPost2010PropOp36
 70
     1
102
RTVSPost2010Prop37
 90
       50
102
RTVSPost2010PropOp37
 70
     1
102
RTVSPost2010Prop38
140
0.0
102
RTVSPost2010PropOp38
 70
     1
102
RTVSPost2010Prop39
140
1.0
102
RTVSPost2010PropOp39
 70
     1
102
RTVSPost2010Prop40
 90
        0
102
RTVSPost2010PropOp40
 70
     1
102
RTVSPost2010Prop41ColorIndex
 90
       18
102
RTVSPost2010Prop41ColorRGB
 90
        0
102
RTVSPost2010PropOp41
 70
     1
102
RTVSPost2010Prop42
 90
       50
102
RTVSPost2010PropOp42
 70
     1
102
RTVSPost2010Prop43
 90
        3
102
RTVSPost2010PropOp43
 70
     1
102
RTVSPost2010Prop44ColorIndex
 90
        5
102
RTVSPost2010Prop44ColorRGB
 90
      255
102
RTVSPost2010PropOp44
 70
     1
102
RTVSPost2010Prop45
280
     0
102
RTVSPost2010PropOp45
 70
     1
102
RTVSPost2010Prop46
 90
       50
102
RTVSPost2010PropOp46
 70
     1
102
RTVSPost2010Prop47
 90
       50
102
RTVSPost2010PropOp47
 70
     1
102
RTVSPost2010Prop48
 90
       50
102
RTVSPost2010PropOp48
 70
     1
102
RTVSPost2010Prop49
280
     0
102
RTVSPost2010PropOp49
 70
     1
102
RTVSPost2010Prop50
 90
       50
102
RTVSPost2010PropOp50
 70
     1
102
RTVSPost2010Prop51ColorIndex
 90
      256
102
RTVSPost2010Prop51ColorRGB
 90
-16777216
102
RTVSPost2010PropOp51
 70
     0
102
RTVSPost2010Prop52
140
1.0
102
RTVSPost2010PropOp52
 70
     0
102
RTVSPost2010Prop53
 90
        2
102
RTVSPost2010PropOp53
 70
     1
102
RTVSPost2010Prop54
  1
strokes_ogs.tif
102
RTVSPost2010PropOp54
 70
     1
102
RTVSPost2010Prop55
280
     0
102
RTVSPost2010PropOp55
 70
     1
102
RTVSPost2010Prop56
140
1.0
102
RTVSPost2010PropOp56
 70
     1
102
RTVSPost2010Prop57
140
1.0
102
RTVSPost2010PropOp57
 70
     1
  0
XRECORD
  5
B84
102
{ACAD_REACTORS
330
B83
102
}
330
B83
100
AcDbXrecord
280
     1
102
RTVSPost2010Prop28
280
     0
102
RTVSPost2010PropOp28
 70
     1
102
RTVSPost2010Prop29
280
     1
102
RTVSPost2010PropOp29
 70
     1
102
RTVSPost2010Prop30
280
     1
102
RTVSPost2010PropOp30
 70
     1
102
RTVSPost2010Prop31
280
     0
102
RTVSPost2010PropOp31
 70
     1
102
RTVSPost2010Prop32
280
     0
102
RTVSPost2010PropOp32
 70
     1
102
RTVSPost2010Prop33
280
     0
102
RTVSPost2010PropOp33
 70
     1
102
RTVSPost2010Prop34
280
     0
102
RTVSPost2010PropOp34
 70
     1
102
RTVSPost2010Prop35
280
     0
102
RTVSPost2010PropOp35
 70
     1
102
RTVSPost2010Prop36
280
     0
102
RTVSPost2010PropOp36
 70
     1
102
RTVSPost2010Prop37
 90
       50
102
RTVSPost2010PropOp37
 70
     0
102
RTVSPost2010Prop38
140
0.0
102
RTVSPost2010PropOp38
 70
     0
102
RTVSPost2010Prop39
140
1.0
102
RTVSPost2010PropOp39
 70
     0
102
RTVSPost2010Prop40
 90
        0
102
RTVSPost2010PropOp40
 70
     0
102
RTVSPost2010Prop41ColorIndex
 90
       18
102
RTVSPost2010Prop41ColorRGB
 90
        0
102
RTVSPost2010PropOp41
 70
     0
102
RTVSPost2010Prop42
 90
       50
102
RTVSPost2010PropOp42
 70
     0
102
RTVSPost2010Prop43
 90
        3
102
RTVSPost2010PropOp43
 70
     0
102
RTVSPost2010Prop44ColorIndex
 90
        5
102
RTVSPost2010Prop44ColorRGB
 90
      255
102
RTVSPost2010PropOp44
 70
     0
102
RTVSPost2010Prop45
280
     0
102
RTVSPost2010PropOp45
 70
     1
102
RTVSPost2010Prop46
 90
       50
102
RTVSPost2010PropOp46
 70
     0
102
RTVSPost2010Prop47
 90
       50
102
RTVSPost2010PropOp47
 70
     0
102
RTVSPost2010Prop48
 90
       50
102
RTVSPost2010PropOp48
 70
     0
102
RTVSPost2010Prop49
280
     0
102
RTVSPost2010PropOp49
 70
     1
102
RTVSPost2010Prop50
 90
       50
102
RTVSPost2010PropOp50
 70
     0
102
RTVSPost2010Prop51ColorIndex
 90
      256
102
RTVSPost2010Prop51ColorRGB
 90
-16777216
102
RTVSPost2010PropOp51
 70
     0
102
RTVSPost2010Prop52
140
1.0
102
RTVSPost2010PropOp52
 70
     0
102
RTVSPost2010Prop53
 90
        2
102
RTVSPost2010PropOp53
 70
     0
102
RTVSPost2010Prop54
  1
strokes_ogs.tif
102
RTVSPost2010PropOp54
 70
     0
102
RTVSPost2010Prop55
280
     0
102
RTVSPost2010PropOp55
 70
     1
102
RTVSPost2010Prop56
140
1.0
102
RTVSPost2010PropOp56
 70
     0
102
RTVSPost2010Prop57
140
1.0
102
RTVSPost2010PropOp57
 70
     0
  0
XRECORD
  5
B66
102
{ACAD_REACTORS
330
B65
102
}
330
B65
100
AcDbXrecord
280
     1
102
RTVSPost2010Prop28
280
     0
102
RTVSPost2010PropOp28
 70
     1
102
RTVSPost2010Prop29
280
     1
102
RTVSPost2010PropOp29
 70
     1
102
RTVSPost2010Prop30
280
     1
102
RTVSPost2010PropOp30
 70
     1
102
RTVSPost2010Prop31
280
     0
102
RTVSPost2010PropOp31
 70
     1
102
RTVSPost2010Prop32
280
     0
102
RTVSPost2010PropOp32
 70
     1
102
RTVSPost2010Prop33
280
     0
102
RTVSPost2010PropOp33
 70
     1
102
RTVSPost2010Prop34
280
     0
102
RTVSPost2010PropOp34
 70
     1
102
RTVSPost2010Prop35
280
     0
102
RTVSPost2010PropOp35
 70
     1
102
RTVSPost2010Prop36
280
     0
102
RTVSPost2010PropOp36
 70
     1
102
RTVSPost2010Prop37
 90
       50
102
RTVSPost2010PropOp37
 70
     1
102
RTVSPost2010Prop38
140
0.0
102
RTVSPost2010PropOp38
 70
     1
102
RTVSPost2010Prop39
140
1.0
102
RTVSPost2010PropOp39
 70
     1
102
RTVSPost2010Prop40
 90
        0
102
RTVSPost2010PropOp40
 70
     1
102
RTVSPost2010Prop41ColorIndex
 90
       18
102
RTVSPost2010Prop41ColorRGB
 90
        0
102
RTVSPost2010PropOp41
 70
     1
102
RTVSPost2010Prop42
 90
       50
102
RTVSPost2010PropOp42
 70
     1
102
RTVSPost2010Prop43
 90
        3
102
RTVSPost2010PropOp43
 70
     1
102
RTVSPost2010Prop44ColorIndex
 90
        5
102
RTVSPost2010Prop44ColorRGB
 90
      255
102
RTVSPost2010PropOp44
 70
     1
102
RTVSPost2010Prop45
280
     0
102
RTVSPost2010PropOp45
 70
     1
102
RTVSPost2010Prop46
 90
       50
102
RTVSPost2010PropOp46
 70
     1
102
RTVSPost2010Prop47
 90
       50
102
RTVSPost2010PropOp47
 70
     1
102
RTVSPost2010Prop48
 90
       50
102
RTVSPost2010PropOp48
 70
     1
102
RTVSPost2010Prop49
280
     0
102
RTVSPost2010PropOp49
 70
     1
102
RTVSPost2010Prop50
 90
       50
102
RTVSPost2010PropOp50
 70
     1
102
RTVSPost2010Prop51ColorIndex
 90
      256
102
RTVSPost2010Prop51ColorRGB
 90
-16777216
102
RTVSPost2010PropOp51
 70
     0
102
RTVSPost2010Prop52
140
1.0
102
RTVSPost2010PropOp52
 70
     0
102
RTVSPost2010Prop53
 90
        2
102
RTVSPost2010PropOp53
 70
     1
102
RTVSPost2010Prop54
  1
strokes_ogs.tif
102
RTVSPost2010PropOp54
 70
     1
102
RTVSPost2010Prop55
280
     0
102
RTVSPost2010PropOp55
 70
     1
102
RTVSPost2010Prop56
140
1.0
102
RTVSPost2010PropOp56
 70
     1
102
RTVSPost2010Prop57
140
1.0
102
RTVSPost2010PropOp57
 70
     1
  0
XRECORD
  5
B80
102
{ACAD_REACTORS
330
B7F
102
}
330
B7F
100
AcDbXrecord
280
     1
102
RTVSPost2010Prop28
280
     0
102
RTVSPost2010PropOp28
 70
     1
102
RTVSPost2010Prop29
280
     1
102
RTVSPost2010PropOp29
 70
     1
102
RTVSPost2010Prop30
280
     1
102
RTVSPost2010PropOp30
 70
     1
102
RTVSPost2010Prop31
280
     0
102
RTVSPost2010PropOp31
 70
     1
102
RTVSPost2010Prop32
280
     0
102
RTVSPost2010PropOp32
 70
     1
102
RTVSPost2010Prop33
280
     0
102
RTVSPost2010PropOp33
 70
     1
102
RTVSPost2010Prop34
280
     0
102
RTVSPost2010PropOp34
 70
     1
102
RTVSPost2010Prop35
280
     0
102
RTVSPost2010PropOp35
 70
     1
102
RTVSPost2010Prop36
280
     0
102
RTVSPost2010PropOp36
 70
     1
102
RTVSPost2010Prop37
 90
       50
102
RTVSPost2010PropOp37
 70
     1
102
RTVSPost2010Prop38
140
0.0
102
RTVSPost2010PropOp38
 70
     1
102
RTVSPost2010Prop39
140
1.0
102
RTVSPost2010PropOp39
 70
     1
102
RTVSPost2010Prop40
 90
        0
102
RTVSPost2010PropOp40
 70
     1
102
RTVSPost2010Prop41ColorIndex
 90
       18
102
RTVSPost2010Prop41ColorRGB
 90
        0
102
RTVSPost2010PropOp41
 70
     1
102
RTVSPost2010Prop42
 90
       50
102
RTVSPost2010PropOp42
 70
     1
102
RTVSPost2010Prop43
 90
        3
102
RTVSPost2010PropOp43
 70
     1
102
RTVSPost2010Prop44ColorIndex
 90
        5
102
RTVSPost2010Prop44ColorRGB
 90
      255
102
RTVSPost2010PropOp44
 70
     1
102
RTVSPost2010Prop45
280
     0
102
RTVSPost2010PropOp45
 70
     1
102
RTVSPost2010Prop46
 90
       50
102
RTVSPost2010PropOp46
 70
     1
102
RTVSPost2010Prop47
 90
       50
102
RTVSPost2010PropOp47
 70
     1
102
RTVSPost2010Prop48
 90
       50
102
RTVSPost2010PropOp48
 70
     1
102
RTVSPost2010Prop49
280
     0
102
RTVSPost2010PropOp49
 70
     1
102
RTVSPost2010Prop50
 90
       50
102
RTVSPost2010PropOp50
 70
     1
102
RTVSPost2010Prop51ColorIndex
 90
      256
102
RTVSPost2010Prop51ColorRGB
 90
-16777216
102
RTVSPost2010PropOp51
 70
     0
102
RTVSPost2010Prop52
140
1.0
102
RTVSPost2010PropOp52
 70
     0
102
RTVSPost2010Prop53
 90
        2
102
RTVSPost2010PropOp53
 70
     1
102
RTVSPost2010Prop54
  1
strokes_ogs.tif
102
RTVSPost2010PropOp54
 70
     1
102
RTVSPost2010Prop55
280
     0
102
RTVSPost2010PropOp55
 70
     1
102
RTVSPost2010Prop56
140
1.0
102
RTVSPost2010PropOp56
 70
     1
102
RTVSPost2010Prop57
140
1.0
102
RTVSPost2010PropOp57
 70
     1
  0
XRECORD
  5
B7E
102
{ACAD_REACTORS
330
B7D
102
}
330
B7D
100
AcDbXrecord
280
     1
102
RTVSPost2010Prop28
280
     0
102
RTVSPost2010PropOp28
 70
     1
102
RTVSPost2010Prop29
280
     1
102
RTVSPost2010PropOp29
 70
     1
102
RTVSPost2010Prop30
280
     1
102
RTVSPost2010PropOp30
 70
     1
102
RTVSPost2010Prop31
280
     0
102
RTVSPost2010PropOp31
 70
     1
102
RTVSPost2010Prop32
280
     0
102
RTVSPost2010PropOp32
 70
     1
102
RTVSPost2010Prop33
280
     0
102
RTVSPost2010PropOp33
 70
     1
102
RTVSPost2010Prop34
280
     0
102
RTVSPost2010PropOp34
 70
     1
102
RTVSPost2010Prop35
280
     0
102
RTVSPost2010PropOp35
 70
     1
102
RTVSPost2010Prop36
280
     0
102
RTVSPost2010PropOp36
 70
     1
102
RTVSPost2010Prop37
 90
       50
102
RTVSPost2010PropOp37
 70
     1
102
RTVSPost2010Prop38
140
0.0
102
RTVSPost2010PropOp38
 70
     1
102
RTVSPost2010Prop39
140
1.0
102
RTVSPost2010PropOp39
 70
     1
102
RTVSPost2010Prop40
 90
        0
102
RTVSPost2010PropOp40
 70
     1
102
RTVSPost2010Prop41ColorIndex
 90
       18
102
RTVSPost2010Prop41ColorRGB
 90
        0
102
RTVSPost2010PropOp41
 70
     1
102
RTVSPost2010Prop42
 90
       50
102
RTVSPost2010PropOp42
 70
     1
102
RTVSPost2010Prop43
 90
        3
102
RTVSPost2010PropOp43
 70
     1
102
RTVSPost2010Prop44ColorIndex
 90
        5
102
RTVSPost2010Prop44ColorRGB
 90
      255
102
RTVSPost2010PropOp44
 70
     1
102
RTVSPost2010Prop45
280
     0
102
RTVSPost2010PropOp45
 70
     1
102
RTVSPost2010Prop46
 90
       50
102
RTVSPost2010PropOp46
 70
     1
102
RTVSPost2010Prop47
 90
       50
102
RTVSPost2010PropOp47
 70
     1
102
RTVSPost2010Prop48
 90
       50
102
RTVSPost2010PropOp48
 70
     1
102
RTVSPost2010Prop49
280
     0
102
RTVSPost2010PropOp49
 70
     1
102
RTVSPost2010Prop50
 90
       50
102
RTVSPost2010PropOp50
 70
     1
102
RTVSPost2010Prop51ColorIndex
 90
      256
102
RTVSPost2010Prop51ColorRGB
 90
-16777216
102
RTVSPost2010PropOp51
 70
     0
102
RTVSPost2010Prop52
140
1.0
102
RTVSPost2010PropOp52
 70
     0
102
RTVSPost2010Prop53
 90
        2
102
RTVSPost2010PropOp53
 70
     1
102
RTVSPost2010Prop54
  1
strokes_ogs.tif
102
RTVSPost2010PropOp54
 70
     1
102
RTVSPost2010Prop55
280
     0
102
RTVSPost2010PropOp55
 70
     1
102
RTVSPost2010Prop56
140
1.0
102
RTVSPost2010PropOp56
 70
     1
102
RTVSPost2010Prop57
140
1.0
102
RTVSPost2010PropOp57
 70
     1
  0
XRECORD
  5
B78
102
{ACAD_REACTORS
330
B77
102
}
330
B77
100
AcDbXrecord
280
     1
102
RTVSPost2010Prop28
280
     0
102
RTVSPost2010PropOp28
 70
     1
102
RTVSPost2010Prop29
280
     1
102
RTVSPost2010PropOp29
 70
     1
102
RTVSPost2010Prop30
280
     1
102
RTVSPost2010PropOp30
 70
     1
102
RTVSPost2010Prop31
280
     0
102
RTVSPost2010PropOp31
 70
     1
102
RTVSPost2010Prop32
280
     0
102
RTVSPost2010PropOp32
 70
     1
102
RTVSPost2010Prop33
280
     0
102
RTVSPost2010PropOp33
 70
     1
102
RTVSPost2010Prop34
280
     0
102
RTVSPost2010PropOp34
 70
     1
102
RTVSPost2010Prop35
280
     0
102
RTVSPost2010PropOp35
 70
     1
102
RTVSPost2010Prop36
280
     0
102
RTVSPost2010PropOp36
 70
     1
102
RTVSPost2010Prop37
 90
       50
102
RTVSPost2010PropOp37
 70
     1
102
RTVSPost2010Prop38
140
0.0
102
RTVSPost2010PropOp38
 70
     1
102
RTVSPost2010Prop39
140
1.0
102
RTVSPost2010PropOp39
 70
     1
102
RTVSPost2010Prop40
 90
        0
102
RTVSPost2010PropOp40
 70
     1
102
RTVSPost2010Prop41ColorIndex
 90
       18
102
RTVSPost2010Prop41ColorRGB
 90
        0
102
RTVSPost2010PropOp41
 70
     1
102
RTVSPost2010Prop42
 90
       50
102
RTVSPost2010PropOp42
 70
     1
102
RTVSPost2010Prop43
 90
        3
102
RTVSPost2010PropOp43
 70
     1
102
RTVSPost2010Prop44ColorIndex
 90
        5
102
RTVSPost2010Prop44ColorRGB
 90
      255
102
RTVSPost2010PropOp44
 70
     1
102
RTVSPost2010Prop45
280
     0
102
RTVSPost2010PropOp45
 70
     1
102
RTVSPost2010Prop46
 90
       50
102
RTVSPost2010PropOp46
 70
     1
102
RTVSPost2010Prop47
 90
       50
102
RTVSPost2010PropOp47
 70
     1
102
RTVSPost2010Prop48
 90
       50
102
RTVSPost2010PropOp48
 70
     1
102
RTVSPost2010Prop49
280
     0
102
RTVSPost2010PropOp49
 70
     1
102
RTVSPost2010Prop50
 90
       50
102
RTVSPost2010PropOp50
 70
     1
102
RTVSPost2010Prop51ColorIndex
 90
      256
102
RTVSPost2010Prop51ColorRGB
 90
-16777216
102
RTVSPost2010PropOp51
 70
     0
102
RTVSPost2010Prop52
140
1.0
102
RTVSPost2010PropOp52
 70
     0
102
RTVSPost2010Prop53
 90
        2
102
RTVSPost2010PropOp53
 70
     1
102
RTVSPost2010Prop54
  1
strokes_ogs.tif
102
RTVSPost2010PropOp54
 70
     1
102
RTVSPost2010Prop55
280
     0
102
RTVSPost2010PropOp55
 70
     1
102
RTVSPost2010Prop56
140
1.0
102
RTVSPost2010PropOp56
 70
     1
102
RTVSPost2010Prop57
140
1.0
102
RTVSPost2010PropOp57
 70
     1
  0
XRECORD
  5
B7A
102
{ACAD_REACTORS
330
B79
102
}
330
B79
100
AcDbXrecord
280
     1
102
RTVSPost2010Prop28
280
     0
102
RTVSPost2010PropOp28
 70
     1
102
RTVSPost2010Prop29
280
     1
102
RTVSPost2010PropOp29
 70
     1
102
RTVSPost2010Prop30
280
     1
102
RTVSPost2010PropOp30
 70
     1
102
RTVSPost2010Prop31
280
     0
102
RTVSPost2010PropOp31
 70
     1
102
RTVSPost2010Prop32
280
     0
102
RTVSPost2010PropOp32
 70
     1
102
RTVSPost2010Prop33
280
     0
102
RTVSPost2010PropOp33
 70
     1
102
RTVSPost2010Prop34
280
     0
102
RTVSPost2010PropOp34
 70
     1
102
RTVSPost2010Prop35
280
     0
102
RTVSPost2010PropOp35
 70
     1
102
RTVSPost2010Prop36
280
     0
102
RTVSPost2010PropOp36
 70
     1
102
RTVSPost2010Prop37
 90
       50
102
RTVSPost2010PropOp37
 70
     1
102
RTVSPost2010Prop38
140
0.0
102
RTVSPost2010PropOp38
 70
     1
102
RTVSPost2010Prop39
140
1.0
102
RTVSPost2010PropOp39
 70
     1
102
RTVSPost2010Prop40
 90
        0
102
RTVSPost2010PropOp40
 70
     1
102
RTVSPost2010Prop41ColorIndex
 90
       18
102
RTVSPost2010Prop41ColorRGB
 90
        0
102
RTVSPost2010PropOp41
 70
     1
102
RTVSPost2010Prop42
 90
       50
102
RTVSPost2010PropOp42
 70
     1
102
RTVSPost2010Prop43
 90
        3
102
RTVSPost2010PropOp43
 70
     1
102
RTVSPost2010Prop44ColorIndex
 90
        5
102
RTVSPost2010Prop44ColorRGB
 90
      255
102
RTVSPost2010PropOp44
 70
     1
102
RTVSPost2010Prop45
280
     0
102
RTVSPost2010PropOp45
 70
     1
102
RTVSPost2010Prop46
 90
       50
102
RTVSPost2010PropOp46
 70
     1
102
RTVSPost2010Prop47
 90
       50
102
RTVSPost2010PropOp47
 70
     1
102
RTVSPost2010Prop48
 90
       50
102
RTVSPost2010PropOp48
 70
     1
102
RTVSPost2010Prop49
280
     0
102
RTVSPost2010PropOp49
 70
     1
102
RTVSPost2010Prop50
 90
       50
102
RTVSPost2010PropOp50
 70
     1
102
RTVSPost2010Prop51ColorIndex
 90
      256
102
RTVSPost2010Prop51ColorRGB
 90
-16777216
102
RTVSPost2010PropOp51
 70
     0
102
RTVSPost2010Prop52
140
1.0
102
RTVSPost2010PropOp52
 70
     0
102
RTVSPost2010Prop53
 90
        2
102
RTVSPost2010PropOp53
 70
     1
102
RTVSPost2010Prop54
  1
strokes_ogs.tif
102
RTVSPost2010PropOp54
 70
     1
102
RTVSPost2010Prop55
280
     0
102
RTVSPost2010PropOp55
 70
     1
102
RTVSPost2010Prop56
140
1.0
102
RTVSPost2010PropOp56
 70
     1
102
RTVSPost2010Prop57
140
1.0
102
RTVSPost2010PropOp57
 70
     1
  0
XRECORD
  5
B6C
102
{ACAD_REACTORS
330
B6B
102
}
330
B6B
100
AcDbXrecord
280
     1
102
RTVSPost2010Prop28
280
     0
102
RTVSPost2010PropOp28
 70
     1
102
RTVSPost2010Prop29
280
     1
102
RTVSPost2010PropOp29
 70
     1
102
RTVSPost2010Prop30
280
     1
102
RTVSPost2010PropOp30
 70
     1
102
RTVSPost2010Prop31
280
     0
102
RTVSPost2010PropOp31
 70
     1
102
RTVSPost2010Prop32
280
     0
102
RTVSPost2010PropOp32
 70
     1
102
RTVSPost2010Prop33
280
     0
102
RTVSPost2010PropOp33
 70
     1
102
RTVSPost2010Prop34
280
     0
102
RTVSPost2010PropOp34
 70
     1
102
RTVSPost2010Prop35
280
     0
102
RTVSPost2010PropOp35
 70
     1
102
RTVSPost2010Prop36
280
     0
102
RTVSPost2010PropOp36
 70
     1
102
RTVSPost2010Prop37
 90
       50
102
RTVSPost2010PropOp37
 70
     1
102
RTVSPost2010Prop38
140
0.0
102
RTVSPost2010PropOp38
 70
     1
102
RTVSPost2010Prop39
140
1.0
102
RTVSPost2010PropOp39
 70
     1
102
RTVSPost2010Prop40
 90
        0
102
RTVSPost2010PropOp40
 70
     1
102
RTVSPost2010Prop41ColorIndex
 90
       18
102
RTVSPost2010Prop41ColorRGB
 90
        0
102
RTVSPost2010PropOp41
 70
     1
102
RTVSPost2010Prop42
 90
       50
102
RTVSPost2010PropOp42
 70
     1
102
RTVSPost2010Prop43
 90
        3
102
RTVSPost2010PropOp43
 70
     1
102
RTVSPost2010Prop44ColorIndex
 90
        5
102
RTVSPost2010Prop44ColorRGB
 90
      255
102
RTVSPost2010PropOp44
 70
     1
102
RTVSPost2010Prop45
280
     0
102
RTVSPost2010PropOp45
 70
     1
102
RTVSPost2010Prop46
 90
       50
102
RTVSPost2010PropOp46
 70
     1
102
RTVSPost2010Prop47
 90
       50
102
RTVSPost2010PropOp47
 70
     1
102
RTVSPost2010Prop48
 90
       50
102
RTVSPost2010PropOp48
 70
     1
102
RTVSPost2010Prop49
280
     0
102
RTVSPost2010PropOp49
 70
     1
102
RTVSPost2010Prop50
 90
       50
102
RTVSPost2010PropOp50
 70
     1
102
RTVSPost2010Prop51ColorIndex
 90
      256
102
RTVSPost2010Prop51ColorRGB
 90
-16777216
102
RTVSPost2010PropOp51
 70
     0
102
RTVSPost2010Prop52
140
1.0
102
RTVSPost2010PropOp52
 70
     0
102
RTVSPost2010Prop53
 90
        2
102
RTVSPost2010PropOp53
 70
     1
102
RTVSPost2010Prop54
  1
strokes_ogs.tif
102
RTVSPost2010PropOp54
 70
     1
102
RTVSPost2010Prop55
280
     0
102
RTVSPost2010PropOp55
 70
     1
102
RTVSPost2010Prop56
140
1.0
102
RTVSPost2010PropOp56
 70
     1
102
RTVSPost2010Prop57
140
1.0
102
RTVSPost2010PropOp57
 70
     1
  0
XRECORD
  5
B74
102
{ACAD_REACTORS
330
B73
102
}
330
B73
100
AcDbXrecord
280
     1
102
RTVSPost2010Prop28
280
     0
102
RTVSPost2010PropOp28
 70
     1
102
RTVSPost2010Prop29
280
     1
102
RTVSPost2010PropOp29
 70
     1
102
RTVSPost2010Prop30
280
     1
102
RTVSPost2010PropOp30
 70
     1
102
RTVSPost2010Prop31
280
     0
102
RTVSPost2010PropOp31
 70
     1
102
RTVSPost2010Prop32
280
     0
102
RTVSPost2010PropOp32
 70
     1
102
RTVSPost2010Prop33
280
     0
102
RTVSPost2010PropOp33
 70
     1
102
RTVSPost2010Prop34
280
     0
102
RTVSPost2010PropOp34
 70
     1
102
RTVSPost2010Prop35
280
     0
102
RTVSPost2010PropOp35
 70
     1
102
RTVSPost2010Prop36
280
     0
102
RTVSPost2010PropOp36
 70
     1
102
RTVSPost2010Prop37
 90
       50
102
RTVSPost2010PropOp37
 70
     1
102
RTVSPost2010Prop38
140
0.0
102
RTVSPost2010PropOp38
 70
     1
102
RTVSPost2010Prop39
140
1.0
102
RTVSPost2010PropOp39
 70
     1
102
RTVSPost2010Prop40
 90
        0
102
RTVSPost2010PropOp40
 70
     1
102
RTVSPost2010Prop41ColorIndex
 90
       18
102
RTVSPost2010Prop41ColorRGB
 90
        0
102
RTVSPost2010PropOp41
 70
     1
102
RTVSPost2010Prop42
 90
       50
102
RTVSPost2010PropOp42
 70
     1
102
RTVSPost2010Prop43
 90
        3
102
RTVSPost2010PropOp43
 70
     1
102
RTVSPost2010Prop44ColorIndex
 90
        5
102
RTVSPost2010Prop44ColorRGB
 90
      255
102
RTVSPost2010PropOp44
 70
     1
102
RTVSPost2010Prop45
280
     0
102
RTVSPost2010PropOp45
 70
     1
102
RTVSPost2010Prop46
 90
       50
102
RTVSPost2010PropOp46
 70
     1
102
RTVSPost2010Prop47
 90
       50
102
RTVSPost2010PropOp47
 70
     1
102
RTVSPost2010Prop48
 90
       50
102
RTVSPost2010PropOp48
 70
     1
102
RTVSPost2010Prop49
280
     0
102
RTVSPost2010PropOp49
 70
     1
102
RTVSPost2010Prop50
 90
       50
102
RTVSPost2010PropOp50
 70
     1
102
RTVSPost2010Prop51ColorIndex
 90
      256
102
RTVSPost2010Prop51ColorRGB
 90
-16777216
102
RTVSPost2010PropOp51
 70
     0
102
RTVSPost2010Prop52
140
1.0
102
RTVSPost2010PropOp52
 70
     0
102
RTVSPost2010Prop53
 90
        2
102
RTVSPost2010PropOp53
 70
     1
102
RTVSPost2010Prop54
  1
strokes_ogs.tif
102
RTVSPost2010PropOp54
 70
     1
102
RTVSPost2010Prop55
280
     0
102
RTVSPost2010PropOp55
 70
     1
102
RTVSPost2010Prop56
140
1.0
102
RTVSPost2010PropOp56
 70
     1
102
RTVSPost2010Prop57
140
1.0
102
RTVSPost2010PropOp57
 70
     1
  0
XRECORD
  5
B7C
102
{ACAD_REACTORS
330
B7B
102
}
330
B7B
100
AcDbXrecord
280
     1
102
RTVSPost2010Prop28
280
     0
102
RTVSPost2010PropOp28
 70
     1
102
RTVSPost2010Prop29
280
     1
102
RTVSPost2010PropOp29
 70
     1
102
RTVSPost2010Prop30
280
     1
102
RTVSPost2010PropOp30
 70
     1
102
RTVSPost2010Prop31
280
     0
102
RTVSPost2010PropOp31
 70
     1
102
RTVSPost2010Prop32
280
     0
102
RTVSPost2010PropOp32
 70
     1
102
RTVSPost2010Prop33
280
     0
102
RTVSPost2010PropOp33
 70
     1
102
RTVSPost2010Prop34
280
     0
102
RTVSPost2010PropOp34
 70
     1
102
RTVSPost2010Prop35
280
     0
102
RTVSPost2010PropOp35
 70
     1
102
RTVSPost2010Prop36
280
     0
102
RTVSPost2010PropOp36
 70
     1
102
RTVSPost2010Prop37
 90
       50
102
RTVSPost2010PropOp37
 70
     1
102
RTVSPost2010Prop38
140
0.0
102
RTVSPost2010PropOp38
 70
     1
102
RTVSPost2010Prop39
140
1.0
102
RTVSPost2010PropOp39
 70
     1
102
RTVSPost2010Prop40
 90
        0
102
RTVSPost2010PropOp40
 70
     1
102
RTVSPost2010Prop41ColorIndex
 90
       18
102
RTVSPost2010Prop41ColorRGB
 90
        0
102
RTVSPost2010PropOp41
 70
     1
102
RTVSPost2010Prop42
 90
       50
102
RTVSPost2010PropOp42
 70
     1
102
RTVSPost2010Prop43
 90
        3
102
RTVSPost2010PropOp43
 70
     1
102
RTVSPost2010Prop44ColorIndex
 90
        5
102
RTVSPost2010Prop44ColorRGB
 90
      255
102
RTVSPost2010PropOp44
 70
     1
102
RTVSPost2010Prop45
280
     0
102
RTVSPost2010PropOp45
 70
     1
102
RTVSPost2010Prop46
 90
       50
102
RTVSPost2010PropOp46
 70
     1
102
RTVSPost2010Prop47
 90
       50
102
RTVSPost2010PropOp47
 70
     1
102
RTVSPost2010Prop48
 90
       50
102
RTVSPost2010PropOp48
 70
     1
102
RTVSPost2010Prop49
280
     0
102
RTVSPost2010PropOp49
 70
     1
102
RTVSPost2010Prop50
 90
       50
102
RTVSPost2010PropOp50
 70
     1
102
RTVSPost2010Prop51ColorIndex
 90
      256
102
RTVSPost2010Prop51ColorRGB
 90
-16777216
102
RTVSPost2010PropOp51
 70
     0
102
RTVSPost2010Prop52
140
1.0
102
RTVSPost2010PropOp52
 70
     0
102
RTVSPost2010Prop53
 90
        2
102
RTVSPost2010PropOp53
 70
     1
102
RTVSPost2010Prop54
  1
strokes_ogs.tif
102
RTVSPost2010PropOp54
 70
     1
102
RTVSPost2010Prop55
280
     0
102
RTVSPost2010PropOp55
 70
     1
102
RTVSPost2010Prop56
140
1.0
102
RTVSPost2010PropOp56
 70
     1
102
RTVSPost2010Prop57
140
1.0
102
RTVSPost2010PropOp57
 70
     1
  0
ENDSEC
  0
EOF
