  0
SECTION
  2
HEADER
  9
$ACADVER
  1
AC1027
  9
$ACADMAINTVER
 70
   125
  9
$DWGCODEPAGE
  3
ANSI_1252
  9
$LASTSAVEDBY
  1
kaschu
  9
$REQUIREDVERSIONS
160
                 0
  9
$INSBASE
 10
0.0
 20
0.0
 30
0.0
  9
$EXTMIN
 10
32.930822
 20
23.194603
 30
-0.0000000000000108
  9
$EXTMAX
 10
338.4793387011192
 20
247.2387455770828
 30
0.0000000000000027
  9
$LIMMIN
 10
-0.5
 20
-0.5
  9
$LIMMAX
 10
5.0
 20
5.0
  9
$ORTHOMODE
 70
     0
  9
$REGENMODE
 70
     1
  9
$FILLMODE
 70
     1
  9
$QTEXTMODE
 70
     0
  9
$MIRRTEXT
 70
     1
  9
$LTSCALE
 40
1.0
  9
$ATTMODE
 70
     1
  9
$TEXTSIZE
 40
0.2
  9
$TRACEWID
 40
0.05
  9
$TEXTSTYLE
  7
Standard
  9
$CLAYER
  8
0
  9
$CELTYPE
  6
ByLayer
  9
$CECOLOR
 62
   256
  9
$CELTSCALE
 40
1.0
  9
$DISPSILH
 70
     0
  9
$DIMSCALE
 40
1.0
  9
$DIMASZ
 40
0.18
  9
$DIMEXO
 40
0.0625
  9
$DIMDLI
 40
0.38
  9
$DIMRND
 40
0.0
  9
$DIMDLE
 40
0.0
  9
$DIMEXE
 40
0.18
  9
$DIMTP
 40
0.0
  9
$DIMTM
 40
0.0
  9
$DIMTXT
 40
0.18
  9
$DIMCEN
 40
0.09
  9
$DIMTSZ
 40
0.0
  9
$DIMTOL
 70
     0
  9
$DIMLIM
 70
     0
  9
$DIMTIH
 70
     1
  9
$DIMTOH
 70
     1
  9
$DIMSE1
 70
     0
  9
$DIMSE2
 70
     0
  9
$DIMTAD
 70
     0
  9
$DIMZIN
 70
     0
  9
$DIMBLK
  1

  9
$DIMASO
 70
     1
  9
$DIMSHO
 70
     1
  9
$DIMPOST
  1

  9
$DIMAPOST
  1

  9
$DIMALT
 70
     0
  9
$DIMALTD
 70
     2
  9
$DIMALTF
 40
25.4
  9
$DIMLFAC
 40
1.0
  9
$DIMTOFL
 70
     0
  9
$DIMTVP
 40
0.0
  9
$DIMTIX
 70
     0
  9
$DIMSOXD
 70
     0
  9
$DIMSAH
 70
     0
  9
$DIMBLK1
  1

  9
$DIMBLK2
  1

  9
$DIMSTYLE
  2
Standard
  9
$DIMCLRD
 70
     0
  9
$DIMCLRE
 70
     0
  9
$DIMCLRT
 70
     0
  9
$DIMTFAC
 40
1.0
  9
$DIMGAP
 40
0.09
  9
$DIMJUST
 70
     0
  9
$DIMSD1
 70
     0
  9
$DIMSD2
 70
     0
  9
$DIMTOLJ
 70
     1
  9
$DIMTZIN
 70
     0
  9
$DIMALTZ
 70
     0
  9
$DIMALTTZ
 70
     0
  9
$DIMUPT
 70
     0
  9
$DIMDEC
 70
     4
  9
$DIMTDEC
 70
     4
  9
$DIMALTU
 70
     2
  9
$DIMALTTD
 70
     2
  9
$DIMTXSTY
  7
Standard
  9
$DIMAUNIT
 70
     0
  9
$DIMADEC
 70
     0
  9
$DIMALTRND
 40
0.0
  9
$DIMAZIN
 70
     0
  9
$DIMDSEP
 70
    46
  9
$DIMATFIT
 70
     3
  9
$DIMFRAC
 70
     0
  9
$DIMLDRBLK
  1

  9
$DIMLUNIT
 70
     2
  9
$DIMLWD
 70
    -2
  9
$DIMLWE
 70
    -2
  9
$DIMTMOVE
 70
     0
  9
$DIMFXL
 40
1.0
  9
$DIMFXLON
 70
     0
  9
$DIMJOGANG
 40
0.7853981633974483
  9
$DIMTFILL
 70
     0
  9
$DIMTFILLCLR
 70
     0
  9
$DIMARCSYM
 70
     0
  9
$DIMLTYPE
  6

  9
$DIMLTEX1
  6

  9
$DIMLTEX2
  6

  9
$DIMTXTDIRECTION
 70
     0
  9
$LUNITS
 70
     2
  9
$LUPREC
 70
     4
  9
$SKETCHINC
 40
0.1
  9
$FILLETRAD
 40
0.5
  9
$AUNITS
 70
     0
  9
$AUPREC
 70
     0
  9
$MENU
  1
.
  9
$ELEVATION
 40
0.0
  9
$PELEVATION
 40
0.0
  9
$THICKNESS
 40
0.0
  9
$LIMCHECK
 70
     0
  9
$CHAMFERA
 40
0.0
  9
$CHAMFERB
 40
0.0
  9
$CHAMFERC
 40
0.0
  9
$CHAMFERD
 40
0.0
  9
$SKPOLY
 70
     0
  9
$TDCREATE
 40
2460188.335833334
  9
$TDUCREATE
 40
2460188.252510324
  9
$TDUPDATE
 40
2460235.477592592
  9
$TDUUPDATE
 40
2460235.394259259
  9
$TDINDWG
 40
0.0007639005
  9
$TDUSRTIMER
 40
0.0007639005
  9
$USRTIMER
 70
     1
  9
$ANGBASE
 50
0.0
  9
$ANGDIR
 70
     0
  9
$PDMODE
 70
     0
  9
$PDSIZE
 40
0.0
  9
$PLINEWID
 40
0.0
  9
$SPLFRAME
 70
     0
  9
$SPLINETYPE
 70
     6
  9
$SPLINESEGS
 70
     8
  9
$HANDSEED
  5
251
  9
$SURFTAB1
 70
     6
  9
$SURFTAB2
 70
     6
  9
$SURFTYPE
 70
     6
  9
$SURFU
 70
     6
  9
$SURFV
 70
     6
  9
$UCSBASE
  2

  9
$UCSNAME
  2

  9
$UCSORG
 10
0.0
 20
0.0
 30
0.0
  9
$UCSXDIR
 10
1.0
 20
0.0
 30
0.0
  9
$UCSYDIR
 10
0.0
 20
1.0
 30
0.0
  9
$UCSORTHOREF
  2

  9
$UCSORTHOVIEW
 70
     0
  9
$UCSORGTOP
 10
0.0
 20
0.0
 30
0.0
  9
$UCSORGBOTTOM
 10
0.0
 20
0.0
 30
0.0
  9
$UCSORGLEFT
 10
0.0
 20
0.0
 30
0.0
  9
$UCSORGRIGHT
 10
0.0
 20
0.0
 30
0.0
  9
$UCSORGFRONT
 10
0.0
 20
0.0
 30
0.0
  9
$UCSORGBACK
 10
0.0
 20
0.0
 30
0.0
  9
$PUCSBASE
  2

  9
$PUCSNAME
  2

  9
$PUCSORG
 10
0.0
 20
0.0
 30
0.0
  9
$PUCSXDIR
 10
1.0
 20
0.0
 30
0.0
  9
$PUCSYDIR
 10
0.0
 20
1.0
 30
0.0
  9
$PUCSORTHOREF
  2

  9
$PUCSORTHOVIEW
 70
     0
  9
$PUCSORGTOP
 10
0.0
 20
0.0
 30
0.0
  9
$PUCSORGBOTTOM
 10
0.0
 20
0.0
 30
0.0
  9
$PUCSORGLEFT
 10
0.0
 20
0.0
 30
0.0
  9
$PUCSORGRIGHT
 10
0.0
 20
0.0
 30
0.0
  9
$PUCSORGFRONT
 10
0.0
 20
0.0
 30
0.0
  9
$PUCSORGBACK
 10
0.0
 20
0.0
 30
0.0
  9
$USERI1
 70
     0
  9
$USERI2
 70
     0
  9
$USERI3
 70
     0
  9
$USERI4
 70
     0
  9
$USERI5
 70
     0
  9
$USERR1
 40
0.0
  9
$USERR2
 40
0.0
  9
$USERR3
 40
0.0
  9
$USERR4
 40
0.0
  9
$USERR5
 40
0.0
  9
$WORLDVIEW
 70
     1
  9
$SHADEDGE
 70
     3
  9
$SHADEDIF
 70
    70
  9
$TILEMODE
 70
     1
  9
$MAXACTVP
 70
    64
  9
$PINSBASE
 10
0.0
 20
0.0
 30
0.0
  9
$PLIMCHECK
 70
     0
  9
$PEXTMIN
 10
-0.5
 20
-0.5
 30
-0.5
  9
$PEXTMAX
 10
5.0
 20
5.0
 30
5.0
  9
$PLIMMIN
 10
-0.5
 20
-0.5
  9
$PLIMMAX
 10
5.0
 20
5.0
  9
$UNITMODE
 70
     0
  9
$VISRETAIN
 70
     1
  9
$PLINEGEN
 70
     0
  9
$PSLTSCALE
 70
     1
  9
$TREEDEPTH
 70
  3020
  9
$CMLSTYLE
  2
Standard
  9
$CMLJUST
 70
     0
  9
$CMLSCALE
 40
1.0
  9
$PROXYGRAPHICS
 70
     1
  9
$MEASUREMENT
 70
     1
  9
$CELWEIGHT
370
    18
  9
$ENDCAPS
280
     0
  9
$JOINSTYLE
280
     0
  9
$LWDISPLAY
290
     1
  9
$INSUNITS
 70
     4
  9
$HYPERLINKBASE
  1

  9
$STYLESHEET
  1

  9
$XEDIT
290
     1
  9
$CEPSNTYPE
380
     0
  9
$PSTYLEMODE
290
     1
  9
$FINGERPRINTGUID
  2
{95BC9147-E636-4A91-805F-8719E29D4E2E}
  9
$VERSIONGUID
  2
{8D4B182A-4BB7-8C4D-88BF-99E8C2801387}
  9
$EXTNAMES
290
     1
  9
$PSVPSCALE
 40
0.0
  9
$OLESTARTUP
290
     0
  9
$SORTENTS
280
   127
  9
$INDEXCTL
280
     0
  9
$HIDETEXT
280
     1
  9
$XCLIPFRAME
280
     2
  9
$HALOGAP
280
     0
  9
$OBSCOLOR
 70
   257
  9
$OBSLTYPE
280
     0
  9
$INTERSECTIONDISPLAY
280
     0
  9
$INTERSECTIONCOLOR
 70
   257
  9
$DIMASSOC
280
     2
  9
$PROJECTNAME
  1

  9
$CAMERADISPLAY
290
     0
  9
$LENSLENGTH
 40
50.0
  9
$CAMERAHEIGHT
 40
0.0
  9
$STEPSPERSEC
 40
2.0
  9
$STEPSIZE
 40
6.0
  9
$3DDWFPREC
 40
2.0
  9
$PSOLWIDTH
 40
0.25
  9
$PSOLHEIGHT
 40
4.0
  9
$LOFTANG1
 40
1.570796326794896
  9
$LOFTANG2
 40
1.570796326794896
  9
$LOFTMAG1
 40
0.0
  9
$LOFTMAG2
 40
0.0
  9
$LOFTPARAM
 70
     7
  9
$LOFTNORMALS
280
     1
  9
$LATITUDE
 40
37.795
  9
$LONGITUDE
 40
-122.394
  9
$NORTHDIRECTION
 40
0.0
  9
$TIMEZONE
 70
 -8000
  9
$LIGHTGLYPHDISPLAY
280
     1
  9
$TILEMODELIGHTSYNCH
280
     1
  9
$CMATERIAL
347
44
  9
$SOLIDHIST
280
     0
  9
$SHOWHIST
280
     1
  9
$DWFFRAME
280
     2
  9
$DGNFRAME
280
     0
  9
$REALWORLDSCALE
290
     1
  9
$INTERFERECOLOR
 62
     1
  9
$INTERFEREOBJVS
345
33
  9
$INTERFEREVPVS
346
30
  9
$CSHADOW
280
     0
  9
$SHADOWPLANELOCATION
 40
0.0
  0
ENDSEC
  0
SECTION
  2
CLASSES
  0
CLASS
  1
ACDBDICTIONARYWDFLT
  2
AcDbDictionaryWithDefault
  3
ObjectDBX Classes
 90
        0
 91
        1
280
     0
281
     0
  0
CLASS
  1
VISUALSTYLE
  2
AcDbVisualStyle
  3
ObjectDBX Classes
 90
     4095
 91
       24
280
     0
281
     0
  0
CLASS
  1
MATERIAL
  2
AcDbMaterial
  3
ObjectDBX Classes
 90
     1153
 91
        3
280
     0
281
     0
  0
CLASS
  1
SCALE
  2
AcDbScale
  3
ObjectDBX Classes
 90
     1153
 91
       33
280
     0
281
     0
  0
CLASS
  1
TABLESTYLE
  2
AcDbTableStyle
  3
ObjectDBX Classes
 90
     4095
 91
        1
280
     0
281
     0
  0
CLASS
  1
MLEADERSTYLE
  2
AcDbMLeaderStyle
  3
ACDB_MLEADERSTYLE_CLASS
 90
     4095
 91
        1
280
     0
281
     0
  0
CLASS
  1
SUN
  2
AcDbSun
  3
SCENEOE
 90
     1153
 91
        0
280
     0
281
     0
  0
CLASS
  1
DICTIONARYVAR
  2
AcDbDictionaryVar
  3
ObjectDBX Classes
 90
        0
 91
       10
280
     0
281
     0
  0
CLASS
  1
CELLSTYLEMAP
  2
AcDbCellStyleMap
  3
ObjectDBX Classes
 90
     1152
 91
        2
280
     0
281
     0
  0
CLASS
  1
ACDBSECTIONVIEWSTYLE
  2
AcDbSectionViewStyle
  3
ObjectDBX Classes
 90
     1025
 91
        1
280
     0
281
     0
  0
CLASS
  1
ACDBDETAILVIEWSTYLE
  2
AcDbDetailViewStyle
  3
ObjectDBX Classes
 90
     1025
 91
        1
280
     0
281
     0
  0
ENDSEC
  0
SECTION
  2
TABLES
  0
TABLE
  2
VPORT
  5
8
330
0
100
AcDbSymbolTable
 70
    16
1001
ACAD
1000
DbSaveVer
1071
      224
  0
VPORT
  5
29
330
8
100
AcDbSymbolTableRecord
100
AcDbViewportTableRecord
  2
*Active
 70
     0
 10
0.0
 20
0.0
 11
1.0
 21
1.0
 12
377.2789411061523
 22
105.9302316702277
 13
0.0
 23
0.0
 14
0.5
 24
0.5
 15
0.5
 25
0.5
 16
0.0
 26
0.0
 36
1.0
 17
0.0
 27
0.0
 37
0.0
 40
326.118068292946
 41
2.209601873536299
 42
50.0
 43
441.6724
 44
-441.6724
 50
0.0
 51
0.0
 71
     0
 72
   100
 73
     1
 74
     3
 75
     0
 76
     0
 77
     0
 78
     0
281
     0
 65
     1
110
0.0
120
0.0
130
0.0
111
1.0
121
0.0
131
0.0
112
0.0
122
1.0
132
0.0
 79
     0
146
0.0
348
2F
 60
     3
 61
     5
292
     1
282
     1
141
0.0
142
0.0
 63
   250
421
  3355443
1001
ACAD_NAV_VCDISPLAY
1070
     3
  0
VPORT
  5
1D3
330
8
100
AcDbSymbolTableRecord
100
AcDbViewportTableRecord
  2
L1
 70
     0
 10
0.0
 20
0.0
 11
1.0
 21
1.0
 12
148.218538
 22
102.8512
 13
0.0
 23
0.0
 14
0.5
 24
0.5
 15
0.5
 25
0.5
 16
0.0
 26
0.0
 36
1.0
 17
0.0
 27
0.0
 37
0.0
 40
223.04375
 41
0.079611
 42
50.0
 43
441.6724
 44
-441.6724
 50
0.0
 51
0.0
 71
     0
 72
   100
 73
     1
 74
     3
 75
     0
 76
     0
 77
     0
 78
     0
281
     0
 65
     1
110
0.0
120
0.0
130
0.0
111
1.0
121
0.0
131
0.0
112
0.0
122
1.0
132
0.0
 79
     0
146
0.0
348
2F
 60
     3
 61
     5
292
     1
282
     1
141
0.0
142
0.0
 63
   250
421
  3355443
  0
VPORT
  5
1D4
330
8
100
AcDbSymbolTableRecord
100
AcDbViewportTableRecord
  2
L2
 70
     0
 10
0.0
 20
0.0
 11
0.5
 21
1.0
 12
0.0
 22
0.0
 13
0.0
 23
0.0
 14
0.5
 24
0.5
 15
0.5
 25
0.5
 16
0.0
 26
-1.0
 36
0.0
 17
0.0
 27
0.0
 37
0.0
 40
1533.959406
 41
0.011576
 42
50.0
 43
792.934797
 44
-792.934797
 50
0.0
 51
0.0
 71
     0
 72
   100
 73
     1
 74
     3
 75
     0
 76
     0
 77
     0
 78
     0
281
     0
 65
     1
110
0.0
120
0.0
130
0.0
111
1.0
121
0.0
131
0.0
112
0.0
122
1.0
132
0.0
 79
     0
146
0.0
348
2F
 60
     3
 61
     5
292
     1
282
     1
141
0.0
142
0.0
 63
   250
421
  3355443
  0
VPORT
  5
1D5
330
8
100
AcDbSymbolTableRecord
100
AcDbViewportTableRecord
  2
L2
 70
     0
 10
0.5
 20
0.0
 11
1.0
 21
1.0
 12
0.0
 22
0.0
 13
0.0
 23
0.0
 14
0.5
 24
0.5
 15
0.5
 25
0.5
 16
1.0
 26
0.0
 36
0.0
 17
0.0
 27
0.0
 37
0.0
 40
1533.959406
 41
0.011576
 42
50.0
 43
775.0451559999999
 44
-775.0451559999999
 50
0.0
 51
0.0
 71
     0
 72
   100
 73
     1
 74
     3
 75
     0
 76
     0
 77
     0
 78
     0
281
     0
 65
     1
110
0.0
120
0.0
130
0.0
111
1.0
121
0.0
131
0.0
112
0.0
122
1.0
132
0.0
 79
     0
146
0.0
348
2F
 60
     3
 61
     5
292
     1
282
     1
141
0.0
142
0.0
 63
   250
421
  3355443
  0
VPORT
  5
1D6
330
8
100
AcDbSymbolTableRecord
100
AcDbViewportTableRecord
  2
L3
 70
     0
 10
0.0
 20
0.5
 11
1.0
 21
1.0
 12
148.218538
 22
102.8512
 13
0.0
 23
0.0
 14
0.5
 24
0.5
 15
0.5
 25
0.5
 16
0.0
 26
0.0
 36
1.0
 17
0.0
 27
0.0
 37
0.0
 40
223.04375
 41
0.079611
 42
50.0
 43
441.6724
 44
-441.6724
 50
0.0
 51
0.0
 71
     0
 72
   100
 73
     1
 74
     3
 75
     0
 76
     0
 77
     0
 78
     0
281
     0
 65
     1
110
0.0
120
0.0
130
0.0
111
1.0
121
0.0
131
0.0
112
0.0
122
1.0
132
0.0
 79
     0
146
0.0
348
2F
 60
     3
 61
     5
292
     1
282
     1
141
0.0
142
0.0
 63
   250
421
  3355443
  0
VPORT
  5
1D7
330
8
100
AcDbSymbolTableRecord
100
AcDbViewportTableRecord
  2
L3
 70
     0
 10
0.0
 20
0.0
 11
1.0
 21
0.5
 12
0.0
 22
0.0
 13
0.0
 23
0.0
 14
0.5
 24
0.5
 15
0.5
 25
0.5
 16
0.0
 26
-1.0
 36
0.0
 17
0.0
 27
0.0
 37
0.0
 40
1533.959406
 41
0.011576
 42
50.0
 43
792.934797
 44
-792.934797
 50
0.0
 51
0.0
 71
     0
 72
   100
 73
     1
 74
     3
 75
     0
 76
     0
 77
     0
 78
     0
281
     0
 65
     1
110
0.0
120
0.0
130
0.0
111
1.0
121
0.0
131
0.0
112
0.0
122
1.0
132
0.0
 79
     0
146
0.0
348
2F
 60
     3
 61
     5
292
     1
282
     1
141
0.0
142
0.0
 63
   250
421
  3355443
  0
VPORT
  5
1D8
330
8
100
AcDbSymbolTableRecord
100
AcDbViewportTableRecord
  2
L4
 70
     0
 10
0.0
 20
0.5
 11
0.5
 21
1.0
 12
148.218538
 22
102.8512
 13
0.0
 23
0.0
 14
0.5
 24
0.5
 15
0.5
 25
0.5
 16
0.0
 26
0.0
 36
1.0
 17
0.0
 27
0.0
 37
0.0
 40
223.04375
 41
0.079611
 42
50.0
 43
441.6724
 44
-441.6724
 50
0.0
 51
0.0
 71
     0
 72
   100
 73
     1
 74
     3
 75
     0
 76
     0
 77
     0
 78
     0
281
     0
 65
     1
110
0.0
120
0.0
130
0.0
111
1.0
121
0.0
131
0.0
112
0.0
122
1.0
132
0.0
 79
     0
146
0.0
348
2F
 60
     3
 61
     5
292
     1
282
     1
141
0.0
142
0.0
 63
   250
421
  3355443
  0
VPORT
  5
1D9
330
8
100
AcDbSymbolTableRecord
100
AcDbViewportTableRecord
  2
L4
 70
     0
 10
0.0
 20
0.0
 11
0.5
 21
0.5
 12
0.0
 22
0.0
 13
0.0
 23
0.0
 14
0.5
 24
0.5
 15
0.5
 25
0.5
 16
0.0
 26
-1.0
 36
0.0
 17
0.0
 27
0.0
 37
0.0
 40
1533.959406
 41
0.011576
 42
50.0
 43
792.934797
 44
-792.934797
 50
0.0
 51
0.0
 71
     0
 72
   100
 73
     1
 74
     3
 75
     0
 76
     0
 77
     0
 78
     0
281
     0
 65
     1
110
0.0
120
0.0
130
0.0
111
1.0
121
0.0
131
0.0
112
0.0
122
1.0
132
0.0
 79
     0
146
0.0
348
2F
 60
     3
 61
     5
292
     1
282
     1
141
0.0
142
0.0
 63
   250
421
  3355443
  0
VPORT
  5
1DA
330
8
100
AcDbSymbolTableRecord
100
AcDbViewportTableRecord
  2
L4
 70
     0
 10
0.5
 20
0.0
 11
1.0
 21
0.5
 12
0.0
 22
0.0
 13
0.0
 23
0.0
 14
0.5
 24
0.5
 15
0.5
 25
0.5
 16
1.0
 26
0.0
 36
0.0
 17
0.0
 27
0.0
 37
0.0
 40
1533.959406
 41
0.011576
 42
50.0
 43
775.0451559999999
 44
-775.0451559999999
 50
0.0
 51
0.0
 71
     0
 72
   100
 73
     1
 74
     3
 75
     0
 76
     0
 77
     0
 78
     0
281
     0
 65
     1
110
0.0
120
0.0
130
0.0
111
1.0
121
0.0
131
0.0
112
0.0
122
1.0
132
0.0
 79
     0
146
0.0
348
2F
 60
     3
 61
     5
292
     1
282
     1
141
0.0
142
0.0
 63
   250
421
  3355443
  0
VPORT
  5
1DB
330
8
100
AcDbSymbolTableRecord
100
AcDbViewportTableRecord
  2
L4
 70
     0
 10
0.5
 20
0.5
 11
1.0
 21
1.0
 12
0.0
 22
0.0
 13
0.0
 23
0.0
 14
0.5
 24
0.5
 15
0.5
 25
0.5
 16
0.5773502691896259
 26
-0.5773502691896259
 36
0.5773502691896259
 17
0.0
 27
0.0
 37
0.0
 40
1507.821709
 41
0.011776
 42
50.0
 43
785.6742
 44
-785.6742
 50
0.0
 51
0.0
 71
     0
 72
   100
 73
     1
 74
     3
 75
     0
 76
     0
 77
     0
 78
     0
281
     0
 65
     1
110
0.0
120
0.0
130
0.0
111
1.0
121
0.0
131
0.0
112
0.0
122
1.0
132
0.0
 79
     0
146
0.0
348
2F
 60
     3
 61
     5
292
     1
282
     1
141
0.0
142
0.0
 63
   250
421
  3355443
  0
VPORT
  5
1DC
330
8
100
AcDbSymbolTableRecord
100
AcDbViewportTableRecord
  2
L6
 70
     0
 10
0.0
 20
0.5
 11
0.333333
 21
1.0
 12
0.0
 22
0.0
 13
0.0
 23
0.0
 14
0.5
 24
0.5
 15
0.5
 25
0.5
 16
0.7188730927569434
 26
-0.5850486126764433
 36
0.3754192287502549
 17
0.0
 27
0.0
 37
0.0
 40
1591.791869
 41
0.011155
 42
50.0
 43
824.0364139999998
 44
-824.0364139999998
 50
0.0
 51
0.0
 71
     0
 72
   100
 73
     1
 74
     3
 75
     0
 76
     0
 77
     0
 78
     0
281
     0
 65
     1
110
0.0
120
0.0
130
0.0
111
1.0
121
0.0
131
0.0
112
0.0
122
1.0
132
0.0
 79
     0
146
0.0
348
2F
 60
     3
 61
     5
292
     1
282
     1
141
0.0
142
0.0
 63
   250
421
  3355443
  0
VPORT
  5
1DD
330
8
100
AcDbSymbolTableRecord
100
AcDbViewportTableRecord
  2
L6
 70
     0
 10
0.0
 20
0.0
 11
0.333333
 21
0.5
 12
0.0
 22
0.0
 13
0.0
 23
0.0
 14
0.5
 24
0.5
 15
0.5
 25
0.5
 16
-1.0
 26
0.0
 36
0.0
 17
0.0
 27
0.0
 37
0.0
 40
1533.959406
 41
0.011576
 42
50.0
 43
775.0451559999999
 44
-775.0451559999999
 50
0.0
 51
0.0
 71
     0
 72
   100
 73
     1
 74
     3
 75
     0
 76
     0
 77
     0
 78
     0
281
     0
 65
     1
110
0.0
120
0.0
130
0.0
111
1.0
121
0.0
131
0.0
112
0.0
122
1.0
132
0.0
 79
     0
146
0.0
348
2F
 60
     3
 61
     5
292
     1
282
     1
141
0.0
142
0.0
 63
   250
421
  3355443
  0
VPORT
  5
1DE
330
8
100
AcDbSymbolTableRecord
100
AcDbViewportTableRecord
  2
L6
 70
     0
 10
0.333333
 20
0.5
 11
0.666667
 21
1.0
 12
148.218538
 22
102.8512
 13
0.0
 23
0.0
 14
0.5
 24
0.5
 15
0.5
 25
0.5
 16
0.0
 26
0.0
 36
1.0
 17
0.0
 27
0.0
 37
0.0
 40
223.04375
 41
0.079611
 42
50.0
 43
441.6724
 44
-441.6724
 50
0.0
 51
0.0
 71
     0
 72
   100
 73
     1
 74
     3
 75
     0
 76
     0
 77
     0
 78
     0
281
     0
 65
     1
110
0.0
120
0.0
130
0.0
111
1.0
121
0.0
131
0.0
112
0.0
122
1.0
132
0.0
 79
     0
146
0.0
348
2F
 60
     3
 61
     5
292
     1
282
     1
141
0.0
142
0.0
 63
   250
421
  3355443
  0
VPORT
  5
1DF
330
8
100
AcDbSymbolTableRecord
100
AcDbViewportTableRecord
  2
L6
 70
     0
 10
0.333333
 20
0.0
 11
0.666667
 21
0.5
 12
0.0
 22
0.0
 13
0.0
 23
0.0
 14
0.5
 24
0.5
 15
0.5
 25
0.5
 16
0.0
 26
-1.0
 36
0.0
 17
0.0
 27
0.0
 37
0.0
 40
1533.959406
 41
0.011576
 42
50.0
 43
792.934797
 44
-792.934797
 50
0.0
 51
0.0
 71
     0
 72
   100
 73
     1
 74
     3
 75
     0
 76
     0
 77
     0
 78
     0
281
     0
 65
     1
110
0.0
120
0.0
130
0.0
111
1.0
121
0.0
131
0.0
112
0.0
122
1.0
132
0.0
 79
     0
146
0.0
348
2F
 60
     3
 61
     5
292
     1
282
     1
141
0.0
142
0.0
 63
   250
421
  3355443
  0
VPORT
  5
1E0
330
8
100
AcDbSymbolTableRecord
100
AcDbViewportTableRecord
  2
L6
 70
     0
 10
0.666667
 20
0.5
 11
1.0
 21
1.0
 12
0.0
 22
0.0
 13
0.0
 23
0.0
 14
0.5
 24
0.5
 15
0.5
 25
0.5
 16
0.5773502691896259
 26
-0.5773502691896259
 36
0.5773502691896259
 17
0.0
 27
0.0
 37
0.0
 40
1507.821709
 41
0.011776
 42
50.0
 43
785.6742
 44
-785.6742
 50
0.0
 51
0.0
 71
     0
 72
   100
 73
     1
 74
     3
 75
     0
 76
     0
 77
     0
 78
     0
281
     0
 65
     1
110
0.0
120
0.0
130
0.0
111
1.0
121
0.0
131
0.0
112
0.0
122
1.0
132
0.0
 79
     0
146
0.0
348
2F
 60
     3
 61
     5
292
     1
282
     1
141
0.0
142
0.0
 63
   250
421
  3355443
  0
VPORT
  5
1E1
330
8
100
AcDbSymbolTableRecord
100
AcDbViewportTableRecord
  2
L6
 70
     0
 10
0.666667
 20
0.0
 11
1.0
 21
0.5
 12
0.0
 22
0.0
 13
0.0
 23
0.0
 14
0.5
 24
0.5
 15
0.5
 25
0.5
 16
1.0
 26
0.0
 36
0.0
 17
0.0
 27
0.0
 37
0.0
 40
1533.959406
 41
0.011576
 42
50.0
 43
775.0451559999999
 44
-775.0451559999999
 50
0.0
 51
0.0
 71
     0
 72
   100
 73
     1
 74
     3
 75
     0
 76
     0
 77
     0
 78
     0
281
     0
 65
     1
110
0.0
120
0.0
130
0.0
111
1.0
121
0.0
131
0.0
112
0.0
122
1.0
132
0.0
 79
     0
146
0.0
348
2F
 60
     3
 61
     5
292
     1
282
     1
141
0.0
142
0.0
 63
   250
421
  3355443
  0
ENDTAB
  0
TABLE
  2
LTYPE
  5
5
330
0
100
AcDbSymbolTable
 70
     6
  0
LTYPE
  5
14
330
5
100
AcDbSymbolTableRecord
100
AcDbLinetypeTableRecord
  2
ByBlock
 70
     0
  3

 72
    65
 73
     0
 40
0.0
  0
LTYPE
  5
15
330
5
100
AcDbSymbolTableRecord
100
AcDbLinetypeTableRecord
  2
ByLayer
 70
     0
  3

 72
    65
 73
     0
 40
0.0
  0
LTYPE
  5
16
330
5
100
AcDbSymbolTableRecord
100
AcDbLinetypeTableRecord
  2
Continuous
 70
     0
  3
Solid line
 72
    65
 73
     0
 40
0.0
  0
LTYPE
  5
6E
330
5
100
AcDbSymbolTableRecord
100
AcDbLinetypeTableRecord
  2
CENTER
 70
     0
  3
____ _ ____ _ ____ _ ____
 72
    65
 73
     4
 40
47.4
 49
22.0
 74
     4
 75
     0
340
0
 46
0.0
 50
0.0
 44
0.0
 45
0.0
 49
-8.5
 74
     4
 75
     0
340
0
 46
0.0
 50
0.0
 44
0.0
 45
0.0
 49
8.5
 74
     4
 75
     0
340
0
 46
0.0
 50
0.0
 44
0.0
 45
0.0
 49
-8.5
 74
     4
 75
     0
340
0
 46
0.0
 50
0.0
 44
0.0
 45
0.0
  0
LTYPE
  5
6F
330
5
100
AcDbSymbolTableRecord
100
AcDbLinetypeTableRecord
  2
DASHDOT
 70
     0
  3
_._._._._._._._._._._._._._._._.
 72
    65
 73
     4
 40
70.0
 49
31.0
 74
     4
 75
     0
340
0
 46
0.0
 50
0.0
 44
0.0
 45
0.0
 49
-13.0
 74
     4
 75
     0
340
0
 46
0.0
 50
0.0
 44
0.0
 45
0.0
 49
13.0
 74
     4
 75
     0
340
0
 46
0.0
 50
0.0
 44
0.0
 45
0.0
 49
-13.0
 74
     4
 75
     0
340
0
 46
0.0
 50
0.0
 44
0.0
 45
0.0
  0
LTYPE
  5
70
330
5
100
AcDbSymbolTableRecord
100
AcDbLinetypeTableRecord
  2
DASHED
 70
     0
  3
__ __ __ __ __ __ __ __ __
 72
    65
 73
     2
 40
25.72
 49
12.86
 74
     4
 75
     0
340
0
 46
0.0
 50
0.0
 44
0.0
 45
0.0
 49
-12.86
 74
     4
 75
     0
340
0
 46
0.0
 50
0.0
 44
0.0
 45
0.0
  0
LTYPE
  5
71
330
5
100
AcDbSymbolTableRecord
100
AcDbLinetypeTableRecord
  2
DOT
 70
     0
  3
.........................
 72
    65
 73
     2
 40
10.0
 49
0.0
 74
     4
 75
     0
340
0
 46
0.0
 50
0.0
 44
0.0
 45
0.0
 49
-10.0
 74
     4
 75
     0
340
0
 46
0.0
 50
0.0
 44
0.0
 45
0.0
  0
LTYPE
  5
72
330
5
100
AcDbSymbolTableRecord
100
AcDbLinetypeTableRecord
  2
PHANTOM
 70
     0
  3
____ _ _ ____ _ _ _____ _ _ ____
 72
    65
 73
     6
 40
50.5
 49
18.0
 74
     4
 75
     0
340
0
 46
0.0
 50
0.0
 44
0.0
 45
0.0
 49
-6.5
 74
     4
 75
     0
340
0
 46
0.0
 50
0.0
 44
0.0
 45
0.0
 49
6.5
 74
     4
 75
     0
340
0
 46
0.0
 50
0.0
 44
0.0
 45
0.0
 49
-6.5
 74
     4
 75
     0
340
0
 46
0.0
 50
0.0
 44
0.0
 45
0.0
 49
6.5
 74
     4
 75
     0
340
0
 46
0.0
 50
0.0
 44
0.0
 45
0.0
 49
-6.5
 74
     4
 75
     0
340
0
 46
0.0
 50
0.0
 44
0.0
 45
0.0
  0
ENDTAB
  0
TABLE
  2
LAYER
  5
2
102
{ACAD_XDICTIONARY
360
237
102
}
330
0
100
AcDbSymbolTable
 70
     3
  0
LAYER
  5
10
102
{ACAD_XDICTIONARY
360
241
102
}
330
2
100
AcDbSymbolTableRecord
100
AcDbLayerTableRecord
  2
0
 70
     0
 62
     7
  6
Continuous
370
    -3
390
F
347
46
348
0
  0
LAYER
  5
74
102
{ACAD_XDICTIONARY
360
243
102
}
330
2
100
AcDbSymbolTableRecord
100
AcDbLayerTableRecord
  2
1
 70
     0
 62
     7
420
 16777215
  6
Continuous
370
    -3
390
F
347
46
348
0
  0
LAYER
  5
231
102
{ACAD_XDICTIONARY
360
232
102
}
330
2
100
AcDbSymbolTableRecord
100
AcDbLayerTableRecord
  2
HEWI
 70
     0
 62
     7
  6
Continuous
370
    -3
390
F
347
46
348
0
1001
AcAecLayerStandard
1000

1000

1001
AcCmTransparency
1071
        0
  0
ENDTAB
  0
TABLE
  2
STYLE
  5
3
330
0
100
AcDbSymbolTable
 70
     1
  0
STYLE
  5
11
330
3
100
AcDbSymbolTableRecord
100
AcDbTextStyleTableRecord
  2
Standard
 70
     0
 40
0.0
 41
1.0
 50
0.0
 71
     0
 42
0.2
  3
txt
  4

  0
ENDTAB
  0
TABLE
  2
VIEW
  5
6
330
0
100
AcDbSymbolTable
 70
     0
  0
ENDTAB
  0
TABLE
  2
UCS
  5
7
330
0
100
AcDbSymbolTable
 70
     0
  0
ENDTAB
  0
TABLE
  2
APPID
  5
9
330
0
100
AcDbSymbolTable
 70
     6
  0
APPID
  5
12
330
9
100
AcDbSymbolTableRecord
100
AcDbRegAppTableRecord
  2
ACAD
 70
     0
  0
APPID
  5
221
330
9
100
AcDbSymbolTableRecord
100
AcDbRegAppTableRecord
  2
ACAD_MLEADERVER
 70
     0
  0
APPID
  5
233
330
9
100
AcDbSymbolTableRecord
100
AcDbRegAppTableRecord
  2
ACAD_DSTYLE_DIMBREAK
 70
     0
  0
APPID
  5
234
330
9
100
AcDbSymbolTableRecord
100
AcDbRegAppTableRecord
  2
ACAD_NAV_VCDISPLAY
 70
     0
  0
APPID
  5
235
330
9
100
AcDbSymbolTableRecord
100
AcDbRegAppTableRecord
  2
AcAecLayerStandard
 70
     0
  0
APPID
  5
236
330
9
100
AcDbSymbolTableRecord
100
AcDbRegAppTableRecord
  2
AcCmTransparency
 70
     0
  0
ENDTAB
  0
TABLE
  2
DIMSTYLE
  5
A
330
0
100
AcDbSymbolTable
 70
     1
100
AcDbDimStyleTable
 71
     0
  0
DIMSTYLE
105
27
330
A
100
AcDbSymbolTableRecord
100
AcDbDimStyleTableRecord
  2
Standard
 70
     0
340
11
  0
ENDTAB
  0
TABLE
  2
BLOCK_RECORD
  5
1
330
0
100
AcDbSymbolTable
 70
     2
  0
BLOCK_RECORD
  5
1F
330
1
100
AcDbSymbolTableRecord
100
AcDbBlockTableRecord
  2
*Model_Space
340
22
 70
     0
280
     1
281
     0
  0
BLOCK_RECORD
  5
1B
330
1
100
AcDbSymbolTableRecord
100
AcDbBlockTableRecord
  2
*Paper_Space
340
1E
 70
     0
280
     1
281
     0
  0
BLOCK_RECORD
  5
23
330
1
100
AcDbSymbolTableRecord
100
AcDbBlockTableRecord
  2
*Paper_Space0
340
26
 70
     0
280
     1
281
     0
  0
ENDTAB
  0
ENDSEC
  0
SECTION
  2
BLOCKS
  0
BLOCK
  5
20
330
1F
100
AcDbEntity
  8
0
100
AcDbBlockBegin
  2
*Model_Space
 70
     0
 10
0.0
 20
0.0
 30
0.0
  3
*Model_Space
  1

  0
ENDBLK
  5
21
330
1F
100
AcDbEntity
  8
0
100
AcDbBlockEnd
  0
BLOCK
  5
1C
330
1B
100
AcDbEntity
 67
     1
  8
0
100
AcDbBlockBegin
  2
*Paper_Space
 70
     0
 10
0.0
 20
0.0
 30
0.0
  3
*Paper_Space
  1

  0
ENDBLK
  5
1D
330
1B
100
AcDbEntity
 67
     1
  8
0
100
AcDbBlockEnd
  0
BLOCK
  5
24
330
23
100
AcDbEntity
 67
     1
  8
0
100
AcDbBlockBegin
  2
*Paper_Space0
 70
     0
 10
0.0
 20
0.0
 30
0.0
  3
*Paper_Space0
  1

  0
ENDBLK
  5
25
330
23
100
AcDbEntity
 67
     1
  8
0
100
AcDbBlockEnd
  0
ENDSEC
  0
SECTION
  2
ENTITIES
  0
POINT
  5
73
330
1F
100
AcDbEntity
  8
1
  6
Continuous
 62
     8
 60
     1
370
    13
100
AcDbPoint
 10
55.280822
 20
36.49460300000001
 30
0.0
  0
POINT
  5
75
330
1F
100
AcDbEntity
  8
1
  6
Continuous
 62
     8
 60
     1
370
    13
100
AcDbPoint
 10
55.280822
 20
48.394603
 30
0.0
  0
POINT
  5
76
330
1F
100
AcDbEntity
  8
1
  6
Continuous
 62
     8
 60
     1
370
    13
100
AcDbPoint
 10
157.448969
 20
161.607797
 30
0.0
  0
POINT
  5
77
330
1F
100
AcDbEntity
  8
1
  6
Continuous
 62
     8
 60
     1
370
    13
100
AcDbPoint
 10
145.548969
 20
161.607797
 30
0.0
  0
POINT
  5
78
330
1F
100
AcDbEntity
  8
1
  6
Continuous
 62
     8
 60
     1
370
    13
100
AcDbPoint
 10
157.448969
 20
118.607797
 30
0.0
  0
POINT
  5
79
330
1F
100
AcDbEntity
  8
1
  6
Continuous
 62
     8
 60
     1
370
    13
100
AcDbPoint
 10
145.548969
 20
118.607797
 30
0.0
  0
POINT
  5
7A
330
1F
100
AcDbEntity
  8
1
  6
Continuous
 62
     8
 60
     1
370
    13
100
AcDbPoint
 10
240.923158
 20
140.707457
 30
0.0
  0
POINT
  5
7B
330
1F
100
AcDbEntity
  8
1
  6
Continuous
 62
     8
 60
     1
370
    13
100
AcDbPoint
 10
248.559912
 20
136.298376
 30
0.0
  0
POINT
  5
7C
330
1F
100
AcDbEntity
  8
1
  6
Continuous
 62
     8
 60
     1
370
    13
100
AcDbPoint
 10
248.559912
 20
136.298376
 30
0.0
  0
POINT
  5
7D
330
1F
100
AcDbEntity
  8
1
  6
Continuous
 62
     8
 60
     1
370
    13
100
AcDbPoint
 10
243.751586
 20
139.074464
 30
0.0
  0
LINE
  5
8E
330
1F
100
AcDbEntity
  8
1
  6
Continuous
 62
     8
 60
     1
370
    18
100
AcDbLine
 10
0.0
 20
0.0
 30
0.0
 11
0.0
 21
210.0
 31
0.0
  0
LINE
  5
8F
330
1F
100
AcDbEntity
  8
1
  6
Continuous
 62
     8
 60
     1
370
    18
100
AcDbLine
 10
297.0
 20
210.0
 30
0.0
 11
0.0
 21
210.0
 31
0.0
  0
LINE
  5
90
330
1F
100
AcDbEntity
  8
1
  6
Continuous
 62
     8
 60
     1
370
    18
100
AcDbLine
 10
297.0
 20
210.0
 30
0.0
 11
297.0
 21
0.0
 31
0.0
  0
LINE
  5
91
330
1F
100
AcDbEntity
  8
1
  6
Continuous
 62
     8
 60
     1
370
    18
100
AcDbLine
 10
0.0
 20
0.0
 30
0.0
 11
297.0
 21
0.0
 31
0.0
  0
LINE
  5
92
330
1F
100
AcDbEntity
  8
HEWI
100
AcDbLine
 10
152.523969
 20
153.550489
 30
0.0
 11
152.548973
 21
153.550489
 31
0.0
  0
LINE
  5
93
330
1F
100
AcDbEntity
  8
HEWI
100
AcDbLine
 10
152.548973
 20
153.403424
 30
0.0
 11
152.523969
 21
153.403424
 31
0.0
  0
LINE
  5
94
330
1F
100
AcDbEntity
  8
HEWI
100
AcDbLine
 10
152.548973
 20
156.854822
 30
0.0
 11
152.523969
 21
156.854822
 31
0.0
  0
LINE
  5
95
330
1F
100
AcDbEntity
  8
HEWI
100
AcDbLine
 10
152.523969
 20
151.309757
 30
0.0
 11
152.548973
 21
151.309757
 31
0.0
  0
LINE
  5
96
330
1F
100
AcDbEntity
  8
HEWI
100
AcDbLine
 10
152.548973
 20
151.029145
 30
0.0
 11
152.523969
 21
151.029145
 31
0.0
  0
LINE
  5
97
330
1F
100
AcDbEntity
  8
HEWI
100
AcDbLine
 10
152.548973
 20
149.893949
 30
0.0
 11
152.523969
 21
149.893949
 31
0.0
  0
LINE
  5
98
330
1F
100
AcDbEntity
  8
HEWI
100
AcDbLine
 10
152.548973
 20
155.079502
 30
0.0
 11
152.523969
 21
155.079502
 31
0.0
  0
LINE
  5
99
330
1F
100
AcDbEntity
  8
HEWI
100
AcDbLine
 10
152.523969
 20
148.357797
 30
0.0
 11
152.548973
 21
148.357797
 31
0.0
  0
LINE
  5
9A
330
1F
100
AcDbEntity
  8
HEWI
100
AcDbLine
 10
149.048969
 20
113.607797
 30
0.0
 11
152.548968
 21
113.607797
 31
0.0
  0
LINE
  5
9B
330
1F
100
AcDbEntity
  8
HEWI
100
AcDbLine
 10
149.048969
 20
123.607797
 30
0.0
 11
148.048969
 21
122.607797
 31
0.0
  0
LINE
  5
9C
330
1F
100
AcDbEntity
  8
HEWI
100
AcDbLine
 10
154.748969
 20
104.096198
 30
0.0
 11
162.383874
 21
104.229466
 31
0.0
  0
LINE
  5
9D
330
1F
100
AcDbEntity
  8
HEWI
100
AcDbLine
 10
148.048969
 20
157.607797
 30
0.0
 11
149.048969
 21
156.607797
 31
0.0
  0
LINE
  5
9E
330
1F
100
AcDbEntity
  8
HEWI
100
AcDbLine
 10
149.048969
 20
156.607797
 30
0.0
 11
152.54896
 21
156.607797
 31
0.0
  0
LINE
  5
9F
330
1F
100
AcDbEntity
  8
HEWI
100
AcDbLine
 10
148.048969
 20
114.607797
 30
0.0
 11
149.048969
 21
113.607797
 31
0.0
  0
LINE
  5
A0
330
1F
100
AcDbEntity
  8
HEWI
100
AcDbLine
 10
152.548968
 20
166.607797
 30
0.0
 11
149.048969
 21
166.607797
 31
0.0
  0
LINE
  5
A1
330
1F
100
AcDbEntity
  8
HEWI
100
AcDbLine
 10
152.54896
 20
123.607797
 30
0.0
 11
149.048969
 21
123.607797
 31
0.0
  0
LINE
  5
A2
330
1F
100
AcDbEntity
  8
HEWI
100
AcDbLine
 10
162.383874
 20
175.986128
 30
0.0
 11
152.548969
 21
176.157797
 31
0.0
  0
LINE
  5
A3
330
1F
100
AcDbEntity
  8
HEWI
100
AcDbLine
 10
149.048969
 20
166.607797
 30
0.0
 11
148.048969
 21
165.607797
 31
0.0
  0
LINE
  5
A4
330
1F
100
AcDbEntity
  8
HEWI
100
AcDbLine
 10
152.548969
 20
104.339277
 30
0.0
 11
152.548969
 21
120.057797
 31
0.0
  0
LINE
  5
A5
330
1F
100
AcDbEntity
  8
HEWI
100
AcDbLine
 10
152.548969
 20
120.057797
 30
0.0
 11
152.548969
 21
160.157797
 31
0.0
  0
LINE
  5
A6
330
1F
100
AcDbEntity
  8
HEWI
100
AcDbLine
 10
164.348969
 20
173.986432
 30
0.0
 11
164.348969
 21
160.157797
 31
0.0
  0
LINE
  5
A7
330
1F
100
AcDbEntity
  8
HEWI
100
AcDbLine
 10
164.348969
 20
106.229161
 30
0.0
 11
164.348969
 21
120.057797
 31
0.0
  0
LINE
  5
A8
330
1F
100
AcDbEntity
  8
HEWI
100
AcDbLine
 10
164.348969
 20
120.057797
 30
0.0
 11
164.348969
 21
160.157797
 31
0.0
  0
LINE
  5
A9
330
1F
100
AcDbEntity
  8
HEWI
100
AcDbLine
 10
164.398969
 20
122.827797
 30
0.0
 11
164.398969
 21
120.107797
 31
0.0
  0
LINE
  5
AA
330
1F
100
AcDbEntity
  8
HEWI
100
AcDbLine
 10
122.348969
 20
137.107797
 30
0.0
 11
122.348969
 21
143.107797
 31
0.0
  0
LINE
  5
AB
330
1F
100
AcDbEntity
  8
HEWI
100
AcDbLine
 10
122.348969
 20
143.107797
 30
0.0
 11
122.848969
 21
143.607797
 31
0.0
  0
LINE
  5
AC
330
1F
100
AcDbEntity
  8
HEWI
100
AcDbLine
 10
122.848969
 20
136.607797
 30
0.0
 11
122.348969
 21
137.107797
 31
0.0
  0
LINE
  5
AD
330
1F
100
AcDbEntity
  8
HEWI
100
AcDbLine
 10
122.848969
 20
143.607797
 30
0.0
 11
152.548705
 21
143.607797
 31
0.0
  0
LINE
  5
AE
330
1F
100
AcDbEntity
  8
HEWI
100
AcDbLine
 10
152.548705
 20
136.607797
 30
0.0
 11
122.848969
 21
136.607797
 31
0.0
  0
LINE
  5
AF
330
1F
100
AcDbEntity
  8
HEWI
100
AcDbLine
 10
148.048969
 20
122.607797
 30
0.0
 11
148.048969
 21
118.607797
 31
0.0
  0
LINE
  5
B0
330
1F
100
AcDbEntity
  8
HEWI
100
AcDbLine
 10
148.048969
 20
118.607797
 30
0.0
 11
148.048969
 21
114.607797
 31
0.0
  0
LINE
  5
B1
330
1F
100
AcDbEntity
  8
HEWI
100
AcDbLine
 10
148.048969
 20
165.607797
 30
0.0
 11
148.048969
 21
161.607797
 31
0.0
  0
LINE
  5
B2
330
1F
100
AcDbEntity
  8
HEWI
100
AcDbLine
 10
148.048969
 20
161.607797
 30
0.0
 11
148.048969
 21
157.607797
 31
0.0
  0
LINE
  5
B3
330
1F
100
AcDbEntity
  8
HEWI
100
AcDbLine
 10
149.048969
 20
113.607797
 30
0.0
 11
149.048969
 21
123.607797
 31
0.0
  0
LINE
  5
B4
330
1F
100
AcDbEntity
  8
HEWI
100
AcDbLine
 10
149.048969
 20
156.607797
 30
0.0
 11
149.048969
 21
166.607797
 31
0.0
  0
LINE
  5
B5
330
1F
100
AcDbEntity
  8
HEWI
100
AcDbLine
 10
164.398969
 20
120.107797
 30
0.0
 11
164.348969
 21
120.107797
 31
0.0
  0
LINE
  5
B6
330
1F
100
AcDbEntity
  8
HEWI
100
AcDbLine
 10
164.398969
 20
122.827797
 30
0.0
 11
164.348969
 21
122.827797
 31
0.0
  0
LINE
  5
B7
330
1F
100
AcDbEntity
  8
HEWI
100
AcDbLine
 10
154.748969
 20
104.096198
 30
0.0
 11
154.748969
 21
104.309393
 31
0.0
  0
LINE
  5
B8
330
1F
100
AcDbEntity
  8
HEWI
100
AcDbLine
 10
152.548969
 20
160.157797
 30
0.0
 11
152.548969
 21
176.157797
 31
0.0
  0
LINE
  5
B9
330
1F
100
AcDbEntity
  8
HEWI
100
AcDbLine
 10
58.618322
 20
29.544603
 30
0.0
 11
59.118322
 21
29.544603
 31
0.0
  0
LINE
  5
BA
330
1F
100
AcDbEntity
  8
HEWI
100
AcDbLine
 10
61.987972
 20
41.419603
 30
0.0
 11
61.987972
 21
41.394599
 31
0.0
  0
LINE
  5
BB
330
1F
100
AcDbEntity
  8
HEWI
100
AcDbLine
 10
56.64957199999999
 20
29.544603
 30
0.0
 11
56.64957199999999
 21
29.594603
 31
0.0
  0
LINE
  5
BC
330
1F
100
AcDbEntity
  8
HEWI
100
AcDbLine
 10
71.10915300000001
 20
31.559698
 30
0.0
 11
71.280822
 21
41.394603
 31
0.0
  0
LINE
  5
BD
330
1F
100
AcDbEntity
  8
HEWI
100
AcDbLine
 10
52.805822
 20
29.544603
 30
0.0
 11
51.868322
 21
29.544603
 31
0.0
  0
LINE
  5
BE
330
1F
100
AcDbEntity
  8
HEWI
100
AcDbLine
 10
50.280822
 20
44.894603
 30
0.0
 11
60.280822
 21
44.894603
 31
0.0
  0
LINE
  5
BF
330
1F
100
AcDbEntity
  8
HEWI
100
AcDbLine
 10
41.45218599999999
 20
29.594603
 30
0.0
 11
69.10945799999999
 21
29.594603
 31
0.0
  0
LINE
  5
C0
330
1F
100
AcDbEntity
  8
HEWI
100
AcDbLine
 10
57.524572
 20
29.544603
 30
0.0
 11
57.524572
 21
29.594603
 31
0.0
  0
LINE
  5
C1
330
1F
100
AcDbEntity
  8
HEWI
100
AcDbLine
 10
57.149572
 20
29.544603
 30
0.0
 11
57.524572
 21
29.544603
 31
0.0
  0
LINE
  5
C2
330
1F
100
AcDbEntity
  8
HEWI
100
AcDbLine
 10
50.280822
 20
44.894603
 30
0.0
 11
50.280822
 21
41.39461299999999
 31
0.0
  0
LINE
  5
C3
330
1F
100
AcDbEntity
  8
HEWI
100
AcDbLine
 10
53.618322
 20
29.544603
 30
0.0
 11
53.618322
 21
29.594603
 31
0.0
  0
LINE
  5
C4
330
1F
100
AcDbEntity
  8
HEWI
100
AcDbLine
 10
51.868322
 20
29.544603
 30
0.0
 11
51.368322
 21
29.544603
 31
0.0
  0
LINE
  5
C5
330
1F
100
AcDbEntity
  8
HEWI
100
AcDbLine
 10
64.23599
 20
41.394603
 30
0.0
 11
64.23599
 21
41.419603
 31
0.0
  0
LINE
  5
C6
330
1F
100
AcDbEntity
  8
HEWI
100
AcDbLine
 10
55.180822
 20
29.544603
 30
0.0
 11
55.180822
 21
29.594603
 31
0.0
  0
LINE
  5
C7
330
1F
100
AcDbEntity
  8
HEWI
100
AcDbLine
 10
55.39957199999999
 20
29.544603
 30
0.0
 11
55.39957199999999
 21
29.594603
 31
0.0
  0
LINE
  5
C8
330
1F
100
AcDbEntity
  8
HEWI
100
AcDbLine
 10
55.899572
 20
29.544603
 30
0.0
 11
56.274572
 21
29.544603
 31
0.0
  0
LINE
  5
C9
330
1F
100
AcDbEntity
  8
HEWI
100
AcDbLine
 10
60.280822
 20
41.39461299999999
 30
0.0
 11
60.280822
 21
44.894603
 31
0.0
  0
LINE
  5
CA
330
1F
100
AcDbEntity
  8
HEWI
100
AcDbLine
 10
51.780822
 20
45.89501699999999
 30
0.0
 11
51.780822
 21
71.09460300000001
 31
0.0
  0
LINE
  5
CB
330
1F
100
AcDbEntity
  8
HEWI
100
AcDbLine
 10
60.280822
 20
44.894603
 30
0.0
 11
59.280822
 21
45.894603
 31
0.0
  0
LINE
  5
CC
330
1F
100
AcDbEntity
  8
HEWI
100
AcDbLine
 10
58.399572
 20
29.544603
 30
0.0
 11
58.399572
 21
29.594603
 31
0.0
  0
LINE
  5
CD
330
1F
100
AcDbEntity
  8
HEWI
100
AcDbLine
 10
56.64957199999999
 20
29.544603
 30
0.0
 11
57.149572
 21
29.544603
 31
0.0
  0
LINE
  5
CE
330
1F
100
AcDbEntity
  8
HEWI
100
AcDbLine
 10
46.87822599999999
 20
41.419603
 30
0.0
 11
46.87822599999999
 21
41.394599
 31
0.0
  0
LINE
  5
CF
330
1F
100
AcDbEntity
  8
HEWI
100
AcDbLine
 10
71.280822
 20
41.394603
 30
0.0
 11
39.280822
 21
41.394603
 31
0.0
  0
LINE
  5
D0
330
1F
100
AcDbEntity
  8
HEWI
100
AcDbLine
 10
56.274572
 20
29.544603
 30
0.0
 11
56.274572
 21
29.594603
 31
0.0
  0
LINE
  5
D1
330
1F
100
AcDbEntity
  8
HEWI
100
AcDbLine
 10
57.149572
 20
29.544603
 30
0.0
 11
57.149572
 21
29.594603
 31
0.0
  0
LINE
  5
D2
330
1F
100
AcDbEntity
  8
HEWI
100
AcDbLine
 10
53.305822
 20
29.544603
 30
0.0
 11
53.305822
 21
29.594603
 31
0.0
  0
LINE
  5
D3
330
1F
100
AcDbEntity
  8
HEWI
100
AcDbLine
 10
52.280822
 20
71.09460300000001
 30
0.0
 11
51.780822
 21
71.09460300000001
 31
0.0
  0
LINE
  5
D4
330
1F
100
AcDbEntity
  8
HEWI
100
AcDbLine
 10
55.899572
 20
29.544603
 30
0.0
 11
55.899572
 21
29.594603
 31
0.0
  0
LINE
  5
D5
330
1F
100
AcDbEntity
  8
HEWI
100
AcDbLine
 10
51.780822
 20
71.09460300000001
 30
0.0
 11
52.280822
 21
71.594603
 31
0.0
  0
LINE
  5
D6
330
1F
100
AcDbEntity
  8
HEWI
100
AcDbLine
 10
58.780822
 20
71.09460300000001
 30
0.0
 11
58.780822
 21
45.89501699999999
 31
0.0
  0
LINE
  5
D7
330
1F
100
AcDbEntity
  8
HEWI
100
AcDbLine
 10
52.280822
 20
71.09460300000001
 30
0.0
 11
52.280822
 21
45.894812
 31
0.0
  0
LINE
  5
D8
330
1F
100
AcDbEntity
  8
HEWI
100
AcDbLine
 10
59.118322
 20
29.544603
 30
0.0
 11
59.118322
 21
29.594603
 31
0.0
  0
LINE
  5
D9
330
1F
100
AcDbEntity
  8
HEWI
100
AcDbLine
 10
51.368322
 20
29.544603
 30
0.0
 11
51.368322
 21
29.594603
 31
0.0
  0
LINE
  5
DA
330
1F
100
AcDbEntity
  8
HEWI
100
AcDbLine
 10
52.280822
 20
71.594603
 30
0.0
 11
58.280822
 21
71.594603
 31
0.0
  0
LINE
  5
DB
330
1F
100
AcDbEntity
  8
HEWI
100
AcDbLine
 10
57.89957199999999
 20
29.544603
 30
0.0
 11
58.399572
 21
29.544603
 31
0.0
  0
LINE
  5
DC
330
1F
100
AcDbEntity
  8
HEWI
100
AcDbLine
 10
64.574951
 20
41.394599
 30
0.0
 11
64.574951
 21
41.419603
 31
0.0
  0
LINE
  5
DD
330
1F
100
AcDbEntity
  8
HEWI
100
AcDbLine
 10
52.805822
 20
29.544603
 30
0.0
 11
52.805822
 21
29.594603
 31
0.0
  0
LINE
  5
DE
330
1F
100
AcDbEntity
  8
HEWI
100
AcDbLine
 10
58.280822
 20
71.09460300000001
 30
0.0
 11
52.280822
 21
71.09460300000001
 31
0.0
  0
LINE
  5
DF
330
1F
100
AcDbEntity
  8
HEWI
100
AcDbLine
 10
45.98797199999999
 20
41.419603
 30
0.0
 11
45.98797199999999
 21
41.394599
 31
0.0
  0
LINE
  5
E0
330
1F
100
AcDbEntity
  8
HEWI
100
AcDbLine
 10
52.280822
 20
71.594603
 30
0.0
 11
52.280822
 21
71.09460300000001
 31
0.0
  0
LINE
  5
E1
330
1F
100
AcDbEntity
  8
HEWI
100
AcDbLine
 10
58.280822
 20
71.594603
 30
0.0
 11
58.780822
 21
71.09460300000001
 31
0.0
  0
LINE
  5
E2
330
1F
100
AcDbEntity
  8
HEWI
100
AcDbLine
 10
56.274572
 20
29.544603
 30
0.0
 11
56.64957199999999
 21
29.544603
 31
0.0
  0
LINE
  5
E3
330
1F
100
AcDbEntity
  8
HEWI
100
AcDbLine
 10
55.39957199999999
 20
29.544603
 30
0.0
 11
55.899572
 21
29.544603
 31
0.0
  0
LINE
  5
E4
330
1F
100
AcDbEntity
  8
HEWI
100
AcDbLine
 10
51.280822
 20
45.894603
 30
0.0
 11
59.280822
 21
45.894603
 31
0.0
  0
LINE
  5
E5
330
1F
100
AcDbEntity
  8
HEWI
100
AcDbLine
 10
53.305822
 20
29.544603
 30
0.0
 11
52.805822
 21
29.544603
 31
0.0
  0
LINE
  5
E6
330
1F
100
AcDbEntity
  8
HEWI
100
AcDbLine
 10
58.280822
 20
45.894812
 30
0.0
 11
58.280822
 21
71.09460300000001
 31
0.0
  0
LINE
  5
E7
330
1F
100
AcDbEntity
  8
HEWI
100
AcDbLine
 10
71.10915300000001
 20
31.559698
 30
0.0
 11
39.452491
 21
31.559698
 31
0.0
  0
LINE
  5
E8
330
1F
100
AcDbEntity
  8
HEWI
100
AcDbLine
 10
51.868322
 20
29.544603
 30
0.0
 11
51.868322
 21
29.594603
 31
0.0
  0
LINE
  5
E9
330
1F
100
AcDbEntity
  8
HEWI
100
AcDbLine
 10
57.524572
 20
29.544603
 30
0.0
 11
57.89957199999999
 21
29.544603
 31
0.0
  0
LINE
  5
EA
330
1F
100
AcDbEntity
  8
HEWI
100
AcDbLine
 10
58.618322
 20
29.544603
 30
0.0
 11
58.618322
 21
29.594603
 31
0.0
  0
LINE
  5
EB
330
1F
100
AcDbEntity
  8
HEWI
100
AcDbLine
 10
58.780822
 20
71.09460300000001
 30
0.0
 11
58.280822
 21
71.09460300000001
 31
0.0
  0
LINE
  5
EC
330
1F
100
AcDbEntity
  8
HEWI
100
AcDbLine
 10
57.89957199999999
 20
29.544603
 30
0.0
 11
57.89957199999999
 21
29.594603
 31
0.0
  0
LINE
  5
ED
330
1F
100
AcDbEntity
  8
HEWI
100
AcDbLine
 10
58.280822
 20
71.594603
 30
0.0
 11
58.280822
 21
71.09460300000001
 31
0.0
  0
LINE
  5
EE
330
1F
100
AcDbEntity
  8
HEWI
100
AcDbLine
 10
47.65272
 20
41.394603
 30
0.0
 11
47.65272
 21
41.419603
 31
0.0
  0
LINE
  5
EF
330
1F
100
AcDbEntity
  8
HEWI
100
AcDbLine
 10
48.541055
 20
41.394599
 30
0.0
 11
48.541055
 21
41.419603
 31
0.0
  0
LINE
  5
F0
330
1F
100
AcDbEntity
  8
HEWI
100
AcDbLine
 10
55.180822
 20
29.544603
 30
0.0
 11
53.618322
 21
29.544603
 31
0.0
  0
LINE
  5
F1
330
1F
100
AcDbEntity
  8
HEWI
100
AcDbLine
 10
39.452491
 20
31.559698
 30
0.0
 11
39.280822
 21
41.394603
 31
0.0
  0
LINE
  5
F2
330
1F
100
AcDbEntity
  8
HEWI
100
AcDbLine
 10
51.280822
 20
45.894603
 30
0.0
 11
50.280822
 21
44.894603
 31
0.0
  0
LINE
  5
F3
330
1F
100
AcDbEntity
  8
HEWI
100
AcDbLine
 10
240.55819
 20
129.371166
 30
0.0
 11
241.792145
 21
128.658742
 31
0.0
  0
LINE
  5
F4
330
1F
100
AcDbEntity
  8
HEWI
100
AcDbLine
 10
246.005488
 20
122.357717
 30
0.0
 11
246.756789
 21
122.791481
 31
0.0
  0
LINE
  5
F5
330
1F
100
AcDbEntity
  8
HEWI
100
AcDbLine
 10
248.679236
 20
124.258623
 30
0.0
 11
248.643881
 21
124.279036
 31
0.0
  0
LINE
  5
F6
330
1F
100
AcDbEntity
  8
HEWI
100
AcDbLine
 10
247.759997
 20
123.768725
 30
0.0
 11
248.11355
 21
123.97285
 31
0.0
  0
LINE
  5
F7
330
1F
100
AcDbEntity
  8
HEWI
100
AcDbLine
 10
247.706964
 20
121.476411
 30
0.0
 11
247.353411
 21
121.272287
 31
0.0
  0
LINE
  5
F8
330
1F
100
AcDbEntity
  8
HEWI
100
AcDbLine
 10
246.911469
 20
123.238003
 30
0.0
 11
246.876114
 21
123.258415
 31
0.0
  0
LINE
  5
F9
330
1F
100
AcDbEntity
  8
HEWI
100
AcDbLine
 10
237.013823
 20
115.302723
 30
0.0
 11
237.013823
 21
148.044236
 31
0.0
  0
LINE
  5
FB
330
1F
100
AcDbEntity
  8
HEWI
100
AcDbLine
 10
247.508451
 20
122.35941
 30
0.0
 11
247.759997
 21
123.768725
 31
0.0
  0
LINE
  5
FC
330
1F
100
AcDbEntity
  8
HEWI
100
AcDbLine
 10
246.668401
 20
121.795355
 30
0.0
 11
246.668401
 21
122.152572
 31
0.0
  0
LINE
  5
FD
330
1F
100
AcDbEntity
  8
HEWI
100
AcDbLine
 10
244.414498
 20
119.575505
 30
0.0
 11
244.414498
 21
120.494064
 31
0.0
  0
LINE
  5
FE
330
1F
100
AcDbEntity
  8
HEWI
100
AcDbLine
 10
241.15924
 20
135.263928
 30
0.0
 11
243.963718
 21
133.644762
 31
0.0
  0
LINE
  5
FF
330
1F
100
AcDbEntity
  8
HEWI
100
AcDbLine
 10
247.795352
 20
123.7483129999999
 30
0.0
 11
248.148906
 21
123.952437
 31
0.0
  0
LINE
  5
100
330
1F
100
AcDbEntity
  8
HEWI
100
AcDbLine
 10
244.414498
 20
120.494064
 30
0.0
 11
245.077411
 21
120.876797
 31
0.0
  0
LINE
  5
101
330
1F
100
AcDbEntity
  8
HEWI
100
AcDbLine
 10
227.134576
 20
119.233597
 30
0.0
 11
227.134576
 21
151.97511
 31
0.0
  0
LINE
  5
102
330
1F
100
AcDbEntity
  8
HEWI
100
AcDbLine
 10
248.913465
 20
140.993231
 30
0.0
 11
248.913465
 21
141.401479
 31
0.0
  0
LINE
  5
103
330
1F
100
AcDbEntity
  8
HEWI
100
AcDbLine
 10
248.913465
 20
140.993231
 30
0.0
 11
244.670824
 21
138.5437409999999
 31
0.0
  0
LINE
  5
104
330
1F
100
AcDbEntity
  8
HEWI
100
AcDbLine
 10
246.005488
 20
120.851281
 30
0.0
 11
246.005488
 21
121.412622
 31
0.0
  0
LINE
  5
105
330
1F
100
AcDbEntity
  8
HEWI
100
AcDbLine
 10
245.077411
 20
119.958238
 30
0.0
 11
245.042055
 21
119.97865
 31
0.0
  0
LINE
  5
106
330
1F
100
AcDbEntity
  8
HEWI
100
AcDbLine
 10
248.559912
 20
141.605604
 30
0.0
 11
245.755409
 21
143.224784
 31
0.0
  0
LINE
  5
107
330
1F
100
AcDbEntity
  8
HEWI
100
AcDbLine
 10
248.201939
 20
121.80301
 30
0.0
 11
247.958517
 21
122.885726
 31
0.0
  0
LINE
  5
108
330
1F
100
AcDbEntity
  8
HEWI
100
AcDbLine
 10
248.392334
 20
122.869721
 30
0.0
 11
248.643881
 21
124.279036
 31
0.0
  0
LINE
  5
109
330
1F
100
AcDbEntity
  8
HEWI
100
AcDbLine
 10
244.317271
 20
133.440638
 30
0.0
 11
244.670824
 21
133.644762
 31
0.0
  0
LINE
  5
10A
330
1F
100
AcDbEntity
  8
HEWI
100
AcDbLine
 10
245.651935
 20
122.51081
 30
0.0
 11
245.651935
 21
120.28994
 31
0.0
  0
LINE
  5
10B
330
1F
100
AcDbEntity
  8
HEWI
100
AcDbLine
 10
248.679236
 20
124.258623
 30
0.0
 11
249.032789
 21
124.462748
 31
0.0
  0
LINE
  5
10C
330
1F
100
AcDbEntity
  8
HEWI
100
AcDbLine
 10
234.210292
 20
148.030111
 30
0.0
 11
234.210292
 21
115.288598
 31
0.0
  0
LINE
  5
10D
330
1F
100
AcDbEntity
  8
HEWI
100
AcDbLine
 10
249.152114
 20
124.572464
 30
0.0
 11
249.505667
 21
124.776588
 31
0.0
  0
LINE
  5
10E
330
1F
100
AcDbEntity
  8
HEWI
100
AcDbLine
 10
246.756789
 20
123.148698
 30
0.0
 11
245.651935
 21
122.51081
 31
0.0
  0
LINE
  5
10F
330
1F
100
AcDbEntity
  8
HEWI
100
AcDbLine
 10
244.060945
 20
119.371381
 30
0.0
 11
244.025589
 21
119.391793
 31
0.0
  0
LINE
  5
110
330
1F
100
AcDbEntity
  8
HEWI
100
AcDbLine
 10
248.148906
 20
123.952437
 30
0.0
 11
248.414071
 21
122.773008
 31
0.0
  0
LINE
  5
111
330
1F
100
AcDbEntity
  8
HEWI
100
AcDbLine
 10
249.187469
 20
124.552052
 30
0.0
 11
249.152114
 21
124.572464
 31
0.0
  0
LINE
  5
112
330
1F
100
AcDbEntity
  8
HEWI
100
AcDbLine
 10
249.541022
 20
122.535305
 30
0.0
 11
249.187469
 21
122.331181
 31
0.0
  0
LINE
  5
113
330
1F
100
AcDbEntity
  8
HEWI
100
AcDbLine
 10
246.756789
 20
121.285045
 30
0.0
 11
246.721434
 21
121.305457
 31
0.0
  0
LINE
  5
114
330
1F
100
AcDbEntity
  8
HEWI
100
AcDbLine
 10
249.032789
 20
124.462748
 30
0.0
 11
248.997434
 21
124.48316
 31
0.0
  0
LINE
  5
115
330
1F
100
AcDbEntity
  8
HEWI
100
AcDbLine
 10
245.651935
 20
120.28994
 30
0.0
 11
246.756789
 21
120.927828
 31
0.0
  0
LINE
  5
116
330
1F
100
AcDbEntity
  8
HEWI
100
AcDbLine
 10
247.318055
 20
121.2927
 30
0.0
 11
246.876114
 21
123.258415
 31
0.0
  0
LINE
  5
117
330
1F
100
AcDbEntity
  8
HEWI
100
AcDbLine
 10
215.075893
 20
150.154053
 30
0.0
 11
227.134418
 21
143.192061
 31
0.0
  0
LINE
  5
118
330
1F
100
AcDbEntity
  8
HEWI
100
AcDbLine
 10
214.97234
 20
150.382942
 30
0.0
 11
227.134504
 21
143.361113
 31
0.0
  0
LINE
  5
119
330
1F
100
AcDbEntity
  8
HEWI
100
AcDbLine
 10
245.61658
 20
122.531223
 30
0.0
 11
245.61658
 21
120.310352
 31
0.0
  0
LINE
  5
11A
330
1F
100
AcDbEntity
  8
HEWI
100
AcDbLine
 10
248.148906
 20
123.952437
 30
0.0
 11
248.11355
 21
123.97285
 31
0.0
  0
LINE
  5
11B
330
1F
100
AcDbEntity
  8
HEWI
100
AcDbLine
 10
247.265022
 20
123.442127
 30
0.0
 11
247.229667
 21
123.462539
 31
0.0
  0
LINE
  5
11C
330
1F
100
AcDbEntity
  8
HEWI
100
AcDbLine
 10
249.152114
 20
122.351594
 30
0.0
 11
249.152114
 21
124.572464
 31
0.0
  0
LINE
  5
11D
330
1F
100
AcDbEntity
  8
HEWI
100
AcDbLine
 10
249.187469
 20
122.331181
 30
0.0
 11
249.152114
 21
122.351594
 31
0.0
  0
LINE
  5
11E
330
1F
100
AcDbEntity
  8
HEWI
100
AcDbLine
 10
248.913465
 20
140.993231
 30
0.0
 11
248.559912
 21
141.605604
 31
0.0
  0
LINE
  5
11F
330
1F
100
AcDbEntity
  8
HEWI
100
AcDbLine
 10
249.541022
 20
124.756176
 30
0.0
 11
249.541022
 21
122.535305
 31
0.0
  0
LINE
  5
120
330
1F
100
AcDbEntity
  8
HEWI
100
AcDbLine
 10
245.077411
 20
119.958238
 30
0.0
 11
245.430964
 21
120.162362
 31
0.0
  0
LINE
  5
121
330
1F
100
AcDbEntity
  8
HEWI
100
AcDbLine
 10
245.077411
 20
121.234014
 30
0.0
 11
245.042055
 21
121.254426
 31
0.0
  0
LINE
  5
122
330
1F
100
AcDbEntity
  8
HEWI
100
AcDbLine
 10
244.060945
 20
121.592252
 30
0.0
 11
244.060945
 21
119.371381
 31
0.0
  0
LINE
  5
123
330
1F
100
AcDbEntity
  8
HEWI
100
AcDbLine
 10
253.413857
 20
168.142296
 30
0.0
 11
246.546416
 21
172.305426
 31
0.0
  0
LINE
  5
124
330
1F
100
AcDbEntity
  8
HEWI
100
AcDbLine
 10
248.414071
 20
122.773008
 30
0.0
 11
248.679236
 21
124.258623
 31
0.0
  0
LINE
  5
125
330
1F
100
AcDbEntity
  8
HEWI
100
AcDbLine
 10
244.414498
 20
121.796376
 30
0.0
 11
244.379143
 21
121.816788
 31
0.0
  0
LINE
  5
126
330
1F
100
AcDbEntity
  8
HEWI
100
AcDbLine
 10
246.005488
 20
121.412622
 30
0.0
 11
246.668401
 21
121.795355
 31
0.0
  0
LINE
  5
127
330
1F
100
AcDbEntity
  8
HEWI
100
AcDbLine
 10
244.060945
 20
119.371381
 30
0.0
 11
244.414498
 21
119.575505
 31
0.0
  0
LINE
  5
128
330
1F
100
AcDbEntity
  8
HEWI
100
AcDbLine
 10
248.809912
 20
141.630368
 30
0.0
 11
245.880348
 21
143.321752
 31
0.0
  0
LINE
  5
129
330
1F
100
AcDbEntity
  8
HEWI
100
AcDbLine
 10
248.913465
 20
136.094252
 30
0.0
 11
248.913465
 21
140.993231
 31
0.0
  0
LINE
  5
12A
330
1F
100
AcDbEntity
  8
HEWI
100
AcDbLine
 10
247.972129
 20
122.962027
 30
0.0
 11
247.706964
 21
121.476411
 31
0.0
  0
LINE
  5
12B
330
1F
100
AcDbEntity
  8
HEWI
100
AcDbLine
 10
245.430964
 20
122.383233
 30
0.0
 11
245.395609
 21
122.403645
 31
0.0
  0
LINE
  5
12C
330
1F
100
AcDbEntity
  8
HEWI
100
AcDbLine
 10
246.721434
 20
121.305457
 30
0.0
 11
246.005491
 21
120.892107
 31
0.0
  0
LINE
  5
12D
330
1F
100
AcDbEntity
  8
HEWI
100
AcDbLine
 10
246.668401
 20
122.152572
 30
0.0
 11
246.005488
 21
121.76984
 31
0.0
  0
LINE
  5
12E
330
1F
100
AcDbEntity
  8
HEWI
100
AcDbLine
 10
247.265022
 20
123.442127
 30
0.0
 11
247.530187
 21
122.262697
 31
0.0
  0
LINE
  5
12F
330
1F
100
AcDbEntity
  8
HEWI
100
AcDbLine
 10
244.025589
 20
121.612664
 30
0.0
 11
244.025589
 21
119.391793
 31
0.0
  0
LINE
  5
130
330
1F
100
AcDbEntity
  8
HEWI
100
AcDbLine
 10
245.651935
 20
120.28994
 30
0.0
 11
245.61658
 21
120.310352
 31
0.0
  0
LINE
  5
131
330
1F
100
AcDbEntity
  8
HEWI
100
AcDbLine
 10
245.077411
 20
120.876797
 30
0.0
 11
245.077411
 21
119.958238
 31
0.0
  0
LINE
  5
132
330
1F
100
AcDbEntity
  8
HEWI
100
AcDbLine
 10
246.911469
 20
123.238003
 30
0.0
 11
247.265022
 21
123.442127
 31
0.0
  0
LINE
  5
133
330
1F
100
AcDbEntity
  8
HEWI
100
AcDbLine
 10
244.060945
 20
121.592252
 30
0.0
 11
244.025589
 21
121.612664
 31
0.0
  0
LINE
  5
134
330
1F
100
AcDbEntity
  8
HEWI
100
AcDbLine
 10
247.353411
 20
121.272287
 30
0.0
 11
247.318055
 21
121.2927
 31
0.0
  0
LINE
  5
135
330
1F
100
AcDbEntity
  8
HEWI
100
AcDbLine
 10
244.670824
 20
138.5437409999999
 30
0.0
 11
244.670824
 21
133.644762
 31
0.0
  0
LINE
  5
136
330
1F
100
AcDbEntity
  8
HEWI
100
AcDbLine
 10
249.541022
 20
124.756176
 30
0.0
 11
249.505667
 21
124.776588
 31
0.0
  0
LINE
  5
137
330
1F
100
AcDbEntity
  8
HEWI
100
AcDbLine
 10
245.042055
 20
120.856376
 30
0.0
 11
245.042055
 21
119.97865
 31
0.0
  0
LINE
  5
138
330
1F
100
AcDbEntity
  8
HEWI
100
AcDbLine
 10
248.643881
 20
124.279036
 30
0.0
 11
248.997434
 21
124.48316
 31
0.0
  0
LINE
  5
139
330
1F
100
AcDbEntity
  8
HEWI
100
AcDbLine
 10
245.651935
 20
122.51081
 30
0.0
 11
245.61658
 21
122.531223
 31
0.0
  0
LINE
  5
13A
330
1F
100
AcDbEntity
  8
HEWI
100
AcDbLine
 10
245.430964
 20
122.383233
 30
0.0
 11
245.077411
 21
122.179109
 31
0.0
  0
LINE
  5
13B
330
1F
100
AcDbEntity
  8
HEWI
100
AcDbLine
 10
214.97234
 20
155.281921
 30
0.0
 11
214.97234
 21
155.69017
 31
0.0
  0
LINE
  5
13C
330
1F
100
AcDbEntity
  8
HEWI
100
AcDbLine
 10
244.670824
 20
133.644762
 30
0.0
 11
248.913465
 21
136.094252
 31
0.0
  0
LINE
  5
13D
330
1F
100
AcDbEntity
  8
HEWI
100
AcDbLine
 10
245.077411
 20
122.179109
 30
0.0
 11
245.077411
 21
121.234014
 31
0.0
  0
LINE
  5
13F
330
1F
100
AcDbEntity
  8
HEWI
100
AcDbLine
 10
246.668401
 20
122.152572
 30
0.0
 11
246.633046
 21
122.172985
 31
0.0
  0
LINE
  5
140
330
1F
100
AcDbEntity
  8
HEWI
100
AcDbLine
 10
245.042055
 20
122.199521
 30
0.0
 11
245.042055
 21
121.254426
 31
0.0
  0
LINE
  5
141
330
1F
100
AcDbEntity
  8
HEWI
100
AcDbLine
 10
246.756789
 20
121.285045
 30
0.0
 11
246.005488
 21
120.851281
 31
0.0
  0
LINE
  5
142
330
1F
100
AcDbEntity
  8
HEWI
100
AcDbLine
 10
243.963718
 20
133.644762
 30
0.0
 11
244.670824
 21
133.644762
 31
0.0
  0
LINE
  5
143
330
1F
100
AcDbEntity
  8
HEWI
100
AcDbLine
 10
247.353411
 20
121.272287
 30
0.0
 11
246.911469
 21
123.238003
 31
0.0
  0
LINE
  5
144
330
1F
100
AcDbEntity
  8
HEWI
100
AcDbLine
 10
244.414498
 20
121.796376
 30
0.0
 11
244.060945
 21
121.592252
 31
0.0
  0
LINE
  5
145
330
1F
100
AcDbEntity
  8
HEWI
100
AcDbLine
 10
214.97234
 20
155.69017
 30
0.0
 11
215.325893
 21
155.894294
 31
0.0
  0
LINE
  5
146
330
1F
100
AcDbEntity
  8
HEWI
100
AcDbLine
 10
244.670824
 20
138.5437409999999
 30
0.0
 11
244.317271
 21
139.156114
 31
0.0
  0
LINE
  5
147
330
1F
100
AcDbEntity
  8
HEWI
100
AcDbLine
 10
249.032789
 20
124.462748
 30
0.0
 11
248.590848
 21
121.986722
 31
0.0
  0
LINE
  5
148
330
1F
100
AcDbEntity
  8
HEWI
100
AcDbLine
 10
245.077411
 20
122.179109
 30
0.0
 11
245.042055
 21
122.199521
 31
0.0
  0
LINE
  5
149
330
1F
100
AcDbEntity
  8
HEWI
100
AcDbLine
 10
227.134504
 20
148.260092
 30
0.0
 11
214.97234
 21
155.281921
 31
0.0
  0
LINE
  5
14A
330
1F
100
AcDbEntity
  8
HEWI
100
AcDbLine
 10
219.568534
 20
158.343783
 30
0.0
 11
215.325893
 21
155.894294
 31
0.0
  0
LINE
  5
14B
330
1F
100
AcDbEntity
  8
HEWI
100
AcDbLine
 10
249.187469
 20
124.552052
 30
0.0
 11
249.541022
 21
124.756176
 31
0.0
  0
LINE
  5
14C
330
1F
100
AcDbEntity
  8
HEWI
100
AcDbLine
 10
214.97234
 20
155.281921
 30
0.0
 11
214.97234
 21
150.382942
 31
0.0
  0
LINE
  5
14D
330
1F
100
AcDbEntity
  8
HEWI
100
AcDbLine
 10
246.633046
 20
122.172985
 30
0.0
 11
246.005495
 21
121.810669
 31
0.0
  0
LINE
  5
14E
330
1F
100
AcDbEntity
  8
HEWI
100
AcDbLine
 10
245.395609
 20
122.403645
 30
0.0
 11
245.042055
 21
122.199521
 31
0.0
  0
LINE
  5
14F
330
1F
100
AcDbEntity
  8
HEWI
100
AcDbLine
 10
243.963718
 20
138.5437409999999
 30
0.0
 11
244.670824
 21
138.5437409999999
 31
0.0
  0
LINE
  5
150
330
1F
100
AcDbEntity
  8
HEWI
100
AcDbLine
 10
227.269877
 20
154.066513
 30
0.0
 11
219.818534
 21
158.368548
 31
0.0
  0
LINE
  5
151
330
1F
100
AcDbEntity
  8
HEWI
100
AcDbLine
 10
242.922718
 20
139.961259
 30
0.0
 11
244.317271
 21
139.156114
 31
0.0
  0
LINE
  5
152
330
1F
100
AcDbEntity
  8
HEWI
100
AcDbLine
 10
244.317271
 20
139.156114
 30
0.0
 11
248.559912
 21
141.605604
 31
0.0
  0
LINE
  5
153
330
1F
100
AcDbEntity
  8
HEWI
100
AcDbLine
 10
251.792145
 20
145.979251
 30
0.0
 11
250.55819
 21
146.691674
 31
0.0
  0
LINE
  5
154
330
1F
100
AcDbEntity
  8
HEWI
100
AcDbLine
 10
243.963718
 20
138.5437409999999
 30
0.0
 11
242.569198
 21
139.348868
 31
0.0
  0
LINE
  5
155
330
1F
100
AcDbEntity
  8
HEWI
100
AcDbLine
 10
245.077411
 20
121.234014
 30
0.0
 11
244.414498
 21
120.851281
 31
0.0
  0
LINE
  5
156
330
1F
100
AcDbEntity
  8
HEWI
100
AcDbLine
 10
246.756789
 20
123.148698
 30
0.0
 11
246.721434
 21
123.169111
 31
0.0
  0
LINE
  5
157
330
1F
100
AcDbEntity
  8
HEWI
100
AcDbLine
 10
246.005488
 20
121.76984
 30
0.0
 11
246.005488
 21
122.357717
 31
0.0
  0
LINE
  5
158
330
1F
100
AcDbEntity
  8
HEWI
100
AcDbLine
 10
246.876114
 20
123.258415
 30
0.0
 11
247.229667
 21
123.462539
 31
0.0
  0
LINE
  5
159
330
1F
100
AcDbEntity
  8
HEWI
100
AcDbLine
 10
256.570467
 20
126.593757
 30
0.0
 11
256.570467
 21
159.33527
 31
0.0
  0
LINE
  5
15A
330
1F
100
AcDbEntity
  8
HEWI
100
AcDbLine
 10
244.414498
 20
120.851281
 30
0.0
 11
244.414498
 21
121.796376
 31
0.0
  0
LINE
  5
15B
330
1F
100
AcDbEntity
  8
HEWI
100
AcDbLine
 10
248.590848
 20
121.986722
 30
0.0
 11
248.237294
 21
121.782597
 31
0.0
  0
LINE
  5
15C
330
1F
100
AcDbEntity
  8
HEWI
100
AcDbLine
 10
246.756789
 20
122.791481
 30
0.0
 11
246.756789
 21
123.148698
 31
0.0
  0
LINE
  5
15D
330
1F
100
AcDbEntity
  8
HEWI
100
AcDbLine
 10
248.237294
 20
121.782597
 30
0.0
 11
247.972129
 21
122.962027
 31
0.0
  0
LINE
  5
15E
330
1F
100
AcDbEntity
  8
HEWI
100
AcDbLine
 10
244.379143
 20
121.816788
 30
0.0
 11
244.025589
 21
121.612664
 31
0.0
  0
LINE
  5
15F
330
1F
100
AcDbEntity
  8
HEWI
100
AcDbLine
 10
245.042055
 20
121.254426
 30
0.0
 11
244.414505
 21
120.89211
 31
0.0
  0
LINE
  5
160
330
1F
100
AcDbEntity
  8
HEWI
100
AcDbLine
 10
227.250639
 20
153.908518
 30
0.0
 11
219.568534
 21
158.343783
 31
0.0
  0
LINE
  5
161
330
1F
100
AcDbEntity
  8
HEWI
100
AcDbLine
 10
245.430964
 20
120.162362
 30
0.0
 11
245.430964
 21
122.383233
 31
0.0
  0
LINE
  5
162
330
1F
100
AcDbEntity
  8
HEWI
100
AcDbLine
 10
257.156253
 20
127.410254
 30
0.0
 11
257.156253
 21
160.151766
 31
0.0
  0
LINE
  5
163
330
1F
100
AcDbEntity
  8
HEWI
100
AcDbLine
 10
246.721434
 20
123.169111
 30
0.0
 11
245.61658
 21
122.531223
 31
0.0
  0
LINE
  5
164
330
1F
100
AcDbEntity
  8
HEWI
100
AcDbLine
 10
248.237294
 20
121.782597
 30
0.0
 11
248.201939
 21
121.80301
 31
0.0
  0
LINE
  5
165
330
1F
100
AcDbEntity
  8
HEWI
100
AcDbLine
 10
246.756789
 20
120.927828
 30
0.0
 11
246.756789
 21
121.285045
 31
0.0
  0
LINE
  5
166
330
1F
100
AcDbEntity
  8
HEWI
100
AcDbLine
 10
243.963718
 20
133.644762
 30
0.0
 11
243.963718
 21
138.5437409999999
 31
0.0
  0
LINE
  5
167
330
1F
100
AcDbEntity
  8
HEWI
100
AcDbLine
 10
247.795352
 20
123.7483129999999
 30
0.0
 11
247.759997
 21
123.768725
 31
0.0
  0
LINE
  5
168
330
1F
100
AcDbEntity
  8
HEWI
100
AcDbLine
 10
247.530187
 20
122.262697
 30
0.0
 11
247.795352
 21
123.7483129999999
 31
0.0
  0
LINE
  5
169
330
1F
100
AcDbEntity
  8
HEWI
100
AcDbLine
 10
230.547635
 20
111.853211
 30
0.0
 11
237.586731
 21
107.987398
 31
0.0
  0
LINE
  5
16A
330
1F
100
AcDbEntity
  8
HEWI
100
AcDbLine
 10
241.137708
 20
135.107257
 30
0.0
 11
244.067271
 21
133.415873
 31
0.0
  0
LINE
  5
16B
330
1F
100
AcDbEntity
  8
HEWI
100
AcDbLine
 10
215.325893
 20
155.894294
 30
0.0
 11
227.134343
 21
149.076682
 31
0.0
  0
LINE
  5
16C
330
1F
100
AcDbEntity
  8
HEWI
100
AcDbLine
 10
249.187469
 20
122.331181
 30
0.0
 11
249.187469
 21
124.552052
 31
0.0
  0
LINE
  5
16D
330
1F
100
AcDbEntity
  8
HEWI
100
AcDbLine
 10
55.055822
 20
121.670297
 30
0.0
 11
54.118322
 21
121.670297
 31
0.0
  0
LINE
  5
16E
330
1F
100
AcDbEntity
  8
HEWI
100
AcDbLine
 10
58.618322
 20
120.107797
 30
0.0
 11
58.618322
 21
122.827797
 31
0.0
  0
LINE
  5
16F
330
1F
100
AcDbEntity
  8
HEWI
100
AcDbLine
 10
59.118322
 20
120.107797
 30
0.0
 11
58.618322
 21
120.107797
 31
0.0
  0
LINE
  5
170
330
1F
100
AcDbEntity
  8
HEWI
100
AcDbLine
 10
57.524572
 20
121.195797
 30
0.0
 11
57.89957199999999
 21
122.827797
 31
0.0
  0
LINE
  5
171
330
1F
100
AcDbEntity
  8
HEWI
100
AcDbLine
 10
57.774572
 20
120.107797
 30
0.0
 11
57.27457199999999
 21
120.107797
 31
0.0
  0
LINE
  5
172
330
1F
100
AcDbEntity
  8
HEWI
100
AcDbLine
 10
58.399572
 20
122.827797
 30
0.0
 11
57.774572
 21
120.107797
 31
0.0
  0
LINE
  5
173
330
1F
100
AcDbEntity
  8
HEWI
100
AcDbLine
 10
57.27457199999999
 20
120.107797
 30
0.0
 11
56.899572
 21
121.739797
 31
0.0
  0
LINE
  5
174
330
1F
100
AcDbEntity
  8
HEWI
100
AcDbLine
 10
56.899572
 20
121.739797
 30
0.0
 11
56.524572
 21
120.107797
 31
0.0
  0
LINE
  5
175
330
1F
100
AcDbEntity
  8
HEWI
100
AcDbLine
 10
57.149572
 20
122.827797
 30
0.0
 11
57.524572
 21
121.195797
 31
0.0
  0
LINE
  5
176
330
1F
100
AcDbEntity
  8
HEWI
100
AcDbLine
 10
56.64957199999999
 20
122.827797
 30
0.0
 11
57.149572
 21
122.827797
 31
0.0
  0
LINE
  5
177
330
1F
100
AcDbEntity
  8
HEWI
100
AcDbLine
 10
56.274572
 20
121.195797
 30
0.0
 11
56.64957199999999
 21
122.827797
 31
0.0
  0
LINE
  5
178
330
1F
100
AcDbEntity
  8
HEWI
100
AcDbLine
 10
55.899572
 20
122.827797
 30
0.0
 11
56.274572
 21
121.195797
 31
0.0
  0
LINE
  5
179
330
1F
100
AcDbEntity
  8
HEWI
100
AcDbLine
 10
55.39957199999999
 20
122.827797
 30
0.0
 11
55.899572
 21
122.827797
 31
0.0
  0
LINE
  5
17A
330
1F
100
AcDbEntity
  8
HEWI
100
AcDbLine
 10
56.02457199999999
 20
120.107797
 30
0.0
 11
55.39957199999999
 21
122.827797
 31
0.0
  0
LINE
  5
17B
330
1F
100
AcDbEntity
  8
HEWI
100
AcDbLine
 10
56.524572
 20
120.107797
 30
0.0
 11
56.02457199999999
 21
120.107797
 31
0.0
  0
LINE
  5
17C
330
1F
100
AcDbEntity
  8
HEWI
100
AcDbLine
 10
58.780822
 20
143.107797
 30
0.0
 11
58.780822
 21
137.107797
 31
0.0
  0
LINE
  5
17D
330
1F
100
AcDbEntity
  8
HEWI
100
AcDbLine
 10
51.780822
 20
137.107797
 30
0.0
 11
51.780822
 21
143.107797
 31
0.0
  0
LINE
  5
17E
330
1F
100
AcDbEntity
  8
HEWI
100
AcDbLine
 10
58.280822
 20
136.607797
 30
0.0
 11
52.280822
 21
136.607797
 31
0.0
  0
LINE
  5
17F
330
1F
100
AcDbEntity
  8
HEWI
100
AcDbLine
 10
58.780822
 20
143.607797
 30
0.0
 11
58.280811
 21
143.607797
 31
0.0
  0
LINE
  5
180
330
1F
100
AcDbEntity
  8
HEWI
100
AcDbLine
 10
51.780822
 20
143.607797
 30
0.0
 11
51.780822
 21
143.107786
 31
0.0
  0
LINE
  5
181
330
1F
100
AcDbEntity
  8
HEWI
100
AcDbLine
 10
58.780822
 20
137.107808
 30
0.0
 11
58.780822
 21
136.607797
 31
0.0
  0
LINE
  5
182
330
1F
100
AcDbEntity
  8
HEWI
100
AcDbLine
 10
51.780822
 20
137.107808
 30
0.0
 11
51.780822
 21
136.607797
 31
0.0
  0
LINE
  5
183
330
1F
100
AcDbEntity
  8
HEWI
100
AcDbLine
 10
58.780822
 20
136.607797
 30
0.0
 11
58.280811
 21
136.607797
 31
0.0
  0
LINE
  5
184
330
1F
100
AcDbEntity
  8
HEWI
100
AcDbLine
 10
52.280833
 20
143.607797
 30
0.0
 11
51.780822
 21
143.607797
 31
0.0
  0
LINE
  5
185
330
1F
100
AcDbEntity
  8
HEWI
100
AcDbLine
 10
58.780822
 20
143.607797
 30
0.0
 11
58.780822
 21
143.107786
 31
0.0
  0
LINE
  5
186
330
1F
100
AcDbEntity
  8
HEWI
100
AcDbLine
 10
52.280833
 20
136.607797
 30
0.0
 11
51.780822
 21
136.607797
 31
0.0
  0
LINE
  5
187
330
1F
100
AcDbEntity
  8
HEWI
100
AcDbLine
 10
57.89957199999999
 20
122.827797
 30
0.0
 11
58.399572
 21
122.827797
 31
0.0
  0
LINE
  5
188
330
1F
100
AcDbEntity
  8
HEWI
100
AcDbLine
 10
52.280822
 20
143.607797
 30
0.0
 11
58.280822
 21
143.607797
 31
0.0
  0
LINE
  5
189
330
1F
100
AcDbEntity
  8
HEWI
100
AcDbLine
 10
71.280822
 20
120.057797
 30
0.0
 11
71.280822
 21
160.157797
 31
0.0
  0
LINE
  5
18A
330
1F
100
AcDbEntity
  8
HEWI
100
AcDbLine
 10
39.280822
 20
120.057797
 30
0.0
 11
39.280822
 21
160.157797
 31
0.0
  0
LINE
  5
18B
330
1F
100
AcDbEntity
  8
HEWI
100
AcDbLine
 10
51.368322
 20
122.827797
 30
0.0
 11
51.368322
 21
120.107797
 31
0.0
  0
LINE
  5
18C
330
1F
100
AcDbEntity
  8
HEWI
100
AcDbLine
 10
51.868322
 20
122.827797
 30
0.0
 11
51.368322
 21
122.827797
 31
0.0
  0
LINE
  5
18D
330
1F
100
AcDbEntity
  8
HEWI
100
AcDbLine
 10
58.618322
 20
122.827797
 30
0.0
 11
59.118322
 21
122.827797
 31
0.0
  0
LINE
  5
18E
330
1F
100
AcDbEntity
  8
HEWI
100
AcDbLine
 10
51.368322
 20
120.107797
 30
0.0
 11
51.868322
 21
120.107797
 31
0.0
  0
LINE
  5
18F
330
1F
100
AcDbEntity
  8
HEWI
100
AcDbLine
 10
51.868322
 20
120.107797
 30
0.0
 11
51.868322
 21
121.232797
 31
0.0
  0
LINE
  5
190
330
1F
100
AcDbEntity
  8
HEWI
100
AcDbLine
 10
51.868322
 20
121.232797
 30
0.0
 11
52.805822
 21
121.232797
 31
0.0
  0
LINE
  5
191
330
1F
100
AcDbEntity
  8
HEWI
100
AcDbLine
 10
52.805822
 20
121.232797
 30
0.0
 11
52.805822
 21
120.107797
 31
0.0
  0
LINE
  5
192
330
1F
100
AcDbEntity
  8
HEWI
100
AcDbLine
 10
52.805822
 20
120.107797
 30
0.0
 11
53.305822
 21
120.107797
 31
0.0
  0
LINE
  5
193
330
1F
100
AcDbEntity
  8
HEWI
100
AcDbLine
 10
53.305822
 20
120.107797
 30
0.0
 11
53.305822
 21
122.827797
 31
0.0
  0
LINE
  5
194
330
1F
100
AcDbEntity
  8
HEWI
100
AcDbLine
 10
53.305822
 20
122.827797
 30
0.0
 11
52.805822
 21
122.827797
 31
0.0
  0
LINE
  5
195
330
1F
100
AcDbEntity
  8
HEWI
100
AcDbLine
 10
52.805822
 20
122.827797
 30
0.0
 11
52.805822
 21
121.670297
 31
0.0
  0
LINE
  5
196
330
1F
100
AcDbEntity
  8
HEWI
100
AcDbLine
 10
52.805822
 20
121.670297
 30
0.0
 11
51.868322
 21
121.670297
 31
0.0
  0
LINE
  5
197
330
1F
100
AcDbEntity
  8
HEWI
100
AcDbLine
 10
51.868322
 20
121.670297
 30
0.0
 11
51.868322
 21
122.827797
 31
0.0
  0
LINE
  5
198
330
1F
100
AcDbEntity
  8
HEWI
100
AcDbLine
 10
55.055822
 20
121.232797
 30
0.0
 11
55.055822
 21
121.670297
 31
0.0
  0
LINE
  5
199
330
1F
100
AcDbEntity
  8
HEWI
100
AcDbLine
 10
54.118322
 20
122.390297
 30
0.0
 11
55.180822
 21
122.390297
 31
0.0
  0
LINE
  5
19A
330
1F
100
AcDbEntity
  8
HEWI
100
AcDbLine
 10
55.180822
 20
122.390297
 30
0.0
 11
55.180822
 21
122.827797
 31
0.0
  0
LINE
  5
19B
330
1F
100
AcDbEntity
  8
HEWI
100
AcDbLine
 10
55.180822
 20
122.827797
 30
0.0
 11
53.618322
 21
122.827797
 31
0.0
  0
LINE
  5
19C
330
1F
100
AcDbEntity
  8
HEWI
100
AcDbLine
 10
53.618322
 20
122.827797
 30
0.0
 11
53.618322
 21
120.107797
 31
0.0
  0
LINE
  5
19D
330
1F
100
AcDbEntity
  8
HEWI
100
AcDbLine
 10
53.618322
 20
120.107797
 30
0.0
 11
55.180822
 21
120.107797
 31
0.0
  0
LINE
  5
19E
330
1F
100
AcDbEntity
  8
HEWI
100
AcDbLine
 10
55.180822
 20
120.107797
 30
0.0
 11
55.180822
 21
120.545297
 31
0.0
  0
LINE
  5
19F
330
1F
100
AcDbEntity
  8
HEWI
100
AcDbLine
 10
55.180822
 20
120.545297
 30
0.0
 11
54.118322
 21
120.545297
 31
0.0
  0
LINE
  5
1A0
330
1F
100
AcDbEntity
  8
HEWI
100
AcDbLine
 10
54.118322
 20
120.545297
 30
0.0
 11
54.118322
 21
121.232797
 31
0.0
  0
LINE
  5
1A1
330
1F
100
AcDbEntity
  8
HEWI
100
AcDbLine
 10
54.118322
 20
121.232797
 30
0.0
 11
55.055822
 21
121.232797
 31
0.0
  0
LINE
  5
1A2
330
1F
100
AcDbEntity
  8
HEWI
100
AcDbLine
 10
59.118322
 20
122.827797
 30
0.0
 11
59.118322
 21
120.107797
 31
0.0
  0
LINE
  5
1A3
330
1F
100
AcDbEntity
  8
HEWI
100
AcDbLine
 10
54.118322
 20
121.670297
 30
0.0
 11
54.118322
 21
122.390297
 31
0.0
  0
ARC
  5
1A4
330
1F
100
AcDbEntity
  8
HEWI
100
AcDbCircle
 10
162.3489689999999
 20
106.229161
 30
0.0
 40
2.0
100
AcDbArc
 50
271.0
 51
0.0
  0
ARC
  5
1A5
330
1F
100
AcDbEntity
  8
HEWI
100
AcDbCircle
 10
162.3489689999999
 20
173.986432
 30
0.0
 40
2.0
100
AcDbArc
 50
0.0
 51
89.0
  0
ARC
  5
1A6
330
1F
100
AcDbEntity
  8
HEWI
100
AcDbCircle
 10
41.45218599999999
 20
31.594603
 30
0.0
 40
2.0
100
AcDbArc
 50
181.0
 51
270.0
  0
ARC
  5
1A7
330
1F
100
AcDbEntity
  8
HEWI
100
AcDbCircle
 10
69.10945799999999
 20
31.594603
 30
0.0
 40
2.0
100
AcDbArc
 50
270.0
 51
359.0
  0
CIRCLE
  5
1A8
330
1F
100
AcDbEntity
  8
HEWI
100
AcDbCircle
 10
55.280822
 20
140.107797
 30
0.0
 40
8.099999999999999
  0
ARC
  5
1A9
330
1F
100
AcDbEntity
  8
HEWI
100
AcDbCircle
 10
55.280822
 20
120.057797
 30
0.0
 40
16.0
100
AcDbArc
 50
280.763178
 51
0.0
  0
ARC
  5
1AA
330
1F
100
AcDbEntity
  8
HEWI
100
AcDbCircle
 10
55.280822
 20
120.057797
 30
0.0
 40
16.0
100
AcDbArc
 50
180.0
 51
259.236822
  0
CIRCLE
  5
1AB
330
1F
100
AcDbEntity
  8
HEWI
100
AcDbCircle
 10
55.280822
 20
140.107797
 30
0.0
 40
10.3
  0
ARC
  5
1AC
330
1F
100
AcDbEntity
  8
HEWI
100
AcDbCircle
 10
55.280822
 20
120.057797
 30
0.0
 40
15.96159885715792
100
AcDbArc
 50
260.624969
 51
279.375031
  0
ARC
  5
1AD
330
1F
100
AcDbEntity
  8
HEWI
100
AcDbCircle
 10
55.280822
 20
160.157797
 30
0.0
 40
16.0
100
AcDbArc
 50
0.0
 51
180.0
  0
ELLIPSE
  5
1AE
330
1F
100
AcDbEntity
  8
HEWI
100
AcDbEllipse
 10
160.590928
 20
120.057797
 30
0.0
 11
89.94441413555369
 21
0.0000000000001054
 31
0.0
210
0.0
220
0.0
230
1.0
 40
0.175461
 41
4.622859097433043
 42
4.64739245279784
  0
ELLIPSE
  5
1AF
330
1F
100
AcDbEntity
  8
HEWI
100
AcDbEllipse
 10
246.792145
 20
153.689753
 30
0.0
 11
-6.914317853807836
 21
-11.97594982247574
 31
0.000000000000001
210
0.0
220
0.0000000000000001
230
1.0
 40
0.5773500000000001
 41
2.356194490192345
 42
5.497787143782136
  0
ELLIPSE
  5
1B0
330
1F
100
AcDbEntity
  8
HEWI
100
AcDbEllipse
 10
255.156253
 20
160.151766
 30
0.0
 11
2.0
 21
0.0
 31
0.0
210
0.0
220
0.0
230
1.0
 40
0.5773500000000001
 41
5.497787143782136
 42
6.283536376212192
  0
ELLIPSE
  5
1B1
330
1F
100
AcDbEntity
  8
HEWI
100
AcDbEllipse
 10
235.599609
 20
116.11922
 30
0.0
 11
-2.0
 21
0.0000000000000019
 31
0.0
210
0.0
220
0.0000000000000001
230
1.0
 40
0.5773500000000001
 41
0.8028514559173892
 42
2.356194490192345
  0
ELLIPSE
  5
1B2
330
1F
100
AcDbEntity
  8
HEWI
100
AcDbEllipse
 10
235.599609
 20
148.860733
 30
0.0
 11
-2.0
 21
0.0000000000000019
 31
0.0
210
0.0
220
0.0000000000000001
230
1.0
 40
0.5773500000000001
 41
0.8028514559173911
 42
2.356194490192343
  0
ELLIPSE
  5
1B3
330
1F
100
AcDbEntity
  8
HEWI
100
AcDbEllipse
 10
246.792145
 20
120.94824
 30
0.0
 11
6.914317853807836
 21
11.97594982247574
 31
0.0
210
0.0
220
0.0
230
1.0
 40
0.5773500000000001
 41
2.356194490192344
 42
5.497787143782136
  0
ELLIPSE
  5
1B4
330
1F
100
AcDbEntity
  8
HEWI
100
AcDbEllipse
 10
245.519352
 20
138.053843
 30
0.0
 11
5.150000000000007
 21
8.920061658979712
 31
0.0
210
0.0
220
0.0
230
0.9999999999999998
 40
0.5773500000000001
 41
6.041282613719991
 42
6.159386805950343
  0
ELLIPSE
  5
1B5
330
1F
100
AcDbEntity
  8
HEWI
100
AcDbEllipse
 10
245.519352
 20
138.053843
 30
0.0
 11
5.150000000000007
 21
8.920061658979712
 31
0.0
210
0.0
220
0.0
230
0.9999999999999998
 40
0.5773500000000001
 41
3.265391082709622
 42
3.383495277719152
  0
ELLIPSE
  5
1B6
330
1F
100
AcDbEntity
  8
HEWI
100
AcDbEllipse
 10
246.792145
 20
137.318996
 30
0.0
 11
5.000000000000007
 21
8.660254037844378
 31
0.0
210
0.0
220
0.0
230
1.0
 40
0.5773500000000001
 41
0.0
 42
6.283185307179585
  0
ELLIPSE
  5
1B7
330
1F
100
AcDbEntity
  8
HEWI
100
AcDbEllipse
 10
219.568534
 20
157.935535
 30
0.0
 11
0.2500000000000004
 21
0.4330127018922191
 31
0.0
210
0.0
220
0.0
230
1.0
 40
0.5773500000000001
 41
0.0000014032923161
 42
0.7853981633974572
  0
ELLIPSE
  5
1B8
330
1F
100
AcDbEntity
  8
HEWI
100
AcDbEllipse
 10
244.317271
 20
138.747865
 30
0.0
 11
-0.2500000000000004
 21
-0.4330127018922191
 31
0.0
210
0.0
220
0.0000000000000001
230
1.0
 40
0.5773500000000001
 41
3.926990816987236
 42
5.497787143782143
  0
ELLIPSE
  5
1B9
330
1F
100
AcDbEntity
  8
HEWI
100
AcDbEllipse
 10
245.402613
 20
121.750487
 30
0.0
 11
-7.914165548964231
 21
-13.70773683031725
 31
0.0000000000000011
210
0.0
220
0.0000000000000001
230
1.0
 40
0.5773500000000001
 41
5.497787143782137
 42
6.296635254404308
  0
ELLIPSE
  5
1BA
330
1F
100
AcDbEntity
  8
HEWI
100
AcDbEllipse
 10
244.317271
 20
133.848886
 30
0.0
 11
-0.2500000000000004
 21
-0.4330127018922191
 31
0.0
210
0.0
220
0.0000000000000001
230
1.0
 40
0.5773500000000001
 41
5.497787143782129
 42
7.068583470577039
  0
ELLIPSE
  5
1BB
330
1F
100
AcDbEntity
  8
HEWI
100
AcDbEllipse
 10
246.792145
 20
137.318996
 30
0.0
 11
-5.150000000000007
 21
-8.920061658979712
 31
0.0000000000000007
210
0.0
220
0.0000000000000001
230
0.9999999999999998
 40
0.5773500000000001
 41
0.0
 42
6.283185307179585
  0
ELLIPSE
  5
1BC
330
1F
100
AcDbEntity
  8
HEWI
100
AcDbEllipse
 10
238.448285
 20
125.76557
 30
0.0
 11
-8.000000000000012
 21
-13.85640646055101
 31
0.0000000000000011
210
0.0
220
0.0000000000000001
230
1.0
 40
0.5773500000000001
 41
5.497787143782136
 42
6.295507796011492
  0
ELLIPSE
  5
1BD
330
1F
100
AcDbEntity
  8
HEWI
100
AcDbEllipse
 10
246.792145
 20
137.318996
 30
0.0
 11
-4.050000000000006
 21
-7.014805770653948
 31
0.0000000000000006
210
0.0
220
0.0000000000000001
230
1.0
 40
0.5773500000000001
 41
0.0
 42
6.283185307179585
  0
ELLIPSE
  5
1BE
330
1F
100
AcDbEntity
  8
HEWI
100
AcDbEllipse
 10
215.325893
 20
155.486045
 30
0.0
 11
0.2500000000000004
 21
0.4330127018922191
 31
0.0
210
0.0
220
0.0
230
1.0
 40
0.5773500000000001
 41
0.7853981633974496
 42
2.356194490192354
  0
ELLIPSE
  5
1BF
330
1F
100
AcDbEntity
  8
HEWI
100
AcDbEllipse
 10
245.402613
 20
154.492
 30
0.0
 11
7.914165548964232
 21
13.70773683031726
 31
0.0
210
0.0
220
0.0
230
1.0
 40
0.5773500000000001
 41
6.270029869419492
 42
8.63937979737193
  0
ELLIPSE
  5
1C0
330
1F
100
AcDbEntity
  8
HEWI
100
AcDbEllipse
 10
255.156253
 20
127.410254
 30
0.0
 11
2.0
 21
0.0
 31
0.0
210
0.0
220
0.0
230
1.0
 40
0.5773500000000001
 41
5.497787143782143
 42
6.283171779531632
  0
ELLIPSE
  5
1C1
330
1F
100
AcDbEntity
  8
HEWI
100
AcDbEllipse
 10
242.690925
 20
139.686837
 30
0.0
 11
-4.050000000000006
 21
-7.014805770653948
 31
0.0000000000000006
210
0.0
220
0.0000000000000001
230
1.0
 40
0.5773500000000001
 41
2.196267807629698
 42
2.610663508259053
  0
ELLIPSE
  5
1C2
330
1F
100
AcDbEntity
  8
HEWI
100
AcDbEllipse
 10
242.690925
 20
139.686837
 30
0.0
 11
-4.050000000000006
 21
-7.014805770653948
 31
0.0000000000000006
210
0.0
220
0.0000000000000001
230
1.0
 40
0.5773500000000001
 41
0.530929172711351
 42
0.945226757031876
  0
ELLIPSE
  5
1C3
330
1F
100
AcDbEntity
  8
HEWI
100
AcDbEllipse
 10
238.448285
 20
158.507083
 30
0.0
 11
8.000000000000012
 21
13.85640646055101
 31
0.0
210
0.0
220
0.0
230
1.0
 40
0.5773500000000001
 41
6.270864384062007
 42
8.63937979737193
  0
ELLIPSE
  5
1C4
330
1F
100
AcDbEntity
  8
HEWI
100
AcDbEllipse
 10
248.559912
 20
141.197355
 30
0.0
 11
-0.2500000000000004
 21
-0.4330127018922191
 31
0.0
210
0.0
220
0.0000000000000001
230
1.0
 40
0.5773500000000001
 41
2.356194490192346
 42
3.926990816987228
  0
ELLIPSE
  5
1C5
330
1F
100
AcDbEntity
  8
HEWI
100
AcDbEllipse
 10
244.812246
 20
138.462092
 30
0.0
 11
-5.125000000000007
 21
-8.87676038879049
 31
0.0000000000000007
210
0.0
220
0.0000000000000001
230
0.9999999999999998
 40
0.5773500000000001
 41
2.920208538706593
 42
2.960067546137939
  0
ELLIPSE
  5
1C6
330
1F
100
AcDbEntity
  8
HEWI
100
AcDbEllipse
 10
244.812246
 20
138.462092
 30
0.0
 11
-5.125000000000007
 21
-8.87676038879049
 31
0.0000000000000007
210
0.0
220
0.0000000000000001
230
0.9999999999999998
 40
0.5773500000000001
 41
0.1815250925801549
 42
0.2213841002249602
  0
ELLIPSE
  5
1C7
330
1F
100
AcDbEntity
  8
HEWI
100
AcDbEllipse
 10
215.325893
 20
150.587066
 30
0.0
 11
0.2500000000000004
 21
0.4330127018922191
 31
0.0
210
0.0
220
0.0
230
1.0
 40
0.5773500000000001
 41
2.356194490192349
 42
3.141591250297483
  0
ELLIPSE
  5
1C8
330
1F
100
AcDbEntity
  8
HEWI
100
AcDbEllipse
 10
56.85080799999999
 20
120.057798
 30
0.0
 11
-15.85962782101706
 21
0.0000117513233717
 31
0.0
210
0.0
220
0.0
230
0.9999999999999996
 40
0.9950879999999999
 41
1.635793595574213
 42
1.660326949638074
  0
ELLIPSE
  5
1C9
330
1F
100
AcDbEntity
  8
HEWI
100
AcDbEllipse
 10
53.710836
 20
120.057797
 30
0.0
 11
15.85962700964446
 21
0.0
 31
0.0
210
0.0
220
0.0
230
1.0
 40
0.9950879999999999
 41
4.622859097620757
 42
4.647392452933376
  0
SPLINE
  5
1CA
330
1F
100
AcDbEntity
  8
HEWI
100
AcDbSpline
210
-0.0000000000000008
220
0.0000000000000005
230
1.0
 70
     8
 71
     3
 72
    46
 73
    42
 74
     0
 42
0.000000001
 43
0.0000000001
 40
0.0
 40
0.0
 40
0.0
 40
0.0
 40
0.0224331315558434
 40
0.0464139583348717
 40
0.0704655554764175
 40
0.0946775809849683
 40
0.1191279279418108
 40
0.1438772267010729
 40
0.1689638485682515
 40
0.1944004294466579
 40
0.2201732071290814
 40
0.2462451169725361
 40
0.2725625002181476
 40
0.2990639128276871
 40
0.3256887377657214
 40
0.3523836280295516
 40
0.3791044535961769
 40
0.4058136080990773
 40
0.4324933847155864
 40
0.4591338752880182
 40
0.4857310053392919
 40
0.5122848522643772
 40
0.5387983377370093
 40
0.5652762702529653
 40
0.5917246749847659
 40
0.6181503423183294
 40
0.6445605345425022
 40
0.6709628019814829
 40
0.6973648707684382
 40
0.7237731034841149
 40
0.7501942515781149
 40
0.7766362228255156
 40
0.8031068687977118
 40
0.8296138680715699
 40
0.8561645338583428
 40
0.8827655048604142
 40
0.9094222656972494
 40
0.936138428563354
 40
0.9629146954220962
 40
0.9897474199404296
 40
1.0
 40
1.0
 40
1.0
 40
1.0
 10
237.5983973016758
 20
107.9829667614943
 30
-0.0000000000000013
 10
237.7656381707982
 20
107.8906263851624
 30
-0.0000000000000018
 10
238.1188191914155
 20
107.7153959035377
 30
-0.0000000000000009
 10
238.6797632012814
 20
107.4995821638303
 30
-0.0000000000000018
 10
239.2741106378416
 20
107.3299694334865
 30
-0.0000000000000004
 10
239.8886837189792
 20
107.2122832348911
 30
-0.0000000000000009
 10
240.5219198504595
 20
107.1467327395205
 30
0.0000000000000009
 10
241.172510146412
 20
107.1338880781164
 30
-0.0000000000000009
 10
241.8388903348283
 20
107.1743189850266
 30
-0.0000000000000009
 10
242.5191934854396
 20
107.2685484964061
 30
0.0000000000000018
 10
243.2111357406982
 20
107.4168741879117
 30
0.0000000000000009
 10
243.9120199284168
 20
107.619222607632
 30
0.0
 10
244.6188203126619
 20
107.875044270839
 30
0.0000000000000009
 10
245.3283336763502
 20
108.1832862059429
 30
0.0
 10
246.0373462496356
 20
108.542439255327
 30
0.0
 10
246.7427581133499
 20
108.9506276432442
 30
0.0
 10
247.4416230615351
 20
109.405687525864
 30
0.0000000000000009
 10
248.1312604153377
 20
109.9053035185391
 30
0.0000000000000009
 10
248.8092465139765
 20
110.44709479789
 30
0.0000000000000027
 10
249.4734106095477
 20
111.0287006039297
 30
0.0000000000000009
 10
250.1217069797339
 20
111.6477333065713
 30
0.0
 10
250.752182619203
 20
112.3017780694853
 30
0.0000000000000036
 10
251.3629543601188
 20
112.9883878911429
 30
-0.0000000000000009
 10
251.9521947851838
 20
113.7050780316905
 30
0.0000000000000044
 10
252.5181251199808
 20
114.4493219400706
 30
0.0000000000000027
 10
253.0590131091838
 20
115.2185495777692
 30
0.0000000000000027
 10
253.5731741121866
 20
116.0101483212838
 30
0.0000000000000027
 10
254.0589739969361
 20
116.8214662351476
 30
0.0000000000000018
 10
254.5148242952296
 20
117.6498019664127
 30
0.0
 10
254.9391907065843
 20
118.4924135747542
 30
0.0
 10
255.3306046228039
 20
119.3465385765064
 30
0.0000000000000018
 10
255.6876710037889
 20
120.2094196111405
 30
0.0000000000000027
 10
256.009064036157
 20
121.0783100184393
 30
0.0000000000000018
 10
256.2935193770932
 20
121.9504685672475
 30
0.0000000000000018
 10
256.5398306813723
 20
122.823163645113
 30
0.0000000000000018
 10
256.746844840283
 20
123.6936756830766
 30
0.0000000000000018
 10
256.9134552790874
 20
124.5592876593145
 30
0.0000000000000009
 10
257.0385993411545
 20
125.4172932791357
 30
0.0
 10
257.1212443348124
 20
126.2649022735199
 30
-0.0000000000000018
 10
257.1523372290797
 20
126.9270820754108
 30
0.0000000000000009
 10
257.1562460498378
 20
127.3059228467677
 30
0.0
 10
257.1562531859848
 20
127.4102535017954
 30
0.0000000000000018
  0
SPLINE
  5
1CB
330
1F
100
AcDbEntity
  8
HEWI
100
AcDbSpline
210
0.0000000000000047
220
0.000000000000002
230
1.0
 70
     8
 71
     3
 72
    21
 73
    17
 74
     0
 42
0.000000001
 43
0.0000000001
 40
0.0
 40
0.0
 40
0.0
 40
0.0
 40
0.0424318257119388
 40
0.1217979870063129
 40
0.2012060855865433
 40
0.2804493128003742
 40
0.3593546581027404
 40
0.4377202573419129
 40
0.5153359814844963
 40
0.5920136136349829
 40
0.6676193136077062
 40
0.7420987111344541
 40
0.8154876082288119
 40
0.8879074384737581
 40
0.959549933996684
 40
1.0
 40
1.0
 40
1.0
 40
1.0
 10
257.1562531859848
 20
160.1517663969971
 30
-0.0000000000000049
 10
257.1562699097549
 20
160.2980414615593
 30
-0.0000000000000036
 10
257.1501172463318
 20
160.7151390394401
 30
-0.0000000000000051
 10
257.1107589141529
 20
161.3917850098341
 30
-0.0000000000000082
 10
257.018365169853
 20
162.1700817517391
 30
-0.0000000000000047
 10
256.8797661012828
 20
162.9226431929202
 30
-0.0000000000000031
 10
256.6949919340948
 20
163.6454283198922
 30
-0.0000000000000018
 10
256.4645516417668
 20
164.3346011884618
 30
-0.0000000000000027
 10
256.1895253838784
 20
164.9863891876274
 30
-0.0000000000000102
 10
255.8715665104565
 20
165.5972986709479
 30
-0.0000000000000164
 10
255.5128579675495
 20
166.164370984647
 30
-0.0000000000000115
 10
255.1158309799371
 20
166.6850753626242
 30
-0.0000000000000098
 10
254.6834664818726
 20
167.1581822606177
 30
-0.0000000000000133
 10
254.2173664895263
 20
167.5805724086686
 30
-0.0000000000000027
 10
253.7943644234855
 20
167.9046768208208
 30
-0.0000000000000018
 10
253.5196196930602
 20
168.0734927220572
 30
-0.0000000000000107
 10
253.418402698355
 20
168.1313579941034
 30
-0.0000000000000036
  0
LINE
  5
1CC
330
1F
100
AcDbEntity
  8
HEWI
100
AcDbLine
 10
55.280822
 20
126.807797
 30
0.0
 11
55.280822
 21
153.407797
 31
0.0
  0
LINE
  5
1CD
330
1F
100
AcDbEntity
  8
HEWI
100
AcDbLine
 10
41.98082199999999
 20
140.107797
 30
0.0
 11
68.580822
 21
140.107797
 31
0.0
  0
LINE
  5
1D1
330
1F
100
AcDbEntity
  8
HEWI
100
AcDbLine
 10
238.325082
 20
142.207457
 30
0.0
 11
251.157988
 21
134.798376
 31
0.0
  0
LINE
  5
1D2
330
1F
100
AcDbEntity
  8
HEWI
100
AcDbLine
 10
251.157988
 20
134.798376
 30
0.0
 11
241.153509
 21
140.5744639999999
 31
0.0
  0
ENDSEC
  0
SECTION
  2
OBJECTS
  0
DICTIONARY
  5
C
330
0
100
AcDbDictionary
281
     1
  3
ACAD_CIP_PREVIOUS_PRODUCT_INFO
350
230
  3
ACAD_COLOR
350
22B
  3
ACAD_DETAILVIEWSTYLE
350
227
  3
ACAD_GROUP
350
D
  3
ACAD_LAYOUT
350
1A
  3
ACAD_MATERIAL
350
43
  3
ACAD_MLEADERSTYLE
350
6B
  3
ACAD_MLINESTYLE
350
17
  3
ACAD_PLOTSETTINGS
350
19
  3
ACAD_PLOTSTYLENAME
350
E
  3
ACAD_SCALELIST
350
47
  3
ACAD_SECTIONVIEWSTYLE
350
228
  3
ACAD_TABLESTYLE
350
69
  3
ACAD_VISUALSTYLE
350
2A
  3
ACDB_RECOMPOSE_DATA
350
24C
  3
AcDbVariableDictionary
350
1E4
  0
DICTIONARY
  5
237
330
2
100
AcDbDictionary
280
     1
281
     1
  3
ACAD_LAYERSTATES
360
238
  0
DICTIONARY
  5
241
330
10
100
AcDbDictionary
280
     1
281
     1
  3
ADSK_XREC_LAYER_RECONCILED
360
242
  0
DICTIONARY
  5
243
330
74
100
AcDbDictionary
280
     1
281
     1
  3
ADSK_XREC_LAYER_RECONCILED
360
244
  0
DICTIONARY
  5
232
330
231
100
AcDbDictionary
280
     1
281
     1
  3
ADSK_XREC_LAYER_RECONCILED
360
245
  0
XRECORD
  5
230
102
{ACAD_REACTORS
330
C
102
}
330
C
100
AcDbXrecord
280
     1
300
ACDLT
300
2021
300
ACDLT_F_S
  0
DICTIONARY
  5
22B
102
{ACAD_REACTORS
330
C
102
}
330
C
100
AcDbDictionary
281
     1
  0
DICTIONARY
  5
227
102
{ACAD_REACTORS
330
C
102
}
330
C
100
AcDbDictionary
281
     1
  3
Metric50
350
22D
  0
DICTIONARY
  5
D
102
{ACAD_REACTORS
330
C
102
}
330
C
100
AcDbDictionary
281
     1
  0
DICTIONARY
  5
1A
102
{ACAD_REACTORS
330
C
102
}
330
C
100
AcDbDictionary
281
     1
  3
Layout1
350
1E
  3
Layout2
350
26
  3
Model
350
22
  0
DICTIONARY
  5
43
102
{ACAD_REACTORS
330
C
102
}
330
C
100
AcDbDictionary
281
     1
  3
ByBlock
350
45
  3
ByLayer
350
44
  3
Global
350
46
  0
DICTIONARY
  5
6B
102
{ACAD_REACTORS
330
C
102
}
330
C
100
AcDbDictionary
281
     1
  3
Standard
350
6C
  0
DICTIONARY
  5
17
102
{ACAD_REACTORS
330
C
102
}
330
C
100
AcDbDictionary
281
     1
  3
Standard
350
18
  0
DICTIONARY
  5
19
102
{ACAD_REACTORS
330
C
102
}
330
C
100
AcDbDictionary
281
     1
  0
ACDBDICTIONARYWDFLT
  5
E
102
{ACAD_REACTORS
330
C
102
}
330
C
100
AcDbDictionary
281
     1
  3
Normal
350
F
100
AcDbDictionaryWithDefault
340
F
  0
DICTIONARY
  5
47
102
{ACAD_REACTORS
330
C
102
}
330
C
100
AcDbDictionary
281
     1
  3
A0
350
48
  3
A1
350
49
  3
A2
350
4A
  3
A3
350
4B
  3
A4
350
4C
  3
A5
350
4D
  3
A6
350
4E
  3
A7
350
4F
  3
A8
350
50
  3
A9
350
51
  3
B0
350
52
  3
B1
350
53
  3
B2
350
54
  3
B3
350
55
  3
B4
350
56
  3
B5
350
57
  3
B6
350
58
  3
B7
350
59
  3
B8
350
5A
  3
B9
350
5B
  3
C0
350
5C
  3
C1
350
5D
  3
C2
350
5E
  3
C3
350
5F
  3
C4
350
60
  3
C5
350
61
  3
C6
350
62
  3
C7
350
63
  3
C8
350
64
  3
C9
350
65
  3
D0
350
66
  3
D1
350
67
  3
D2
350
68
  0
DICTIONARY
  5
228
102
{ACAD_REACTORS
330
C
102
}
330
C
100
AcDbDictionary
281
     1
  3
Metric50
350
22C
  0
DICTIONARY
  5
69
102
{ACAD_REACTORS
330
C
102
}
330
C
100
AcDbDictionary
281
     1
  3
Standard
350
6A
  0
DICTIONARY
  5
2A
102
{ACAD_REACTORS
330
C
102
}
330
C
100
AcDbDictionary
281
     1
  3
2dWireframe
350
2F
  3
Basic
350
32
  3
Brighten
350
36
  3
ColorChange
350
3A
  3
Conceptual
350
34
  3
Dim
350
35
  3
EdgeColorOff
350
3D
  3
Facepattern
350
39
  3
Flat
350
2B
  3
FlatWithEdges
350
2C
  3
Gouraud
350
2D
  3
GouraudWithEdges
350
2E
  3
Hidden
350
31
  3
JitterOff
350
3B
  3
Linepattern
350
38
  3
OverhangOff
350
3C
  3
Realistic
350
33
  3
Shaded
350
42
  3
Shaded with edges
350
41
  3
Shades of Gray
350
3E
  3
Sketchy
350
3F
  3
Thicken
350
37
  3
Wireframe
350
30
  3
X-Ray
350
40
  0
XRECORD
  5
24C
102
{ACAD_REACTORS
330
C
102
}
330
C
100
AcDbXrecord
280
     1
 90
        1
330
6A
  0
DICTIONARY
  5
1E4
102
{ACAD_REACTORS
330
C
102
}
330
C
100
AcDbDictionary
281
     1
  3
CANNOSCALE
350
1E5
  3
CMLEADERSTYLE
350
226
  3
CTABLESTYLE
350
225
  3
CVIEWDETAILSTYLE
350
246
  3
CVIEWSECTIONSTYLE
350
247
  3
LAYEREVAL
350
249
  3
LAYERNOTIFY
350
24A
  3
LIGHTINGUNITS
350
248
  3
MSLTSCALE
350
1E6
  0
DICTIONARY
  5
238
102
{ACAD_REACTORS
330
237
102
}
330
237
100
AcDbDictionary
281
     1
  0
XRECORD
  5
242
102
{ACAD_REACTORS
330
241
102
}
330
241
100
AcDbXrecord
280
     1
290
     1
  0
XRECORD
  5
244
102
{ACAD_REACTORS
330
243
102
}
330
243
100
AcDbXrecord
280
     1
290
     1
  0
XRECORD
  5
245
102
{ACAD_REACTORS
330
232
102
}
330
232
100
AcDbXrecord
280
     1
290
     1
  0
ACDBDETAILVIEWSTYLE
  5
22D
102
{ACAD_XDICTIONARY
360
24F
102
}
102
{ACAD_REACTORS
330
227
102
}
330
227
100
AcDbModelDocViewStyle
 70
     0
  3
Metric50
290
     0
100
AcDbDetailViewStyle
 70
     0
 71
     0
 90
        3
 71
     1
340
11
 62
   256
 40
5.0
340
0
 62
   256
 40
5.0
300

 40
0.0
280
     1
 71
     2
340
16
 90
       25
 62
   256
 71
     3
340
11
 62
   256
 40
5.0
 90
        0
 40
15.0
 90
        1
300
%<\AcVar ViewDetailId>% (%<\AcVar ViewScale \f "%sn">%)
 71
     4
340
16
 90
       25
 62
   256
340
16
 90
       25
 62
   256
280
     0
  0
LAYOUT
  5
1E
102
{ACAD_REACTORS
330
1A
102
}
330
1A
100
AcDbPlotSettings
  1

  2
none_device
  4

  6

 40
0.0
 41
0.0
 42
0.0
 43
0.0
 44
0.0
 45
0.0
 46
0.0
 47
0.0
 48
0.0
 49
0.0
140
0.0
141
0.0
142
1.0
143
1.0
 70
   688
 72
     0
 73
     0
 74
     5
  7

 75
    16
147
1.0
 76
     0
 77
     2
 78
   300
148
0.0
149
0.0
100
AcDbLayout
  1
Layout1
 70
     1
 71
     1
 10
-0.5
 20
-0.5
 11
5.0
 21
5.0
 12
0.0
 22
0.0
 32
0.0
 14
-0.5
 24
-0.5
 34
-0.5
 15
5.0
 25
5.0
 35
5.0
146
0.0
 13
0.0
 23
0.0
 33
0.0
 16
1.0
 26
0.0
 36
0.0
 17
0.0
 27
1.0
 37
0.0
 76
     0
330
1B
  0
LAYOUT
  5
26
102
{ACAD_REACTORS
330
1A
102
}
330
1A
100
AcDbPlotSettings
  1

  2
none_device
  4

  6

 40
0.0
 41
0.0
 42
0.0
 43
0.0
 44
0.0
 45
0.0
 46
0.0
 47
0.0
 48
0.0
 49
0.0
140
0.0
141
0.0
142
1.0
143
1.0
 70
   688
 72
     0
 73
     0
 74
     5
  7

 75
    16
147
1.0
 76
     0
 77
     2
 78
   300
148
0.0
149
0.0
100
AcDbLayout
  1
Layout2
 70
     1
 71
     2
 10
0.0
 20
0.0
 11
0.0
 21
0.0
 12
0.0
 22
0.0
 32
0.0
 14
0.0
 24
0.0
 34
0.0
 15
0.0
 25
0.0
 35
0.0
146
0.0
 13
0.0
 23
0.0
 33
0.0
 16
1.0
 26
0.0
 36
0.0
 17
0.0
 27
1.0
 37
0.0
 76
     0
330
23
  0
LAYOUT
  5
22
102
{ACAD_REACTORS
330
1A
102
}
330
1A
100
AcDbPlotSettings
  1

  2
none_device
  4
Letter_(8.50_x_11.00_Inches)
  6

 40
6.349999999999999
 41
6.349999999999999
 42
6.350005
 43
6.350005
 44
215.9
 45
279.4
 46
0.0
 47
0.0
 48
0.0
 49
0.0
140
0.0
141
0.0
142
1.0
143
1.0
 70
  1712
 72
     0
 73
     0
 74
     0
  7

 75
     0
147
1.0
 76
     0
 77
     2
 78
   300
148
0.0
149
0.0
100
AcDbLayout
  1
Model
 70
     1
 71
     0
 10
-0.5
 20
-0.5
 11
5.0
 21
5.0
 12
0.0
 22
0.0
 32
0.0
 14
-0.5
 24
-0.5
 34
-0.5
 15
5.0
 25
5.0
 35
5.0
146
0.0
 13
0.0
 23
0.0
 33
0.0
 16
1.0
 26
0.0
 36
0.0
 17
0.0
 27
1.0
 37
0.0
 76
     0
330
1F
331
29
  0
MATERIAL
  5
45
102
{ACAD_XDICTIONARY
360
21A
102
}
102
{ACAD_REACTORS
330
43
102
}
330
43
100
AcDbMaterial
  1
ByBlock
  0
MATERIAL
  5
44
102
{ACAD_XDICTIONARY
360
218
102
}
102
{ACAD_REACTORS
330
43
102
}
330
43
100
AcDbMaterial
  1
ByLayer
  0
MATERIAL
  5
46
102
{ACAD_XDICTIONARY
360
21C
102
}
102
{ACAD_REACTORS
330
43
102
}
330
43
100
AcDbMaterial
  1
Global
  0
MLEADERSTYLE
  5
6C
102
{ACAD_REACTORS
330
6B
102
}
330
6B
100
AcDbMLeaderStyle
179
     2
170
     2
171
     1
172
     0
 90
        2
 40
0.0
 41
0.0
173
     1
 91
-1056964608
340
14
 92
       -2
290
     1
 42
0.09
291
     1
 43
0.36
  3
Standard
 44
0.18
300

342
11
174
     1
178
     6
175
     1
176
     0
 93
-1056964608
 45
0.18
292
     0
297
     0
 46
0.18
 94
-1056964608
 47
1.0
 49
1.0
140
1.0
293
     1
141
0.0
294
     1
177
     0
142
1.0
295
     0
296
     0
143
0.125
271
     0
272
     9
273
     9
298
     0
1001
ACAD_MLEADERVER
1070
     2
  0
MLINESTYLE
  5
18
102
{ACAD_REACTORS
330
17
102
}
330
17
100
AcDbMlineStyle
  2
STANDARD
 70
     0
  3

 62
   256
 51
90.0
 52
90.0
 71
     2
 49
0.5
 62
   256
  6
BYLAYER
 49
-0.5
 62
   256
  6
BYLAYER
  0
ACDBPLACEHOLDER
  5
F
102
{ACAD_REACTORS
330
E
102
}
330
E
  0
SCALE
  5
48
102
{ACAD_REACTORS
330
47
102
}
330
47
100
AcDbScale
 70
     0
300
1:1
140
1.0
141
1.0
290
     1
  0
SCALE
  5
49
102
{ACAD_REACTORS
330
47
102
}
330
47
100
AcDbScale
 70
     0
300
1:2
140
1.0
141
2.0
290
     0
  0
SCALE
  5
4A
102
{ACAD_REACTORS
330
47
102
}
330
47
100
AcDbScale
 70
     0
300
1:4
140
1.0
141
4.0
290
     0
  0
SCALE
  5
4B
102
{ACAD_REACTORS
330
47
102
}
330
47
100
AcDbScale
 70
     0
300
1:5
140
1.0
141
5.0
290
     0
  0
SCALE
  5
4C
102
{ACAD_REACTORS
330
47
102
}
330
47
100
AcDbScale
 70
     0
300
1:8
140
1.0
141
8.0
290
     0
  0
SCALE
  5
4D
102
{ACAD_REACTORS
330
47
102
}
330
47
100
AcDbScale
 70
     0
300
1:10
140
1.0
141
10.0
290
     0
  0
SCALE
  5
4E
102
{ACAD_REACTORS
330
47
102
}
330
47
100
AcDbScale
 70
     0
300
1:16
140
1.0
141
16.0
290
     0
  0
SCALE
  5
4F
102
{ACAD_REACTORS
330
47
102
}
330
47
100
AcDbScale
 70
     0
300
1:20
140
1.0
141
20.0
290
     0
  0
SCALE
  5
50
102
{ACAD_REACTORS
330
47
102
}
330
47
100
AcDbScale
 70
     0
300
1:30
140
1.0
141
30.0
290
     0
  0
SCALE
  5
51
102
{ACAD_REACTORS
330
47
102
}
330
47
100
AcDbScale
 70
     0
300
1:40
140
1.0
141
40.0
290
     0
  0
SCALE
  5
52
102
{ACAD_REACTORS
330
47
102
}
330
47
100
AcDbScale
 70
     0
300
1:50
140
1.0
141
50.0
290
     0
  0
SCALE
  5
53
102
{ACAD_REACTORS
330
47
102
}
330
47
100
AcDbScale
 70
     0
300
1:100
140
1.0
141
100.0
290
     0
  0
SCALE
  5
54
102
{ACAD_REACTORS
330
47
102
}
330
47
100
AcDbScale
 70
     0
300
2:1
140
2.0
141
1.0
290
     0
  0
SCALE
  5
55
102
{ACAD_REACTORS
330
47
102
}
330
47
100
AcDbScale
 70
     0
300
4:1
140
4.0
141
1.0
290
     0
  0
SCALE
  5
56
102
{ACAD_REACTORS
330
47
102
}
330
47
100
AcDbScale
 70
     0
300
8:1
140
8.0
141
1.0
290
     0
  0
SCALE
  5
57
102
{ACAD_REACTORS
330
47
102
}
330
47
100
AcDbScale
 70
     0
300
10:1
140
10.0
141
1.0
290
     0
  0
SCALE
  5
58
102
{ACAD_REACTORS
330
47
102
}
330
47
100
AcDbScale
 70
     0
300
100:1
140
100.0
141
1.0
290
     0
  0
SCALE
  5
59
102
{ACAD_REACTORS
330
47
102
}
330
47
100
AcDbScale
 70
     0
300
1/128" = 1'-0"
140
0.007812
141
12.0
290
     0
  0
SCALE
  5
5A
102
{ACAD_REACTORS
330
47
102
}
330
47
100
AcDbScale
 70
     0
300
1/64" = 1'-0"
140
0.015625
141
12.0
290
     0
  0
SCALE
  5
5B
102
{ACAD_REACTORS
330
47
102
}
330
47
100
AcDbScale
 70
     0
300
1/32" = 1'-0"
140
0.03125
141
12.0
290
     0
  0
SCALE
  5
5C
102
{ACAD_REACTORS
330
47
102
}
330
47
100
AcDbScale
 70
     0
300
1/16" = 1'-0"
140
0.0625
141
12.0
290
     0
  0
SCALE
  5
5D
102
{ACAD_REACTORS
330
47
102
}
330
47
100
AcDbScale
 70
     0
300
3/32" = 1'-0"
140
0.09375
141
12.0
290
     0
  0
SCALE
  5
5E
102
{ACAD_REACTORS
330
47
102
}
330
47
100
AcDbScale
 70
     0
300
1/8" = 1'-0"
140
0.125
141
12.0
290
     0
  0
SCALE
  5
5F
102
{ACAD_REACTORS
330
47
102
}
330
47
100
AcDbScale
 70
     0
300
3/16" = 1'-0"
140
0.1875
141
12.0
290
     0
  0
SCALE
  5
60
102
{ACAD_REACTORS
330
47
102
}
330
47
100
AcDbScale
 70
     0
300
1/4" = 1'-0"
140
0.25
141
12.0
290
     0
  0
SCALE
  5
61
102
{ACAD_REACTORS
330
47
102
}
330
47
100
AcDbScale
 70
     0
300
3/8" = 1'-0"
140
0.375
141
12.0
290
     0
  0
SCALE
  5
62
102
{ACAD_REACTORS
330
47
102
}
330
47
100
AcDbScale
 70
     0
300
1/2" = 1'-0"
140
0.5
141
12.0
290
     0
  0
SCALE
  5
63
102
{ACAD_REACTORS
330
47
102
}
330
47
100
AcDbScale
 70
     0
300
3/4" = 1'-0"
140
0.75
141
12.0
290
     0
  0
SCALE
  5
64
102
{ACAD_REACTORS
330
47
102
}
330
47
100
AcDbScale
 70
     0
300
1" = 1'-0"
140
1.0
141
12.0
290
     0
  0
SCALE
  5
65
102
{ACAD_REACTORS
330
47
102
}
330
47
100
AcDbScale
 70
     0
300
1-1/2" = 1'-0"
140
1.5
141
12.0
290
     0
  0
SCALE
  5
66
102
{ACAD_REACTORS
330
47
102
}
330
47
100
AcDbScale
 70
     0
300
3" = 1'-0"
140
3.0
141
12.0
290
     0
  0
SCALE
  5
67
102
{ACAD_REACTORS
330
47
102
}
330
47
100
AcDbScale
 70
     0
300
6" = 1'-0"
140
6.0
141
12.0
290
     0
  0
SCALE
  5
68
102
{ACAD_REACTORS
330
47
102
}
330
47
100
AcDbScale
 70
     0
300
1'-0" = 1'-0"
140
12.0
141
12.0
290
     0
  0
ACDBSECTIONVIEWSTYLE
  5
22C
102
{ACAD_XDICTIONARY
360
24D
102
}
102
{ACAD_REACTORS
330
228
102
}
330
228
100
AcDbModelDocViewStyle
 70
     0
  3
Metric50
290
     0
100
AcDbSectionViewStyle
 70
     0
 71
     0
 90
      102
 71
     1
340
11
 62
   256
 40
5.0
340
0
340
0
 62
   256
 40
5.0
300
I, O, Q, S, X, Z
 40
10.0
 90
        0
 40
2.5
 90
        0
 71
     2
340
16
 90
       25
 62
   256
340
16
 90
       50
 62
   256
 40
5.0
 40
2.5
 40
5.0
 71
     3
340
11
 62
   256
 40
5.0
 90
        0
 40
15.0
 90
        1
300
%<\AcVar ViewSectionStartId>%-%<\AcVar ViewSectionEndId>% (%<\AcVar ViewScale \f "%sn">%)
 71
     4
 62
   256
 62
   257
300
ANSI31
 40
1.0
 90
        0
290
     0
290
     0
 90
        6
 40
0.0
 40
1.570796326794896
 40
0.2617993877991494
 40
1.308996938995747
 40
-0.2617993877991494
 40
1.832595714594046
  0
TABLESTYLE
  5
6A
102
{ACAD_XDICTIONARY
360
21E
102
}
102
{ACAD_REACTORS
330
69
102
}
330
69
100
AcDbTableStyle
280
     0
  3
Standard
 70
     0
 71
     0
 40
0.06
 41
0.06
280
     0
281
     0
  7
Standard
140
0.18
170
     2
 62
     0
 63
     7
283
     0
 90
        4
 91
        0
  1

274
    -2
284
     1
 64
     0
275
    -2
285
     1
 65
     0
276
    -2
286
     1
 66
     0
277
    -2
287
     1
 67
     0
278
    -2
288
     1
 68
     0
279
    -2
289
     1
 69
     0
  7
Standard
140
0.25
170
     5
 62
     0
 63
     7
283
     0
 90
        4
 91
        0
  1

274
    -2
284
     1
 64
     0
275
    -2
285
     1
 65
     0
276
    -2
286
     1
 66
     0
277
    -2
287
     1
 67
     0
278
    -2
288
     1
 68
     0
279
    -2
289
     1
 69
     0
  7
Standard
140
0.18
170
     5
 62
     0
 63
     7
283
     0
 90
        4
 91
        0
  1

274
    -2
284
     1
 64
     0
275
    -2
285
     1
 65
     0
276
    -2
286
     1
 66
     0
277
    -2
287
     1
 67
     0
278
    -2
288
     1
 68
     0
279
    -2
289
     1
 69
     0
  0
VISUALSTYLE
  5
2F
102
{ACAD_REACTORS
330
2A
102
}
330
2A
100
AcDbVisualStyle
  2

 70
     4
177
     3
291
     0
 70
    58
 90
        0
176
     1
 90
        2
176
     1
 90
        0
176
     1
 90
        0
176
     1
 40
0.6
176
     1
 40
30.0
176
     1
 62
     7
420
 16777215
176
     1
 90
        1
176
     1
 90
        4
176
     1
 62
     7
176
     1
 62
   257
176
     1
 90
        1
176
     1
 90
        1
176
     1
 40
1.0
176
     1
 90
        0
176
     1
 62
   257
176
     1
 40
1.0
176
     1
 90
        1
176
     1
 90
        6
176
     1
 90
        2
176
     1
 62
     7
176
     1
 90
        5
176
     1
 90
        0
176
     1
 90
        0
176
     1
290
     0
176
     1
 90
        1
176
     1
 40
0.0
176
     1
 90
        0
176
     1
290
     1
176
     1
290
     1
176
     1
290
     0
176
     1
290
     0
176
     1
290
     0
176
     1
290
     0
176
     1
290
     0
176
     1
290
     0
176
     1
290
     0
176
     1
 90
       50
176
     1
 40
0.0
176
     1
 40
1.0
176
     1
 90
        0
176
     1
 62
    18
420
        0
176
     1
 90
       50
176
     1
 90
        3
176
     1
 62
     5
420
      255
176
     1
290
     0
176
     1
 90
       50
176
     1
 90
       50
176
     1
 90
       50
176
     1
290
     0
176
     1
 90
       50
176
     1
 62
   256
176
     0
 40
1.0
176
     0
 90
        2
176
     1
  1
strokes_ogs.tif
176
     1
290
     0
176
     1
 40
1.0
176
     1
 40
1.0
176
     1
1001
ACAD
1000
AcDbSavedByObjectVersion
1070
     0
  0
VISUALSTYLE
  5
32
102
{ACAD_REACTORS
330
2A
102
}
330
2A
100
AcDbVisualStyle
  2

 70
     7
177
     3
291
     1
 70
    58
 90
        1
176
     1
 90
        0
176
     1
 90
        1
176
     1
 90
        0
176
     1
 40
0.6
176
     1
 40
30.0
176
     1
 62
     7
420
 16777215
176
     1
 90
        0
176
     1
 90
        4
176
     1
 62
     7
176
     1
 62
   257
176
     1
 90
        1
176
     1
 90
        1
176
     1
 40
1.0
176
     1
 90
        8
176
     1
 62
     7
176
     1
 40
1.0
176
     1
 90
        1
176
     1
 90
        6
176
     1
 90
        2
176
     1
 62
     7
176
     1
 90
        5
176
     1
 90
        0
176
     1
 90
        0
176
     1
290
     0
176
     1
 90
        1
176
     1
 40
0.0
176
     1
 90
        0
176
     1
290
     0
176
     1
290
     1
176
     1
290
     1
176
     1
290
     0
176
     1
290
     0
176
     1
290
     0
176
     1
290
     0
176
     1
290
     0
176
     1
290
     0
176
     1
 90
       50
176
     1
 40
0.0
176
     1
 40
1.0
176
     1
 90
        0
176
     1
 62
    18
420
        0
176
     1
 90
       50
176
     1
 90
        3
176
     1
 62
     5
420
      255
176
     1
290
     0
176
     1
 90
       50
176
     1
 90
       50
176
     1
 90
       50
176
     1
290
     0
176
     1
 90
       50
176
     1
 62
   256
176
     0
 40
1.0
176
     0
 90
        2
176
     1
  1
strokes_ogs.tif
176
     1
290
     0
176
     1
 40
1.0
176
     1
 40
1.0
176
     1
1001
ACAD
1000
AcDbSavedByObjectVersion
1070
     0
  0
VISUALSTYLE
  5
36
102
{ACAD_REACTORS
330
2A
102
}
330
2A
100
AcDbVisualStyle
  2

 70
    12
177
     3
291
     1
 70
    58
 90
        2
176
     1
 90
        2
176
     1
 90
        0
176
     1
 90
        0
176
     1
 40
0.6
176
     1
 40
30.0
176
     1
 62
     7
420
 16777215
176
     1
 90
        1
176
     1
 90
        4
176
     1
 62
     7
176
     1
 62
   257
176
     1
 90
        1
176
     1
 90
        1
176
     1
 40
1.0
176
     1
 90
        8
176
     1
 62
     7
176
     1
 40
1.0
176
     1
 90
        1
176
     1
 90
        6
176
     1
 90
        2
176
     1
 62
     7
176
     1
 90
        5
176
     1
 90
        0
176
     1
 90
        0
176
     1
290
     0
176
     1
 90
        1
176
     1
 40
50.0
176
     1
 90
        0
176
     1
290
     0
176
     1
290
     1
176
     1
290
     1
176
     1
290
     0
176
     1
290
     0
176
     1
290
     0
176
     1
290
     0
176
     1
290
     0
176
     1
290
     0
176
     1
 90
       50
176
     1
 40
0.0
176
     1
 40
1.0
176
     1
 90
        0
176
     1
 62
    18
420
        0
176
     1
 90
       50
176
     1
 90
        3
176
     1
 62
     5
420
      255
176
     1
290
     0
176
     1
 90
       50
176
     1
 90
       50
176
     1
 90
       50
176
     1
290
     0
176
     1
 90
       50
176
     1
 62
   256
176
     0
 40
1.0
176
     0
 90
        2
176
     1
  1
strokes_ogs.tif
176
     1
290
     0
176
     1
 40
1.0
176
     1
 40
1.0
176
     1
1001
ACAD
1000
AcDbSavedByObjectVersion
1070
     0
  0
VISUALSTYLE
  5
3A
102
{ACAD_REACTORS
330
2A
102
}
330
2A
100
AcDbVisualStyle
  2

 70
    16
177
     3
291
     1
 70
    58
 90
        2
176
     1
 90
        2
176
     1
 90
        3
176
     1
 90
        0
176
     1
 40
0.6
176
     1
 40
30.0
176
     1
 62
     8
420
  8421504
176
     1
 90
        1
176
     1
 90
        4
176
     1
 62
     7
176
     1
 62
   257
176
     1
 90
        1
176
     1
 90
        1
176
     1
 40
1.0
176
     1
 90
        8
176
     1
 62
     8
420
  8421504
176
     1
 40
1.0
176
     1
 90
        1
176
     1
 90
        6
176
     1
 90
        2
176
     1
 62
     7
176
     1
 90
        5
176
     1
 90
        0
176
     1
 90
        0
176
     1
290
     0
176
     1
 90
        1
176
     1
 40
0.0
176
     1
 90
        0
176
     1
290
     0
176
     1
290
     1
176
     1
290
     1
176
     1
290
     0
176
     1
290
     0
176
     1
290
     0
176
     1
290
     0
176
     1
290
     0
176
     1
290
     0
176
     1
 90
       50
176
     1
 40
0.0
176
     1
 40
1.0
176
     1
 90
        0
176
     1
 62
    18
420
        0
176
     1
 90
       50
176
     1
 90
        3
176
     1
 62
     5
420
      255
176
     1
290
     0
176
     1
 90
       50
176
     1
 90
       50
176
     1
 90
       50
176
     1
290
     0
176
     1
 90
       50
176
     1
 62
   256
176
     0
 40
1.0
176
     0
 90
        2
176
     1
  1
strokes_ogs.tif
176
     1
290
     0
176
     1
 40
1.0
176
     1
 40
1.0
176
     1
1001
ACAD
1000
AcDbSavedByObjectVersion
1070
     0
  0
VISUALSTYLE
  5
34
102
{ACAD_REACTORS
330
2A
102
}
330
2A
100
AcDbVisualStyle
  2

 70
     9
177
     3
291
     0
 70
    58
 90
        3
176
     1
 90
        2
176
     1
 90
        0
176
     1
 90
        0
176
     1
 40
0.6
176
     1
 40
30.0
176
     1
 62
     7
420
 16777215
176
     1
 90
        2
176
     1
 90
        2
176
     1
 62
     7
176
     1
 62
   257
176
     1
 90
        1
176
     1
 90
        1
176
     1
 40
179.0
176
     1
 90
        8
176
     1
 62
     7
176
     1
 40
1.0
176
     1
 90
        1
176
     1
 90
        6
176
     1
 90
        2
176
     1
 62
     7
176
     1
 90
        3
176
     1
 90
        0
176
     1
 90
        0
176
     1
290
     0
176
     1
 90
        1
176
     1
 40
0.0
176
     1
 90
        0
176
     1
290
     0
176
     1
290
     1
176
     1
290
     1
176
     1
290
     0
176
     1
290
     0
176
     1
290
     0
176
     1
290
     0
176
     1
290
     0
176
     1
290
     0
176
     1
 90
       50
176
     1
 40
0.0
176
     1
 40
1.0
176
     1
 90
        0
176
     1
 62
    18
420
        0
176
     1
 90
       50
176
     1
 90
        3
176
     1
 62
     5
420
      255
176
     1
290
     0
176
     1
 90
       50
176
     1
 90
       50
176
     1
 90
       50
176
     1
290
     0
176
     1
 90
       50
176
     1
 62
   256
176
     0
 40
1.0
176
     0
 90
        2
176
     1
  1
strokes_ogs.tif
176
     1
290
     0
176
     1
 40
1.0
176
     1
 40
1.0
176
     1
1001
ACAD
1000
AcDbSavedByObjectVersion
1070
     0
  0
VISUALSTYLE
  5
35
102
{ACAD_REACTORS
330
2A
102
}
330
2A
100
AcDbVisualStyle
  2

 70
    11
177
     3
291
     1
 70
    58
 90
        2
176
     1
 90
        2
176
     1
 90
        0
176
     1
 90
        0
176
     1
 40
0.6
176
     1
 40
30.0
176
     1
 62
     7
420
 16777215
176
     1
 90
        1
176
     1
 90
        4
176
     1
 62
     7
176
     1
 62
   257
176
     1
 90
        1
176
     1
 90
        1
176
     1
 40
1.0
176
     1
 90
        8
176
     1
 62
     7
176
     1
 40
1.0
176
     1
 90
        1
176
     1
 90
        6
176
     1
 90
        2
176
     1
 62
     7
176
     1
 90
        5
176
     1
 90
        0
176
     1
 90
        0
176
     1
290
     0
176
     1
 90
        1
176
     1
 40
-50.0
176
     1
 90
        0
176
     1
290
     0
176
     1
290
     1
176
     1
290
     1
176
     1
290
     0
176
     1
290
     0
176
     1
290
     0
176
     1
290
     0
176
     1
290
     0
176
     1
290
     0
176
     1
 90
       50
176
     1
 40
0.0
176
     1
 40
1.0
176
     1
 90
        0
176
     1
 62
    18
420
        0
176
     1
 90
       50
176
     1
 90
        3
176
     1
 62
     5
420
      255
176
     1
290
     0
176
     1
 90
       50
176
     1
 90
       50
176
     1
 90
       50
176
     1
290
     0
176
     1
 90
       50
176
     1
 62
   256
176
     0
 40
1.0
176
     0
 90
        2
176
     1
  1
strokes_ogs.tif
176
     1
290
     0
176
     1
 40
1.0
176
     1
 40
1.0
176
     1
1001
ACAD
1000
AcDbSavedByObjectVersion
1070
     0
  0
VISUALSTYLE
  5
3D
102
{ACAD_REACTORS
330
2A
102
}
330
2A
100
AcDbVisualStyle
  2

 70
    22
177
     3
291
     1
 70
    58
 90
        2
176
     0
 90
        2
176
     0
 90
        0
176
     0
 90
        0
176
     0
 40
0.6
176
     0
 40
30.0
176
     0
 62
     7
420
 16777215
176
     0
 90
        1
176
     0
 90
        4
176
     0
 62
     7
176
     0
 62
   257
176
     0
 90
        1
176
     0
 90
        1
176
     0
 40
1.0
176
     0
 90
        8
176
     2
 62
     7
176
     0
 40
1.0
176
     0
 90
        1
176
     0
 90
        6
176
     0
 90
        2
176
     0
 62
     7
176
     0
 90
        5
176
     0
 90
        0
176
     0
 90
        0
176
     0
290
     0
176
     0
 90
        1
176
     0
 40
0.0
176
     0
 90
        0
176
     0
290
     0
176
     0
290
     1
176
     0
290
     1
176
     0
290
     0
176
     0
290
     0
176
     0
290
     0
176
     0
290
     0
176
     0
290
     0
176
     0
290
     0
176
     0
 90
       50
176
     0
 40
0.0
176
     0
 40
1.0
176
     0
 90
        0
176
     0
 62
    18
420
        0
176
     0
 90
       50
176
     0
 90
        3
176
     0
 62
     5
420
      255
176
     0
290
     0
176
     0
 90
       50
176
     0
 90
       50
176
     0
 90
       50
176
     0
290
     0
176
     0
 90
       50
176
     0
 62
   256
176
     0
 40
1.0
176
     0
 90
        2
176
     0
  1
strokes_ogs.tif
176
     0
290
     0
176
     0
 40
1.0
176
     0
 40
1.0
176
     0
1001
ACAD
1000
AcDbSavedByObjectVersion
1070
     0
  0
VISUALSTYLE
  5
39
102
{ACAD_REACTORS
330
2A
102
}
330
2A
100
AcDbVisualStyle
  2

 70
    15
177
     3
291
     1
 70
    58
 90
        2
176
     1
 90
        2
176
     1
 90
        0
176
     1
 90
        0
176
     1
 40
0.6
176
     1
 40
30.0
176
     1
 62
     7
420
 16777215
176
     1
 90
        1
176
     1
 90
        4
176
     1
 62
     7
176
     1
 62
   257
176
     1
 90
        1
176
     1
 90
        1
176
     1
 40
1.0
176
     1
 90
        8
176
     1
 62
     7
176
     1
 40
1.0
176
     1
 90
        1
176
     1
 90
        6
176
     1
 90
        2
176
     1
 62
     7
176
     1
 90
        5
176
     1
 90
        0
176
     1
 90
        0
176
     1
290
     0
176
     1
 90
        1
176
     1
 40
0.0
176
     1
 90
        0
176
     1
290
     0
176
     1
290
     1
176
     1
290
     1
176
     1
290
     0
176
     1
290
     0
176
     1
290
     0
176
     1
290
     0
176
     1
290
     0
176
     1
290
     0
176
     1
 90
       50
176
     1
 40
0.0
176
     1
 40
1.0
176
     1
 90
        0
176
     1
 62
    18
420
        0
176
     1
 90
       50
176
     1
 90
        3
176
     1
 62
     5
420
      255
176
     1
290
     0
176
     1
 90
       50
176
     1
 90
       50
176
     1
 90
       50
176
     1
290
     0
176
     1
 90
       50
176
     1
 62
   256
176
     0
 40
1.0
176
     0
 90
        2
176
     1
  1
strokes_ogs.tif
176
     1
290
     0
176
     1
 40
1.0
176
     1
 40
1.0
176
     1
1001
ACAD
1000
AcDbSavedByObjectVersion
1070
     0
  0
VISUALSTYLE
  5
2B
102
{ACAD_REACTORS
330
2A
102
}
330
2A
100
AcDbVisualStyle
  2

 70
     0
177
     3
291
     1
 70
    58
 90
        2
176
     1
 90
        1
176
     1
 90
        1
176
     1
 90
        2
176
     1
 40
0.6
176
     1
 40
30.0
176
     1
 62
     7
420
 16777215
176
     1
 90
        0
176
     1
 90
        0
176
     1
 62
     7
176
     1
 62
   257
176
     1
 90
        1
176
     1
 90
        1
176
     1
 40
1.0
176
     1
 90
        8
176
     1
 62
     7
176
     1
 40
1.0
176
     1
 90
        1
176
     1
 90
        6
176
     1
 90
        2
176
     1
 62
     7
176
     1
 90
        5
176
     1
 90
        0
176
     1
 90
        0
176
     1
290
     0
176
     1
 90
       13
176
     1
 40
0.0
176
     1
 90
        0
176
     1
290
     0
176
     1
290
     1
176
     1
290
     1
176
     1
290
     0
176
     1
290
     0
176
     1
290
     0
176
     1
290
     0
176
     1
290
     0
176
     1
290
     0
176
     1
 90
       50
176
     1
 40
0.0
176
     1
 40
1.0
176
     1
 90
        0
176
     1
 62
    18
420
        0
176
     1
 90
       50
176
     1
 90
        3
176
     1
 62
     5
420
      255
176
     1
290
     0
176
     1
 90
       50
176
     1
 90
       50
176
     1
 90
       50
176
     1
290
     0
176
     1
 90
       50
176
     1
 62
   256
176
     0
 40
1.0
176
     0
 90
        2
176
     1
  1
strokes_ogs.tif
176
     1
290
     0
176
     1
 40
1.0
176
     1
 40
1.0
176
     1
1001
ACAD
1000
AcDbSavedByObjectVersion
1070
     0
  0
VISUALSTYLE
  5
2C
102
{ACAD_REACTORS
330
2A
102
}
330
2A
100
AcDbVisualStyle
  2

 70
     1
177
     3
291
     1
 70
    58
 90
        2
176
     1
 90
        1
176
     1
 90
        1
176
     1
 90
        2
176
     1
 40
0.6
176
     1
 40
30.0
176
     1
 62
     7
420
 16777215
176
     1
 90
        1
176
     1
 90
        0
176
     1
 62
     7
176
     1
 62
   257
176
     1
 90
        1
176
     1
 90
        1
176
     1
 40
1.0
176
     1
 90
        0
176
     1
 62
   257
176
     1
 40
1.0
176
     1
 90
        1
176
     1
 90
        6
176
     1
 90
        2
176
     1
 62
     7
176
     1
 90
        5
176
     1
 90
        0
176
     1
 90
        0
176
     1
290
     0
176
     1
 90
       13
176
     1
 40
0.0
176
     1
 90
        0
176
     1
290
     0
176
     1
290
     1
176
     1
290
     1
176
     1
290
     0
176
     1
290
     0
176
     1
290
     0
176
     1
290
     0
176
     1
290
     0
176
     1
290
     0
176
     1
 90
       50
176
     1
 40
0.0
176
     1
 40
1.0
176
     1
 90
        0
176
     1
 62
    18
420
        0
176
     1
 90
       50
176
     1
 90
        3
176
     1
 62
     5
420
      255
176
     1
290
     0
176
     1
 90
       50
176
     1
 90
       50
176
     1
 90
       50
176
     1
290
     0
176
     1
 90
       50
176
     1
 62
   256
176
     0
 40
1.0
176
     0
 90
        2
176
     1
  1
strokes_ogs.tif
176
     1
290
     0
176
     1
 40
1.0
176
     1
 40
1.0
176
     1
1001
ACAD
1000
AcDbSavedByObjectVersion
1070
     0
  0
VISUALSTYLE
  5
2D
102
{ACAD_REACTORS
330
2A
102
}
330
2A
100
AcDbVisualStyle
  2

 70
     2
177
     3
291
     1
 70
    58
 90
        2
176
     1
 90
        2
176
     1
 90
        1
176
     1
 90
        2
176
     1
 40
0.6
176
     1
 40
30.0
176
     1
 62
     7
420
 16777215
176
     1
 90
        0
176
     1
 90
        0
176
     1
 62
     7
176
     1
 62
   257
176
     1
 90
        1
176
     1
 90
        1
176
     1
 40
1.0
176
     1
 90
        0
176
     1
 62
     7
176
     1
 40
1.0
176
     1
 90
        1
176
     1
 90
        6
176
     1
 90
        2
176
     1
 62
     7
176
     1
 90
        5
176
     1
 90
        0
176
     1
 90
        0
176
     1
290
     0
176
     1
 90
       13
176
     1
 40
0.0
176
     1
 90
        0
176
     1
290
     0
176
     1
290
     1
176
     1
290
     1
176
     1
290
     0
176
     1
290
     0
176
     1
290
     0
176
     1
290
     0
176
     1
290
     0
176
     1
290
     0
176
     1
 90
       50
176
     1
 40
0.0
176
     1
 40
1.0
176
     1
 90
        0
176
     1
 62
    18
420
        0
176
     1
 90
       50
176
     1
 90
        3
176
     1
 62
     5
420
      255
176
     1
290
     0
176
     1
 90
       50
176
     1
 90
       50
176
     1
 90
       50
176
     1
290
     0
176
     1
 90
       50
176
     1
 62
   256
176
     0
 40
1.0
176
     0
 90
        2
176
     1
  1
strokes_ogs.tif
176
     1
290
     0
176
     1
 40
1.0
176
     1
 40
1.0
176
     1
1001
ACAD
1000
AcDbSavedByObjectVersion
1070
     0
  0
VISUALSTYLE
  5
2E
102
{ACAD_REACTORS
330
2A
102
}
330
2A
100
AcDbVisualStyle
  2

 70
     3
177
     3
291
     1
 70
    58
 90
        2
176
     1
 90
        2
176
     1
 90
        1
176
     1
 90
        2
176
     1
 40
0.6
176
     1
 40
30.0
176
     1
 62
     7
420
 16777215
176
     1
 90
        1
176
     1
 90
        0
176
     1
 62
     7
176
     1
 62
   257
176
     1
 90
        1
176
     1
 90
        1
176
     1
 40
1.0
176
     1
 90
        0
176
     1
 62
   257
176
     1
 40
1.0
176
     1
 90
        1
176
     1
 90
        6
176
     1
 90
        2
176
     1
 62
     7
176
     1
 90
        5
176
     1
 90
        0
176
     1
 90
        0
176
     1
290
     0
176
     1
 90
       13
176
     1
 40
0.0
176
     1
 90
        0
176
     1
290
     0
176
     1
290
     1
176
     1
290
     1
176
     1
290
     0
176
     1
290
     0
176
     1
290
     0
176
     1
290
     0
176
     1
290
     0
176
     1
290
     0
176
     1
 90
       50
176
     1
 40
0.0
176
     1
 40
1.0
176
     1
 90
        0
176
     1
 62
    18
420
        0
176
     1
 90
       50
176
     1
 90
        3
176
     1
 62
     5
420
      255
176
     1
290
     0
176
     1
 90
       50
176
     1
 90
       50
176
     1
 90
       50
176
     1
290
     0
176
     1
 90
       50
176
     1
 62
   256
176
     0
 40
1.0
176
     0
 90
        2
176
     1
  1
strokes_ogs.tif
176
     1
290
     0
176
     1
 40
1.0
176
     1
 40
1.0
176
     1
1001
ACAD
1000
AcDbSavedByObjectVersion
1070
     0
  0
VISUALSTYLE
  5
31
102
{ACAD_REACTORS
330
2A
102
}
330
2A
100
AcDbVisualStyle
  2

 70
     6
177
     3
291
     0
 70
    58
 90
        1
176
     1
 90
        2
176
     1
 90
        2
176
     1
 90
        0
176
     1
 40
0.6
176
     1
 40
30.0
176
     1
 62
     7
420
 16777215
176
     1
 90
        2
176
     1
 90
        2
176
     1
 62
     7
176
     1
 62
   257
176
     1
 90
        2
176
     1
 90
        1
176
     1
 40
40.0
176
     1
 90
        0
176
     1
 62
   257
176
     1
 40
1.0
176
     1
 90
        1
176
     1
 90
        6
176
     1
 90
        2
176
     1
 62
     7
176
     1
 90
        3
176
     1
 90
        0
176
     1
 90
        0
176
     1
290
     0
176
     1
 90
        1
176
     1
 40
0.0
176
     1
 90
        0
176
     1
290
     0
176
     1
290
     1
176
     1
290
     1
176
     1
290
     0
176
     1
290
     0
176
     1
290
     0
176
     1
290
     0
176
     1
290
     0
176
     1
290
     0
176
     1
 90
       50
176
     1
 40
0.0
176
     1
 40
1.0
176
     1
 90
        0
176
     1
 62
    18
420
        0
176
     1
 90
       50
176
     1
 90
        3
176
     1
 62
     5
420
      255
176
     1
290
     0
176
     1
 90
       50
176
     1
 90
       50
176
     1
 90
       50
176
     1
290
     0
176
     1
 90
       50
176
     1
 62
   256
176
     0
 40
1.0
176
     0
 90
        2
176
     1
  1
strokes_ogs.tif
176
     1
290
     0
176
     1
 40
1.0
176
     1
 40
1.0
176
     1
1001
ACAD
1000
AcDbSavedByObjectVersion
1070
     0
  0
VISUALSTYLE
  5
3B
102
{ACAD_REACTORS
330
2A
102
}
330
2A
100
AcDbVisualStyle
  2

 70
    20
177
     3
291
     1
 70
    58
 90
        2
176
     0
 90
        2
176
     0
 90
        0
176
     0
 90
        0
176
     0
 40
0.6
176
     0
 40
30.0
176
     0
 62
     7
420
 16777215
176
     0
 90
        1
176
     0
 90
        4
176
     0
 62
     7
176
     0
 62
   257
176
     0
 90
        1
176
     0
 90
        1
176
     0
 40
1.0
176
     0
 90
       10
176
     2
 62
     7
176
     0
 40
1.0
176
     0
 90
        1
176
     0
 90
        6
176
     0
 90
        2
176
     0
 62
     7
176
     0
 90
        5
176
     0
 90
        0
176
     0
 90
        0
176
     0
290
     0
176
     0
 90
        1
176
     0
 40
0.0
176
     0
 90
        0
176
     0
290
     0
176
     0
290
     1
176
     0
290
     1
176
     0
290
     0
176
     0
290
     0
176
     0
290
     0
176
     0
290
     0
176
     0
290
     0
176
     0
290
     0
176
     0
 90
       50
176
     0
 40
0.0
176
     0
 40
1.0
176
     0
 90
        0
176
     0
 62
    18
420
        0
176
     0
 90
       50
176
     0
 90
        3
176
     0
 62
     5
420
      255
176
     0
290
     0
176
     0
 90
       50
176
     0
 90
       50
176
     0
 90
       50
176
     0
290
     0
176
     0
 90
       50
176
     0
 62
   256
176
     0
 40
1.0
176
     0
 90
        2
176
     0
  1
strokes_ogs.tif
176
     0
290
     0
176
     0
 40
1.0
176
     0
 40
1.0
176
     0
1001
ACAD
1000
AcDbSavedByObjectVersion
1070
     0
  0
VISUALSTYLE
  5
38
102
{ACAD_REACTORS
330
2A
102
}
330
2A
100
AcDbVisualStyle
  2

 70
    14
177
     3
291
     1
 70
    58
 90
        2
176
     1
 90
        2
176
     1
 90
        0
176
     1
 90
        0
176
     1
 40
0.6
176
     1
 40
30.0
176
     1
 62
     7
420
 16777215
176
     1
 90
        1
176
     1
 90
        4
176
     1
 62
     7
176
     1
 62
   257
176
     1
 90
        7
176
     1
 90
        7
176
     1
 40
1.0
176
     1
 90
        8
176
     1
 62
     7
176
     1
 40
1.0
176
     1
 90
        1
176
     1
 90
        6
176
     1
 90
        2
176
     1
 62
     7
176
     1
 90
        5
176
     1
 90
        0
176
     1
 90
        0
176
     1
290
     0
176
     1
 90
        1
176
     1
 40
0.0
176
     1
 90
        0
176
     1
290
     0
176
     1
290
     1
176
     1
290
     1
176
     1
290
     0
176
     1
290
     0
176
     1
290
     0
176
     1
290
     0
176
     1
290
     0
176
     1
290
     0
176
     1
 90
       50
176
     1
 40
0.0
176
     1
 40
1.0
176
     1
 90
        0
176
     1
 62
    18
420
        0
176
     1
 90
       50
176
     1
 90
        3
176
     1
 62
     5
420
      255
176
     1
290
     0
176
     1
 90
       50
176
     1
 90
       50
176
     1
 90
       50
176
     1
290
     0
176
     1
 90
       50
176
     1
 62
   256
176
     0
 40
1.0
176
     0
 90
        2
176
     1
  1
strokes_ogs.tif
176
     1
290
     0
176
     1
 40
1.0
176
     1
 40
1.0
176
     1
1001
ACAD
1000
AcDbSavedByObjectVersion
1070
     0
  0
VISUALSTYLE
  5
3C
102
{ACAD_REACTORS
330
2A
102
}
330
2A
100
AcDbVisualStyle
  2

 70
    21
177
     3
291
     1
 70
    58
 90
        2
176
     0
 90
        2
176
     0
 90
        0
176
     0
 90
        0
176
     0
 40
0.6
176
     0
 40
30.0
176
     0
 62
     7
420
 16777215
176
     0
 90
        1
176
     0
 90
        4
176
     0
 62
     7
176
     0
 62
   257
176
     0
 90
        1
176
     0
 90
        1
176
     0
 40
1.0
176
     0
 90
        9
176
     2
 62
     7
176
     0
 40
1.0
176
     0
 90
        1
176
     0
 90
        6
176
     0
 90
        2
176
     0
 62
     7
176
     0
 90
        5
176
     0
 90
        0
176
     0
 90
        0
176
     0
290
     0
176
     0
 90
        1
176
     0
 40
0.0
176
     0
 90
        0
176
     0
290
     0
176
     0
290
     1
176
     0
290
     1
176
     0
290
     0
176
     0
290
     0
176
     0
290
     0
176
     0
290
     0
176
     0
290
     0
176
     0
290
     0
176
     0
 90
       50
176
     0
 40
0.0
176
     0
 40
1.0
176
     0
 90
        0
176
     0
 62
    18
420
        0
176
     0
 90
       50
176
     0
 90
        3
176
     0
 62
     5
420
      255
176
     0
290
     0
176
     0
 90
       50
176
     0
 90
       50
176
     0
 90
       50
176
     0
290
     0
176
     0
 90
       50
176
     0
 62
   256
176
     0
 40
1.0
176
     0
 90
        2
176
     0
  1
strokes_ogs.tif
176
     0
290
     0
176
     0
 40
1.0
176
     0
 40
1.0
176
     0
1001
ACAD
1000
AcDbSavedByObjectVersion
1070
     0
  0
VISUALSTYLE
  5
33
102
{ACAD_REACTORS
330
2A
102
}
330
2A
100
AcDbVisualStyle
  2

 70
     8
177
     3
291
     0
 70
    58
 90
        2
176
     1
 90
        3
176
     1
 90
        0
176
     1
 90
        2
176
     1
 40
0.6
176
     1
 40
30.0
176
     1
 62
     7
420
 16777215
176
     1
 90
        0
176
     1
 90
        0
176
     1
 62
     7
176
     1
 62
   257
176
     1
 90
        1
176
     1
 90
        1
176
     1
 40
1.0
176
     1
 90
        8
176
     1
 62
   257
176
     1
 40
1.0
176
     1
 90
        1
176
     1
 90
        6
176
     1
 90
        2
176
     1
 62
     7
176
     1
 90
        3
176
     1
 90
        0
176
     1
 90
        0
176
     1
290
     0
176
     1
 90
       13
176
     1
 40
0.0
176
     1
 90
        0
176
     1
290
     0
176
     1
290
     1
176
     1
290
     1
176
     1
290
     0
176
     1
290
     0
176
     1
290
     0
176
     1
290
     0
176
     1
290
     0
176
     1
290
     0
176
     1
 90
       50
176
     1
 40
0.0
176
     1
 40
1.0
176
     1
 90
        0
176
     1
 62
    18
420
        0
176
     1
 90
       50
176
     1
 90
        3
176
     1
 62
     5
420
      255
176
     1
290
     0
176
     1
 90
       50
176
     1
 90
       50
176
     1
 90
       50
176
     1
290
     0
176
     1
 90
       50
176
     1
 62
   256
176
     0
 40
1.0
176
     0
 90
        2
176
     1
  1
strokes_ogs.tif
176
     1
290
     0
176
     1
 40
1.0
176
     1
 40
1.0
176
     1
1001
ACAD
1000
AcDbSavedByObjectVersion
1070
     0
  0
VISUALSTYLE
  5
42
102
{ACAD_REACTORS
330
2A
102
}
330
2A
100
AcDbVisualStyle
  2

 70
    27
177
     3
291
     0
 70
    58
 90
        2
176
     1
 90
        2
176
     1
 90
        1
176
     1
 90
        2
176
     1
 40
0.6
176
     1
 40
30.0
176
     1
 62
     7
420
 16777215
176
     1
 90
        0
176
     1
 90
        4
176
     1
 62
     7
176
     1
 62
   257
176
     1
 90
        1
176
     1
 90
        1
176
     1
 40
1.0
176
     1
 90
        8
176
     1
 62
   257
176
     1
 40
1.0
176
     1
 90
        1
176
     1
 90
        6
176
     1
 90
        2
176
     1
 62
     8
420
  7895160
176
     1
 90
        3
176
     1
 90
        0
176
     1
 90
        0
176
     1
290
     0
176
     1
 90
        5
176
     1
 40
0.0
176
     1
 90
        0
176
     1
290
     0
176
     1
290
     1
176
     1
290
     1
176
     1
290
     0
176
     1
290
     0
176
     1
290
     0
176
     1
290
     0
176
     1
290
     0
176
     1
290
     0
176
     1
 90
       50
176
     1
 40
0.0
176
     1
 40
1.0
176
     1
 90
        0
176
     1
 62
    18
420
        0
176
     1
 90
       50
176
     1
 90
        3
176
     1
 62
     5
420
      255
176
     1
290
     0
176
     1
 90
       50
176
     1
 90
       50
176
     1
 90
       50
176
     1
290
     0
176
     1
 90
       50
176
     1
 62
   256
176
     0
 40
1.0
176
     0
 90
        2
176
     1
  1
strokes_ogs.tif
176
     1
290
     0
176
     1
 40
1.0
176
     1
 40
1.0
176
     1
1001
ACAD
1000
AcDbSavedByObjectVersion
1070
     0
  0
VISUALSTYLE
  5
41
102
{ACAD_REACTORS
330
2A
102
}
330
2A
100
AcDbVisualStyle
  2

 70
    26
177
     3
291
     0
 70
    58
 90
        2
176
     1
 90
        2
176
     1
 90
        1
176
     1
 90
        2
176
     1
 40
0.6
176
     1
 40
30.0
176
     1
 62
     7
420
 16777215
176
     1
 90
        1
176
     1
 90
       10
176
     1
 62
     7
176
     1
 62
   257
176
     1
 90
        2
176
     1
 90
        1
176
     1
 40
1.0
176
     1
 90
        8
176
     1
 62
   257
176
     1
 40
1.0
176
     1
 90
        1
176
     1
 90
        6
176
     1
 90
        2
176
     1
 62
     7
176
     1
 90
        3
176
     1
 90
        0
176
     1
 90
        0
176
     1
290
     0
176
     1
 90
        5
176
     1
 40
0.0
176
     1
 90
        0
176
     1
290
     0
176
     1
290
     1
176
     1
290
     1
176
     1
290
     0
176
     1
290
     0
176
     1
290
     0
176
     1
290
     0
176
     1
290
     0
176
     1
290
     0
176
     1
 90
       50
176
     1
 40
0.0
176
     1
 40
1.0
176
     1
 90
        0
176
     1
 62
    18
420
        0
176
     1
 90
       50
176
     1
 90
        3
176
     1
 62
     5
420
      255
176
     1
290
     0
176
     1
 90
       50
176
     1
 90
       50
176
     1
 90
       50
176
     1
290
     0
176
     1
 90
       50
176
     1
 62
   256
176
     0
 40
1.0
176
     0
 90
        2
176
     1
  1
strokes_ogs.tif
176
     1
290
     0
176
     1
 40
1.0
176
     1
 40
1.0
176
     1
1001
ACAD
1000
AcDbSavedByObjectVersion
1070
     0
  0
VISUALSTYLE
  5
3E
102
{ACAD_REACTORS
330
2A
102
}
330
2A
100
AcDbVisualStyle
  2

 70
    23
177
     3
291
     0
 70
    58
 90
        2
176
     1
 90
        2
176
     1
 90
        3
176
     1
 90
        0
176
     1
 40
0.6
176
     1
 40
30.0
176
     1
 62
     7
420
 16777215
176
     1
 90
        2
176
     1
 90
        2
176
     1
 62
     7
176
     1
 62
     7
176
     1
 90
        1
176
     1
 90
        1
176
     1
 40
40.0
176
     1
 90
        8
176
     1
 62
     7
176
     1
 40
1.0
176
     1
 90
        1
176
     1
 90
        6
176
     1
 90
        2
176
     1
 62
     7
176
     1
 90
        3
176
     1
 90
        0
176
     1
 90
        0
176
     1
290
     0
176
     1
 90
        1
176
     1
 40
0.0
176
     1
 90
        0
176
     1
290
     0
176
     1
290
     1
176
     1
290
     1
176
     1
290
     0
176
     1
290
     0
176
     1
290
     0
176
     1
290
     0
176
     1
290
     0
176
     1
290
     0
176
     1
 90
       50
176
     1
 40
0.0
176
     1
 40
1.0
176
     1
 90
        0
176
     1
 62
    18
420
        0
176
     1
 90
       50
176
     1
 90
        3
176
     1
 62
     5
420
      255
176
     1
290
     0
176
     1
 90
       50
176
     1
 90
       50
176
     1
 90
       50
176
     1
290
     0
176
     1
 90
       50
176
     1
 62
   256
176
     0
 40
1.0
176
     0
 90
        2
176
     1
  1
strokes_ogs.tif
176
     1
290
     0
176
     1
 40
1.0
176
     1
 40
1.0
176
     1
1001
ACAD
1000
AcDbSavedByObjectVersion
1070
     0
  0
VISUALSTYLE
  5
3F
102
{ACAD_REACTORS
330
2A
102
}
330
2A
100
AcDbVisualStyle
  2

 70
    24
177
     3
291
     0
 70
    58
 90
        1
176
     1
 90
        2
176
     1
 90
        2
176
     1
 90
        0
176
     1
 40
0.6
176
     1
 40
30.0
176
     1
 62
     7
420
 16777215
176
     1
 90
        2
176
     1
 90
        2
176
     1
 62
     7
176
     1
 62
     7
176
     1
 90
        1
176
     1
 90
        1
176
     1
 40
40.0
176
     1
 90
       11
176
     1
 62
     7
176
     1
 40
1.0
176
     1
 90
        1
176
     1
 90
        6
176
     1
 90
        2
176
     1
 62
     7
176
     1
 90
        6
176
     1
 90
        0
176
     1
 90
        0
176
     1
290
     0
176
     1
 90
        1
176
     1
 40
0.0
176
     1
 90
        0
176
     1
290
     0
176
     1
290
     1
176
     1
290
     1
176
     1
290
     0
176
     1
290
     0
176
     1
290
     0
176
     1
290
     0
176
     1
290
     0
176
     1
290
     0
176
     1
 90
       50
176
     1
 40
0.0
176
     1
 40
1.0
176
     1
 90
        0
176
     1
 62
    18
420
        0
176
     1
 90
       50
176
     1
 90
        3
176
     1
 62
     5
420
      255
176
     1
290
     0
176
     1
 90
       50
176
     1
 90
       50
176
     1
 90
       50
176
     1
290
     0
176
     1
 90
       50
176
     1
 62
   256
176
     0
 40
1.0
176
     0
 90
        2
176
     1
  1
strokes_ogs.tif
176
     1
290
     0
176
     1
 40
1.0
176
     1
 40
1.0
176
     1
1001
ACAD
1000
AcDbSavedByObjectVersion
1070
     0
  0
VISUALSTYLE
  5
37
102
{ACAD_REACTORS
330
2A
102
}
330
2A
100
AcDbVisualStyle
  2

 70
    13
177
     3
291
     1
 70
    58
 90
        2
176
     1
 90
        2
176
     1
 90
        0
176
     1
 90
        0
176
     1
 40
0.6
176
     1
 40
30.0
176
     1
 62
     7
420
 16777215
176
     1
 90
        1
176
     1
 90
        4
176
     1
 62
     7
176
     1
 62
   257
176
     1
 90
        1
176
     1
 90
        1
176
     1
 40
1.0
176
     1
 90
       12
176
     1
 62
     7
176
     1
 40
1.0
176
     1
 90
        1
176
     1
 90
        6
176
     1
 90
        2
176
     1
 62
     7
176
     1
 90
        5
176
     1
 90
        0
176
     1
 90
        0
176
     1
290
     0
176
     1
 90
        1
176
     1
 40
0.0
176
     1
 90
        0
176
     1
290
     0
176
     1
290
     1
176
     1
290
     1
176
     1
290
     0
176
     1
290
     0
176
     1
290
     0
176
     1
290
     0
176
     1
290
     0
176
     1
290
     0
176
     1
 90
       50
176
     1
 40
0.0
176
     1
 40
1.0
176
     1
 90
        0
176
     1
 62
    18
420
        0
176
     1
 90
       50
176
     1
 90
        3
176
     1
 62
     5
420
      255
176
     1
290
     0
176
     1
 90
       50
176
     1
 90
       50
176
     1
 90
       50
176
     1
290
     0
176
     1
 90
       50
176
     1
 62
   256
176
     0
 40
1.0
176
     0
 90
        2
176
     1
  1
strokes_ogs.tif
176
     1
290
     0
176
     1
 40
1.0
176
     1
 40
1.0
176
     1
1001
ACAD
1000
AcDbSavedByObjectVersion
1070
     0
  0
VISUALSTYLE
  5
30
102
{ACAD_REACTORS
330
2A
102
}
330
2A
100
AcDbVisualStyle
  2

 70
     5
177
     3
291
     0
 70
    58
 90
        0
176
     1
 90
        2
176
     1
 90
        0
176
     1
 90
        0
176
     1
 40
0.6
176
     1
 40
30.0
176
     1
 62
     7
420
 16777215
176
     1
 90
        1
176
     1
 90
        4
176
     1
 62
     7
176
     1
 62
   257
176
     1
 90
        1
176
     1
 90
        1
176
     1
 40
1.0
176
     1
 90
        0
176
     1
 62
   257
176
     1
 40
1.0
176
     1
 90
        1
176
     1
 90
        6
176
     1
 90
        2
176
     1
 62
     7
176
     1
 90
        3
176
     1
 90
        0
176
     1
 90
        0
176
     1
290
     0
176
     1
 90
        1
176
     1
 40
0.0
176
     1
 90
        0
176
     1
290
     0
176
     1
290
     1
176
     1
290
     1
176
     1
290
     0
176
     1
290
     0
176
     1
290
     0
176
     1
290
     0
176
     1
290
     0
176
     1
290
     0
176
     1
 90
       50
176
     1
 40
0.0
176
     1
 40
1.0
176
     1
 90
        0
176
     1
 62
    18
420
        0
176
     1
 90
       50
176
     1
 90
        3
176
     1
 62
     5
420
      255
176
     1
290
     0
176
     1
 90
       50
176
     1
 90
       50
176
     1
 90
       50
176
     1
290
     0
176
     1
 90
       50
176
     1
 62
   256
176
     0
 40
1.0
176
     0
 90
        2
176
     1
  1
strokes_ogs.tif
176
     1
290
     0
176
     1
 40
1.0
176
     1
 40
1.0
176
     1
1001
ACAD
1000
AcDbSavedByObjectVersion
1070
     0
  0
VISUALSTYLE
  5
40
102
{ACAD_REACTORS
330
2A
102
}
330
2A
100
AcDbVisualStyle
  2

 70
    25
177
     3
291
     0
 70
    58
 90
        2
176
     1
 90
        2
176
     1
 90
        1
176
     1
 90
        1
176
     1
 40
0.5
176
     1
 40
30.0
176
     1
 62
     7
420
 16777215
176
     1
 90
        1
176
     1
 90
        0
176
     1
 62
     7
176
     1
 62
   257
176
     1
 90
        1
176
     1
 90
        1
176
     1
 40
1.0
176
     1
 90
        8
176
     1
 62
     7
176
     1
 40
1.0
176
     1
 90
        1
176
     1
 90
        6
176
     1
 90
        2
176
     1
 62
     7
176
     1
 90
        3
176
     1
 90
        0
176
     1
 90
        0
176
     1
290
     0
176
     1
 90
       13
176
     1
 40
0.0
176
     1
 90
        0
176
     1
290
     0
176
     1
290
     1
176
     1
290
     1
176
     1
290
     0
176
     1
290
     0
176
     1
290
     0
176
     1
290
     0
176
     1
290
     0
176
     1
290
     0
176
     1
 90
       50
176
     1
 40
0.0
176
     1
 40
1.0
176
     1
 90
        0
176
     1
 62
    18
420
        0
176
     1
 90
       50
176
     1
 90
        3
176
     1
 62
     5
420
      255
176
     1
290
     0
176
     1
 90
       50
176
     1
 90
       50
176
     1
 90
       50
176
     1
290
     0
176
     1
 90
       50
176
     1
 62
   256
176
     0
 40
1.0
176
     0
 90
        2
176
     1
  1
strokes_ogs.tif
176
     1
290
     0
176
     1
 40
1.0
176
     1
 40
1.0
176
     1
1001
ACAD
1000
AcDbSavedByObjectVersion
1070
     0
  0
DICTIONARYVAR
  5
1E5
102
{ACAD_REACTORS
330
1E4
102
}
330
1E4
100
DictionaryVariables
280
     0
  1
1:1
  0
DICTIONARYVAR
  5
226
102
{ACAD_REACTORS
330
1E4
102
}
330
1E4
100
DictionaryVariables
280
     0
  1
STANDARD
  0
DICTIONARYVAR
  5
225
102
{ACAD_REACTORS
330
1E4
102
}
330
1E4
100
DictionaryVariables
280
     0
  1
STANDARD
  0
DICTIONARYVAR
  5
246
102
{ACAD_REACTORS
330
1E4
102
}
330
1E4
100
DictionaryVariables
280
     0
  1
Metric50
  0
DICTIONARYVAR
  5
247
102
{ACAD_REACTORS
330
1E4
102
}
330
1E4
100
DictionaryVariables
280
     0
  1
Metric50
  0
DICTIONARYVAR
  5
249
102
{ACAD_REACTORS
330
1E4
102
}
330
1E4
100
DictionaryVariables
280
     0
  1
1
  0
DICTIONARYVAR
  5
24A
102
{ACAD_REACTORS
330
1E4
102
}
330
1E4
100
DictionaryVariables
280
     0
  1
15
  0
DICTIONARYVAR
  5
248
102
{ACAD_REACTORS
330
1E4
102
}
330
1E4
100
DictionaryVariables
280
     0
  1
0
  0
DICTIONARYVAR
  5
1E6
102
{ACAD_REACTORS
330
1E4
102
}
330
1E4
100
DictionaryVariables
280
     0
  1
1
  0
DICTIONARY
  5
24F
330
22D
100
AcDbDictionary
280
     1
281
     1
  3
ACAD_XREC_ROUNDTRIP
360
250
  0
DICTIONARY
  5
21A
330
45
100
AcDbDictionary
280
     1
281
     1
  3
ACAD_XREC_ROUNDTRIP
360
21B
  0
DICTIONARY
  5
218
330
44
100
AcDbDictionary
280
     1
281
     1
  3
ACAD_XREC_ROUNDTRIP
360
219
  0
DICTIONARY
  5
21C
330
46
100
AcDbDictionary
280
     1
281
     1
  3
ACAD_XREC_ROUNDTRIP
360
21D
  0
DICTIONARY
  5
24D
330
22C
100
AcDbDictionary
280
     1
281
     1
  3
ACAD_XREC_ROUNDTRIP
360
24E
  0
DICTIONARY
  5
21E
330
6A
100
AcDbDictionary
280
     1
281
     1
  3
ACAD_ROUNDTRIP_2008_TABLESTYLE_CELLSTYLEMAP
360
24B
  0
XRECORD
  5
250
102
{ACAD_REACTORS
330
24F
102
}
330
24F
100
AcDbXrecord
280
     1
102
DISPLAYNAME
  1
Metric50
102
FLAGS
 90
        0
  0
XRECORD
  5
21B
102
{ACAD_REACTORS
330
21A
102
}
330
21A
100
AcDbXrecord
280
     1
102
MATERIAL
148
0.0
149
0.0
149
0.0
 93
        0
 94
      127
282
     0
 72
     1
 77
     1
171
     1
175
     1
179
     1
273
     0
  0
XRECORD
  5
219
102
{ACAD_REACTORS
330
218
102
}
330
218
100
AcDbXrecord
280
     1
102
MATERIAL
148
0.0
149
0.0
149
0.0
 93
        0
 94
      127
282
     0
 72
     1
 77
     1
171
     1
175
     1
179
     1
273
     0
  0
XRECORD
  5
21D
102
{ACAD_REACTORS
330
21C
102
}
330
21C
100
AcDbXrecord
280
     1
102
MATERIAL
148
0.0
149
0.0
149
0.0
 93
        0
 94
      127
282
     0
 72
     1
 77
     1
171
     1
175
     1
179
     1
273
     0
  0
XRECORD
  5
24E
102
{ACAD_REACTORS
330
24D
102
}
330
24D
100
AcDbXrecord
280
     1
102
DISPLAYNAME
  1
Metric50
102
FLAGS
 90
        0
  0
CELLSTYLEMAP
  5
24B
102
{ACAD_REACTORS
330
21E
102
}
330
21E
100
AcDbCellStyleMap
 90
        3
300
CELLSTYLE
  1
TABLEFORMAT_BEGIN
 90
        5
170
     1
 91
        0
 92
    32768
 62
   257
 93
        1
300
CONTENTFORMAT
  1
CONTENTFORMAT_BEGIN
 90
        0
 91
        0
 92
        4
 93
        0
300

 40
0.0
140
1.0
 94
        5
 62
     0
340
11
144
0.25
309
CONTENTFORMAT_END
171
     1
301
MARGIN
  1
CELLMARGIN_BEGIN
 40
0.06
 40
0.06
 40
0.06
 40
0.06
 40
0.18
 40
0.18
309
CELLMARGIN_END
 94
        6
 95
        1
302
GRIDFORMAT
  1
GRIDFORMAT_BEGIN
 90
        0
 91
        1
 62
     0
 92
       -2
340
14
 93
        0
 40
0.045
309
GRIDFORMAT_END
 95
        2
302
GRIDFORMAT
  1
GRIDFORMAT_BEGIN
 90
        0
 91
        1
 62
     0
 92
       -2
340
14
 93
        0
 40
0.045
309
GRIDFORMAT_END
 95
        4
302
GRIDFORMAT
  1
GRIDFORMAT_BEGIN
 90
        0
 91
        1
 62
     0
 92
       -2
340
14
 93
        0
 40
0.045
309
GRIDFORMAT_END
 95
        8
302
GRIDFORMAT
  1
GRIDFORMAT_BEGIN
 90
        0
 91
        1
 62
     0
 92
       -2
340
14
 93
        0
 40
0.045
309
GRIDFORMAT_END
 95
       16
302
GRIDFORMAT
  1
GRIDFORMAT_BEGIN
 90
        0
 91
        1
 62
     0
 92
       -2
340
14
 93
        0
 40
0.045
309
GRIDFORMAT_END
 95
       32
302
GRIDFORMAT
  1
GRIDFORMAT_BEGIN
 90
        0
 91
        1
 62
     0
 92
       -2
340
14
 93
        0
 40
0.045
309
GRIDFORMAT_END
309
TABLEFORMAT_END
  1
CELLSTYLE_BEGIN
 90
        1
 91
        1
300
_TITLE
309
CELLSTYLE_END
300
CELLSTYLE
  1
TABLEFORMAT_BEGIN
 90
        5
170
     1
 91
        0
 92
        0
 62
   257
 93
        1
300
CONTENTFORMAT
  1
CONTENTFORMAT_BEGIN
 90
        0
 91
        0
 92
        4
 93
        0
300

 40
0.0
140
1.0
 94
        5
 62
     0
340
11
144
0.18
309
CONTENTFORMAT_END
171
     1
301
MARGIN
  1
CELLMARGIN_BEGIN
 40
0.06
 40
0.06
 40
0.06
 40
0.06
 40
0.18
 40
0.18
309
CELLMARGIN_END
 94
        6
 95
        1
302
GRIDFORMAT
  1
GRIDFORMAT_BEGIN
 90
        0
 91
        1
 62
     0
 92
       -2
340
14
 93
        0
 40
0.045
309
GRIDFORMAT_END
 95
        2
302
GRIDFORMAT
  1
GRIDFORMAT_BEGIN
 90
        0
 91
        1
 62
     0
 92
       -2
340
14
 93
        0
 40
0.045
309
GRIDFORMAT_END
 95
        4
302
GRIDFORMAT
  1
GRIDFORMAT_BEGIN
 90
        0
 91
        1
 62
     0
 92
       -2
340
14
 93
        0
 40
0.045
309
GRIDFORMAT_END
 95
        8
302
GRIDFORMAT
  1
GRIDFORMAT_BEGIN
 90
        0
 91
        1
 62
     0
 92
       -2
340
14
 93
        0
 40
0.045
309
GRIDFORMAT_END
 95
       16
302
GRIDFORMAT
  1
GRIDFORMAT_BEGIN
 90
        0
 91
        1
 62
     0
 92
       -2
340
14
 93
        0
 40
0.045
309
GRIDFORMAT_END
 95
       32
302
GRIDFORMAT
  1
GRIDFORMAT_BEGIN
 90
        0
 91
        1
 62
     0
 92
       -2
340
14
 93
        0
 40
0.045
309
GRIDFORMAT_END
309
TABLEFORMAT_END
  1
CELLSTYLE_BEGIN
 90
        2
 91
        1
300
_HEADER
309
CELLSTYLE_END
300
CELLSTYLE
  1
TABLEFORMAT_BEGIN
 90
        5
170
     1
 91
        0
 92
        0
 62
   257
 93
        1
300
CONTENTFORMAT
  1
CONTENTFORMAT_BEGIN
 90
        0
 91
        0
 92
        4
 93
        0
300

 40
0.0
140
1.0
 94
        2
 62
     0
340
11
144
0.18
309
CONTENTFORMAT_END
171
     1
301
MARGIN
  1
CELLMARGIN_BEGIN
 40
0.06
 40
0.06
 40
0.06
 40
0.06
 40
0.18
 40
0.18
309
CELLMARGIN_END
 94
        6
 95
        1
302
GRIDFORMAT
  1
GRIDFORMAT_BEGIN
 90
        0
 91
        1
 62
     0
 92
       -2
340
14
 93
        0
 40
0.045
309
GRIDFORMAT_END
 95
        2
302
GRIDFORMAT
  1
GRIDFORMAT_BEGIN
 90
        0
 91
        1
 62
     0
 92
       -2
340
14
 93
        0
 40
0.045
309
GRIDFORMAT_END
 95
        4
302
GRIDFORMAT
  1
GRIDFORMAT_BEGIN
 90
        0
 91
        1
 62
     0
 92
       -2
340
14
 93
        0
 40
0.045
309
GRIDFORMAT_END
 95
        8
302
GRIDFORMAT
  1
GRIDFORMAT_BEGIN
 90
        0
 91
        1
 62
     0
 92
       -2
340
14
 93
        0
 40
0.045
309
GRIDFORMAT_END
 95
       16
302
GRIDFORMAT
  1
GRIDFORMAT_BEGIN
 90
        0
 91
        1
 62
     0
 92
       -2
340
14
 93
        0
 40
0.045
309
GRIDFORMAT_END
 95
       32
302
GRIDFORMAT
  1
GRIDFORMAT_BEGIN
 90
        0
 91
        1
 62
     0
 92
       -2
340
14
 93
        0
 40
0.045
309
GRIDFORMAT_END
309
TABLEFORMAT_END
  1
CELLSTYLE_BEGIN
 90
        3
 91
        2
300
_DATA
309
CELLSTYLE_END
  0
ENDSEC
  0
EOF
