  0
SECTION
  2
HEADER
  9
$ACADVER
  1
AC1015
  9
$ACADMAINTVER
 70
    20
  9
$DWGCODEPAGE
  3
ANSI_1252
  9
$INSBASE
 10
0.0
 20
0.0
 30
0.0
  9
$EXTMIN
 10
-464.500000014
 20
-260.4755992470284
 30
-0.0000000000000551
  9
$EXTMAX
 10
464.500000014
 20
220.9755992330285
 30
0.0000000000000551
  9
$LIMMIN
 10
0.0
 20
0.0
  9
$LIMMAX
 10
12.0
 20
9.0
  9
$ORTHOMODE
 70
     0
  9
$REGENMODE
 70
     1
  9
$FILLMODE
 70
     1
  9
$QTEXTMODE
 70
     0
  9
$MIRRTEXT
 70
     1
  9
$LTSCALE
 40
1.0
  9
$ATTMODE
 70
     1
  9
$TEXTSIZE
 40
0.2
  9
$TRACEWID
 40
0.05
  9
$TEXTSTYLE
  7
STANDARD
  9
$CLAYER
  8
0
  9
$CELTYPE
  6
BYLAYER
  9
$CECOLOR
 62
   256
  9
$CELTSCALE
 40
1.0
  9
$DISPSILH
 70
     0
  9
$DIMSCALE
 40
1.0
  9
$DIMASZ
 40
0.18
  9
$DIMEXO
 40
0.0625
  9
$DIMDLI
 40
0.38
  9
$DIMRND
 40
0.0
  9
$DIMDLE
 40
0.0
  9
$DIMEXE
 40
0.18
  9
$DIMTP
 40
0.0
  9
$DIMTM
 40
0.0
  9
$DIMTXT
 40
0.18
  9
$DIMCEN
 40
0.09
  9
$DIMTSZ
 40
0.0
  9
$DIMTOL
 70
     0
  9
$DIMLIM
 70
     0
  9
$DIMTIH
 70
     1
  9
$DIMTOH
 70
     1
  9
$DIMSE1
 70
     0
  9
$DIMSE2
 70
     0
  9
$DIMTAD
 70
     0
  9
$DIMZIN
 70
     0
  9
$DIMBLK
  1

  9
$DIMASO
 70
     1
  9
$DIMSHO
 70
     1
  9
$DIMPOST
  1

  9
$DIMAPOST
  1

  9
$DIMALT
 70
     0
  9
$DIMALTD
 70
     2
  9
$DIMALTF
 40
25.4
  9
$DIMLFAC
 40
1.0
  9
$DIMTOFL
 70
     0
  9
$DIMTVP
 40
0.0
  9
$DIMTIX
 70
     0
  9
$DIMSOXD
 70
     0
  9
$DIMSAH
 70
     0
  9
$DIMBLK1
  1

  9
$DIMBLK2
  1

  9
$DIMSTYLE
  2
STANDARD
  9
$DIMCLRD
 70
     0
  9
$DIMCLRE
 70
     0
  9
$DIMCLRT
 70
     0
  9
$DIMTFAC
 40
1.0
  9
$DIMGAP
 40
0.09
  9
$DIMJUST
 70
     0
  9
$DIMSD1
 70
     0
  9
$DIMSD2
 70
     0
  9
$DIMTOLJ
 70
     1
  9
$DIMTZIN
 70
     0
  9
$DIMALTZ
 70
     0
  9
$DIMALTTZ
 70
     0
  9
$DIMUPT
 70
     0
  9
$DIMDEC
 70
     4
  9
$DIMTDEC
 70
     4
  9
$DIMALTU
 70
     2
  9
$DIMALTTD
 70
     2
  9
$DIMTXSTY
  7
STANDARD
  9
$DIMAUNIT
 70
     0
  9
$DIMADEC
 70
     0
  9
$DIMALTRND
 40
0.0
  9
$DIMAZIN
 70
     0
  9
$DIMDSEP
 70
    46
  9
$DIMATFIT
 70
     3
  9
$DIMFRAC
 70
     0
  9
$DIMLDRBLK
  1

  9
$DIMLUNIT
 70
     2
  9
$DIMLWD
 70
    -2
  9
$DIMLWE
 70
    -2
  9
$DIMTMOVE
 70
     0
  9
$LUNITS
 70
     2
  9
$LUPREC
 70
     4
  9
$SKETCHINC
 40
0.1
  9
$FILLETRAD
 40
0.5
  9
$AUNITS
 70
     0
  9
$AUPREC
 70
     0
  9
$MENU
  1
.
  9
$ELEVATION
 40
0.0
  9
$PELEVATION
 40
0.0
  9
$THICKNESS
 40
0.0
  9
$LIMCHECK
 70
     0
  9
$CHAMFERA
 40
0.5
  9
$CHAMFERB
 40
0.5
  9
$CHAMFERC
 40
1.0
  9
$CHAMFERD
 40
0.0
  9
$SKPOLY
 70
     0
  9
$TDCREATE
 40
2451762.476526273
  9
$TDUCREATE
 40
2451762.434859606
  9
$TDUPDATE
 40
2456990.523867569
  9
$TDUUPDATE
 40
2456990.482200903
  9
$TDINDWG
 40
0.0018556019
  9
$TDUSRTIMER
 40
0.0018555556
  9
$USRTIMER
 70
     1
  9
$ANGBASE
 50
0.0
  9
$ANGDIR
 70
     0
  9
$PDMODE
 70
     0
  9
$PDSIZE
 40
0.0
  9
$PLINEWID
 40
0.0
  9
$SPLFRAME
 70
     0
  9
$SPLINETYPE
 70
     6
  9
$SPLINESEGS
 70
     8
  9
$HANDSEED
  5
308
  9
$SURFTAB1
 70
     6
  9
$SURFTAB2
 70
     6
  9
$SURFTYPE
 70
     6
  9
$SURFU
 70
     6
  9
$SURFV
 70
     6
  9
$UCSBASE
  2

  9
$UCSNAME
  2

  9
$UCSORG
 10
0.0
 20
0.0
 30
0.0
  9
$UCSXDIR
 10
1.0
 20
0.0
 30
0.0
  9
$UCSYDIR
 10
0.0
 20
1.0
 30
0.0
  9
$UCSORTHOREF
  2

  9
$UCSORTHOVIEW
 70
     0
  9
$UCSORGTOP
 10
0.0
 20
0.0
 30
0.0
  9
$UCSORGBOTTOM
 10
0.0
 20
0.0
 30
0.0
  9
$UCSORGLEFT
 10
0.0
 20
0.0
 30
0.0
  9
$UCSORGRIGHT
 10
0.0
 20
0.0
 30
0.0
  9
$UCSORGFRONT
 10
0.0
 20
0.0
 30
0.0
  9
$UCSORGBACK
 10
0.0
 20
0.0
 30
0.0
  9
$PUCSBASE
  2

  9
$PUCSNAME
  2

  9
$PUCSORG
 10
0.0
 20
0.0
 30
0.0
  9
$PUCSXDIR
 10
1.0
 20
0.0
 30
0.0
  9
$PUCSYDIR
 10
0.0
 20
1.0
 30
0.0
  9
$PUCSORTHOREF
  2

  9
$PUCSORTHOVIEW
 70
     0
  9
$PUCSORGTOP
 10
0.0
 20
0.0
 30
0.0
  9
$PUCSORGBOTTOM
 10
0.0
 20
0.0
 30
0.0
  9
$PUCSORGLEFT
 10
0.0
 20
0.0
 30
0.0
  9
$PUCSORGRIGHT
 10
0.0
 20
0.0
 30
0.0
  9
$PUCSORGFRONT
 10
0.0
 20
0.0
 30
0.0
  9
$PUCSORGBACK
 10
0.0
 20
0.0
 30
0.0
  9
$USERI1
 70
     0
  9
$USERI2
 70
     0
  9
$USERI3
 70
     0
  9
$USERI4
 70
     0
  9
$USERI5
 70
     0
  9
$USERR1
 40
0.0
  9
$USERR2
 40
0.0
  9
$USERR3
 40
0.0
  9
$USERR4
 40
0.0
  9
$USERR5
 40
0.0
  9
$WORLDVIEW
 70
     1
  9
$SHADEDGE
 70
     3
  9
$SHADEDIF
 70
    70
  9
$TILEMODE
 70
     1
  9
$MAXACTVP
 70
    64
  9
$PINSBASE
 10
0.0
 20
0.0
 30
0.0
  9
$PLIMCHECK
 70
     0
  9
$PEXTMIN
 10
1.000000000000000E+20
 20
1.000000000000000E+20
 30
1.000000000000000E+20
  9
$PEXTMAX
 10
-1.000000000000000E+20
 20
-1.000000000000000E+20
 30
-1.000000000000000E+20
  9
$PLIMMIN
 10
0.0
 20
0.0
  9
$PLIMMAX
 10
12.0
 20
9.0
  9
$UNITMODE
 70
     0
  9
$VISRETAIN
 70
     1
  9
$PLINEGEN
 70
     0
  9
$PSLTSCALE
 70
     1
  9
$TREEDEPTH
 70
  3020
  9
$CMLSTYLE
  2
STANDARD
  9
$CMLJUST
 70
     0
  9
$CMLSCALE
 40
1.0
  9
$PROXYGRAPHICS
 70
     1
  9
$MEASUREMENT
 70
     0
  9
$CELWEIGHT
370
    -1
  9
$ENDCAPS
280
     0
  9
$JOINSTYLE
280
     0
  9
$LWDISPLAY
290
     0
  9
$INSUNITS
 70
     0
  9
$HYPERLINKBASE
  1

  9
$STYLESHEET
  1

  9
$XEDIT
290
     1
  9
$CEPSNTYPE
380
     0
  9
$PSTYLEMODE
290
     1
  9
$FINGERPRINTGUID
  2
{7DB68A5F-F5C0-491B-9650-9E45EDC289A2}
  9
$VERSIONGUID
  2
{FF301107-CDEC-46DB-87FD-7845F7840A6D}
  9
$EXTNAMES
290
     1
  9
$PSVPSCALE
 40
0.0
  9
$OLESTARTUP
290
     0
  0
ENDSEC
  0
SECTION
  2
CLASSES
  0
CLASS
  1
ACDBDICTIONARYWDFLT
  2
AcDbDictionaryWithDefault
  3
ObjectDBX Classes
 90
        0
280
     0
281
     0
  0
CLASS
  1
ACDBPLACEHOLDER
  2
AcDbPlaceHolder
  3
ObjectDBX Classes
 90
        0
280
     0
281
     0
  0
CLASS
  1
LAYOUT
  2
AcDbLayout
  3
ObjectDBX Classes
 90
        0
280
     0
281
     0
  0
CLASS
  1
MATERIAL
  2
AcDbMaterial
  3
ObjectDBX Classes
 90
     1153
280
     0
281
     0
  0
CLASS
  1
VISUALSTYLE
  2
AcDbVisualStyle
  3
ObjectDBX Classes
 90
     4095
280
     0
281
     0
  0
CLASS
  1
TABLESTYLE
  2
AcDbTableStyle
  3
ObjectDBX Classes
 90
     4095
280
     0
281
     0
  0
CLASS
  1
SCALE
  2
AcDbScale
  3
ObjectDBX Classes
 90
     1153
280
     0
281
     0
  0
CLASS
  1
MLEADERSTYLE
  2
AcDbMLeaderStyle
  3
ACDB_MLEADERSTYLE_CLASS
 90
     4095
280
     0
281
     0
  0
CLASS
  1
ACDBSECTIONVIEWSTYLE
  2
AcDbSectionViewStyle
  3
ObjectDBX Classes
 90
     1025
280
     0
281
     0
  0
CLASS
  1
ACDBDETAILVIEWSTYLE
  2
AcDbDetailViewStyle
  3
ObjectDBX Classes
 90
     1025
280
     0
281
     0
  0
CLASS
  1
SORTENTSTABLE
  2
AcDbSortentsTable
  3
ObjectDBX Classes
 90
        0
280
     0
281
     0
  0
CLASS
  1
DICTIONARYVAR
  2
AcDbDictionaryVar
  3
ObjectDBX Classes
 90
        0
280
     0
281
     0
  0
CLASS
  1
CELLSTYLEMAP
  2
AcDbCellStyleMap
  3
ObjectDBX Classes
 90
     1152
280
     0
281
     0
  0
ENDSEC
  0
SECTION
  2
TABLES
  0
TABLE
  2
VPORT
  5
8
330
0
100
AcDbSymbolTable
 70
     1
  0
VPORT
  5
223
330
8
100
AcDbSymbolTableRecord
100
AcDbViewportTableRecord
  2
*ACTIVE
 70
     0
 10
0.0
 20
0.0
 11
1.0
 21
1.0
 12
0.0000000000000568
 22
-44.07170547767742
 13
0.0
 23
0.0
 14
0.5
 24
0.5
 15
0.5
 25
0.5
 16
0.0
 26
0.0
 36
1.0
 17
0.0
 27
0.0
 37
0.0
 40
566.5631768007971
 41
1.650067294751009
 42
50.0
 43
0.0
 44
0.0
 50
0.0
 51
0.0
 71
     0
 72
   100
 73
     1
 74
     3
 75
     0
 76
     0
 77
     0
 78
     0
281
     0
 65
     1
110
0.0
120
0.0
130
0.0
111
1.0
121
0.0
131
0.0
112
0.0
122
1.0
132
0.0
 79
     0
146
0.0
1001
ACAD_NAV_VCDISPLAY
1070
     3
  0
ENDTAB
  0
TABLE
  2
LTYPE
  5
5
330
0
100
AcDbSymbolTable
 70
     2
  0
LTYPE
  5
14
330
5
100
AcDbSymbolTableRecord
100
AcDbLinetypeTableRecord
  2
BYBLOCK
 70
     0
  3

 72
    65
 73
     0
 40
0.0
  0
LTYPE
  5
15
330
5
100
AcDbSymbolTableRecord
100
AcDbLinetypeTableRecord
  2
BYLAYER
 70
     0
  3

 72
    65
 73
     0
 40
0.0
  0
LTYPE
  5
16
330
5
100
AcDbSymbolTableRecord
100
AcDbLinetypeTableRecord
  2
CONTINUOUS
 70
     0
  3
Solid line
 72
    65
 73
     0
 40
0.0
  0
LTYPE
  5
292
330
5
100
AcDbSymbolTableRecord
100
AcDbLinetypeTableRecord
  2
PHANTOM2
 70
     0
  3
___ _ _ ___ _ _ ___ _ _ ___ _ _
 72
    65
 73
     6
 40
1.25
 49
0.625
 74
     0
 49
-0.125
 74
     0
 49
0.125
 74
     0
 49
-0.125
 74
     0
 49
0.125
 74
     0
 49
-0.125
 74
     0
  0
ENDTAB
  0
TABLE
  2
LAYER
  5
2
330
0
100
AcDbSymbolTable
 70
     3
  0
LAYER
  5
10
102
{ACAD_XDICTIONARY
360
2BC
102
}
330
2
100
AcDbSymbolTableRecord
100
AcDbLayerTableRecord
  2
0
 70
     0
 62
     7
  6
CONTINUOUS
370
    -3
390
148
  0
LAYER
  5
A1
102
{ACAD_XDICTIONARY
360
2BE
102
}
330
2
100
AcDbSymbolTableRecord
100
AcDbLayerTableRecord
  2
PV-D5
 70
     2
 62
     7
  6
CONTINUOUS
370
    -3
390
148
  0
LAYER
  5
29C
330
2
100
AcDbSymbolTableRecord
100
AcDbLayerTableRecord
  2
Defpoints
 70
     0
 62
     7
  6
CONTINUOUS
290
     0
370
    -3
390
148
  0
ENDTAB
  0
TABLE
  2
STYLE
  5
3
330
0
100
AcDbSymbolTable
 70
     1
  0
STYLE
  5
11
330
3
100
AcDbSymbolTableRecord
100
AcDbTextStyleTableRecord
  2
STANDARD
 70
     0
 40
0.0
 41
1.0
 50
0.0
 71
     0
 42
0.2
  3
txt
  4

  0
ENDTAB
  0
TABLE
  2
VIEW
  5
6
330
0
100
AcDbSymbolTable
 70
     0
  0
ENDTAB
  0
TABLE
  2
UCS
  5
7
330
0
100
AcDbSymbolTable
 70
     0
  0
ENDTAB
  0
TABLE
  2
APPID
  5
9
330
0
100
AcDbSymbolTable
 70
     3
  0
APPID
  5
12
330
9
100
AcDbSymbolTableRecord
100
AcDbRegAppTableRecord
  2
ACAD
 70
     0
  0
APPID
  5
2CA
330
9
100
AcDbSymbolTableRecord
100
AcDbRegAppTableRecord
  2
ACAD_NAV_VCDISPLAY
 70
     0
  0
APPID
  5
303
330
9
100
AcDbSymbolTableRecord
100
AcDbRegAppTableRecord
  2
ACAD_MLEADERVER
 70
     0
  0
ENDTAB
  0
TABLE
  2
DIMSTYLE
  5
A
330
0
100
AcDbSymbolTable
 70
     1
100
AcDbDimStyleTable
 71
     1
340
27
  0
DIMSTYLE
105
27
330
A
100
AcDbSymbolTableRecord
100
AcDbDimStyleTableRecord
  2
STANDARD
 70
     0
340
11
  0
ENDTAB
  0
TABLE
  2
BLOCK_RECORD
  5
1
330
0
100
AcDbSymbolTable
 70
    10
  0
BLOCK_RECORD
  5
1F
102
{ACAD_XDICTIONARY
360
141
102
}
330
1
100
AcDbSymbolTableRecord
100
AcDbBlockTableRecord
  2
*MODEL_SPACE
340
296
  0
BLOCK_RECORD
  5
1B
102
{ACAD_XDICTIONARY
360
13F
102
}
330
1
100
AcDbSymbolTableRecord
100
AcDbBlockTableRecord
  2
*PAPER_SPACE
340
297
  0
BLOCK_RECORD
  5
48
330
1
100
AcDbSymbolTableRecord
100
AcDbBlockTableRecord
  2
*U0
340
0
102
{BLKREFS
331
A4
102
}
  0
BLOCK_RECORD
  5
A3
330
1
100
AcDbSymbolTableRecord
100
AcDbBlockTableRecord
  2
FRONT
340
0
  0
BLOCK_RECORD
  5
A8
330
1
100
AcDbSymbolTableRecord
100
AcDbBlockTableRecord
  2
*U2
340
0
102
{BLKREFS
331
D6
102
}
  0
BLOCK_RECORD
  5
D5
330
1
100
AcDbSymbolTableRecord
100
AcDbBlockTableRecord
  2
LEFT
340
0
  0
BLOCK_RECORD
  5
DA
330
1
100
AcDbSymbolTableRecord
100
AcDbBlockTableRecord
  2
*U4
340
0
102
{BLKREFS
331
108
102
}
  0
BLOCK_RECORD
  5
107
330
1
100
AcDbSymbolTableRecord
100
AcDbBlockTableRecord
  2
RIGHT
340
0
  0
BLOCK_RECORD
  5
10C
330
1
100
AcDbSymbolTableRecord
100
AcDbBlockTableRecord
  2
*U6
340
0
102
{BLKREFS
331
13A
102
}
  0
BLOCK_RECORD
  5
139
330
1
100
AcDbSymbolTableRecord
100
AcDbBlockTableRecord
  2
TOP
340
0
  0
BLOCK_RECORD
  5
29D
330
1
100
AcDbSymbolTableRecord
100
AcDbBlockTableRecord
  2
*D8
340
0
  0
BLOCK_RECORD
  5
2AB
330
1
100
AcDbSymbolTableRecord
100
AcDbBlockTableRecord
  2
*D9
340
0
  0
ENDTAB
  0
ENDSEC
  0
SECTION
  2
BLOCKS
  0
BLOCK
  5
20
330
1F
100
AcDbEntity
  8
0
100
AcDbBlockBegin
  2
*MODEL_SPACE
 70
     0
 10
0.0
 20
0.0
 30
0.0
  3
*MODEL_SPACE
  1

  0
ENDBLK
  5
21
330
1F
100
AcDbEntity
  8
0
100
AcDbBlockEnd
  0
BLOCK
  5
1C
330
1B
100
AcDbEntity
 67
     1
  8
0
100
AcDbBlockBegin
  2
*PAPER_SPACE
 70
     0
 10
0.0
 20
0.0
 30
0.0
  3
*PAPER_SPACE
  1

  0
ENDBLK
  5
1D
330
1B
100
AcDbEntity
 67
     1
  8
0
100
AcDbBlockEnd
  0
BLOCK
  5
9D
330
48
100
AcDbEntity
  8
0
100
AcDbBlockBegin
  2
*U0
 70
     1
 10
0.0
 20
0.0
 30
0.0
  3
*U0
  1
*ANON
  0
ARC
  5
49
330
48
100
AcDbEntity
  8
PV-D5
100
AcDbCircle
 10
0.0
 20
0.0
 30
0.0
 40
35.0
210
0.0
220
-1.0
230
0.0
100
AcDbArc
 50
28.12706821860473
 51
180.0
  0
ARC
  5
4A
330
48
100
AcDbEntity
  8
PV-D5
100
AcDbCircle
 10
0.0
 20
0.0
 30
0.0
 40
35.0
210
0.0
220
-1.0
230
0.0
100
AcDbArc
 50
179.9999999999992
 51
331.8729317813944
  0
ARC
  5
4B
330
48
100
AcDbEntity
  8
PV-D5
100
AcDbCircle
 10
0.0
 20
0.0
 30
0.0
 40
16.8
210
0.0
220
-1.0
230
0.0
100
AcDbArc
 50
79.15593743630314
 51
180.0000000000002
  0
ARC
  5
4C
330
48
100
AcDbEntity
  8
PV-D5
100
AcDbCircle
 10
0.0
 20
0.0
 30
0.0
 40
16.8
210
0.0
220
-1.0
230
0.0
100
AcDbArc
 50
179.999999999999
 51
280.8440625636959
  0
ARC
  5
4D
330
48
100
AcDbEntity
  8
PV-D5
100
AcDbCircle
 10
0.0
 20
0.0
 30
0.0
 40
16.5
210
0.0
220
-1.0
230
0.0
100
AcDbArc
 50
89.99999999999941
 51
269.9999999999997
  0
ARC
  5
4E
330
48
100
AcDbEntity
  8
PV-D5
100
AcDbCircle
 10
450.0
 20
0.0
 30
0.0
 40
16.5
210
0.0
220
-1.0
230
0.0
100
AcDbArc
 50
270.0000000000001
 51
90.0000000000006
  0
ARC
  5
4F
330
48
100
AcDbEntity
  8
PV-D5
100
AcDbCircle
 10
450.0
 20
0.0
 30
0.0
 40
35.0
210
0.0
220
-1.0
230
0.0
100
AcDbArc
 50
208.1270682186039
 51
151.8729317813951
  0
ARC
  5
50
330
48
100
AcDbEntity
  8
PV-D5
100
AcDbCircle
 10
450.0
 20
0.0
 30
0.0
 40
16.8
210
0.0
220
-1.0
230
0.0
100
AcDbArc
 50
259.1559374363021
 51
100.8440625636968
  0
LINE
  5
51
330
48
100
AcDbEntity
  8
PV-D5
100
AcDbLine
 10
166.0
 20
0.0
 30
16.0
 11
166.0
 21
0.0
 31
-16.0
  0
LINE
  5
52
330
48
100
AcDbEntity
  8
PV-D5
100
AcDbLine
 10
134.0
 20
0.0
 30
16.0
 11
166.0
 21
0.0
 31
16.0
  0
LINE
  5
53
330
48
100
AcDbEntity
  8
PV-D5
100
AcDbLine
 10
134.0
 20
0.0
 30
-16.0
 11
134.0
 21
0.0
 31
16.0
  0
LINE
  5
54
330
48
100
AcDbEntity
  8
PV-D5
100
AcDbLine
 10
166.0
 20
0.0
 30
-16.0
 11
134.0
 21
0.0
 31
-16.0
  0
LINE
  5
55
330
48
100
AcDbEntity
  8
PV-D5
100
AcDbLine
 10
131.4999999999999
 20
0.0
 30
-22.5
 11
168.5
 21
0.0
 31
-22.5
  0
ARC
  5
56
330
48
100
AcDbEntity
  8
PV-D5
100
AcDbCircle
 10
168.5
 20
-18.5
 30
0.0
 40
4.0
210
0.0
220
-1.0
230
0.0
100
AcDbArc
 50
269.9999999999997
 51
0.0
  0
ARC
  5
57
330
48
100
AcDbEntity
  8
PV-D5
100
AcDbCircle
 10
131.4999999999999
 20
-18.5
 30
0.0
 40
4.0
210
0.0
220
-1.0
230
0.0
100
AcDbArc
 50
179.9999999999986
 51
269.9999999999997
  0
LINE
  5
58
330
48
100
AcDbEntity
  8
PV-D5
100
AcDbLine
 10
172.5
 20
0.0
 30
-18.5
 11
172.5
 21
0.0
 31
18.5
  0
LINE
  5
59
330
48
100
AcDbEntity
  8
PV-D5
100
AcDbLine
 10
127.5
 20
0.0
 30
18.5
 11
127.5
 21
0.0
 31
-18.5
  0
ARC
  5
5A
330
48
100
AcDbEntity
  8
PV-D5
100
AcDbCircle
 10
168.5
 20
18.5
 30
0.0
 40
4.0
210
0.0
220
-1.0
230
0.0
100
AcDbArc
 50
0.0
 51
90.00000000000019
  0
ARC
  5
5B
330
48
100
AcDbEntity
  8
PV-D5
100
AcDbCircle
 10
131.4999999999999
 20
18.5
 30
0.0
 40
4.0
210
0.0
220
-1.0
230
0.0
100
AcDbArc
 50
90.00000000000019
 51
180.0000000000004
  0
LINE
  5
5C
330
48
100
AcDbEntity
  8
PV-D5
100
AcDbLine
 10
168.5
 20
0.0
 30
22.5
 11
131.4999999999999
 21
0.0
 31
22.5
  0
LINE
  5
5D
330
48
100
AcDbEntity
  8
PV-D5
100
AcDbLine
 10
155.1961524227065
 20
0.0
 30
-53.3
 11
144.8038475772933
 21
0.0
 31
-53.3
  0
LINE
  5
5E
330
48
100
AcDbEntity
  8
PV-D5
100
AcDbLine
 10
144.8038475772933
 20
0.0
 30
-53.3
 11
144.0
 21
0.0
 31
-53.3
  0
LINE
  5
5F
330
48
100
AcDbEntity
  8
PV-D5
100
AcDbLine
 10
156.0
 20
0.0
 30
-53.3
 11
155.1961524227065
 21
0.0
 31
-53.3
  0
SPLINE
  5
60
330
48
100
AcDbEntity
  8
PV-D5
100
AcDbSpline
210
1.0
220
0.0
230
0.0000000000000043
 70
    24
 71
     3
 72
    34
 73
    30
 74
     0
 42
0.0000000001
 43
0.0000000001
 40
-16.31121804155131
 40
-16.31121804155131
 40
-16.31121804155131
 40
-16.31121804155131
 40
-16.08486508158053
 40
-16.08486508158053
 40
-15.36083904989266
 40
-15.36083904989266
 40
-14.64998416681019
 40
-14.64998416681019
 40
-13.93912928372772
 40
-13.93912928372772
 40
-13.15451311658325
 40
-13.15451311658325
 40
-12.36989694943881
 40
-12.36989694943881
 40
-11.78572653947388
 40
-11.78572653947388
 40
-11.20155612950896
 40
-11.20155612950896
 40
-8.070733489770432
 40
-8.070733489770432
 40
-6.505322169901162
 40
-6.505322169901162
 40
-4.939910850031894
 40
-4.939910850031894
 40
-2.469955425015939
 40
-2.469955425015939
 40
-1.234977712507969
 40
-1.234977712507969
 40
0.0
 40
0.0
 40
0.0
 40
0.0
 10
150.0
 20
0.0
 30
-68.59734104647642
 10
150.0
 20
0.0
 30
-68.59741566582158
 10
150.0
 20
0.0
 30
-68.59481460548592
 10
150.0
 20
0.0
 30
-68.57124897770436
 10
150.0
 20
0.0
 30
-68.52212949660053
 10
150.0
 20
0.0
 30
-68.38237452821442
 10
150.0
 20
0.0
 30
-68.28033828393277
 10
150.0
 20
0.0
 30
-68.01961695558657
 10
149.9999999999999
 20
0.0
 30
-67.86103441780044
 10
149.9999999999999
 20
0.0
 30
-67.51904855203611
 10
150.0
 20
0.0
 30
-67.30105715165698
 10
150.0
 20
0.0
 30
-66.82921947024532
 10
150.0
 20
0.0
 30
-66.57571968788149
 10
150.0
 20
0.0
 30
-66.15856716218303
 10
150.0
 20
0.0
 30
-65.9585561906994
 10
150.0
 20
0.0
 30
-65.55132979127312
 10
150.0
 20
0.0
 30
-65.34418372395506
 10
150.0
 20
0.0
 30
-64.13541563555964
 10
150.0
 20
0.0
 30
-63.00493474463699
 10
150.0
 20
0.0
 30
-61.30166541106532
 10
149.9999999999999
 20
0.0
 30
-60.73267735989523
 10
149.9999999999999
 20
0.0
 30
-59.61881682107762
 10
149.9999999999999
 20
0.0
 30
-59.07393036535093
 10
149.9999999999999
 20
0.0
 30
-57.73550784321449
 10
149.9999999999999
 20
0.0
 30
-56.83396354096675
 10
149.9999999999999
 20
0.0
 30
-55.47944094883831
 10
150.0
 20
0.0
 30
-55.02755548113579
 10
150.0
 20
0.0
 30
-54.14366446629777
 10
149.9999999999999
 20
0.0
 30
-53.71165923750265
 10
149.9999999999999
 20
0.0
 30
-53.3
  0
LINE
  5
61
330
48
100
AcDbEntity
  8
PV-D5
100
AcDbLine
 10
316.0
 20
0.0
 30
16.0
 11
316.0
 21
0.0
 31
-16.0
  0
LINE
  5
62
330
48
100
AcDbEntity
  8
PV-D5
100
AcDbLine
 10
284.0
 20
0.0
 30
16.0
 11
316.0
 21
0.0
 31
16.0
  0
LINE
  5
63
330
48
100
AcDbEntity
  8
PV-D5
100
AcDbLine
 10
284.0
 20
0.0
 30
-16.0
 11
284.0
 21
0.0
 31
16.0
  0
LINE
  5
64
330
48
100
AcDbEntity
  8
PV-D5
100
AcDbLine
 10
316.0
 20
0.0
 30
-16.0
 11
284.0
 21
0.0
 31
-16.0
  0
LINE
  5
65
330
48
100
AcDbEntity
  8
PV-D5
100
AcDbLine
 10
281.4999999999999
 20
0.0
 30
-22.5
 11
318.5
 21
0.0
 31
-22.5
  0
ARC
  5
66
330
48
100
AcDbEntity
  8
PV-D5
100
AcDbCircle
 10
318.5
 20
-18.5
 30
0.0
 40
4.0
210
0.0
220
-1.0
230
0.0
100
AcDbArc
 50
269.9999999999997
 51
0.0
  0
ARC
  5
67
330
48
100
AcDbEntity
  8
PV-D5
100
AcDbCircle
 10
281.4999999999999
 20
-18.5
 30
0.0
 40
4.0
210
0.0
220
-1.0
230
0.0
100
AcDbArc
 50
179.9999999999986
 51
269.9999999999997
  0
LINE
  5
68
330
48
100
AcDbEntity
  8
PV-D5
100
AcDbLine
 10
322.5
 20
0.0
 30
-18.5
 11
322.5
 21
0.0
 31
18.5
  0
LINE
  5
69
330
48
100
AcDbEntity
  8
PV-D5
100
AcDbLine
 10
277.4999999999999
 20
0.0
 30
18.5
 11
277.4999999999999
 21
0.0
 31
-18.5
  0
ARC
  5
6A
330
48
100
AcDbEntity
  8
PV-D5
100
AcDbCircle
 10
318.5
 20
18.5
 30
0.0
 40
4.0
210
0.0
220
-1.0
230
0.0
100
AcDbArc
 50
0.0
 51
90.00000000000019
  0
ARC
  5
6B
330
48
100
AcDbEntity
  8
PV-D5
100
AcDbCircle
 10
281.4999999999999
 20
18.5
 30
0.0
 40
4.0
210
0.0
220
-1.0
230
0.0
100
AcDbArc
 50
90.00000000000019
 51
180.0000000000004
  0
LINE
  5
6C
330
48
100
AcDbEntity
  8
PV-D5
100
AcDbLine
 10
318.5
 20
0.0
 30
22.5
 11
281.4999999999999
 21
0.0
 31
22.5
  0
LINE
  5
6D
330
48
100
AcDbEntity
  8
PV-D5
100
AcDbLine
 10
305.1961524227067
 20
0.0
 30
-53.3
 11
294.8038475772932
 21
0.0
 31
-53.3
  0
LINE
  5
6E
330
48
100
AcDbEntity
  8
PV-D5
100
AcDbLine
 10
294.8038475772932
 20
0.0
 30
-53.3
 11
294.0
 21
0.0
 31
-53.3
  0
LINE
  5
6F
330
48
100
AcDbEntity
  8
PV-D5
100
AcDbLine
 10
306.0
 20
0.0
 30
-53.3
 11
305.1961524227067
 21
0.0
 31
-53.3
  0
SPLINE
  5
70
330
48
100
AcDbEntity
  8
PV-D5
100
AcDbSpline
210
1.0
220
0.0
230
0.0
 70
    24
 71
     3
 72
    34
 73
    30
 74
     0
 42
0.0000000001
 43
0.0000000001
 40
-16.31121804155132
 40
-16.31121804155132
 40
-16.31121804155132
 40
-16.31121804155132
 40
-16.08486508158053
 40
-16.08486508158053
 40
-15.36083904989266
 40
-15.36083904989266
 40
-14.64998416681019
 40
-14.64998416681019
 40
-13.93912928372772
 40
-13.93912928372772
 40
-13.15451311658325
 40
-13.15451311658325
 40
-12.36989694943881
 40
-12.36989694943881
 40
-11.78572653947388
 40
-11.78572653947388
 40
-11.20155612950896
 40
-11.20155612950896
 40
-8.070733489770432
 40
-8.070733489770432
 40
-6.505322169901162
 40
-6.505322169901162
 40
-4.939910850031894
 40
-4.939910850031894
 40
-2.469955425015939
 40
-2.469955425015939
 40
-1.234977712507969
 40
-1.234977712507969
 40
0.0
 40
0.0
 40
0.0
 40
0.0
 10
300.0
 20
0.0
 30
-68.59734104647642
 10
300.0
 20
0.0
 30
-68.59741566582158
 10
300.0
 20
0.0
 30
-68.59481460548592
 10
300.0
 20
0.0
 30
-68.57124897770436
 10
300.0
 20
0.0
 30
-68.52212949660053
 10
300.0
 20
0.0
 30
-68.38237452821442
 10
300.0
 20
0.0
 30
-68.28033828393277
 10
300.0
 20
0.0
 30
-68.01961695558657
 10
300.0
 20
0.0
 30
-67.86103441780044
 10
300.0
 20
0.0
 30
-67.51904855203611
 10
300.0
 20
0.0
 30
-67.30105715165698
 10
300.0
 20
0.0
 30
-66.82921947024532
 10
300.0
 20
0.0
 30
-66.57571968788149
 10
300.0
 20
0.0
 30
-66.15856716218303
 10
300.0
 20
0.0
 30
-65.9585561906994
 10
300.0
 20
0.0
 30
-65.55132979127312
 10
300.0
 20
0.0
 30
-65.34418372395506
 10
300.0
 20
0.0
 30
-64.13541563555964
 10
300.0
 20
0.0
 30
-63.00493474463699
 10
300.0
 20
0.0
 30
-61.30166541106532
 10
300.0
 20
0.0
 30
-60.73267735989523
 10
300.0
 20
0.0
 30
-59.61881682107762
 10
300.0
 20
0.0
 30
-59.07393036535093
 10
300.0
 20
0.0
 30
-57.73550784321449
 10
300.0
 20
0.0
 30
-56.83396354096675
 10
300.0
 20
0.0
 30
-55.47944094883831
 10
300.0
 20
0.0
 30
-55.02755548113579
 10
300.0
 20
0.0
 30
-54.14366446629777
 10
300.0
 20
0.0
 30
-53.71165923750265
 10
300.0
 20
0.0
 30
-53.3
  0
ARC
  5
71
330
48
100
AcDbEntity
  8
PV-D5
100
AcDbCircle
 10
331.6099272381318
 20
-61.29999999999999
 30
0.0
 40
12.5
210
0.0
220
-1.0
230
0.0
100
AcDbArc
 50
68.67631373650201
 51
111.323686263498
  0
LINE
  5
72
330
48
100
AcDbEntity
  8
PV-D5
100
AcDbLine
 10
337.1099272381318
 20
0.0
 30
-53.3
 11
337.1099272381318
 21
0.0
 31
-51.05304923404039
  0
LINE
  5
73
330
48
100
AcDbEntity
  8
PV-D5
100
AcDbLine
 10
326.1099272381319
 20
0.0
 30
-53.3
 11
326.1099272381319
 21
0.0
 31
-51.05304923404039
  0
ARC
  5
74
330
48
100
AcDbEntity
  8
PV-D5
100
AcDbCircle
 10
268.3900727618679
 20
-61.29999999999999
 30
0.0
 40
12.5
210
0.0
220
-1.0
230
0.0
100
AcDbArc
 50
68.67631373650201
 51
111.323686263498
  0
LINE
  5
75
330
48
100
AcDbEntity
  8
PV-D5
100
AcDbLine
 10
273.8900727618678
 20
0.0
 30
-53.3
 11
273.8900727618678
 21
0.0
 31
-51.05304923404039
  0
LINE
  5
76
330
48
100
AcDbEntity
  8
PV-D5
100
AcDbLine
 10
262.8900727618678
 20
0.0
 30
-53.3
 11
262.8900727618678
 21
0.0
 31
-51.05304923404039
  0
LINE
  5
77
330
48
100
AcDbEntity
  8
PV-D5
100
AcDbLine
 10
306.0
 20
0.0
 30
-53.3
 11
306.0
 21
0.0
 31
-22.5
  0
LINE
  5
78
330
48
100
AcDbEntity
  8
PV-D5
100
AcDbLine
 10
294.0
 20
0.0
 30
-53.3
 11
294.0
 21
0.0
 31
-22.5
  0
ARC
  5
79
330
48
100
AcDbEntity
  8
PV-D5
100
AcDbCircle
 10
181.6099272381319
 20
-61.29999999999999
 30
0.0
 40
12.5
210
0.0
220
-1.0
230
0.0
100
AcDbArc
 50
68.67631373650215
 51
111.3236862634978
  0
LINE
  5
7A
330
48
100
AcDbEntity
  8
PV-D5
100
AcDbLine
 10
187.1099272381319
 20
0.0
 30
-53.3
 11
187.1099272381319
 21
0.0
 31
-51.05304923404039
  0
LINE
  5
7B
330
48
100
AcDbEntity
  8
PV-D5
100
AcDbLine
 10
176.1099272381319
 20
0.0
 30
-53.3
 11
176.1099272381319
 21
0.0
 31
-51.05304923404039
  0
ARC
  5
7C
330
48
100
AcDbEntity
  8
PV-D5
100
AcDbCircle
 10
118.3900727618679
 20
-61.29999999999999
 30
0.0
 40
12.5
210
0.0
220
-1.0
230
0.0
100
AcDbArc
 50
68.67631373650207
 51
111.3236862634979
  0
LINE
  5
7D
330
48
100
AcDbEntity
  8
PV-D5
100
AcDbLine
 10
123.8900727618678
 20
0.0
 30
-53.3
 11
123.8900727618678
 21
0.0
 31
-51.05304923404039
  0
LINE
  5
7E
330
48
100
AcDbEntity
  8
PV-D5
100
AcDbLine
 10
112.8900727618679
 20
0.0
 30
-53.3
 11
112.8900727618679
 21
0.0
 31
-51.05304923404039
  0
LINE
  5
7F
330
48
100
AcDbEntity
  8
PV-D5
100
AcDbLine
 10
156.0
 20
0.0
 30
-53.3
 11
156.0
 21
0.0
 31
-22.5
  0
LINE
  5
80
330
48
100
AcDbEntity
  8
PV-D5
100
AcDbLine
 10
144.0
 20
0.0
 30
-53.3
 11
144.0
 21
0.0
 31
-22.5
  0
LINE
  5
81
330
48
100
AcDbEntity
  8
PV-D5
100
AcDbLine
 10
48.5
 20
0.0
 30
-16.5
 11
127.5
 21
0.0
 31
-16.5
  0
LINE
  5
82
330
48
100
AcDbEntity
  8
PV-D5
100
AcDbLine
 10
172.5
 20
0.0
 30
-16.5
 11
277.4999999999999
 21
0.0
 31
-16.5
  0
LINE
  5
83
330
48
100
AcDbEntity
  8
PV-D5
100
AcDbLine
 10
322.5
 20
0.0
 30
-16.5
 11
401.4999999999998
 21
0.0
 31
-16.5
  0
LINE
  5
84
330
48
100
AcDbEntity
  8
PV-D5
100
AcDbLine
 10
48.5
 20
0.0
 30
16.5
 11
127.5
 21
0.0
 31
16.5
  0
LINE
  5
85
330
48
100
AcDbEntity
  8
PV-D5
100
AcDbLine
 10
172.5
 20
0.0
 30
16.5
 11
277.4999999999999
 21
0.0
 31
16.5
  0
LINE
  5
86
330
48
100
AcDbEntity
  8
PV-D5
100
AcDbLine
 10
322.5
 20
0.0
 30
16.5
 11
401.4999999999998
 21
0.0
 31
16.5
  0
SPLINE
  5
87
330
48
100
AcDbEntity
  8
PV-D5
100
AcDbSpline
210
0.0
220
-1.0
230
0.0
 70
     8
 71
     3
 72
    26
 73
    22
 74
     0
 42
0.0000000001
 43
0.0000000001
 40
14.65637604513964
 40
14.65637604513964
 40
14.65637604513964
 40
14.65637604513964
 40
14.79952634070098
 40
14.79952634070098
 40
19.49146075960723
 40
19.49146075960723
 40
24.13942711669054
 40
24.13942711669054
 40
28.86914814270353
 40
28.86914814270353
 40
34.03386327356739
 40
34.03386327356739
 40
39.72257848106822
 40
39.72257848106822
 40
45.00539958295299
 40
45.00539958295299
 40
49.91614049975144
 40
49.91614049975144
 40
54.74320172828242
 40
54.74320172828242
 40
55.86890235669898
 40
55.86890235669898
 40
55.86890235669898
 40
55.86890235669898
 10
326.1099253963133
 20
0.0
 30
-53.30000000007296
 10
326.1099265900996
 20
0.0
 30
-53.34752107599639
 10
326.1097056175722
 20
0.0
 30
-53.39505631963722
 10
326.0947212542959
 20
0.0
 30
-55.00101879789468
 10
325.8413165156271
 20
0.0
 30
-56.5398337591219
 10
324.8998218908324
 20
0.0
 30
-59.39949220806656
 10
324.2268726330458
 20
0.0
 30
-60.69055698700577
 10
322.5544644210381
 20
0.0
 30
-62.91576077088102
 10
321.5733904509975
 20
0.0
 30
-63.81393183033971
 10
319.3587635535201
 20
0.0
 30
-65.19352275342708
 10
318.1342952204382
 20
0.0
 30
-65.6146604898482
 10
315.5539261941008
 20
0.0
 30
-65.90110748480225
 10
314.1749430424646
 20
0.0
 30
-65.70724552178177
 10
311.6221325235958
 20
0.0
 30
-64.6456168081182
 10
310.4515772970086
 20
0.0
 30
-63.83262530120063
 10
308.45806443304
 20
0.0
 30
-61.68502568349428
 10
307.6469119451065
 20
0.0
 30
-60.42076492973452
 10
306.4591969246492
 20
0.0
 30
-57.56532001788578
 10
306.0913618847628
 20
0.0
 30
-56.01579888504937
 10
305.9466515455628
 20
0.0
 30
-54.04599221732262
 10
305.9330525446271
 20
0.0
 30
-53.67276798818854
 10
305.9330872030158
 20
0.0
 30
-53.30000001851047
  0
SPLINE
  5
88
330
48
100
AcDbEntity
  8
PV-D5
100
AcDbSpline
210
0.0
220
-1.0
230
0.0
 70
     8
 71
     3
 72
    22
 73
    18
 74
     0
 42
0.0000000001
 43
0.0000000001
 40
26.02964492278264
 40
26.02964492278264
 40
26.02964492278264
 40
26.02964492278264
 40
27.87314494363783
 40
27.87314494363783
 40
36.82892472546132
 40
36.82892472546132
 40
45.56324289243317
 40
45.56324289243317
 40
54.2920955383461
 40
54.2920955383461
 40
63.27954199116671
 40
63.27954199116671
 40
72.55599765330308
 40
72.55599765330308
 40
81.92997645402828
 40
81.92997645402828
 40
82.52116564710426
 40
82.52116564710426
 40
82.52116564710426
 40
82.52116564710426
 10
299.9999866916143
 20
0.0
 30
-68.59756367170239
 10
300.3605819756035
 20
0.0
 30
-69.06683058853949
 10
300.7385613579837
 20
0.0
 30
-69.52114349829535
 10
303.0510643634123
 20
0.0
 30
-72.08761848224956
 10
305.3324803601366
 20
0.0
 30
-73.79669735041611
 10
310.3265374000262
 20
0.0
 30
-76.1251776033654
 10
312.9761892450876
 20
0.0
 30
-76.74654676667748
 10
318.3569926804683
 20
0.0
 30
-76.84682442098069
 10
321.0237021301515
 20
0.0
 30
-76.32524842038377
 10
326.097984468027
 20
0.0
 30
-74.17961000062445
 10
328.4394690164777
 20
0.0
 30
-72.54720135232787
 10
332.4769649776213
 20
0.0
 30
-68.34391380336334
 10
334.1132241930385
 20
0.0
 30
-65.78373490105725
 10
336.4064287698151
 20
0.0
 30
-60.09712968681174
 10
337.0329893884656
 20
0.0
 30
-57.01601855939467
 10
337.1077140652428
 20
0.0
 30
-53.69396078627378
 10
337.1099295680274
 20
0.0
 30
-53.49693113737608
 10
337.1099333250437
 20
0.0
 30
-53.3000000003512
  0
ARC
  5
89
330
48
100
AcDbEntity
  8
PV-D5
100
AcDbCircle
 10
335.6099272381318
 20
-51.05304923404039
 30
0.0
 40
1.5
210
0.0
220
-1.0
230
0.0
100
AcDbArc
 50
0.0000000000002799
 51
68.67631373650141
  0
ARC
  5
8A
330
48
100
AcDbEntity
  8
PV-D5
100
AcDbCircle
 10
327.6099272381319
 20
-51.05304923404039
 30
0.0
 40
1.5
210
0.0
220
-1.0
230
0.0
100
AcDbArc
 50
111.3236862634986
 51
179.9999999999996
  0
ARC
  5
8B
330
48
100
AcDbEntity
  8
PV-D5
100
AcDbCircle
 10
300.0
 20
-71.29999999999999
 30
0.0
 40
5.5
210
0.0
220
-1.0
230
0.0
100
AcDbArc
 50
202.4667445749797
 51
337.5332554250196
  0
SPLINE
  5
8C
330
48
100
AcDbEntity
  8
PV-D5
100
AcDbSpline
210
0.0
220
1.0
230
0.0
 70
     8
 71
     3
 72
    22
 73
    18
 74
     0
 42
0.0000000001
 43
0.0000000001
 40
25.61804833952723
 40
25.61804833952723
 40
25.61804833952723
 40
25.61804833952723
 40
27.76403548566857
 40
27.76403548566857
 40
37.05028289234322
 40
37.05028289234322
 40
46.18071570400688
 40
46.18071570400688
 40
55.07223787255082
 40
55.07223787255082
 40
63.77401221336835
 40
63.77401221336835
 40
72.53815829578321
 40
72.53815829578321
 40
81.59527452491682
 40
81.59527452491682
 40
82.07404050431595
 40
82.07404050431595
 40
82.07404050431595
 40
82.07404050431595
 10
262.8900178747845
 20
0.0
 30
-53.30000001264281
 10
262.890043047748
 20
0.0
 30
-54.01369030186573
 10
262.9191380450973
 20
0.0
 30
-54.72818203296323
 10
263.2299279686079
 20
0.0
 30
-58.52712828944412
 10
264.0255211059927
 20
0.0
 30
-61.53135038669434
 10
266.6055604097631
 20
0.0
 30
-66.98503705995225
 10
268.351987263552
 20
0.0
 30
-69.39663130575961
 10
272.5532909466128
 20
0.0
 30
-73.2913154665556
 10
274.9523429472873
 20
0.0
 30
-74.76273000537758
 10
280.0982806927752
 20
0.0
 30
-76.59097411507659
 10
282.7813660853548
 20
0.0
 30
-76.95119847605697
 10
288.1528111943298
 20
0.0
 30
-76.53203746255241
 10
290.7765448378786
 20
0.0
 30
-75.74949611924036
 10
295.6800489966588
 20
0.0
 30
-73.1042476755787
 10
297.8936481978811
 20
0.0
 30
-71.23452279556494
 10
299.8110290110899
 20
0.0
 30
-68.84093078819524
 10
299.9061118017989
 20
0.0
 30
-68.71973915442907
 10
300.0000023363515
 20
0.0
 30
-68.59755277898215
  0
SPLINE
  5
8D
330
48
100
AcDbEntity
  8
PV-D5
100
AcDbSpline
210
0.0
220
1.0
230
0.0
 70
     8
 71
     3
 72
    24
 73
    20
 74
     0
 42
0.0000000001
 43
0.0000000001
 40
5.434945478253898
 40
5.434945478253898
 40
5.434945478253898
 40
5.434945478253898
 40
9.487097647791692
 40
9.487097647791692
 40
14.12339065628227
 40
14.12339065628227
 40
18.80913130861983
 40
18.80913130861983
 40
23.8497497232321
 40
23.8497497232321
 40
29.73883063484088
 40
29.73883063484088
 40
35.08276672747546
 40
35.08276672747546
 40
40.005698242164
 40
40.005698242164
 40
44.84161421266832
 40
44.84161421266832
 40
46.5278977326974
 40
46.5278977326974
 40
46.5278977326974
 40
46.5278977326974
 10
294.0669575679206
 20
0.0
 30
-53.2999999932117
 10
294.0668501514153
 20
0.0
 30
-54.64700204676116
 10
293.8885086373289
 20
0.0
 30
-55.98552974492799
 10
293.1426136990864
 20
0.0
 30
-58.71966051694224
 10
292.5317940887462
 20
0.0
 30
-60.06398375079811
 10
290.9654969755692
 20
0.0
 30
-62.4120756767706
 10
290.028220882279
 20
0.0
 30
-63.38182855846243
 10
287.8949359233617
 20
0.0
 30
-64.91285091406609
 10
286.7115467335684
 20
0.0
 30
-65.41967760611156
 10
284.1124605257979
 20
0.0
 30
-65.92357324865021
 10
282.6751935236387
 20
0.0
 30
-65.82228821707352
 10
280.0324486108261
 20
0.0
 30
-64.90321887050777
 10
278.8221849852835
 20
0.0
 30
-64.15546062540437
 10
276.7410177383113
 20
0.0
 30
-62.114710615316
 10
275.8820526845728
 20
0.0
 30
-60.89681172706307
 10
274.5855768916901
 20
0.0
 30
-58.10388922818143
 10
274.15885075079
 20
0.0
 30
-56.57157980230232
 10
273.9207916645859
 20
0.0
 30
-54.41930270020208
 10
273.890159219682
 20
0.0
 30
-53.85937360163939
 10
273.8901964302356
 20
0.0
 30
-53.3000000208085
  0
ARC
  5
8E
330
48
100
AcDbEntity
  8
PV-D5
100
AcDbCircle
 10
272.3900727618679
 20
-51.05304923404039
 30
0.0
 40
1.5
210
0.0
220
-1.0
230
0.0
100
AcDbArc
 50
0.0000000000002799
 51
68.67631373650141
  0
ARC
  5
8F
330
48
100
AcDbEntity
  8
PV-D5
100
AcDbCircle
 10
264.3900727618679
 20
-51.05304923404039
 30
0.0
 40
1.5
210
0.0
220
-1.0
230
0.0
100
AcDbArc
 50
111.3236862634986
 51
179.9999999999996
  0
SPLINE
  5
90
330
48
100
AcDbEntity
  8
PV-D5
100
AcDbSpline
210
0.0
220
-1.0
230
0.0
 70
     8
 71
     3
 72
    26
 73
    22
 74
     0
 42
0.0000000001
 43
0.0000000001
 40
14.65637604513846
 40
14.65637604513846
 40
14.65637604513846
 40
14.65637604513846
 40
14.79952634069975
 40
14.79952634069975
 40
19.49146075960556
 40
19.49146075960556
 40
24.1394271166887
 40
24.1394271166887
 40
28.86914814270126
 40
28.86914814270126
 40
34.03386327356488
 40
34.03386327356488
 40
39.72257848107313
 40
39.72257848107313
 40
45.00539958295664
 40
45.00539958295664
 40
49.91614049975454
 40
49.91614049975454
 40
54.74320172828507
 40
54.74320172828507
 40
55.86890235669661
 40
55.86890235669661
 40
55.86890235669661
 40
55.86890235669661
 10
176.1099253963133
 20
0.0
 30
-53.30000000007298
 10
176.1099265900996
 20
0.0
 30
-53.34752107599639
 10
176.1097056175721
 20
0.0
 30
-53.39505631963722
 10
176.0947212542959
 20
0.0
 30
-55.00101879789475
 10
175.8413165156269
 20
0.0
 30
-56.53983375912202
 10
174.8998218908324
 20
0.0
 30
-59.3994922080665
 10
174.2268726330458
 20
0.0
 30
-60.69055698700566
 10
172.5544644210381
 20
0.0
 30
-62.91576077088103
 10
171.5733904509974
 20
0.0
 30
-63.81393183033971
 10
169.35876355352
 20
0.0
 30
-65.19352275342706
 10
168.1342952204381
 20
0.0
 30
-65.6146604898482
 10
165.553926194099
 20
0.0
 30
-65.90110748480245
 10
164.1749430424608
 20
0.0
 30
-65.70724552178124
 10
161.6221325235909
 20
0.0
 30
-64.64561680811512
 10
160.4515772970039
 20
0.0
 30
-63.83262530119682
 10
158.4580644330362
 20
0.0
 30
-61.6850256834892
 10
157.6469119451034
 20
0.0
 30
-60.42076492972896
 10
156.4591969246474
 20
0.0
 30
-57.56532001787959
 10
156.0913618847616
 20
0.0
 30
-56.015798885043
 10
155.9466515455625
 20
0.0
 30
-54.04599221731785
 10
155.9330525446272
 20
0.0
 30
-53.6727679881854
 10
155.9330872030157
 20
0.0
 30
-53.30000001850898
  0
SPLINE
  5
91
330
48
100
AcDbEntity
  8
PV-D5
100
AcDbSpline
210
0.0
220
-1.0
230
0.0
 70
     8
 71
     3
 72
    22
 73
    18
 74
     0
 42
0.0000000001
 43
0.0000000001
 40
26.02964492278311
 40
26.02964492278311
 40
26.02964492278311
 40
26.02964492278311
 40
27.87314494363819
 40
27.87314494363819
 40
36.82892472546157
 40
36.82892472546157
 40
45.5632428924332
 40
45.5632428924332
 40
54.29209553834573
 40
54.29209553834573
 40
63.27954199116561
 40
63.27954199116561
 40
72.55599765330159
 40
72.55599765330159
 40
81.92997645402668
 40
81.92997645402668
 40
82.52116564710279
 40
82.52116564710279
 40
82.52116564710279
 40
82.52116564710279
 10
149.9999866916144
 20
0.0
 30
-68.59756367170243
 10
150.3605819756034
 20
0.0
 30
-69.06683058853952
 10
150.7385613579836
 20
0.0
 30
-69.52114349829535
 10
153.0510643634123
 20
0.0
 30
-72.08761848224956
 10
155.3324803601365
 20
0.0
 30
-73.79669735041609
 10
160.326537400026
 20
0.0
 30
-76.12517760336539
 10
162.9761892450875
 20
0.0
 30
-76.74654676667748
 10
168.3569926804681
 20
0.0
 30
-76.84682442098069
 10
171.0237021301513
 20
0.0
 30
-76.32524842038387
 10
176.0979844680269
 20
0.0
 30
-74.17961000062451
 10
178.4394690164775
 20
0.0
 30
-72.54720135232789
 10
182.4769649776213
 20
0.0
 30
-68.34391380336339
 10
184.1132241930385
 20
0.0
 30
-65.78373490105724
 10
186.406428769815
 20
0.0
 30
-60.09712968681187
 10
187.0329893884655
 20
0.0
 30
-57.01601855939482
 10
187.1077140652429
 20
0.0
 30
-53.69396078627389
 10
187.1099295680274
 20
0.0
 30
-53.49693113737614
 10
187.1099333250438
 20
0.0
 30
-53.30000000035123
  0
ARC
  5
92
330
48
100
AcDbEntity
  8
PV-D5
100
AcDbCircle
 10
185.6099272381319
 20
-51.05304923404039
 30
0.0
 40
1.5
210
0.0
220
-1.0
230
0.0
100
AcDbArc
 50
0.0000000000002799
 51
68.67631373650261
  0
ARC
  5
93
330
48
100
AcDbEntity
  8
PV-D5
100
AcDbCircle
 10
177.6099272381319
 20
-51.05304923404039
 30
0.0
 40
1.5
210
0.0
220
-1.0
230
0.0
100
AcDbArc
 50
111.3236862634972
 51
179.9999999999996
  0
ARC
  5
94
330
48
100
AcDbEntity
  8
PV-D5
100
AcDbCircle
 10
150.0
 20
-71.29999999999999
 30
0.0
 40
5.5
210
0.0
220
-1.0
230
0.0
100
AcDbArc
 50
202.4667445749798
 51
337.5332554250193
  0
SPLINE
  5
95
330
48
100
AcDbEntity
  8
PV-D5
100
AcDbSpline
210
0.0
220
1.0
230
0.0
 70
     8
 71
     3
 72
    22
 73
    18
 74
     0
 42
0.0000000001
 43
0.0000000001
 40
25.61804833952831
 40
25.61804833952831
 40
25.61804833952831
 40
25.61804833952831
 40
27.76403548566959
 40
27.76403548566959
 40
37.05028289234368
 40
37.05028289234368
 40
46.18071570400704
 40
46.18071570400704
 40
55.07223787255114
 40
55.07223787255114
 40
63.77401221336882
 40
63.77401221336882
 40
72.53815829578392
 40
72.53815829578392
 40
81.59527452491785
 40
81.59527452491785
 40
82.07404050431687
 40
82.07404050431687
 40
82.07404050431687
 40
82.07404050431687
 10
112.8900178747846
 20
0.0
 30
-53.30000001264281
 10
112.8900430477479
 20
0.0
 30
-54.01369030186573
 10
112.9191380450973
 20
0.0
 30
-54.72818203296323
 10
113.2299279686078
 20
0.0
 30
-58.5271282894441
 10
114.0255211059925
 20
0.0
 30
-61.53135038669436
 10
116.605560409763
 20
0.0
 30
-66.98503705995229
 10
118.351987263552
 20
0.0
 30
-69.39663130575964
 10
122.5532909466128
 20
0.0
 30
-73.2913154665557
 10
124.9523429472874
 20
0.0
 30
-74.76273000537759
 10
130.0982806927752
 20
0.0
 30
-76.59097411507658
 10
132.7813660853549
 20
0.0
 30
-76.95119847605697
 10
138.1528111943297
 20
0.0
 30
-76.53203746255241
 10
140.7765448378786
 20
0.0
 30
-75.74949611924032
 10
145.680048996659
 20
0.0
 30
-73.10424767557869
 10
147.8936481978812
 20
0.0
 30
-71.23452279556497
 10
149.8110290110898
 20
0.0
 30
-68.84093078819521
 10
149.9061118017988
 20
0.0
 30
-68.71973915442906
 10
150.0000023363515
 20
0.0
 30
-68.59755277898215
  0
SPLINE
  5
96
330
48
100
AcDbEntity
  8
PV-D5
100
AcDbSpline
210
0.0
220
1.0
230
0.0
 70
     8
 71
     3
 72
    24
 73
    20
 74
     0
 42
0.0000000001
 43
0.0000000001
 40
5.434945478253884
 40
5.434945478253884
 40
5.434945478253884
 40
5.434945478253884
 40
9.487097647792083
 40
9.487097647792083
 40
14.12339065628353
 40
14.12339065628353
 40
18.80913130862175
 40
18.80913130862175
 40
23.84974972323496
 40
23.84974972323496
 40
29.73883063484482
 40
29.73883063484482
 40
35.08276672748039
 40
35.08276672748039
 40
40.00569824217046
 40
40.00569824217046
 40
44.84161421267604
 40
44.84161421267604
 40
46.52789773270553
 40
46.52789773270553
 40
46.52789773270553
 40
46.52789773270553
 10
144.0669575679206
 20
0.0
 30
-53.29999999321167
 10
144.0668501514153
 20
0.0
 30
-54.64700204676127
 10
143.888508637329
 20
0.0
 30
-55.98552974492815
 10
143.1426136990864
 20
0.0
 30
-58.71966051694219
 10
142.5317940887461
 20
0.0
 30
-60.06398375079804
 10
140.9654969755691
 20
0.0
 30
-62.41207567677061
 10
140.0282208822789
 20
0.0
 30
-63.38182855846246
 10
137.8949359233617
 20
0.0
 30
-64.91285091406607
 10
136.7115467335684
 20
0.0
 30
-65.41967760611155
 10
134.1124605257979
 20
0.0
 30
-65.92357324865021
 10
132.6751935236387
 20
0.0
 30
-65.82228821707349
 10
130.0324486108263
 20
0.0
 30
-64.90321887050777
 10
128.8221849852835
 20
0.0
 30
-64.15546062540439
 10
126.7410177383112
 20
0.0
 30
-62.11471061531598
 10
125.8820526845729
 20
0.0
 30
-60.89681172706306
 10
124.5855768916904
 20
0.0
 30
-58.10388922818166
 10
124.15885075079
 20
0.0
 30
-56.57157980230249
 10
123.9207916645859
 20
0.0
 30
-54.41930270020211
 10
123.8901592196821
 20
0.0
 30
-53.85937360163943
 10
123.8901964302357
 20
0.0
 30
-53.3000000208085
  0
ARC
  5
97
330
48
100
AcDbEntity
  8
PV-D5
100
AcDbCircle
 10
122.3900727618679
 20
-51.05304923404039
 30
0.0
 40
1.5
210
0.0
220
-1.0
230
0.0
100
AcDbArc
 50
0.0000000000002799
 51
68.67631373650204
  0
ARC
  5
98
330
48
100
AcDbEntity
  8
PV-D5
100
AcDbCircle
 10
114.3900727618679
 20
-51.05304923404039
 30
0.0
 40
1.5
210
0.0
220
-1.0
230
0.0
100
AcDbArc
 50
111.323686263498
 51
179.9999999999996
  0
LINE
  5
99
330
48
100
AcDbEntity
  8
PV-D5
100
AcDbLine
 10
450.0
 20
0.0
 30
16.5
 11
401.4999999999998
 21
0.0
 31
16.5
  0
LINE
  5
9A
330
48
100
AcDbEntity
  8
PV-D5
100
AcDbLine
 10
401.4999999999998
 20
0.0
 30
-16.5
 11
450.0
 21
0.0
 31
-16.5
  0
LINE
  5
9B
330
48
100
AcDbEntity
  8
PV-D5
100
AcDbLine
 10
48.49999999999983
 20
0.0
 30
16.5
 11
0.0
 21
0.0
 31
16.5
  0
LINE
  5
9C
330
48
100
AcDbEntity
  8
PV-D5
100
AcDbLine
 10
0.0
 20
0.0
 30
-16.5
 11
48.49999999999983
 21
0.0
 31
-16.5
  0
ENDBLK
  5
9E
330
48
100
AcDbEntity
  8
0
100
AcDbBlockEnd
  0
BLOCK
  5
A5
330
A3
100
AcDbEntity
  8
0
100
AcDbBlockBegin
  2
FRONT
 70
     0
 10
0.0
 20
0.0
 30
0.0
  3
FRONT
  1

  0
INSERT
  5
A4
330
A3
100
AcDbEntity
  8
PV-D5
100
AcDbBlockReference
  2
*U0
 10
0.0
 20
0.0
 30
0.0
 50
180.0
210
0.0
220
1.0
230
0.0
  0
ENDBLK
  5
A6
330
A3
100
AcDbEntity
  8
0
100
AcDbBlockEnd
  0
BLOCK
  5
D3
330
A8
100
AcDbEntity
  8
0
100
AcDbBlockBegin
  2
*U2
 70
     1
 10
0.0
 20
0.0
 30
0.0
  3
*U2
  1
*ANON
  0
LINE
  5
A9
330
A8
100
AcDbEntity
  8
PV-D5
100
AcDbLine
 10
0.0
 20
0.0
 30
0.0
 11
0.0
 21
0.0
 31
35.0
  0
LINE
  5
AA
330
A8
100
AcDbEntity
  8
PV-D5
100
AcDbLine
 10
0.0
 20
0.0
 30
-35.0
 11
0.0
 21
0.0
 31
0.0000000000004888
  0
LINE
  5
AB
330
A8
100
AcDbEntity
  8
PV-D5
100
AcDbLine
 10
0.0
 20
-12.0
 30
0.0
 11
0.0
 21
-12.0
 31
33.0
  0
LINE
  5
AC
330
A8
100
AcDbEntity
  8
PV-D5
100
AcDbLine
 10
0.0
 20
-12.0
 30
-33.0
 11
0.0
 21
-12.0
 31
0.0000000000004609
  0
ARC
  5
AD
330
A8
100
AcDbEntity
  8
PV-D5
100
AcDbCircle
 10
73.5
 20
0.0
 30
0.0
 40
16.5
210
-1.0
220
0.0
230
0.0
100
AcDbArc
 50
270.0000000000001
 51
90.0000000000006
  0
LINE
  5
AE
330
A8
100
AcDbEntity
  8
PV-D5
100
AcDbLine
 10
0.0
 20
-12.0
 30
22.5
 11
0.0
 21
-96.49999999999998
 31
22.5
  0
LINE
  5
AF
330
A8
100
AcDbEntity
  8
PV-D5
100
AcDbLine
 10
0.0
 20
-12.0
 30
-22.5
 11
0.0
 21
-96.49999999999998
 31
-22.5
  0
ARC
  5
B0
330
A8
100
AcDbEntity
  8
PV-D5
100
AcDbCircle
 10
96.49999999999998
 20
-18.5
 30
0.0
 40
3.999999999999998
210
-1.0
220
0.0
230
0.0
100
AcDbArc
 50
270.0
 51
0.0
  0
LINE
  5
B1
330
A8
100
AcDbEntity
  8
PV-D5
100
AcDbLine
 10
0.0
 20
-100.4999999999999
 30
-18.5
 11
0.0
 21
-100.4999999999999
 31
18.5
  0
ARC
  5
B2
330
A8
100
AcDbEntity
  8
PV-D5
100
AcDbCircle
 10
96.49999999999998
 20
18.5
 30
0.0
 40
3.999999999999998
210
-1.0
220
0.0
230
0.0
100
AcDbArc
 50
0.0
 51
90.0
  0
LINE
  5
B3
330
A8
100
AcDbEntity
  8
PV-D5
100
AcDbLine
 10
0.0
 20
-63.49999999999997
 30
-53.3
 11
0.0
 21
-60.49999999999997
 31
-53.3
  0
LINE
  5
B4
330
A8
100
AcDbEntity
  8
PV-D5
100
AcDbLine
 10
0.0
 20
-60.49999999999997
 30
-53.3
 11
0.0
 21
-51.49999999999997
 31
-53.3
  0
SPLINE
  5
B5
330
A8
100
AcDbEntity
  8
PV-D5
100
AcDbSpline
210
1.0
220
0.0
230
0.0
 70
     8
 71
     3
 72
    26
 73
    22
 74
     0
 42
0.0000000001
 43
0.0000000001
 40
-13.62523885215561
 40
-13.62523885215561
 40
-13.62523885215561
 40
-13.62523885215561
 40
-13.15451311658329
 40
-13.15451311658329
 40
-12.36989694943884
 40
-12.36989694943884
 40
-11.78572653947392
 40
-11.78572653947392
 40
-11.201556129509
 40
-11.201556129509
 40
-8.070733489770473
 40
-8.070733489770473
 40
-6.505322169901205
 40
-6.505322169901205
 40
-4.939910850031926
 40
-4.939910850031926
 40
-2.469955425015965
 40
-2.469955425015965
 40
-1.234977712507981
 40
-1.234977712507981
 40
0.0
 40
0.0
 40
0.0
 40
0.0
 10
0.0
 20
-54.98588624216617
 30
-67.46593817683606
 10
0.0
 20
-54.93094239675574
 30
-67.34176180799561
 10
0.0
 20
-54.87834790930687
 30
-67.20667639603904
 10
0.0
 20
-54.75033131792226
 30
-66.82921947024535
 10
0.0
 20
-54.68281823047608
 30
-66.5757196878815
 10
0.0
 20
-54.59040751885471
 30
-66.15856716218305
 10
0.0
 20
-54.55244905293255
 30
-65.95855619069943
 10
0.0
 20
-54.48753269893289
 30
-65.55132979127313
 10
0.0
 20
-54.4604660845809
 30
-65.34418372395511
 10
0.0
 20
-54.32598242844496
 30
-64.13541563555964
 10
0.0
 20
-54.31013495894697
 30
-63.00493474463704
 10
0.0
 20
-54.34661371145569
 30
-61.30166541106536
 10
0.0
 20
-54.36860295145947
 30
-60.73267735989528
 10
0.0
 20
-54.41861330291889
 30
-59.61881682107764
 10
0.0
 20
-54.44655660750854
 30
-59.07393036535097
 10
0.0
 20
-54.51359953237073
 30
-57.73550784321452
 10
0.0
 20
-54.55740897870789
 30
-56.83396354096678
 10
0.0
 20
-54.60274825230822
 30
-55.47944094883835
 10
0.0
 20
-54.61453977631049
 30
-55.02755548113579
 10
0.0
 20
-54.62993135269702
 30
-54.1436644662978
 10
0.0
 20
-54.63353597506725
 30
-53.71165923750266
 10
0.0
 20
-54.63353597506725
 30
-53.3
  0
ARC
  5
B6
330
A8
100
AcDbEntity
  8
PV-D5
100
AcDbCircle
 10
75.7499999999999
 20
-61.29999999999999
 30
0.0
 40
12.5
210
-1.0
220
0.0
230
0.0
100
AcDbArc
 50
68.67631373650207
 51
111.3236862634979
  0
LINE
  5
B7
330
A8
100
AcDbEntity
  8
PV-D5
100
AcDbLine
 10
0.0
 20
-81.24999999999991
 30
-53.3
 11
0.0
 21
-81.24999999999991
 31
-51.05304923404039
  0
LINE
  5
B8
330
A8
100
AcDbEntity
  8
PV-D5
100
AcDbLine
 10
0.0
 20
-70.2499999999999
 30
-53.3
 11
0.0
 21
-70.2499999999999
 31
-51.05304923404039
  0
ARC
  5
B9
330
A8
100
AcDbEntity
  8
PV-D5
100
AcDbCircle
 10
20.99999999999996
 20
-61.29999999999999
 30
0.0
 40
12.5
210
-1.0
220
0.0
230
0.0
100
AcDbArc
 50
68.67631373650207
 51
111.3236862634979
  0
LINE
  5
BA
330
A8
100
AcDbEntity
  8
PV-D5
100
AcDbLine
 10
0.0
 20
-26.49999999999996
 30
-53.3
 11
0.0
 21
-26.49999999999996
 31
-51.05304923404039
  0
LINE
  5
BB
330
A8
100
AcDbEntity
  8
PV-D5
100
AcDbLine
 10
0.0
 20
-15.49999999999997
 30
-53.3
 11
0.0
 21
-15.49999999999997
 31
-51.05304923404039
  0
LINE
  5
BC
330
A8
100
AcDbEntity
  8
PV-D5
100
AcDbLine
 10
0.0
 20
-63.49999999999997
 30
-53.3
 11
0.0
 21
-63.49999999999997
 31
-22.5
  0
LINE
  5
BD
330
A8
100
AcDbEntity
  8
PV-D5
100
AcDbLine
 10
0.0
 20
-51.49999999999997
 30
-53.3
 11
0.0
 21
-51.49999999999997
 31
-22.5
  0
LINE
  5
BE
330
A8
100
AcDbEntity
  8
PV-D5
100
AcDbLine
 10
0.0
 20
-12.0
 30
-16.5
 11
0.0
 21
-25.0
 31
-16.5
  0
LINE
  5
BF
330
A8
100
AcDbEntity
  8
PV-D5
100
AcDbLine
 10
0.0
 20
-12.0
 30
16.5
 11
0.0
 21
-25.0
 31
16.5
  0
LINE
  5
C0
330
A8
100
AcDbEntity
  8
PV-D5
100
AcDbLine
 10
0.0
 20
-10.0
 30
35.0
 11
0.0
 21
0.0
 31
35.0
  0
LINE
  5
C1
330
A8
100
AcDbEntity
  8
PV-D5
100
AcDbLine
 10
0.0
 20
-10.0
 30
-35.0
 11
0.0
 21
0.0
 31
-35.0
  0
SPLINE
  5
C2
330
A8
100
AcDbEntity
  8
PV-D5
100
AcDbSpline
210
1.0
220
0.0
230
0.0
 70
     8
 71
     3
 72
    16
 73
    12
 74
     0
 42
0.0000000001
 43
0.0000000001
 40
44.16435405726903
 40
44.16435405726903
 40
44.16435405726903
 40
44.16435405726903
 40
48.75706912093563
 40
48.75706912093563
 40
54.30180344781009
 40
54.30180344781009
 40
58.49640451540435
 40
58.49640451540435
 40
62.25588215394828
 40
62.25588215394828
 40
63.25957230362952
 40
63.25957230362952
 40
63.25957230362952
 40
63.25957230362952
 10
0.0
 20
-70.24987866664381
 30
-53.29999997463191
 10
0.0
 20
-70.24964697477904
 30
-54.67660555747603
 10
0.0
 20
-70.15619557147331
 30
-56.05151295768233
 10
0.0
 20
-69.75158998153881
 30
-58.95871602229615
 10
0.0
 20
-69.4006906139602
 30
-60.44500356092054
 10
0.0
 20
-68.62901201038891
 30
-62.6853123431982
 10
0.0
 20
-68.24931582205078
 30
-63.51746109932597
 10
0.0
 20
-67.53012647928162
 30
-64.75816436114064
 10
0.0
 20
-67.19877176661886
 30
-65.1859477437924
 10
0.0
 20
-66.86933477592997
 30
-65.52885370974673
 10
0.0
 20
-66.80604386699929
 30
-65.58915728839346
 10
0.0
 20
-66.74995796475785
 30
-65.63894454669032
  0
SPLINE
  5
C3
330
A8
100
AcDbEntity
  8
PV-D5
100
AcDbSpline
210
1.0
220
0.0
230
0.0
 70
     8
 71
     3
 72
    20
 73
    16
 74
     0
 42
0.0000000001
 43
0.0000000001
 40
74.18319200624873
 40
74.18319200624873
 40
74.18319200624873
 40
74.18319200624873
 40
74.5335401834215
 40
74.5335401834215
 40
76.52673799826681
 40
76.52673799826681
 40
79.24077306882089
 40
79.24077306882089
 40
82.28797423846746
 40
82.28797423846746
 40
87.03687269706362
 40
87.03687269706362
 40
92.11786503051015
 40
92.11786503051015
 40
94.23623763547395
 40
94.23623763547395
 40
94.23623763547395
 40
94.23623763547395
 10
0.0
 20
-67.02409079186701
 30
-65.84188778743021
 10
0.0
 20
-67.020582838417
 30
-65.84004439784253
 10
0.0
 20
-67.01580452094546
 30
-65.83747062629655
 10
0.0
 20
-66.97500831036936
 30
-65.81452046859718
 10
0.0
 20
-66.89906830379114
 30
-65.76704353465152
 10
0.0
 20
-66.63240931950776
 30
-65.53898899747749
 10
0.0
 20
-66.4185969679714
 30
-65.32179884927646
 10
0.0
 20
-65.89984092400968
 30
-64.63622549142643
 10
0.0
 20
-65.59629814198546
 30
-64.15177067562182
 10
0.0
 20
-64.83575372090361
 30
-62.62627476194385
 10
0.0
 20
-64.40028037007038
 30
-61.44880119434927
 10
0.0
 20
-63.69354461067791
 30
-58.67084032143406
 10
0.0
 20
-63.43892908070961
 30
-57.06838507013422
 10
0.0
 20
-63.27441642911299
 30
-54.7071526020241
 10
0.0
 20
-63.2500919754286
 30
-54.00403022560928
 10
0.0
 20
-63.25008064923821
 30
-53.29999999845774
  0
SPLINE
  5
C4
330
A8
100
AcDbEntity
  8
PV-D5
100
AcDbSpline
210
1.0
220
0.0
230
0.0
 70
     8
 71
     3
 72
    16
 73
    12
 74
     0
 42
0.0000000001
 43
0.0000000001
 40
44.16435405692596
 40
44.16435405692596
 40
44.16435405692596
 40
44.16435405692596
 40
48.75706912047211
 40
48.75706912047211
 40
54.30180344728761
 40
54.30180344728761
 40
58.49640451491687
 40
58.49640451491687
 40
62.25588215341041
 40
62.25588215341041
 40
63.25957230307668
 40
63.25957230307668
 40
63.25957230307668
 40
63.25957230307668
 10
0.0
 20
-70.24987866664378
 30
-53.29999997463335
 10
0.0
 20
-70.24964697477895
 30
-54.67660555745865
 10
0.0
 20
-70.15619557147577
 30
-56.05151295764581
 10
0.0
 20
-69.75158998154881
 30
-58.9587160222469
 10
0.0
 20
-69.40069061397236
 30
-60.44500356087578
 10
0.0
 20
-68.62901201039743
 30
-62.68531234318068
 10
0.0
 20
-68.24931582205199
 30
-63.51746109932554
 10
0.0
 20
-67.53012647927724
 30
-64.75816436114667
 10
0.0
 20
-67.19877176661618
 30
-65.18594774379543
 10
0.0
 20
-66.86933477592919
 30
-65.52885370974749
 10
0.0
 20
-66.80604386699896
 30
-65.58915728839379
 10
0.0
 20
-66.74995796475787
 30
-65.63894454669036
  0
SPLINE
  5
C5
330
A8
100
AcDbEntity
  8
PV-D5
100
AcDbSpline
210
1.0
220
0.0
230
0.0
 70
     8
 71
     3
 72
    20
 73
    16
 74
     0
 42
0.0000000001
 43
0.0000000001
 40
74.18319200560233
 40
74.18319200560233
 40
74.18319200560233
 40
74.18319200560233
 40
74.5335401827935
 40
74.5335401827935
 40
76.52673799762698
 40
76.52673799762698
 40
79.24077306818154
 40
79.24077306818154
 40
82.28797423788892
 40
82.28797423788892
 40
87.03687269647785
 40
87.03687269647785
 40
92.11786502991941
 40
92.11786502991941
 40
94.23623763477941
 40
94.23623763477941
 40
94.23623763477941
 40
94.23623763477941
 10
0.0
 20
-67.02409079186752
 30
-65.84188778743045
 10
0.0
 20
-67.02058283841743
 30
-65.84004439784272
 10
0.0
 20
-67.01580452094565
 30
-65.83747062629663
 10
0.0
 20
-66.97500831036896
 30
-65.81452046859691
 10
0.0
 20
-66.89906830379046
 30
-65.76704353465107
 10
0.0
 20
-66.63240931950594
 30
-65.53898899747585
 10
0.0
 20
-66.41859696796807
 30
-65.32179884927288
 10
0.0
 20
-65.899840923998
 30
-64.63622549141009
 10
0.0
 20
-65.59629814196597
 30
-64.15177067558982
 10
0.0
 20
-64.83575372087738
 30
-62.62627476188026
 10
0.0
 20
-64.4002803700463
 30
-61.44880119427557
 10
0.0
 20
-63.69354461066069
 30
-58.67084032134396
 10
0.0
 20
-63.43892908069729
 30
-57.06838507003787
 10
0.0
 20
-63.27441642911065
 30
-54.70715260195685
 10
0.0
 20
-63.25009197542859
 30
-54.00403022557551
 10
0.0
 20
-63.25008064923821
 30
-53.29999999845774
  0
ARC
  5
C6
330
A8
100
AcDbEntity
  8
PV-D5
100
AcDbCircle
 10
38.99999999999997
 20
-53.3
 30
0.0
 40
12.5
210
-1.0
220
0.0
230
0.0
100
AcDbArc
 50
179.9999999999998
 51
0.0000000000002036
  0
ARC
  5
C7
330
A8
100
AcDbEntity
  8
PV-D5
100
AcDbCircle
 10
38.99999999999997
 20
-53.3
 30
0.0
 40
23.5
210
-1.0
220
0.0
230
0.0
100
AcDbArc
 50
179.9999999999998
 51
316.3795572846361
  0
SPLINE
  5
C8
330
A8
100
AcDbEntity
  8
PV-D5
100
AcDbSpline
210
1.0
220
0.0
230
0.0
 70
     8
 71
     3
 72
    18
 73
    14
 74
     0
 42
0.0000000001
 43
0.0000000001
 40
57.94159162373794
 40
57.94159162373794
 40
57.94159162373794
 40
57.94159162373794
 40
61.51531701854224
 40
61.51531701854224
 40
65.98097746838833
 40
65.98097746838833
 40
69.37439216154827
 40
69.37439216154827
 40
72.32988041211178
 40
72.32988041211178
 40
73.9600494444162
 40
73.9600494444162
 40
75.43657511963104
 40
75.43657511963104
 40
75.43657511963104
 40
75.43657511963104
 10
0.0
 20
-70.24985136586079
 30
-53.29999996901872
 10
0.0
 20
-70.24963271831679
 30
-54.61956823501726
 10
0.0
 20
-70.16385782787011
 30
-55.94192641511038
 10
0.0
 20
-69.78074780771736
 30
-58.81045905881272
 10
0.0
 20
-69.43709008063297
 30
-60.31097736163708
 10
0.0
 20
-68.66758693191292
 30
-62.5927779856476
 10
0.0
 20
-68.284049814336
 30
-63.44883627441031
 10
0.0
 20
-67.5604895488176
 30
-64.71281067685946
 10
0.0
 20
-67.2288064012925
 30
-65.1493324923193
 10
0.0
 20
-66.8182852665163
 30
-65.58456069561464
 10
0.0
 20
-66.69688993451678
 30
-65.68879168777083
 10
0.0
 20
-66.53246474093537
 30
-65.81220424242822
 10
0.0
 20
-66.48605864946714
 30
-65.8368321673189
 10
0.0
 20
-66.47266248133971
 30
-65.84346386146811
  0
SPLINE
  5
C9
330
A8
100
AcDbEntity
  8
PV-D5
100
AcDbSpline
210
1.0
220
0.0
230
0.0
 70
     8
 71
     3
 72
    19
 73
    15
 74
     0
 42
0.0000000001
 43
0.0000000001
 40
84.61159937310652
 40
84.61159937310652
 40
84.61159937310652
 40
84.61159937310652
 40
84.80912976378256
 40
84.80912976378256
 40
87.27350245135623
 40
87.27350245135623
 40
87.27350245135623
 40
90.32365874565057
 40
90.32365874565057
 40
94.94016564412351
 40
94.94016564412351
 40
99.83287277807008
 40
99.83287277807008
 40
101.5279342305122
 40
101.5279342305122
 40
101.5279342305122
 40
101.5279342305122
 10
0.0
 20
-66.75000332240677
 30
-65.6389700318293
 10
0.0
 20
-66.73787530976932
 30
-65.62820034851686
 10
0.0
 20
-66.7253819183711
 30
-65.61691276633874
 10
0.0
 20
-66.55216981495819
 30
-65.45753829228107
 10
0.0
 20
-66.34425634234523
 30
-65.23218277369881
 10
0.0
 20
-66.11375864991386
 30
-64.91763118457622
 10
0.0
 20
-65.82847144845489
 30
-64.52831039950168
 10
0.0
 20
-65.51522441162127
 30
-64.01066995132227
 10
0.0
 20
-64.74970459518003
 30
-62.41201764033075
 10
0.0
 20
-64.32118874940025
 30
-61.20278977665646
 10
0.0
 20
-63.63848506071263
 30
-58.37047238124667
 10
0.0
 20
-63.39934434413375
 30
-56.74870654826585
 10
0.0
 20
-63.26713992320895
 30
-54.47918262301023
 10
0.0
 20
-63.25015270818066
 30
-53.88998890896317
 10
0.0
 20
-63.25022386122419
 30
-53.30000003448223
  0
SPLINE
  5
CA
330
A8
100
AcDbEntity
  8
PV-D5
100
AcDbSpline
210
1.0
220
0.0
230
0.0
 70
     8
 71
     3
 72
    28
 73
    24
 74
     0
 42
0.0000000001
 43
0.0000000001
 40
23.02031332930044
 40
23.02031332930044
 40
23.02031332930044
 40
23.02031332930044
 40
27.68481021379719
 40
27.68481021379719
 40
32.81387264412497
 40
32.81387264412497
 40
37.20300328693689
 40
37.20300328693689
 40
41.69091738922586
 40
41.69091738922586
 40
48.76072113985898
 40
48.76072113985898
 40
52.51498334422836
 40
52.51498334422836
 40
56.8308907235313
 40
56.8308907235313
 40
65.98824508692385
 40
65.98824508692385
 40
70.95411122429472
 40
70.95411122429472
 40
79.60620444801114
 40
79.60620444801114
 40
81.24831363641591
 40
81.24831363641591
 40
81.24831363641591
 40
81.24831363641591
 10
0.0
 20
-54.98514185413699
 30
-67.46623388895381
 10
0.0
 20
-55.51120856813459
 30
-68.65335957155716
 10
0.0
 20
-56.09923312101241
 30
-69.73212595730172
 10
0.0
 20
-57.44334000397589
 30
-71.76257942553672
 10
0.0
 20
-58.23897797137278
 30
-72.73284802531243
 10
0.0
 20
-59.89123758913439
 30
-74.29367498574864
 10
0.0
 20
-60.72763459911772
 30
-74.92336876945954
 10
0.0
 20
-62.56354826803071
 30
-75.95163256348617
 10
0.0
 20
-63.55687043120914
 30
-76.33953182297499
 10
0.0
 20
-66.24810741210649
 30
-76.92661599764932
 10
0.0
 20
-67.93210111231889
 30
-76.86870862753609
 10
0.0
 20
-70.41608053459603
 30
-76.15342273073787
 10
0.0
 20
-71.23844206813011
 30
-75.79626851891807
 10
0.0
 20
-72.90587138653442
 30
-74.82960917385518
 10
0.0
 20
-73.72938793407596
 30
-74.19397555521046
 10
0.0
 20
-76.07542157511618
 30
-71.92976985157859
 10
0.0
 20
-77.4353642868528
 30
-69.90170973533889
 10
0.0
 20
-79.1007851629338
 30
-66.14208364288113
 10
0.0
 20
-79.59370493740188
 30
-64.72421965152739
 10
0.0
 20
-80.69374075314835
 30
-60.61972703830782
 10
0.0
 20
-81.10348500063073
 30
-57.81940479071909
 10
0.0
 20
-81.23922871961797
 30
-54.39273702480882
 10
0.0
 20
-81.25011141058587
 30
-53.84600067837471
 10
0.0
 20
-81.25023109219016
 30
-53.30000006987489
  0
ARC
  5
CB
330
A8
100
AcDbEntity
  8
PV-D5
100
AcDbCircle
 10
79.7499999999999
 20
-51.05304923404039
 30
0.0
 40
1.5
210
-1.0
220
0.0
230
0.0
100
AcDbArc
 50
0.0000000000002799
 51
68.67631373650204
  0
ARC
  5
CC
330
A8
100
AcDbEntity
  8
PV-D5
100
AcDbCircle
 10
71.7499999999999
 20
-51.05304923404039
 30
0.0
 40
1.5
210
-1.0
220
0.0
230
0.0
100
AcDbArc
 50
111.323686263498
 51
179.9999999999996
  0
ARC
  5
CD
330
A8
100
AcDbEntity
  8
PV-D5
100
AcDbCircle
 10
24.99999999999996
 20
-51.05304923404039
 30
0.0
 40
1.5
210
-1.0
220
0.0
230
0.0
100
AcDbArc
 50
0.0000000000002799
 51
68.67631373650261
  0
ARC
  5
CE
330
A8
100
AcDbEntity
  8
PV-D5
100
AcDbCircle
 10
16.99999999999997
 20
-51.05304923404039
 30
0.0
 40
1.5
210
-1.0
220
0.0
230
0.0
100
AcDbArc
 50
111.3236862634978
 51
179.9999999999996
  0
LINE
  5
CF
330
A8
100
AcDbEntity
  8
PV-D5
100
AcDbLine
 10
0.0
 20
-73.5
 30
16.5
 11
0.0
 21
-25.0
 31
16.5
  0
LINE
  5
D0
330
A8
100
AcDbEntity
  8
PV-D5
100
AcDbLine
 10
0.0
 20
-25.0
 30
-16.5
 11
0.0
 21
-73.5
 31
-16.5
  0
ARC
  5
D1
330
A8
100
AcDbEntity
  8
PV-D5
100
AcDbCircle
 10
10.0
 20
-33.0
 30
0.0
 40
2.0
210
-1.0
220
0.0
230
0.0
100
AcDbArc
 50
270.0000000000001
 51
0.000000000001239
  0
ARC
  5
D2
330
A8
100
AcDbEntity
  8
PV-D5
100
AcDbCircle
 10
10.0
 20
33.0
 30
0.0
 40
2.0
210
-1.0
220
0.0
230
0.0
100
AcDbArc
 50
359.999999999998
 51
89.99999999999978
  0
ENDBLK
  5
D4
330
A8
100
AcDbEntity
  8
0
100
AcDbBlockEnd
  0
BLOCK
  5
D7
330
D5
100
AcDbEntity
  8
0
100
AcDbBlockBegin
  2
LEFT
 70
     0
 10
0.0
 20
0.0
 30
0.0
  3
LEFT
  1

  0
INSERT
  5
D6
330
D5
100
AcDbEntity
  8
PV-D5
100
AcDbBlockReference
  2
*U2
 10
0.0
 20
0.0
 30
0.0
 50
270.0
210
0.0
220
1.0
230
0.0
  0
ENDBLK
  5
D8
330
D5
100
AcDbEntity
  8
0
100
AcDbBlockEnd
  0
BLOCK
  5
105
330
DA
100
AcDbEntity
  8
0
100
AcDbBlockBegin
  2
*U4
 70
     1
 10
0.0
 20
0.0
 30
0.0
  3
*U4
  1
*ANON
  0
ARC
  5
DB
330
DA
100
AcDbEntity
  8
PV-D5
100
AcDbCircle
 10
-73.5
 20
0.0
 30
0.0
 40
16.5
210
1.0
220
0.0
230
0.0
100
AcDbArc
 50
89.99999999999941
 51
269.9999999999997
  0
LINE
  5
DC
330
DA
100
AcDbEntity
  8
PV-D5
100
AcDbLine
 10
0.0
 20
0.0
 30
35.0
 11
0.0
 21
0.0
 31
-35.0
  0
LINE
  5
DD
330
DA
100
AcDbEntity
  8
PV-D5
100
AcDbLine
 10
0.0
 20
-12.0
 30
33.0
 11
0.0
 21
-12.0
 31
-33.0
  0
LINE
  5
DE
330
DA
100
AcDbEntity
  8
PV-D5
100
AcDbLine
 10
0.0
 20
-12.0
 30
-22.5
 11
0.0
 21
-96.49999999999998
 31
-22.5
  0
LINE
  5
DF
330
DA
100
AcDbEntity
  8
PV-D5
100
AcDbLine
 10
0.0
 20
-12.0
 30
22.5
 11
0.0
 21
-96.49999999999998
 31
22.5
  0
ARC
  5
E0
330
DA
100
AcDbEntity
  8
PV-D5
100
AcDbCircle
 10
-96.49999999999998
 20
-18.5
 30
0.0
 40
3.999999999999998
210
1.0
220
0.0
230
0.0
100
AcDbArc
 50
180.0
 51
270.0
  0
LINE
  5
E1
330
DA
100
AcDbEntity
  8
PV-D5
100
AcDbLine
 10
0.0
 20
-100.4999999999999
 30
18.5
 11
0.0
 21
-100.4999999999999
 31
-18.5
  0
ARC
  5
E2
330
DA
100
AcDbEntity
  8
PV-D5
100
AcDbCircle
 10
-96.49999999999998
 20
18.5
 30
0.0
 40
3.999999999999998
210
1.0
220
0.0
230
0.0
100
AcDbArc
 50
90.0
 51
180.0
  0
LINE
  5
E3
330
DA
100
AcDbEntity
  8
PV-D5
100
AcDbLine
 10
0.0
 20
-60.49999999999998
 30
-53.3
 11
0.0
 21
-63.49999999999997
 31
-53.3
  0
LINE
  5
E4
330
DA
100
AcDbEntity
  8
PV-D5
100
AcDbLine
 10
0.0
 20
-51.49999999999997
 30
-53.3
 11
0.0
 21
-60.49999999999998
 31
-53.3
  0
SPLINE
  5
E5
330
DA
100
AcDbEntity
  8
PV-D5
100
AcDbSpline
210
1.0
220
0.0
230
0.0
 70
     8
 71
     3
 72
    26
 73
    22
 74
     0
 42
0.0000000001
 43
0.0000000001
 40
33.87515749604523
 40
33.87515749604523
 40
33.87515749604523
 40
33.87515749604523
 40
35.11013520855321
 40
35.11013520855321
 40
36.34511292106118
 40
36.34511292106118
 40
38.81506834607712
 40
38.81506834607712
 40
40.38047966594638
 40
40.38047966594638
 40
41.94589098581563
 40
41.94589098581563
 40
45.07671362555417
 40
45.07671362555417
 40
45.6608840355191
 40
45.6608840355191
 40
46.24505444548403
 40
46.24505444548403
 40
47.02967061262849
 40
47.02967061262849
 40
47.50039634820079
 40
47.50039634820079
 40
47.50039634820079
 40
47.50039634820079
 10
0.0
 20
-54.63353597506733
 30
-53.3
 10
0.0
 20
-54.63353597506733
 30
-53.71165923750265
 10
0.0
 20
-54.6299313526971
 30
-54.14366446629777
 10
0.0
 20
-54.61453977631055
 30
-55.02755548113579
 10
0.0
 20
-54.60274825230825
 30
-55.47944094883831
 10
0.0
 20
-54.55740897870793
 30
-56.83396354096674
 10
0.0
 20
-54.51359953237077
 30
-57.73550784321447
 10
0.0
 20
-54.44655660750857
 30
-59.0739303653509
 10
0.0
 20
-54.41861330291891
 30
-59.61881682107759
 10
0.0
 20
-54.3686029514595
 30
-60.73267735989521
 10
0.0
 20
-54.34661371145572
 30
-61.30166541106529
 10
0.0
 20
-54.31013495894699
 30
-63.00493474463696
 10
0.0
 20
-54.32598242844496
 30
-64.13541563555959
 10
0.0
 20
-54.4604660845809
 30
-65.34418372395504
 10
0.0
 20
-54.48753269893289
 30
-65.55132979127311
 10
0.0
 20
-54.55244905293255
 30
-65.95855619069938
 10
0.0
 20
-54.59040751885471
 30
-66.158567162183
 10
0.0
 20
-54.6828182304761
 30
-66.57571968788147
 10
0.0
 20
-54.75033131792227
 30
-66.82921947024532
 10
0.0
 20
-54.8783479093069
 30
-67.20667639603902
 10
0.0
 20
-54.93094239675576
 30
-67.34176180799559
 10
0.0
 20
-54.98588624216619
 30
-67.46593817683603
  0
ARC
  5
E6
330
DA
100
AcDbEntity
  8
PV-D5
100
AcDbCircle
 10
-75.75000000000004
 20
-61.29999999999999
 30
0.0
 40
12.5
210
1.0
220
0.0
230
0.0
100
AcDbArc
 50
68.67631373650207
 51
111.3236862634979
  0
LINE
  5
E7
330
DA
100
AcDbEntity
  8
PV-D5
100
AcDbLine
 10
0.0
 20
-70.25000000000004
 30
-53.3
 11
0.0
 21
-70.25000000000004
 31
-51.05304923404039
  0
LINE
  5
E8
330
DA
100
AcDbEntity
  8
PV-D5
100
AcDbLine
 10
0.0
 20
-81.25000000000005
 30
-53.3
 11
0.0
 21
-81.25000000000005
 31
-51.05304923404039
  0
ARC
  5
E9
330
DA
100
AcDbEntity
  8
PV-D5
100
AcDbCircle
 10
-20.99999999999996
 20
-61.29999999999999
 30
0.0
 40
12.5
210
1.0
220
0.0
230
0.0
100
AcDbArc
 50
68.67631373650207
 51
111.3236862634979
  0
LINE
  5
EA
330
DA
100
AcDbEntity
  8
PV-D5
100
AcDbLine
 10
0.0
 20
-15.49999999999997
 30
-53.3
 11
0.0
 21
-15.49999999999997
 31
-51.05304923404039
  0
LINE
  5
EB
330
DA
100
AcDbEntity
  8
PV-D5
100
AcDbLine
 10
0.0
 20
-26.49999999999996
 30
-53.3
 11
0.0
 21
-26.49999999999996
 31
-51.05304923404039
  0
LINE
  5
EC
330
DA
100
AcDbEntity
  8
PV-D5
100
AcDbLine
 10
0.0
 20
-51.49999999999997
 30
-53.3
 11
0.0
 21
-51.49999999999997
 31
-22.5
  0
LINE
  5
ED
330
DA
100
AcDbEntity
  8
PV-D5
100
AcDbLine
 10
0.0
 20
-63.49999999999997
 30
-53.3
 11
0.0
 21
-63.49999999999997
 31
-22.5
  0
LINE
  5
EE
330
DA
100
AcDbEntity
  8
PV-D5
100
AcDbLine
 10
0.0
 20
-10.0
 30
-35.0
 11
0.0
 21
0.0
 31
-35.0
  0
LINE
  5
EF
330
DA
100
AcDbEntity
  8
PV-D5
100
AcDbLine
 10
0.0
 20
-10.0
 30
35.0
 11
0.0
 21
0.0
 31
35.0
  0
LINE
  5
F0
330
DA
100
AcDbEntity
  8
PV-D5
100
AcDbLine
 10
0.0
 20
-25.0
 30
-16.5
 11
0.0
 21
-12.0
 31
-16.5
  0
LINE
  5
F1
330
DA
100
AcDbEntity
  8
PV-D5
100
AcDbLine
 10
0.0
 20
-25.0
 30
16.5
 11
0.0
 21
-12.0
 31
16.5
  0
SPLINE
  5
F2
330
DA
100
AcDbEntity
  8
PV-D5
100
AcDbSpline
210
1.0
220
0.0
230
0.0
 70
     8
 71
     3
 72
    28
 73
    24
 74
     0
 42
0.0000000001
 43
0.0000000001
 40
17.98585702009285
 40
17.98585702009285
 40
17.98585702009285
 40
17.98585702009285
 40
24.59974071087175
 40
24.59974071087175
 40
29.32668715382554
 40
29.32668715382554
 40
37.79124790300407
 40
37.79124790300407
 40
41.81949519692444
 40
41.81949519692444
 40
45.53875042990184
 40
45.53875042990184
 40
49.71094494138196
 40
49.71094494138196
 40
54.52061990533374
 40
54.52061990533374
 40
57.90144703686793
 40
57.90144703686793
 40
61.79134425631793
 40
61.79134425631793
 40
70.05714318291403
 40
70.05714318291403
 40
70.07578749534792
 40
70.07578749534792
 40
70.07578749534792
 40
70.07578749534792
 10
0.0
 20
-81.25021790246554
 30
-53.29999993494086
 10
0.0
 20
-81.25075422602717
 30
-55.7631699015394
 10
0.0
 20
-81.03230578907263
 30
-58.20982850907919
 10
0.0
 20
-80.28455919425843
 30
-62.24239491885787
 10
0.0
 20
-79.8649361834666
 30
-63.85428532207345
 10
0.0
 20
-78.39139288983313
 30
-68.09649114474732
 10
0.0
 20
-77.15535104332677
 30
-70.36112178501385
 10
0.0
 20
-75.01466879361348
 30
-72.9801202017308
 10
0.0
 20
-74.24970493728102
 30
-73.74494162996069
 10
0.0
 20
-72.63531738419056
 30
-75.0060852302372
 10
0.0
 20
-71.79587904069297
 30
-75.51932473253962
 10
0.0
 20
-69.88857059537645
 30
-76.35811920970812
 10
0.0
 20
-68.82315918389138
 30
-76.64538150828448
 10
0.0
 20
-66.45136222033108
 30
-76.876507236967
 10
0.0
 20
-65.18212491690931
 30
-76.75622611691641
 10
0.0
 20
-63.09404327874164
 30
-76.1573085655478
 10
0.0
 20
-62.27173063158053
 30
-75.80108093087419
 10
0.0
 20
-60.60424535639519
 30
-74.83670685032342
 10
0.0
 20
-59.7807991069725
 30
-74.20232163705256
 10
0.0
 20
-57.43332792731619
 30
-71.94133888011184
 10
0.0
 20
-56.07306253914476
 30
-69.91540382545014
 10
0.0
 20
-54.9906208623847
 30
-67.47715254458821
 10
0.0
 20
-54.9881864092283
 30
-67.47166356422113
 10
0.0
 20
-54.98575356041739
 30
-67.46617294013231
  0
SPLINE
  5
F3
330
DA
100
AcDbEntity
  8
PV-D5
100
AcDbSpline
210
1.0
220
0.0
230
0.0
 70
     8
 71
     3
 72
    16
 73
    12
 74
     0
 42
0.0000000001
 43
0.0000000001
 40
5.621343586613082
 40
5.621343586613082
 40
5.621343586613082
 40
5.621343586613082
 40
10.38210709314353
 40
10.38210709314353
 40
15.41608906132855
 40
15.41608906132855
 40
19.10897901694128
 40
19.10897901694128
 40
22.72088276041992
 40
22.72088276041992
 40
23.18953468306682
 40
23.18953468306682
 40
23.18953468306682
 40
23.18953468306682
 10
0.0
 20
-63.25003191017373
 30
-53.29999999515955
 10
0.0
 20
-63.25022092177512
 30
-54.87853817832992
 10
0.0
 20
-63.37359214688461
 30
-56.44631553962875
 10
0.0
 20
-63.85930218162897
 30
-59.47940220191155
 10
0.0
 20
-64.23318826469793
 30
-60.9137834745395
 10
0.0
 20
-65.01258916813029
 30
-63.01041117247461
 10
0.0
 20
-65.37910737207195
 30
-63.76431393741658
 10
0.0
 20
-66.08647085070616
 30
-64.92572021313397
 10
0.0
 20
-66.41757398331984
 30
-65.32217171530651
 10
0.0
 20
-66.69230977926789
 30
-65.58671707084463
 10
0.0
 20
-66.72209497256057
 30
-65.61418604547828
 10
0.0
 20
-66.75001413145981
 30
-65.63896871085589
  0
SPLINE
  5
F4
330
DA
100
AcDbEntity
  8
PV-D5
100
AcDbSpline
210
1.0
220
0.0
230
0.0
 70
     8
 71
     3
 72
    20
 73
    16
 74
     0
 42
0.0000000001
 43
0.0000000001
 40
32.75471807790276
 40
32.75471807790276
 40
32.75471807790276
 40
32.75471807790276
 40
33.72499071455585
 40
33.72499071455585
 40
35.54469542552099
 40
35.54469542552099
 40
38.01278930605644
 40
38.01278930605644
 40
40.98027408125342
 40
40.98027408125342
 40
45.48290430392301
 40
45.48290430392301
 40
50.33096147226746
 40
50.33096147226746
 40
51.81141296500261
 40
51.81141296500261
 40
51.81141296500261
 40
51.81141296500261
 10
0.0
 20
-66.46969303115891
 30
-65.84505596094128
 10
0.0
 20
-66.47377352359796
 30
-65.843126825478
 10
0.0
 20
-66.48921835969481
 30
-65.83542646118726
 10
0.0
 20
-66.56874972978674
 30
-65.78609421544654
 10
0.0
 20
-66.66104704646818
 30
-65.72130104262031
 10
0.0
 20
-66.9565159932836
 30
-65.44969418522914
 10
0.0
 20
-67.17960008554475
 30
-65.20598222291328
 10
0.0
 20
-67.72117979904546
 30
-64.4516980259139
 10
0.0
 20
-68.04094205475573
 30
-63.90885334331886
 10
0.0
 20
-68.81086218843357
 30
-62.25803597769004
 10
0.0
 20
-69.23298134017167
 30
-61.02396227666102
 10
0.0
 20
-69.89962072985067
 30
-58.15609187795027
 10
0.0
 20
-70.12560548687021
 30
-56.52005708177595
 10
0.0
 20
-70.23699545227287
 30
-54.32877172887585
 10
0.0
 20
-70.24988367997746
 30
-53.8140149235777
 10
0.0
 20
-70.24980910026292
 30
-53.30000003442139
  0
ARC
  5
F5
330
DA
100
AcDbEntity
  8
PV-D5
100
AcDbCircle
 10
-71.75000000000004
 20
-51.05304923404039
 30
0.0
 40
1.5
210
1.0
220
0.0
230
0.0
100
AcDbArc
 50
0.0000000000002799
 51
68.67631373650204
  0
ARC
  5
F6
330
DA
100
AcDbEntity
  8
PV-D5
100
AcDbCircle
 10
-79.75000000000004
 20
-51.05304923404039
 30
0.0
 40
1.5
210
1.0
220
0.0
230
0.0
100
AcDbArc
 50
111.323686263498
 51
179.9999999999996
  0
ARC
  5
F7
330
DA
100
AcDbEntity
  8
PV-D5
100
AcDbCircle
 10
-38.99999999999997
 20
-53.3
 30
0.0
 40
23.5
210
1.0
220
0.0
230
0.0
100
AcDbArc
 50
223.6204427153639
 51
0.0000000000002163
  0
ARC
  5
F8
330
DA
100
AcDbEntity
  8
PV-D5
100
AcDbCircle
 10
-38.99999999999997
 20
-53.3
 30
0.0
 40
12.5
210
1.0
220
0.0
230
0.0
100
AcDbArc
 50
179.9999999999998
 51
0.0000000000002036
  0
SPLINE
  5
F9
330
DA
100
AcDbEntity
  8
PV-D5
100
AcDbSpline
210
1.0
220
0.0
230
0.0
 70
     8
 71
     3
 72
    20
 73
    16
 74
     0
 42
0.0000000001
 43
0.0000000001
 40
14.25443176838446
 40
14.25443176838446
 40
14.25443176838446
 40
14.25443176838446
 40
17.53334406661908
 40
17.53334406661908
 40
22.30705573347312
 40
22.30705573347312
 40
26.10866164355539
 40
26.10866164355539
 40
29.19873837684502
 40
29.19873837684502
 40
30.93114607557147
 40
30.93114607557147
 40
32.70854010239506
 40
32.70854010239506
 40
32.79800962368379
 40
32.79800962368379
 40
32.79800962368379
 40
32.79800962368379
 10
0.0
 20
-63.25022386122419
 30
-53.29999996551953
 10
0.0
 20
-63.25036149905988
 30
-54.44126937274059
 10
0.0
 20
-63.31432933440077
 30
-55.585514167169
 10
0.0
 20
-63.62869847697972
 30
-58.32402221786679
 10
0.0
 20
-63.94980168843057
 30
-59.86631047522688
 10
0.0
 20
-64.70934143081028
 30
-62.28965835747768
 10
0.0
 20
-65.10796398765126
 30
-63.2285454119445
 10
0.0
 20
-65.84868748703789
 30
-64.57443767405313
 10
0.0
 20
-66.18071971394191
 30
-65.03462539785781
 10
0.0
 20
-66.60952684025509
 30
-65.51480850188845
 10
0.0
 20
-66.74171647506321
 30
-65.63626941328426
 10
0.0
 20
-66.94235104456017
 30
-65.79729791916162
 10
0.0
 20
-67.00511512796609
 30
-65.83211682925065
 10
0.0
 20
-67.02572465135187
 30
-65.84264955099239
 10
0.0
 20
-67.02660095696176
 30
-65.84309137830262
 10
0.0
 20
-67.02736694332738
 30
-65.84347355389081
  0
SPLINE
  5
FA
330
DA
100
AcDbEntity
  8
PV-D5
100
AcDbSpline
210
1.0
220
0.0
230
0.0
 70
     8
 71
     3
 72
    18
 73
    14
 74
     0
 42
0.0000000001
 43
0.0000000001
 40
41.96974776724336
 40
41.96974776724336
 40
41.96974776724336
 40
41.96974776724336
 40
42.39118505577493
 40
42.39118505577493
 40
44.86096626095549
 40
44.86096626095549
 40
47.81275779360878
 40
47.81275779360878
 40
52.1970297952097
 40
52.1970297952097
 40
56.83033935062987
 40
56.83033935062987
 40
57.9415914451501
 40
57.9415914451501
 40
57.9415914451501
 40
57.9415914451501
 10
0.0
 20
-66.74998929521175
 30
-65.63897486580209
 10
0.0
 20
-66.77702349025698
 30
-65.61497357532423
 10
0.0
 20
-66.80583306841317
 30
-65.58843017842409
 10
0.0
 20
-67.01512545778546
 30
-65.38739302902126
 10
0.0
 20
-67.24418938912527
 30
-65.12690212038615
 10
0.0
 20
-67.79563683922898
 30
-64.33114754601638
 10
0.0
 20
-68.11865226791923
 30
-63.76409918285006
 10
0.0
 20
-68.88565389470779
 30
-62.05711899137965
 10
0.0
 20
-69.30114306716696
 30
-60.79660093910653
 10
0.0
 20
-69.94392055728837
 30
-57.88193825618836
 10
0.0
 20
-70.15637842066225
 30
-56.23094148104785
 10
0.0
 20
-70.2417148856494
 30
-54.12037139525507
 10
0.0
 20
-70.24991935445211
 30
-53.71032059191978
 10
0.0
 20
-70.249851365864
 30
-53.3000000309838
  0
ARC
  5
FB
330
DA
100
AcDbEntity
  8
PV-D5
100
AcDbCircle
 10
-16.99999999999997
 20
-51.05304923404039
 30
0.0
 40
1.5
210
1.0
220
0.0
230
0.0
100
AcDbArc
 50
0.0000000000002799
 51
68.67631373650215
  0
ARC
  5
FC
330
DA
100
AcDbEntity
  8
PV-D5
100
AcDbCircle
 10
-24.99999999999996
 20
-51.05304923404039
 30
0.0
 40
1.5
210
1.0
220
0.0
230
0.0
100
AcDbArc
 50
111.3236862634972
 51
179.9999999999996
  0
SPLINE
  5
FD
330
DA
100
AcDbEntity
  8
PV-D5
100
AcDbSpline
210
1.0
220
0.0
230
0.0
 70
     8
 71
     3
 72
    16
 73
    12
 74
     0
 42
0.0000000001
 43
0.0000000001
 40
5.621343586610183
 40
5.621343586610183
 40
5.621343586610183
 40
5.621343586610183
 40
10.38210709313347
 40
10.38210709313347
 40
15.41608906130822
 40
15.41608906130822
 40
19.10897901695987
 40
19.10897901695987
 40
22.72088276040389
 40
22.72088276040389
 40
23.1895346830234
 40
23.1895346830234
 40
23.1895346830234
 40
23.1895346830234
 10
0.0
 20
-63.25003191017371
 30
-53.29999999515954
 10
0.0
 20
-63.25022092177511
 30
-54.87853817832935
 10
0.0
 20
-63.37359214688452
 30
-56.44631553962828
 10
0.0
 20
-63.85930218162894
 30
-59.47940220191134
 10
0.0
 20
-64.23318826469783
 30
-60.91378347453922
 10
0.0
 20
-65.01258916813452
 30
-63.01041117248601
 10
0.0
 20
-65.37910737208149
 30
-63.76431393743601
 10
0.0
 20
-66.08647085071736
 30
-64.9257202131486
 10
0.0
 20
-66.41757398332778
 30
-65.32217171531518
 10
0.0
 20
-66.69230977927111
 30
-65.58671707084761
 10
0.0
 20
-66.72209497256206
 30
-65.61418604547961
 10
0.0
 20
-66.75001413145976
 30
-65.63896871085589
  0
SPLINE
  5
FE
330
DA
100
AcDbEntity
  8
PV-D5
100
AcDbSpline
210
1.0
220
0.0
230
0.0
 70
     8
 71
     3
 72
    18
 73
    14
 74
     0
 42
0.0000000001
 43
0.0000000001
 40
35.36360543435582
 40
35.36360543435582
 40
35.36360543435582
 40
35.36360543435582
 40
35.54469542555211
 40
35.54469542555211
 40
38.01278930607722
 40
38.01278930607722
 40
40.98027408131964
 40
40.98027408131964
 40
45.48290430402916
 40
45.48290430402916
 40
50.33096147241309
 40
50.33096147241309
 40
51.81141296515344
 40
51.81141296515344
 40
51.81141296515344
 40
51.81141296515344
 10
0.0
 20
-66.74999574639253
 30
-65.63896438313057
 10
0.0
 20
-66.76181174578356
 30
-65.62847553984211
 10
0.0
 20
-66.77396274322385
 30
-65.61750442413813
 10
0.0
 20
-66.95651599328697
 30
-65.44969418522531
 10
0.0
 20
-67.17960008554491
 30
-65.20598222291242
 10
0.0
 20
-67.72117979904329
 30
-64.45169802591762
 10
0.0
 20
-68.04094205475549
 30
-63.90885334331986
 10
0.0
 20
-68.81086218843496
 30
-62.25803597768624
 10
0.0
 20
-69.23298134017298
 30
-61.02396227665678
 10
0.0
 20
-69.8996207298515
 30
-58.15609187794509
 10
0.0
 20
-70.12560548687083
 30
-56.5200570817705
 10
0.0
 20
-70.23699545227298
 30
-54.32877172887168
 10
0.0
 20
-70.24988367997746
 30
-53.81401492357564
 10
0.0
 20
-70.24980910026292
 30
-53.30000003442139
  0
SPLINE
  5
FF
330
DA
100
AcDbEntity
  8
PV-D5
100
AcDbSpline
210
1.0
220
0.0
230
0.0
 70
     8
 71
     3
 72
    16
 73
    12
 74
     0
 42
0.0000000001
 43
0.0000000001
 40
14.2544317788227
 40
14.2544317788227
 40
14.2544317788227
 40
14.2544317788227
 40
17.533344081959
 40
17.533344081959
 40
22.30705575741056
 40
22.30705575741056
 40
26.10866167588562
 40
26.10866167588562
 40
29.19873841728173
 40
29.19873841728173
 40
30.4462072492458
 40
30.4462072492458
 40
30.4462072492458
 40
30.4462072492458
 10
0.0
 20
-63.25022386122419
 30
-53.29999996551774
 10
0.0
 20
-63.25036149906
 30
-54.44126937291571
 10
0.0
 20
-63.314329334421
 30
-55.58551416737453
 10
0.0
 20
-63.62869847703105
 30
-58.32402221827144
 10
0.0
 20
-63.94980168853304
 30
-59.86631047557015
 10
0.0
 20
-64.70934143090217
 30
-62.28965835775785
 10
0.0
 20
-65.10796398776159
 30
-63.22854541215537
 10
0.0
 20
-65.84868748714183
 30
-64.57443767423358
 10
0.0
 20
-66.18071971403937
 30
-65.03462539797528
 10
0.0
 20
-66.56640689945719
 30
-65.46652230105637
 10
0.0
 20
-66.66599859646193
 30
-65.56427113198424
 10
0.0
 20
-66.75003822580596
 30
-65.63893862584237
  0
SPLINE
  5
100
330
DA
100
AcDbEntity
  8
PV-D5
100
AcDbSpline
210
1.0
220
0.0
230
0.0
 70
     8
 71
     3
 72
    18
 73
    14
 74
     0
 42
0.0000000001
 43
0.0000000001
 40
41.96974785605532
 40
41.96974785605532
 40
41.96974785605532
 40
41.96974785605532
 40
42.39118513597058
 40
42.39118513597058
 40
44.86096635235906
 40
44.86096635235906
 40
47.81275789367625
 40
47.81275789367625
 40
52.19702991756181
 40
52.19702991756181
 40
56.83033949892553
 40
56.83033949892553
 40
57.9415916182257
 40
57.9415916182257
 40
57.9415916182257
 40
57.9415916182257
 10
0.0
 20
-66.749989295212
 30
-65.63897486580167
 10
0.0
 20
-66.77702348959279
 30
-65.61497357591374
 10
0.0
 20
-66.80583306699735
 30
-65.58843017972844
 10
0.0
 20
-67.01512545512122
 30
-65.38739303190647
 10
0.0
 20
-67.24418938616707
 30
-65.12690212407908
 10
0.0
 20
-67.79563683532124
 30
-64.33114755234358
 10
0.0
 20
-68.11865226332024
 30
-63.76409919145195
 10
0.0
 20
-68.88565388982832
 30
-62.05711900466493
 10
0.0
 20
-69.30114306277332
 30
-60.79660095419217
 10
0.0
 20
-69.94392055443551
 30
-57.88193827423675
 10
0.0
 20
-70.15637841876767
 30
-56.23094150008305
 10
0.0
 20
-70.24171488538025
 30
-54.12037140858529
 10
0.0
 20
-70.24991935444979
 30
-53.71032059858166
 10
0.0
 20
-70.24985136586092
 30
-53.3000000309838
  0
ARC
  5
101
330
DA
100
AcDbEntity
  8
PV-D5
100
AcDbCircle
 10
-10.0
 20
33.0
 30
0.0
 40
2.0
210
1.0
220
0.0
230
0.0
100
AcDbArc
 50
90.00000000000019
 51
180.0000000000012
  0
ARC
  5
102
330
DA
100
AcDbEntity
  8
PV-D5
100
AcDbCircle
 10
-10.0
 20
-33.0
 30
0.0
 40
2.0
210
1.0
220
0.0
230
0.0
100
AcDbArc
 50
179.9999999999978
 51
269.9999999999997
  0
LINE
  5
103
330
DA
100
AcDbEntity
  8
PV-D5
100
AcDbLine
 10
0.0
 20
-25.00000000000017
 30
16.5
 11
0.0
 21
-73.5
 31
16.5
  0
LINE
  5
104
330
DA
100
AcDbEntity
  8
PV-D5
100
AcDbLine
 10
0.0
 20
-73.5
 30
-16.5
 11
0.0
 21
-25.00000000000017
 31
-16.5
  0
ENDBLK
  5
106
330
DA
100
AcDbEntity
  8
0
100
AcDbBlockEnd
  0
BLOCK
  5
109
330
107
100
AcDbEntity
  8
0
100
AcDbBlockBegin
  2
RIGHT
 70
     0
 10
0.0
 20
0.0
 30
0.0
  3
RIGHT
  1

  0
INSERT
  5
108
330
107
100
AcDbEntity
  8
PV-D5
100
AcDbBlockReference
  2
*U4
 10
0.0
 20
0.0
 30
0.0
 50
90.0
210
0.0
220
1.0
230
0.0
  0
ENDBLK
  5
10A
330
107
100
AcDbEntity
  8
0
100
AcDbBlockEnd
  0
BLOCK
  5
137
330
10C
100
AcDbEntity
  8
0
100
AcDbBlockBegin
  2
*U6
 70
     1
 10
0.0
 20
0.0
 30
0.0
  3
*U6
  1
*ANON
  0
LINE
  5
10D
330
10C
100
AcDbEntity
  8
PV-D5
100
AcDbLine
 10
-35.0
 20
0.0
 30
0.0
 11
35.0
 21
0.0
 31
0.0
  0
LINE
  5
10E
330
10C
100
AcDbEntity
  8
PV-D5
100
AcDbLine
 10
-33.0
 20
-12.0
 30
0.0
 11
33.0
 21
-12.0
 31
0.0
  0
LINE
  5
10F
330
10C
100
AcDbEntity
  8
PV-D5
100
AcDbLine
 10
415.0
 20
0.0
 30
0.0
 11
485.0
 21
0.0
 31
0.0
  0
LINE
  5
110
330
10C
100
AcDbEntity
  8
PV-D5
100
AcDbLine
 10
417.0
 20
-12.0
 30
0.0
 11
483.0
 21
-12.0
 31
0.0
  0
LINE
  5
111
330
10C
100
AcDbEntity
  8
PV-D5
100
AcDbLine
 10
172.5
 20
-3.499999999999971
 30
0.0
 11
168.5
 21
-3.499999999999971
 31
0.0
  0
LINE
  5
112
330
10C
100
AcDbEntity
  8
PV-D5
100
AcDbLine
 10
172.5
 20
-3.499999999999971
 30
0.0
 11
172.5
 21
-96.49999999999998
 31
0.0
  0
LINE
  5
113
330
10C
100
AcDbEntity
  8
PV-D5
100
AcDbLine
 10
168.5
 20
-3.499999999999971
 30
0.0
 11
131.4999999999999
 21
-3.499999999999971
 31
0.0
  0
LINE
  5
114
330
10C
100
AcDbEntity
  8
PV-D5
100
AcDbLine
 10
131.4999999999999
 20
-3.499999999999971
 30
0.0
 11
127.5
 21
-3.499999999999971
 31
0.0
  0
LINE
  5
115
330
10C
100
AcDbEntity
  8
PV-D5
100
AcDbLine
 10
127.5
 20
-3.499999999999971
 30
0.0
 11
127.5
 21
-96.49999999999998
 31
0.0
  0
ARC
  5
116
330
10C
100
AcDbEntity
  8
PV-D5
100
AcDbCircle
 10
168.5
 20
-96.49999999999998
 30
0.0
 40
3.999999999999998
100
AcDbArc
 50
270.0
 51
0.0
  0
ARC
  5
117
330
10C
100
AcDbEntity
  8
PV-D5
100
AcDbCircle
 10
131.4999999999999
 20
-96.49999999999998
 30
0.0
 40
3.999999999999998
100
AcDbArc
 50
180.0
 51
270.0
  0
LINE
  5
118
330
10C
100
AcDbEntity
  8
PV-D5
100
AcDbLine
 10
131.4999999999999
 20
-100.4999999999999
 30
0.0
 11
168.5
 21
-100.4999999999999
 31
0.0
  0
LINE
  5
119
330
10C
100
AcDbEntity
  8
PV-D5
100
AcDbLine
 10
322.5
 20
-3.499999999999971
 30
0.0
 11
318.5
 21
-3.499999999999971
 31
0.0
  0
LINE
  5
11A
330
10C
100
AcDbEntity
  8
PV-D5
100
AcDbLine
 10
322.5
 20
-3.499999999999971
 30
0.0
 11
322.5
 21
-96.49999999999998
 31
0.0
  0
LINE
  5
11B
330
10C
100
AcDbEntity
  8
PV-D5
100
AcDbLine
 10
318.5
 20
-3.499999999999971
 30
0.0
 11
281.4999999999999
 21
-3.499999999999971
 31
0.0
  0
LINE
  5
11C
330
10C
100
AcDbEntity
  8
PV-D5
100
AcDbLine
 10
281.4999999999999
 20
-3.499999999999971
 30
0.0
 11
277.4999999999999
 21
-3.499999999999971
 31
0.0
  0
LINE
  5
11D
330
10C
100
AcDbEntity
  8
PV-D5
100
AcDbLine
 10
277.4999999999999
 20
-3.499999999999971
 30
0.0
 11
277.4999999999999
 21
-96.49999999999998
 31
0.0
  0
ARC
  5
11E
330
10C
100
AcDbEntity
  8
PV-D5
100
AcDbCircle
 10
318.5
 20
-96.49999999999998
 30
0.0
 40
3.999999999999998
100
AcDbArc
 50
270.0
 51
0.0
  0
ARC
  5
11F
330
10C
100
AcDbEntity
  8
PV-D5
100
AcDbCircle
 10
281.4999999999999
 20
-96.49999999999998
 30
0.0
 40
3.999999999999998
100
AcDbArc
 50
180.0
 51
270.0
  0
LINE
  5
120
330
10C
100
AcDbEntity
  8
PV-D5
100
AcDbLine
 10
281.4999999999999
 20
-100.4999999999999
 30
0.0
 11
318.5
 21
-100.4999999999999
 31
0.0
  0
LINE
  5
121
330
10C
100
AcDbEntity
  8
PV-D5
100
AcDbLine
 10
485.0
 20
-10.0
 30
0.0
 11
485.0
 21
0.0
 31
0.0
  0
LINE
  5
122
330
10C
100
AcDbEntity
  8
PV-D5
100
AcDbLine
 10
415.0
 20
-10.0
 30
0.0
 11
415.0
 21
0.0
 31
0.0
  0
LINE
  5
123
330
10C
100
AcDbEntity
  8
PV-D5
100
AcDbLine
 10
466.5
 20
-25.0
 30
0.0
 11
466.5
 21
-12.0
 31
0.0
  0
LINE
  5
124
330
10C
100
AcDbEntity
  8
PV-D5
100
AcDbLine
 10
433.4999999999998
 20
-25.0
 30
0.0
 11
433.4999999999998
 21
-12.0
 31
0.0
  0
LINE
  5
125
330
10C
100
AcDbEntity
  8
PV-D5
100
AcDbLine
 10
48.5
 20
-90.0
 30
0.0
 11
127.5
 21
-90.0
 31
0.0
  0
LINE
  5
126
330
10C
100
AcDbEntity
  8
PV-D5
100
AcDbLine
 10
172.5
 20
-90.0
 30
0.0
 11
277.4999999999999
 21
-90.0
 31
0.0
  0
LINE
  5
127
330
10C
100
AcDbEntity
  8
PV-D5
100
AcDbLine
 10
322.5
 20
-90.0
 30
0.0
 11
401.4999999999998
 21
-90.0
 31
0.0
  0
LINE
  5
128
330
10C
100
AcDbEntity
  8
PV-D5
100
AcDbLine
 10
48.5
 20
-57.0
 30
0.0
 11
127.5
 21
-57.0
 31
0.0
  0
LINE
  5
129
330
10C
100
AcDbEntity
  8
PV-D5
100
AcDbLine
 10
172.5
 20
-57.0
 30
0.0
 11
277.4999999999999
 21
-57.0
 31
0.0
  0
LINE
  5
12A
330
10C
100
AcDbEntity
  8
PV-D5
100
AcDbLine
 10
322.5
 20
-57.0
 30
0.0
 11
401.4999999999998
 21
-57.0
 31
0.0
  0
LINE
  5
12B
330
10C
100
AcDbEntity
  8
PV-D5
100
AcDbLine
 10
-16.5
 20
-12.0
 30
0.0
 11
-16.5
 21
-25.0
 31
0.0
  0
LINE
  5
12C
330
10C
100
AcDbEntity
  8
PV-D5
100
AcDbLine
 10
16.5
 20
-12.0
 30
0.0
 11
16.5
 21
-25.0
 31
0.0
  0
LINE
  5
12D
330
10C
100
AcDbEntity
  8
PV-D5
100
AcDbLine
 10
35.0
 20
-10.0
 30
0.0
 11
35.0
 21
0.0
 31
0.0
  0
LINE
  5
12E
330
10C
100
AcDbEntity
  8
PV-D5
100
AcDbLine
 10
-35.0
 20
-10.0
 30
0.0
 11
-35.0
 21
0.0
 31
0.0
  0
ARC
  5
12F
330
10C
100
AcDbEntity
  8
PV-D5
100
AcDbCircle
 10
417.0
 20
-10.0
 30
0.0
 40
2.0
100
AcDbArc
 50
180.0000000000002
 51
269.9999999999996
  0
ARC
  5
130
330
10C
100
AcDbEntity
  8
PV-D5
100
AcDbCircle
 10
483.0
 20
-10.0
 30
0.0
 40
2.0
100
AcDbArc
 50
269.9999999999996
 51
359.9999999999997
  0
ARC
  5
131
330
10C
100
AcDbEntity
  8
PV-D5
100
AcDbCircle
 10
401.4999999999998
 20
-25.0
 30
0.0
 40
65.0
100
AcDbArc
 50
269.9999999999997
 51
360.0
  0
ARC
  5
132
330
10C
100
AcDbEntity
  8
PV-D5
100
AcDbCircle
 10
401.4999999999998
 20
-25.0
 30
0.0
 40
32.0
100
AcDbArc
 50
269.9999999999997
 51
0.0
  0
ARC
  5
133
330
10C
100
AcDbEntity
  8
PV-D5
100
AcDbCircle
 10
48.5
 20
-25.0
 30
0.0
 40
65.0
100
AcDbArc
 50
179.9999999999974
 51
269.9999999999997
  0
ARC
  5
134
330
10C
100
AcDbEntity
  8
PV-D5
100
AcDbCircle
 10
48.5
 20
-25.0
 30
0.0
 40
32.0
100
AcDbArc
 50
179.9999999999974
 51
269.9999999999997
  0
ARC
  5
135
330
10C
100
AcDbEntity
  8
PV-D5
100
AcDbCircle
 10
-33.0
 20
-10.0
 30
0.0
 40
2.0
100
AcDbArc
 50
180.0000000000002
 51
270.0000000000012
  0
ARC
  5
136
330
10C
100
AcDbEntity
  8
PV-D5
100
AcDbCircle
 10
33.0
 20
-10.0
 30
0.0
 40
2.0
100
AcDbArc
 50
269.9999999999978
 51
359.9999999999997
  0
ENDBLK
  5
138
330
10C
100
AcDbEntity
  8
0
100
AcDbBlockEnd
  0
BLOCK
  5
13B
330
139
100
AcDbEntity
  8
0
100
AcDbBlockBegin
  2
TOP
 70
     0
 10
0.0
 20
0.0
 30
0.0
  3
TOP
  1

  0
INSERT
  5
13A
330
139
100
AcDbEntity
  8
PV-D5
100
AcDbBlockReference
  2
*U6
 10
0.0
 20
0.0
 30
0.0
  0
ENDBLK
  5
13C
330
139
100
AcDbEntity
  8
0
100
AcDbBlockEnd
  0
BLOCK
  5
29E
330
29D
100
AcDbEntity
  8
0
100
AcDbBlockBegin
  2
*D8
 70
     1
 10
0.0
 20
0.0
 30
0.0
  3
*D8
  1

  0
LINE
  5
2A0
330
29D
100
AcDbEntity
  8
0
 62
     0
370
    -2
100
AcDbLine
 10
-75.00000000000003
 20
43.53809923302847
 30
0.0
 11
-75.00000000000003
 21
145.3434413815263
 31
0.0
  0
LINE
  5
2A1
330
29D
100
AcDbEntity
  8
0
 62
     0
370
    -2
100
AcDbLine
 10
74.99999999999994
 20
43.53809923302847
 30
0.0
 11
74.99999999999994
 21
145.3434413815263
 31
0.0
  0
LINE
  5
2A2
330
29D
100
AcDbEntity
  8
0
 62
     0
370
    -2
100
AcDbLine
 10
-74.82000000000002
 20
145.1634413815263
 30
0.0
 11
-0.6150000000000427
 21
145.1634413815263
 31
0.0
  0
LINE
  5
2A3
330
29D
100
AcDbEntity
  8
0
 62
     0
370
    -2
100
AcDbLine
 10
74.81999999999993
 20
145.1634413815263
 30
0.0
 11
0.6149999999999574
 21
145.1634413815263
 31
0.0
  0
SOLID
  5
2A4
330
29D
100
AcDbEntity
  8
0
 62
     0
100
AcDbTrace
 10
-74.82000000000002
 20
145.1934413815263
 30
0.0
 11
-74.82000000000002
 21
145.1334413815263
 31
0.0
 12
-75.00000000000003
 22
145.1634413815263
 32
0.0
 13
-75.00000000000003
 23
145.1634413815263
 33
0.0
  0
SOLID
  5
2A5
330
29D
100
AcDbEntity
  8
0
 62
     0
100
AcDbTrace
 10
74.81999999999993
 20
145.1934413815263
 30
0.0
 11
74.81999999999993
 21
145.1334413815263
 31
0.0
 12
74.99999999999994
 22
145.1634413815263
 32
0.0
 13
74.99999999999994
 23
145.1634413815263
 33
0.0
  0
MTEXT
  5
2A6
330
29D
100
AcDbEntity
  8
0
 62
     0
100
AcDbMText
 10
-0.0000000000000426
 20
145.1634413815263
 30
0.0
 40
0.18
 41
0.0
 71
     5
 72
     1
  1
\A1;150.0000
 73
     1
 44
1.0
1001
ACAD
1000
MTEXTBEGIN
1070
    73
1070
     1
1070
    44
1040
1.0
1070
    74
1070
     0
1000
MTEXTEND
  0
POINT
  5
2A7
330
29D
100
AcDbEntity
  8
Defpoints
 62
     0
100
AcDbPoint
 10
-75.00000000000003
 20
43.47559923302847
 30
0.0000000000000184
  0
POINT
  5
2A8
330
29D
100
AcDbEntity
  8
Defpoints
 62
     0
100
AcDbPoint
 10
74.99999999999994
 20
43.47559923302847
 30
0.0000000000000368
  0
POINT
  5
2A9
330
29D
100
AcDbEntity
  8
Defpoints
 62
     0
100
AcDbPoint
 10
74.99999999999994
 20
145.1634413815263
 30
0.0
  0
ENDBLK
  5
29F
330
29D
100
AcDbEntity
  8
0
100
AcDbBlockEnd
  0
BLOCK
  5
2AC
330
2AB
100
AcDbEntity
  8
0
100
AcDbBlockBegin
  2
*D9
 70
     1
 10
0.0
 20
0.0
 30
0.0
  3
*D9
  1

  0
LINE
  5
2AE
330
2AB
100
AcDbEntity
  8
0
 62
     0
370
    -2
100
AcDbLine
 10
-225.0
 20
21.03809923302849
 30
0.0
 11
-225.0
 21
194.080059796041
 31
0.0
  0
LINE
  5
2AF
330
2AB
100
AcDbEntity
  8
0
 62
     0
370
    -2
100
AcDbLine
 10
225.0
 20
21.03809923302849
 30
0.0
 11
225.0
 21
194.080059796041
 31
0.0
  0
LINE
  5
2B0
330
2AB
100
AcDbEntity
  8
0
 62
     0
370
    -2
100
AcDbLine
 10
-224.82
 20
193.900059796041
 30
0.0
 11
-0.6450000000000001
 21
193.900059796041
 31
0.0
  0
LINE
  5
2B1
330
2AB
100
AcDbEntity
  8
0
 62
     0
370
    -2
100
AcDbLine
 10
224.82
 20
193.900059796041
 30
0.0
 11
0.6450000000000001
 21
193.900059796041
 31
0.0
  0
SOLID
  5
2B2
330
2AB
100
AcDbEntity
  8
0
 62
     0
100
AcDbTrace
 10
-224.82
 20
193.930059796041
 30
0.0
 11
-224.82
 21
193.8700597960409
 31
0.0
 12
-225.0
 22
193.900059796041
 32
0.0
 13
-225.0
 23
193.900059796041
 33
0.0
  0
SOLID
  5
2B3
330
2AB
100
AcDbEntity
  8
0
 62
     0
100
AcDbTrace
 10
224.82
 20
193.930059796041
 30
0.0
 11
224.82
 21
193.8700597960409
 31
0.0
 12
225.0
 22
193.900059796041
 32
0.0
 13
225.0
 23
193.900059796041
 33
0.0
  0
MTEXT
  5
2B4
330
2AB
100
AcDbEntity
  8
0
 62
     0
100
AcDbMText
 10
0.0
 20
193.900059796041
 30
0.0
 40
0.18
 41
0.0
 71
     5
 72
     1
  1
\A1;450.0000
 73
     1
 44
1.0
1001
ACAD
1000
MTEXTBEGIN
1070
    73
1070
     1
1070
    44
1040
1.0
1070
    74
1070
     0
1000
MTEXTEND
  0
POINT
  5
2B5
330
2AB
100
AcDbEntity
  8
Defpoints
 62
     0
100
AcDbPoint
 10
-225.0
 20
20.97559923302849
 30
0.0
  0
POINT
  5
2B6
330
2AB
100
AcDbEntity
  8
Defpoints
 62
     0
100
AcDbPoint
 10
225.0
 20
20.97559923302849
 30
0.0000000000000551
  0
POINT
  5
2B7
330
2AB
100
AcDbEntity
  8
Defpoints
 62
     0
100
AcDbPoint
 10
225.0
 20
193.900059796041
 30
0.0
  0
ENDBLK
  5
2AD
330
2AB
100
AcDbEntity
  8
0
100
AcDbBlockEnd
  0
ENDSEC
  0
SECTION
  2
ENTITIES
  0
ARC
  5
14E
330
1F
100
AcDbEntity
  8
PV-D5
100
AcDbCircle
 10
-437.500000014
 20
20.93825361348348
 30
-0.0000000000000045
 40
16.5
100
AcDbArc
 50
90.0
 51
270.0
  0
LINE
  5
14F
330
1F
100
AcDbEntity
  8
PV-D5
100
AcDbLine
 10
-364.000000014
 20
55.9382536134835
 30
0.0
 11
-364.000000014
 21
-14.06174638651651
 31
0.0
210
0.0
220
1.0
230
0.0
  0
LINE
  5
150
330
1F
100
AcDbEntity
  8
PV-D5
100
AcDbLine
 10
-376.000000014
 20
53.9382536134835
 30
-0.0000000000000007
 11
-376.000000014
 21
-12.06174638651651
 31
-0.0000000000000007
210
0.0
220
1.0
230
0.0
  0
LINE
  5
151
330
1F
100
AcDbEntity
  8
PV-D5
100
AcDbLine
 10
-376.000000014
 20
-1.561746386516509
 30
-0.0000000000000007
 11
-460.500000014
 21
-1.561746386516509
 31
-0.0000000000000059
210
0.0
220
1.0
230
0.0
  0
LINE
  5
152
330
1F
100
AcDbEntity
  8
PV-D5
100
AcDbLine
 10
-376.000000014
 20
43.4382536134835
 30
-0.0000000000000007
 11
-460.500000014
 21
43.4382536134835
 31
-0.0000000000000059
210
0.0
220
1.0
230
0.0
  0
ARC
  5
153
330
1F
100
AcDbEntity
  8
PV-D5
100
AcDbCircle
 10
-460.500000014
 20
2.438253613483489
 30
-0.0000000000000059
 40
3.999999999999998
100
AcDbArc
 50
180.0
 51
270.0
  0
LINE
  5
154
330
1F
100
AcDbEntity
  8
PV-D5
100
AcDbLine
 10
-464.5000000139998
 20
39.43825361348348
 30
-0.0000000000000062
 11
-464.5000000139998
 21
2.438253613483489
 31
-0.0000000000000062
210
0.0
220
1.0
230
0.0
  0
ARC
  5
155
330
1F
100
AcDbEntity
  8
PV-D5
100
AcDbCircle
 10
-460.500000014
 20
39.43825361348348
 30
-0.0000000000000059
 40
3.999999999999998
100
AcDbArc
 50
90.0
 51
180.0
  0
LINE
  5
156
330
1F
100
AcDbEntity
  8
PV-D5
100
AcDbLine
 10
-424.500000014
 20
-32.3617463865165
 30
-0.0000000000000037
 11
-427.5000000139998
 21
-32.3617463865165
 31
-0.0000000000000039
210
0.0
220
1.0
230
0.0
  0
LINE
  5
157
330
1F
100
AcDbEntity
  8
PV-D5
100
AcDbLine
 10
-415.5000000139998
 20
-32.3617463865165
 30
-0.0000000000000032
 11
-424.500000014
 21
-32.3617463865165
 31
-0.0000000000000037
210
0.0
220
1.0
230
0.0
  0
SPLINE
  5
158
330
1F
100
AcDbEntity
  8
PV-D5
100
AcDbSpline
210
0.0
220
0.0
230
1.0
 70
     8
 71
     3
 72
    26
 73
    22
 74
     0
 42
0.0000000001
 43
0.0000000001
 40
33.87515749604523
 40
33.87515749604523
 40
33.87515749604523
 40
33.87515749604523
 40
35.11013520855321
 40
35.11013520855321
 40
36.34511292106118
 40
36.34511292106118
 40
38.81506834607712
 40
38.81506834607712
 40
40.38047966594638
 40
40.38047966594638
 40
41.94589098581563
 40
41.94589098581563
 40
45.07671362555417
 40
45.07671362555417
 40
45.6608840355191
 40
45.6608840355191
 40
46.24505444548403
 40
46.24505444548403
 40
47.02967061262849
 40
47.02967061262849
 40
47.50039634820079
 40
47.50039634820079
 40
47.50039634820079
 40
47.50039634820079
 10
-418.6335359890673
 20
-32.3617463865165
 30
-0.0000000000000033
 10
-418.6335359890673
 20
-32.77340562401916
 30
-0.0000000000000033
 10
-418.6299313666971
 20
-33.20541085281428
 30
-0.0000000000000033
 10
-418.6145397903104
 20
-34.08930186765229
 30
-0.0000000000000033
 10
-418.6027482663082
 20
-34.54118733535482
 30
-0.0000000000000033
 10
-418.5574089927079
 20
-35.89570992748325
 30
-0.0000000000000033
 10
-418.5135995463708
 20
-36.79725422973097
 30
-0.0000000000000033
 10
-418.4465566215084
 20
-38.1356767518674
 30
-0.0000000000000033
 10
-418.4186133169188
 20
-38.68056320759411
 30
-0.0000000000000033
 10
-418.3686029654595
 20
-39.79442374641172
 30
-0.0000000000000033
 10
-418.3466137254558
 20
-40.3634117975818
 30
-0.0000000000000033
 10
-418.310134972947
 20
-42.06668113115346
 30
-0.0000000000000033
 10
-418.325982442445
 20
-43.19716202207611
 30
-0.0000000000000033
 10
-418.4604660985808
 20
-44.40593011047154
 30
-0.0000000000000033
 10
-418.4875327129328
 20
-44.61307617778961
 30
-0.0000000000000033
 10
-418.5524490669325
 20
-45.02030257721589
 30
-0.0000000000000033
 10
-418.5904075328546
 20
-45.22031354869951
 30
-0.0000000000000033
 10
-418.682818244476
 20
-45.63746607439798
 30
-0.0000000000000033
 10
-418.7503313319223
 20
-45.89096585676183
 30
-0.0000000000000034
 10
-418.8783479233069
 20
-46.26842278255554
 30
-0.0000000000000034
 10
-418.9309424107556
 20
-46.40350819451209
 30
-0.0000000000000034
 10
-418.9858862561662
 20
-46.52768456335254
 30
-0.0000000000000034
  0
ARC
  5
159
330
1F
100
AcDbEntity
  8
PV-D5
100
AcDbCircle
 10
-439.7500000139999
 20
-40.3617463865165
 30
-0.0000000000000046
 40
12.5
100
AcDbArc
 50
68.67631373650152
 51
111.3236862634984
  0
LINE
  5
15A
330
1F
100
AcDbEntity
  8
PV-D5
100
AcDbLine
 10
-434.2500000140001
 20
-32.3617463865165
 30
-0.0000000000000043
 11
-434.2500000140001
 21
-30.1147956205569
 31
-0.0000000000000043
210
0.0
220
1.0
230
0.0
  0
LINE
  5
15B
330
1F
100
AcDbEntity
  8
PV-D5
100
AcDbLine
 10
-445.250000014
 20
-32.3617463865165
 30
-0.000000000000005
 11
-445.250000014
 21
-30.1147956205569
 31
-0.000000000000005
210
0.0
220
1.0
230
0.0
  0
ARC
  5
15C
330
1F
100
AcDbEntity
  8
PV-D5
100
AcDbCircle
 10
-385.0000000139999
 20
-40.3617463865165
 30
-0.0000000000000013
 40
12.5
100
AcDbArc
 50
68.67631373650152
 51
111.3236862634984
  0
LINE
  5
15D
330
1F
100
AcDbEntity
  8
PV-D5
100
AcDbLine
 10
-379.5000000139999
 20
-32.3617463865165
 30
-0.0000000000000009
 11
-379.5000000139999
 21
-30.1147956205569
 31
-0.0000000000000009
210
0.0
220
1.0
230
0.0
  0
LINE
  5
15E
330
1F
100
AcDbEntity
  8
PV-D5
100
AcDbLine
 10
-390.5000000139999
 20
-32.3617463865165
 30
-0.0000000000000016
 11
-390.5000000139999
 21
-30.1147956205569
 31
-0.0000000000000016
210
0.0
220
1.0
230
0.0
  0
LINE
  5
15F
330
1F
100
AcDbEntity
  8
PV-D5
100
AcDbLine
 10
-415.5000000139998
 20
-32.3617463865165
 30
-0.0000000000000032
 11
-415.5000000139998
 21
-1.561746386516509
 31
-0.0000000000000032
210
0.0
220
1.0
230
0.0
  0
LINE
  5
160
330
1F
100
AcDbEntity
  8
PV-D5
100
AcDbLine
 10
-427.5000000139998
 20
-32.3617463865165
 30
-0.0000000000000039
 11
-427.5000000139998
 21
-1.561746386516509
 31
-0.0000000000000039
210
0.0
220
1.0
230
0.0
  0
LINE
  5
161
330
1F
100
AcDbEntity
  8
PV-D5
100
AcDbLine
 10
-374.000000014
 20
-14.06174638651651
 30
-0.0000000000000006
 11
-364.000000014
 21
-14.06174638651651
 31
0.0
210
0.0
220
1.0
230
0.0
  0
LINE
  5
162
330
1F
100
AcDbEntity
  8
PV-D5
100
AcDbLine
 10
-374.000000014
 20
55.9382536134835
 30
-0.0000000000000006
 11
-364.000000014
 21
55.9382536134835
 31
0.0
210
0.0
220
1.0
230
0.0
  0
LINE
  5
163
330
1F
100
AcDbEntity
  8
PV-D5
100
AcDbLine
 10
-389.000000014
 20
4.438253613483488
 30
-0.0000000000000015
 11
-376.000000014
 21
4.438253613483488
 31
-0.0000000000000007
210
0.0
220
1.0
230
0.0
  0
LINE
  5
164
330
1F
100
AcDbEntity
  8
PV-D5
100
AcDbLine
 10
-389.000000014
 20
37.43825361348349
 30
-0.0000000000000015
 11
-376.000000014
 21
37.43825361348349
 31
-0.0000000000000007
210
0.0
220
1.0
230
0.0
  0
SPLINE
  5
165
330
1F
100
AcDbEntity
  8
PV-D5
100
AcDbSpline
210
0.0
220
0.0
230
1.0
 70
     8
 71
     3
 72
    28
 73
    24
 74
     0
 42
0.0000000001
 43
0.0000000001
 40
17.98585702009285
 40
17.98585702009285
 40
17.98585702009285
 40
17.98585702009285
 40
24.59974071087175
 40
24.59974071087175
 40
29.32668715382554
 40
29.32668715382554
 40
37.79124790300407
 40
37.79124790300407
 40
41.81949519692444
 40
41.81949519692444
 40
45.53875042990184
 40
45.53875042990184
 40
49.71094494138196
 40
49.71094494138196
 40
54.52061990533374
 40
54.52061990533374
 40
57.90144703686793
 40
57.90144703686793
 40
61.79134425631793
 40
61.79134425631793
 40
70.05714318291403
 40
70.05714318291403
 40
70.07578749534792
 40
70.07578749534792
 40
70.07578749534792
 40
70.07578749534792
 10
-445.2502179164655
 20
-32.36174632145738
 30
-0.000000000000005
 10
-445.2507542400272
 20
-34.82491628805591
 30
-0.000000000000005
 10
-445.0323058030726
 20
-37.27157489559569
 30
-0.000000000000005
 10
-444.2845592082584
 20
-41.30414130537436
 30
-0.0000000000000049
 10
-443.8649361974666
 20
-42.91603170858996
 30
-0.0000000000000049
 10
-442.3913929038331
 20
-47.15823753126382
 30
-0.0000000000000048
 10
-441.1553510573268
 20
-49.42286817153036
 30
-0.0000000000000047
 10
-439.0146688076135
 20
-52.04186658824731
 30
-0.0000000000000046
 10
-438.2497049512809
 20
-52.80668801647721
 30
-0.0000000000000045
 10
-436.6353173981905
 20
-54.06783161675371
 30
-0.0000000000000044
 10
-435.795879054693
 20
-54.58107111905614
 30
-0.0000000000000044
 10
-433.8885706093765
 20
-55.41986559622463
 30
-0.0000000000000043
 10
-432.8231591978914
 20
-55.707127894801
 30
-0.0000000000000042
 10
-430.4513622343312
 20
-55.93825362348351
 30
-0.0000000000000041
 10
-429.1821249309093
 20
-55.81797250343292
 30
-0.000000000000004
 10
-427.0940432927416
 20
-55.21905495206429
 30
-0.0000000000000039
 10
-426.2717306455805
 20
-54.8628273173907
 30
-0.0000000000000038
 10
-424.6042453703951
 20
-53.89845323683993
 30
-0.0000000000000037
 10
-423.7807991209725
 20
-53.26406802356906
 30
-0.0000000000000037
 10
-421.4333279413162
 20
-51.00308526662836
 30
-0.0000000000000035
 10
-420.0730625531448
 20
-48.97715021196664
 30
-0.0000000000000034
 10
-418.9906208763846
 20
-46.53889893110472
 30
-0.0000000000000034
 10
-418.9881864232282
 20
-46.53340995073763
 30
-0.0000000000000034
 10
-418.9857535744173
 20
-46.52791932664881
 30
-0.0000000000000034
  0
SPLINE
  5
166
330
1F
100
AcDbEntity
  8
PV-D5
100
AcDbSpline
210
0.0
220
0.0
230
1.0
 70
     8
 71
     3
 72
    16
 73
    12
 74
     0
 42
0.0000000001
 43
0.0000000001
 40
5.621343586613082
 40
5.621343586613082
 40
5.621343586613082
 40
5.621343586613082
 40
10.38210709314353
 40
10.38210709314353
 40
15.41608906132855
 40
15.41608906132855
 40
19.10897901694128
 40
19.10897901694128
 40
22.72088276041992
 40
22.72088276041992
 40
23.18953468306682
 40
23.18953468306682
 40
23.18953468306682
 40
23.18953468306682
 10
-427.2500319241736
 20
-32.36174638167606
 30
-0.0000000000000039
 10
-427.2502209357751
 20
-33.94028456484644
 30
-0.0000000000000039
 10
-427.3735921608846
 20
-35.50806192614526
 30
-0.0000000000000039
 10
-427.8593021956289
 20
-38.54114858842805
 30
-0.0000000000000039
 10
-428.2331882786978
 20
-39.97552986105601
 30
-0.0000000000000039
 10
-429.0125891821302
 20
-42.07215755899111
 30
-0.000000000000004
 10
-429.3791073860718
 20
-42.82606032393307
 30
-0.000000000000004
 10
-430.0864708647061
 20
-43.98746659965047
 30
-0.000000000000004
 10
-430.4175739973199
 20
-44.38391810182301
 30
-0.0000000000000041
 10
-430.6923097932679
 20
-44.64846345736114
 30
-0.0000000000000041
 10
-430.7220949865605
 20
-44.67593243199479
 30
-0.0000000000000041
 10
-430.7500141454598
 20
-44.70071509737239
 30
-0.0000000000000041
  0
SPLINE
  5
167
330
1F
100
AcDbEntity
  8
PV-D5
100
AcDbSpline
210
0.0
220
0.0
230
1.0
 70
     8
 71
     3
 72
    20
 73
    16
 74
     0
 42
0.0000000001
 43
0.0000000001
 40
32.75471807790276
 40
32.75471807790276
 40
32.75471807790276
 40
32.75471807790276
 40
33.72499071455585
 40
33.72499071455585
 40
35.54469542552099
 40
35.54469542552099
 40
38.01278930605644
 40
38.01278930605644
 40
40.98027408125342
 40
40.98027408125342
 40
45.48290430392301
 40
45.48290430392301
 40
50.33096147226746
 40
50.33096147226746
 40
51.81141296500261
 40
51.81141296500261
 40
51.81141296500261
 40
51.81141296500261
 10
-430.4696930451588
 20
-44.90680234745779
 30
-0.0000000000000041
 10
-430.4737735375979
 20
-44.9048732119945
 30
-0.0000000000000041
 10
-430.4892183736948
 20
-44.89717284770376
 30
-0.0000000000000041
 10
-430.5687497437867
 20
-44.84784060196304
 30
-0.0000000000000041
 10
-430.6610470604682
 20
-44.78304742913682
 30
-0.0000000000000041
 10
-430.9565160072836
 20
-44.51144057174564
 30
-0.0000000000000041
 10
-431.1796000995447
 20
-44.26772860942977
 30
-0.0000000000000041
 10
-431.7211798130453
 20
-43.51344441243041
 30
-0.0000000000000041
 10
-432.0409420687557
 20
-42.97059972983536
 30
-0.0000000000000042
 10
-432.8108622024336
 20
-41.31978236420653
 30
-0.0000000000000042
 10
-433.2329813541717
 20
-40.08570866317753
 30
-0.0000000000000042
 10
-433.8996207438507
 20
-37.21783826446678
 30
-0.0000000000000043
 10
-434.1256055008702
 20
-35.58180346829246
 30
-0.0000000000000043
 10
-434.2369954662729
 20
-33.39051811539236
 30
-0.0000000000000043
 10
-434.2498836939775
 20
-32.87576131009421
 30
-0.0000000000000043
 10
-434.2498091142628
 20
-32.3617464209379
 30
-0.0000000000000043
  0
ARC
  5
168
330
1F
100
AcDbEntity
  8
PV-D5
100
AcDbCircle
 10
-435.7500000139999
 20
-30.1147956205569
 30
-0.0000000000000044
 40
1.5
100
AcDbArc
 50
0.0000000000002036
 51
68.67631373650152
  0
ARC
  5
169
330
1F
100
AcDbEntity
  8
PV-D5
100
AcDbCircle
 10
-443.750000014
 20
-30.1147956205569
 30
-0.0000000000000049
 40
1.5
100
AcDbArc
 50
111.3236862634984
 51
179.9999999999996
  0
ARC
  5
16A
330
1F
100
AcDbEntity
  8
PV-D5
100
AcDbCircle
 10
-403.0000000139998
 20
-32.3617463865165
 30
-0.0000000000000024
 40
23.5
100
AcDbArc
 50
223.6204427153634
 51
0.0000000000002036
  0
ARC
  5
16B
330
1F
100
AcDbEntity
  8
PV-D5
100
AcDbCircle
 10
-403.0000000139998
 20
-32.3617463865165
 30
-0.0000000000000024
 40
12.5
100
AcDbArc
 50
179.9999999999998
 51
0.0000000000002036
  0
SPLINE
  5
16C
330
1F
100
AcDbEntity
  8
PV-D5
100
AcDbSpline
210
0.0
220
0.0
230
1.0
 70
     8
 71
     3
 72
    20
 73
    16
 74
     0
 42
0.0000000001
 43
0.0000000001
 40
14.25443176838446
 40
14.25443176838446
 40
14.25443176838446
 40
14.25443176838446
 40
17.53334406661908
 40
17.53334406661908
 40
22.30705573347312
 40
22.30705573347312
 40
26.10866164355539
 40
26.10866164355539
 40
29.19873837684502
 40
29.19873837684502
 40
30.93114607557147
 40
30.93114607557147
 40
32.70854010239506
 40
32.70854010239506
 40
32.79800962368379
 40
32.79800962368379
 40
32.79800962368379
 40
32.79800962368379
 10
-427.2502238752241
 20
-32.36174635203604
 30
-0.0000000000000039
 10
-427.2503615130598
 20
-33.50301575925711
 30
-0.0000000000000039
 10
-427.3143293484006
 20
-34.64726055368551
 30
-0.0000000000000039
 10
-427.6286984909797
 20
-37.3857686043833
 30
-0.0000000000000039
 10
-427.9498017024304
 20
-38.92805686174339
 30
-0.0000000000000039
 10
-428.7093414448102
 20
-41.3514047439942
 30
-0.000000000000004
 10
-429.1079640016511
 20
-42.290291798461
 30
-0.000000000000004
 10
-429.8486875010379
 20
-43.63618406056963
 30
-0.000000000000004
 10
-430.1807197279418
 20
-44.09637178437431
 30
-0.0000000000000041
 10
-430.6095268542551
 20
-44.57655488840496
 30
-0.0000000000000041
 10
-430.7417164890631
 20
-44.69801579980075
 30
-0.0000000000000041
 10
-430.9423510585602
 20
-44.85904430567813
 30
-0.0000000000000041
 10
-431.0051151419661
 20
-44.89386321576716
 30
-0.0000000000000041
 10
-431.0257246653518
 20
-44.90439593750889
 30
-0.0000000000000041
 10
-431.0266009709618
 20
-44.90483776481911
 30
-0.0000000000000041
 10
-431.0273669573273
 20
-44.90521994040731
 30
-0.0000000000000041
  0
SPLINE
  5
16D
330
1F
100
AcDbEntity
  8
PV-D5
100
AcDbSpline
210
0.0
220
0.0
230
1.0
 70
     8
 71
     3
 72
    18
 73
    14
 74
     0
 42
0.0000000001
 43
0.0000000001
 40
41.96974776724336
 40
41.96974776724336
 40
41.96974776724336
 40
41.96974776724336
 40
42.39118505577493
 40
42.39118505577493
 40
44.86096626095549
 40
44.86096626095549
 40
47.81275779360878
 40
47.81275779360878
 40
52.1970297952097
 40
52.1970297952097
 40
56.83033935062987
 40
56.83033935062987
 40
57.9415914451501
 40
57.9415914451501
 40
57.9415914451501
 40
57.9415914451501
 10
-430.7499893092116
 20
-44.70072125231861
 30
-0.0000000000000041
 10
-430.7770235042569
 20
-44.67671996184074
 30
-0.0000000000000041
 10
-430.805833082413
 20
-44.65017656494061
 30
-0.0000000000000041
 10
-431.0151254717855
 20
-44.44913941553775
 30
-0.0000000000000041
 10
-431.2441894031253
 20
-44.18864850690265
 30
-0.0000000000000041
 10
-431.7956368532289
 20
-43.39289393253289
 30
-0.0000000000000042
 10
-432.1186522819192
 20
-42.82584556936657
 30
-0.0000000000000042
 10
-432.8856539087078
 20
-41.11886537789615
 30
-0.0000000000000042
 10
-433.3011430811668
 20
-39.85834732562305
 30
-0.0000000000000042
 10
-433.9439205712884
 20
-36.94368464270487
 30
-0.0000000000000043
 10
-434.1563784346623
 20
-35.29268786756436
 30
-0.0000000000000043
 10
-434.2417148996493
 20
-33.18211778177158
 30
-0.0000000000000043
 10
-434.2499193684521
 20
-32.77206697843629
 30
-0.0000000000000043
 10
-434.249851379864
 20
-32.36174641750031
 30
-0.0000000000000043
  0
ARC
  5
16E
330
1F
100
AcDbEntity
  8
PV-D5
100
AcDbCircle
 10
-381.0000000139999
 20
-30.1147956205569
 30
-0.000000000000001
 40
1.5
100
AcDbArc
 50
0.0000000000002036
 51
68.67631373650152
  0
ARC
  5
16F
330
1F
100
AcDbEntity
  8
PV-D5
100
AcDbCircle
 10
-389.0000000139999
 20
-30.1147956205569
 30
-0.0000000000000015
 40
1.5
100
AcDbArc
 50
111.3236862634984
 51
179.9999999999996
  0
SPLINE
  5
170
330
1F
100
AcDbEntity
  8
PV-D5
100
AcDbSpline
210
0.0
220
0.0
230
1.0
 70
     8
 71
     3
 72
    16
 73
    12
 74
     0
 42
0.0000000001
 43
0.0000000001
 40
5.621343586610183
 40
5.621343586610183
 40
5.621343586610183
 40
5.621343586610183
 40
10.38210709313347
 40
10.38210709313347
 40
15.41608906130822
 40
15.41608906130822
 40
19.10897901695987
 40
19.10897901695987
 40
22.72088276040389
 40
22.72088276040389
 40
23.1895346830234
 40
23.1895346830234
 40
23.1895346830234
 40
23.1895346830234
 10
-427.2500319241736
 20
-32.36174638167605
 30
-0.0000000000000039
 10
-427.2502209357751
 20
-33.94028456484586
 30
-0.0000000000000039
 10
-427.3735921608844
 20
-35.50806192614479
 30
-0.0000000000000039
 10
-427.8593021956289
 20
-38.54114858842785
 30
-0.0000000000000039
 10
-428.2331882786977
 20
-39.97552986105573
 30
-0.0000000000000039
 10
-429.0125891821345
 20
-42.07215755900253
 30
-0.000000000000004
 10
-429.3791073860814
 20
-42.82606032395253
 30
-0.000000000000004
 10
-430.0864708647174
 20
-43.9874665996651
 30
-0.000000000000004
 10
-430.4175739973278
 20
-44.38391810183168
 30
-0.0000000000000041
 10
-430.6923097932711
 20
-44.64846345736412
 30
-0.0000000000000041
 10
-430.7220949865619
 20
-44.67593243199611
 30
-0.0000000000000041
 10
-430.7500141454596
 20
-44.70071509737239
 30
-0.0000000000000041
  0
SPLINE
  5
171
330
1F
100
AcDbEntity
  8
PV-D5
100
AcDbSpline
210
0.0
220
0.0
230
1.0
 70
     8
 71
     3
 72
    18
 73
    14
 74
     0
 42
0.0000000001
 43
0.0000000001
 40
35.36360543435582
 40
35.36360543435582
 40
35.36360543435582
 40
35.36360543435582
 40
35.54469542555211
 40
35.54469542555211
 40
38.01278930607722
 40
38.01278930607722
 40
40.98027408131964
 40
40.98027408131964
 40
45.48290430402916
 40
45.48290430402916
 40
50.33096147241309
 40
50.33096147241309
 40
51.81141296515344
 40
51.81141296515344
 40
51.81141296515344
 40
51.81141296515344
 10
-430.7499957603925
 20
-44.70071076964707
 30
-0.0000000000000041
 10
-430.7618117597836
 20
-44.6902219263586
 30
-0.0000000000000041
 10
-430.7739627572239
 20
-44.67925081065464
 30
-0.0000000000000041
 10
-430.956516007287
 20
-44.51144057174182
 30
-0.0000000000000041
 10
-431.1796000995449
 20
-44.26772860942892
 30
-0.0000000000000041
 10
-431.7211798130433
 20
-43.51344441243413
 30
-0.0000000000000041
 10
-432.0409420687552
 20
-42.97059972983635
 30
-0.0000000000000042
 10
-432.8108622024348
 20
-41.31978236420275
 30
-0.0000000000000042
 10
-433.2329813541729
 20
-40.0857086631733
 30
-0.0000000000000042
 10
-433.8996207438515
 20
-37.21783826446159
 30
-0.0000000000000043
 10
-434.1256055008708
 20
-35.581803468287
 30
-0.0000000000000043
 10
-434.2369954662729
 20
-33.39051811538819
 30
-0.0000000000000043
 10
-434.2498836939775
 20
-32.87576131009216
 30
-0.0000000000000043
 10
-434.2498091142628
 20
-32.3617464209379
 30
-0.0000000000000043
  0
SPLINE
  5
172
330
1F
100
AcDbEntity
  8
PV-D5
100
AcDbSpline
210
0.0
220
0.0
230
1.0
 70
     8
 71
     3
 72
    16
 73
    12
 74
     0
 42
0.0000000001
 43
0.0000000001
 40
14.2544317788227
 40
14.2544317788227
 40
14.2544317788227
 40
14.2544317788227
 40
17.533344081959
 40
17.533344081959
 40
22.30705575741056
 40
22.30705575741056
 40
26.10866167588562
 40
26.10866167588562
 40
29.19873841728173
 40
29.19873841728173
 40
30.4462072492458
 40
30.4462072492458
 40
30.4462072492458
 40
30.4462072492458
 10
-427.2502238752241
 20
-32.36174635203425
 30
-0.0000000000000039
 10
-427.25036151306
 20
-33.50301575943221
 30
-0.0000000000000039
 10
-427.314329348421
 20
-34.64726055389104
 30
-0.0000000000000039
 10
-427.628698491031
 20
-37.38576860478796
 30
-0.0000000000000039
 10
-427.949801702533
 20
-38.92805686208665
 30
-0.0000000000000039
 10
-428.7093414449022
 20
-41.35140474427436
 30
-0.000000000000004
 10
-429.1079640017616
 20
-42.29029179867189
 30
-0.000000000000004
 10
-429.8486875011418
 20
-43.63618406075008
 30
-0.000000000000004
 10
-430.1807197280393
 20
-44.09637178449179
 30
-0.0000000000000041
 10
-430.5664069134572
 20
-44.52826868757288
 30
-0.0000000000000041
 10
-430.6659986104619
 20
-44.62601751850074
 30
-0.0000000000000041
 10
-430.7500382398059
 20
-44.70068501235888
 30
-0.0000000000000041
  0
SPLINE
  5
173
330
1F
100
AcDbEntity
  8
PV-D5
100
AcDbSpline
210
0.0
220
0.0
230
1.0
 70
     8
 71
     3
 72
    18
 73
    14
 74
     0
 42
0.0000000001
 43
0.0000000001
 40
41.96974785605532
 40
41.96974785605532
 40
41.96974785605532
 40
41.96974785605532
 40
42.39118513597058
 40
42.39118513597058
 40
44.86096635235906
 40
44.86096635235906
 40
47.81275789367625
 40
47.81275789367625
 40
52.19702991756181
 40
52.19702991756181
 40
56.83033949892553
 40
56.83033949892553
 40
57.9415916182257
 40
57.9415916182257
 40
57.9415916182257
 40
57.9415916182257
 10
-430.749989309212
 20
-44.70072125231818
 30
-0.0000000000000041
 10
-430.7770235035928
 20
-44.67671996243025
 30
-0.0000000000000041
 10
-430.8058330809974
 20
-44.65017656624495
 30
-0.0000000000000041
 10
-431.0151254691212
 20
-44.44913941842297
 30
-0.0000000000000041
 10
-431.2441894001671
 20
-44.18864851059558
 30
-0.0000000000000041
 10
-431.7956368493212
 20
-43.39289393886009
 30
-0.0000000000000042
 10
-432.1186522773201
 20
-42.82584557796845
 30
-0.0000000000000042
 10
-432.8856539038282
 20
-41.11886539118144
 30
-0.0000000000000042
 10
-433.3011430767733
 20
-39.85834734070868
 30
-0.0000000000000042
 10
-433.9439205684355
 20
-36.94368466075325
 30
-0.0000000000000043
 10
-434.1563784327677
 20
-35.29268788659957
 30
-0.0000000000000043
 10
-434.2417148993802
 20
-33.18211779510181
 30
-0.0000000000000043
 10
-434.2499193684496
 20
-32.77206698509817
 30
-0.0000000000000043
 10
-434.2498513798608
 20
-32.36174641750031
 30
-0.0000000000000043
  0
ARC
  5
174
330
1F
100
AcDbEntity
  8
PV-D5
100
AcDbCircle
 10
-374.000000014
 20
53.9382536134835
 30
-0.0000000000000006
 40
2.0
100
AcDbArc
 50
90.0
 51
180.0000000000012
  0
ARC
  5
175
330
1F
100
AcDbEntity
  8
PV-D5
100
AcDbCircle
 10
-374.000000014
 20
-12.06174638651651
 30
-0.0000000000000006
 40
2.0
100
AcDbArc
 50
179.9999999999979
 51
270.0
  0
LINE
  5
176
330
1F
100
AcDbEntity
  8
PV-D5
100
AcDbLine
 10
-389.0000000140002
 20
37.43825361348349
 30
-0.0000000000000015
 11
-437.500000014
 21
37.43825361348349
 31
-0.0000000000000045
210
0.0
220
1.0
230
0.0
  0
LINE
  5
177
330
1F
100
AcDbEntity
  8
PV-D5
100
AcDbLine
 10
-437.500000014
 20
4.438253613483488
 30
-0.0000000000000045
 11
-389.0000000140002
 21
4.438253613483488
 31
-0.0000000000000015
210
0.0
220
1.0
230
0.0
  0
ARC
  5
179
330
1F
100
AcDbEntity
  8
PV-D5
100
AcDbCircle
 10
-163.0
 20
20.97559923302851
 30
0.0
 40
35.0
100
AcDbArc
 50
28.12706821860486
 51
180.0
  0
ARC
  5
17A
330
1F
100
AcDbEntity
  8
PV-D5
100
AcDbCircle
 10
-163.0
 20
20.97559923302851
 30
0.0
 40
35.0
100
AcDbArc
 50
179.9999999999991
 51
331.8729317813945
  0
ARC
  5
17B
330
1F
100
AcDbEntity
  8
PV-D5
100
AcDbCircle
 10
-163.0
 20
20.97559923302851
 30
0.0
 40
16.8
100
AcDbArc
 50
79.15593743630381
 51
180.0000000000002
  0
ARC
  5
17C
330
1F
100
AcDbEntity
  8
PV-D5
100
AcDbCircle
 10
-163.0
 20
20.97559923302851
 30
0.0
 40
16.8
100
AcDbArc
 50
179.9999999999989
 51
280.8440625636962
  0
ARC
  5
17D
330
1F
100
AcDbEntity
  8
PV-D5
100
AcDbCircle
 10
-163.0
 20
20.97559923302851
 30
0.0
 40
16.5
100
AcDbArc
 50
90.0
 51
270.0
  0
ARC
  5
17E
330
1F
100
AcDbEntity
  8
PV-D5
100
AcDbCircle
 10
162.9999999999999
 20
20.97559923302849
 30
0.0
 40
16.5
100
AcDbArc
 50
270.0
 51
90.0
  0
ARC
  5
17F
330
1F
100
AcDbEntity
  8
PV-D5
100
AcDbCircle
 10
162.9999999999999
 20
20.97559923302849
 30
0.0
 40
35.0
100
AcDbArc
 50
208.1270682186043
 51
151.8729317813951
  0
ARC
  5
180
330
1F
100
AcDbEntity
  8
PV-D5
100
AcDbCircle
 10
162.9999999999999
 20
20.97559923302849
 30
0.0
 40
16.8
100
AcDbArc
 50
259.1559374363021
 51
100.8440625636962
  0
LINE
  5
181
330
1F
100
AcDbEntity
  8
PV-D5
100
AcDbLine
 10
-59.0
 20
36.97559923302849
 30
0.0000000000000203
 11
-59.0
 21
4.975599233028487
 31
0.0000000000000203
210
0.0
220
1.0
230
0.0
  0
LINE
  5
182
330
1F
100
AcDbEntity
  8
PV-D5
100
AcDbLine
 10
-91.0
 20
36.97559923302849
 30
0.0000000000000164
 11
-59.0
 21
36.97559923302849
 31
0.0000000000000203
210
0.0
220
1.0
230
0.0
  0
LINE
  5
183
330
1F
100
AcDbEntity
  8
PV-D5
100
AcDbLine
 10
-91.0
 20
4.975599233028487
 30
0.0000000000000164
 11
-91.0
 21
36.97559923302849
 31
0.0000000000000164
210
0.0
220
1.0
230
0.0
  0
LINE
  5
184
330
1F
100
AcDbEntity
  8
PV-D5
100
AcDbLine
 10
-59.0
 20
4.975599233028487
 30
0.0000000000000203
 11
-91.0
 21
4.975599233028487
 31
0.0000000000000164
210
0.0
220
1.0
230
0.0
  0
LINE
  5
185
330
1F
100
AcDbEntity
  8
PV-D5
100
AcDbLine
 10
-93.50000000000006
 20
-1.52440076697151
 30
0.0000000000000161
 11
-56.5
 21
-1.52440076697151
 31
0.0000000000000206
210
0.0
220
1.0
230
0.0
  0
ARC
  5
186
330
1F
100
AcDbEntity
  8
PV-D5
100
AcDbCircle
 10
-56.5
 20
2.475599233028489
 30
0.0000000000000206
 40
4.0
100
AcDbArc
 50
270.0
 51
0.0
  0
ARC
  5
187
330
1F
100
AcDbEntity
  8
PV-D5
100
AcDbCircle
 10
-93.50000000000006
 20
2.475599233028489
 30
0.0000000000000161
 40
4.0
100
AcDbArc
 50
179.9999999999987
 51
270.0
  0
LINE
  5
188
330
1F
100
AcDbEntity
  8
PV-D5
100
AcDbLine
 10
-52.5
 20
2.475599233028489
 30
0.0000000000000211
 11
-52.5
 21
39.47559923302849
 31
0.0000000000000211
210
0.0
220
1.0
230
0.0
  0
LINE
  5
189
330
1F
100
AcDbEntity
  8
PV-D5
100
AcDbLine
 10
-97.5
 20
39.47559923302849
 30
0.0000000000000156
 11
-97.5
 21
2.475599233028489
 31
0.0000000000000156
210
0.0
220
1.0
230
0.0
  0
ARC
  5
18A
330
1F
100
AcDbEntity
  8
PV-D5
100
AcDbCircle
 10
-56.5
 20
39.47559923302849
 30
0.0000000000000206
 40
4.0
100
AcDbArc
 50
0.0
 51
90.0
  0
ARC
  5
18B
330
1F
100
AcDbEntity
  8
PV-D5
100
AcDbCircle
 10
-93.50000000000006
 20
39.47559923302849
 30
0.0000000000000161
 40
4.0
100
AcDbArc
 50
90.0
 51
180.0000000000004
  0
LINE
  5
18C
330
1F
100
AcDbEntity
  8
PV-D5
100
AcDbLine
 10
-56.5
 20
43.47559923302847
 30
0.0000000000000206
 11
-93.50000000000006
 21
43.47559923302847
 31
0.0000000000000161
210
0.0
220
1.0
230
0.0
  0
LINE
  5
18D
330
1F
100
AcDbEntity
  8
PV-D5
100
AcDbLine
 10
-69.80384757729344
 20
-32.3244007669715
 30
0.000000000000019
 11
-80.19615242270669
 21
-32.3244007669715
 31
0.0000000000000177
210
0.0
220
1.0
230
0.0
  0
LINE
  5
18E
330
1F
100
AcDbEntity
  8
PV-D5
100
AcDbLine
 10
-80.19615242270669
 20
-32.3244007669715
 30
0.0000000000000177
 11
-81.0
 21
-32.3244007669715
 31
0.0000000000000176
210
0.0
220
1.0
230
0.0
  0
LINE
  5
18F
330
1F
100
AcDbEntity
  8
PV-D5
100
AcDbLine
 10
-69.0
 20
-32.3244007669715
 30
0.0000000000000191
 11
-69.80384757729344
 21
-32.3244007669715
 31
0.000000000000019
210
0.0
220
1.0
230
0.0
  0
SPLINE
  5
190
330
1F
100
AcDbEntity
  8
PV-D5
100
AcDbSpline
210
0.0
220
0.0
230
1.0
 70
    24
 71
     3
 72
    34
 73
    30
 74
     0
 42
0.0000000001
 43
0.0000000001
 40
-16.31121804155131
 40
-16.31121804155131
 40
-16.31121804155131
 40
-16.31121804155131
 40
-16.08486508158053
 40
-16.08486508158053
 40
-15.36083904989266
 40
-15.36083904989266
 40
-14.64998416681019
 40
-14.64998416681019
 40
-13.93912928372772
 40
-13.93912928372772
 40
-13.15451311658325
 40
-13.15451311658325
 40
-12.36989694943881
 40
-12.36989694943881
 40
-11.78572653947388
 40
-11.78572653947388
 40
-11.20155612950896
 40
-11.20155612950896
 40
-8.070733489770432
 40
-8.070733489770432
 40
-6.505322169901162
 40
-6.505322169901162
 40
-4.939910850031894
 40
-4.939910850031894
 40
-2.469955425015939
 40
-2.469955425015939
 40
-1.234977712507969
 40
-1.234977712507969
 40
0.0
 40
0.0
 40
0.0
 40
0.0
 10
-75.0
 20
-47.62174181344792
 30
0.0000000000000184
 10
-75.0
 20
-47.62181643279308
 30
0.0000000000000184
 10
-75.0
 20
-47.61921537245743
 30
0.0000000000000184
 10
-75.0
 20
-47.59564974467585
 30
0.0000000000000184
 10
-75.0
 20
-47.54653026357203
 30
0.0000000000000184
 10
-75.0
 20
-47.40677529518594
 30
0.0000000000000184
 10
-75.0
 20
-47.3047390509043
 30
0.0000000000000184
 10
-75.0
 20
-47.04401772255808
 30
0.0000000000000184
 10
-75.00000000000007
 20
-46.88543518477195
 30
0.0000000000000184
 10
-75.00000000000007
 20
-46.54344931900761
 30
0.0000000000000184
 10
-75.0
 20
-46.32545791862847
 30
0.0000000000000184
 10
-75.0
 20
-45.85362023721682
 30
0.0000000000000184
 10
-75.0
 20
-45.600120454853
 30
0.0000000000000184
 10
-75.0
 20
-45.18296792915453
 30
0.0000000000000184
 10
-75.0
 20
-44.98295695767089
 30
0.0000000000000184
 10
-75.0
 20
-44.57573055824463
 30
0.0000000000000184
 10
-75.0
 20
-44.36858449092656
 30
0.0000000000000184
 10
-75.0
 20
-43.15981640253115
 30
0.0000000000000184
 10
-75.0
 20
-42.0293355116085
 30
0.0000000000000184
 10
-75.0
 20
-40.32606617803682
 30
0.0000000000000184
 10
-75.00000000000007
 20
-39.75707812686673
 30
0.0000000000000184
 10
-75.00000000000007
 20
-38.64321758804912
 30
0.0000000000000184
 10
-75.00000000000007
 20
-38.09833113232244
 30
0.0000000000000184
 10
-75.00000000000007
 20
-36.759908610186
 30
0.0000000000000184
 10
-75.00000000000007
 20
-35.85836430793825
 30
0.0000000000000184
 10
-75.00000000000007
 20
-34.50384171580982
 30
0.0000000000000184
 10
-75.0
 20
-34.05195624810729
 30
0.0000000000000184
 10
-75.0
 20
-33.16806523326929
 30
0.0000000000000184
 10
-75.00000000000007
 20
-32.73606000447416
 30
0.0000000000000184
 10
-75.00000000000007
 20
-32.3244007669715
 30
0.0000000000000184
  0
LINE
  5
191
330
1F
100
AcDbEntity
  8
PV-D5
100
AcDbLine
 10
91.0
 20
36.97559923302849
 30
0.0000000000000387
 11
91.0
 21
4.975599233028487
 31
0.0000000000000387
210
0.0
220
1.0
230
0.0
  0
LINE
  5
192
330
1F
100
AcDbEntity
  8
PV-D5
100
AcDbLine
 10
59.0
 20
36.97559923302849
 30
0.0000000000000348
 11
91.0
 21
36.97559923302849
 31
0.0000000000000387
210
0.0
220
1.0
230
0.0
  0
LINE
  5
193
330
1F
100
AcDbEntity
  8
PV-D5
100
AcDbLine
 10
59.0
 20
4.975599233028487
 30
0.0000000000000348
 11
59.0
 21
36.97559923302849
 31
0.0000000000000348
210
0.0
220
1.0
230
0.0
  0
LINE
  5
194
330
1F
100
AcDbEntity
  8
PV-D5
100
AcDbLine
 10
91.0
 20
4.975599233028487
 30
0.0000000000000387
 11
59.0
 21
4.975599233028487
 31
0.0000000000000348
210
0.0
220
1.0
230
0.0
  0
LINE
  5
195
330
1F
100
AcDbEntity
  8
PV-D5
100
AcDbLine
 10
56.49999999999988
 20
-1.52440076697151
 30
0.0000000000000345
 11
93.49999999999999
 21
-1.52440076697151
 31
0.000000000000039
210
0.0
220
1.0
230
0.0
  0
ARC
  5
196
330
1F
100
AcDbEntity
  8
PV-D5
100
AcDbCircle
 10
93.49999999999999
 20
2.475599233028489
 30
0.000000000000039
 40
4.0
100
AcDbArc
 50
270.0
 51
0.0
  0
ARC
  5
197
330
1F
100
AcDbEntity
  8
PV-D5
100
AcDbCircle
 10
56.49999999999988
 20
2.475599233028489
 30
0.0000000000000345
 40
4.0
100
AcDbArc
 50
179.9999999999987
 51
270.0
  0
LINE
  5
198
330
1F
100
AcDbEntity
  8
PV-D5
100
AcDbLine
 10
97.5
 20
2.475599233028489
 30
0.0000000000000395
 11
97.5
 21
39.47559923302849
 31
0.0000000000000395
210
0.0
220
1.0
230
0.0
  0
LINE
  5
199
330
1F
100
AcDbEntity
  8
PV-D5
100
AcDbLine
 10
52.49999999999993
 20
39.47559923302849
 30
0.000000000000034
 11
52.49999999999993
 21
2.475599233028489
 31
0.000000000000034
210
0.0
220
1.0
230
0.0
  0
ARC
  5
19A
330
1F
100
AcDbEntity
  8
PV-D5
100
AcDbCircle
 10
93.49999999999999
 20
39.47559923302849
 30
0.000000000000039
 40
4.0
100
AcDbArc
 50
0.0
 51
90.0
  0
ARC
  5
19B
330
1F
100
AcDbEntity
  8
PV-D5
100
AcDbCircle
 10
56.49999999999988
 20
39.47559923302849
 30
0.0000000000000345
 40
4.0
100
AcDbArc
 50
90.0
 51
180.0000000000004
  0
LINE
  5
19C
330
1F
100
AcDbEntity
  8
PV-D5
100
AcDbLine
 10
93.49999999999999
 20
43.47559923302847
 30
0.000000000000039
 11
56.49999999999988
 21
43.47559923302847
 31
0.0000000000000345
210
0.0
220
1.0
230
0.0
  0
LINE
  5
19D
330
1F
100
AcDbEntity
  8
PV-D5
100
AcDbLine
 10
80.19615242270662
 20
-32.3244007669715
 30
0.0000000000000374
 11
69.80384757729331
 21
-32.3244007669715
 31
0.0000000000000361
210
0.0
220
1.0
230
0.0
  0
LINE
  5
19E
330
1F
100
AcDbEntity
  8
PV-D5
100
AcDbLine
 10
69.80384757729331
 20
-32.3244007669715
 30
0.0000000000000361
 11
69.0
 21
-32.3244007669715
 31
0.000000000000036
210
0.0
220
1.0
230
0.0
  0
LINE
  5
19F
330
1F
100
AcDbEntity
  8
PV-D5
100
AcDbLine
 10
81.0
 20
-32.3244007669715
 30
0.0000000000000375
 11
80.19615242270662
 21
-32.3244007669715
 31
0.0000000000000374
210
0.0
220
1.0
230
0.0
  0
SPLINE
  5
1A0
330
1F
100
AcDbEntity
  8
PV-D5
100
AcDbSpline
210
0.0
220
0.0
230
1.0
 70
    24
 71
     3
 72
    34
 73
    30
 74
     0
 42
0.0000000001
 43
0.0000000001
 40
-16.31121804155132
 40
-16.31121804155132
 40
-16.31121804155132
 40
-16.31121804155132
 40
-16.08486508158053
 40
-16.08486508158053
 40
-15.36083904989266
 40
-15.36083904989266
 40
-14.64998416681019
 40
-14.64998416681019
 40
-13.93912928372772
 40
-13.93912928372772
 40
-13.15451311658325
 40
-13.15451311658325
 40
-12.36989694943881
 40
-12.36989694943881
 40
-11.78572653947388
 40
-11.78572653947388
 40
-11.20155612950896
 40
-11.20155612950896
 40
-8.070733489770432
 40
-8.070733489770432
 40
-6.505322169901162
 40
-6.505322169901162
 40
-4.939910850031894
 40
-4.939910850031894
 40
-2.469955425015939
 40
-2.469955425015939
 40
-1.234977712507969
 40
-1.234977712507969
 40
0.0
 40
0.0
 40
0.0
 40
0.0
 10
75.0
 20
-47.62174181344792
 30
0.0000000000000367
 10
75.0
 20
-47.62181643279308
 30
0.0000000000000367
 10
75.0
 20
-47.61921537245743
 30
0.0000000000000367
 10
75.0
 20
-47.59564974467585
 30
0.0000000000000367
 10
75.0
 20
-47.54653026357203
 30
0.0000000000000367
 10
75.0
 20
-47.40677529518594
 30
0.0000000000000367
 10
75.0
 20
-47.3047390509043
 30
0.0000000000000367
 10
75.0
 20
-47.04401772255808
 30
0.0000000000000367
 10
75.0
 20
-46.88543518477195
 30
0.0000000000000367
 10
75.0
 20
-46.54344931900761
 30
0.0000000000000367
 10
75.0
 20
-46.32545791862847
 30
0.0000000000000367
 10
75.0
 20
-45.85362023721682
 30
0.0000000000000367
 10
75.0
 20
-45.600120454853
 30
0.0000000000000367
 10
75.0
 20
-45.18296792915453
 30
0.0000000000000367
 10
75.0
 20
-44.98295695767089
 30
0.0000000000000367
 10
75.0
 20
-44.57573055824463
 30
0.0000000000000367
 10
75.0
 20
-44.36858449092656
 30
0.0000000000000367
 10
75.0
 20
-43.15981640253115
 30
0.0000000000000367
 10
75.0
 20
-42.0293355116085
 30
0.0000000000000367
 10
75.0
 20
-40.32606617803682
 30
0.0000000000000367
 10
75.0
 20
-39.75707812686673
 30
0.0000000000000367
 10
75.0
 20
-38.64321758804912
 30
0.0000000000000367
 10
75.0
 20
-38.09833113232244
 30
0.0000000000000367
 10
75.0
 20
-36.759908610186
 30
0.0000000000000367
 10
75.0
 20
-35.85836430793825
 30
0.0000000000000367
 10
75.0
 20
-34.50384171580982
 30
0.0000000000000367
 10
75.0
 20
-34.05195624810729
 30
0.0000000000000367
 10
75.0
 20
-33.16806523326929
 30
0.0000000000000367
 10
75.0
 20
-32.73606000447416
 30
0.0000000000000367
 10
75.0
 20
-32.3244007669715
 30
0.0000000000000367
  0
ARC
  5
1A1
330
1F
100
AcDbEntity
  8
PV-D5
100
AcDbCircle
 10
106.6099272381318
 20
-40.3244007669715
 30
0.0000000000000406
 40
12.5
100
AcDbArc
 50
68.67631373650152
 51
111.3236862634984
  0
LINE
  5
1A2
330
1F
100
AcDbEntity
  8
PV-D5
100
AcDbLine
 10
112.1099272381318
 20
-32.3244007669715
 30
0.0000000000000413
 11
112.1099272381318
 21
-30.0774500010119
 31
0.0000000000000413
210
0.0
220
1.0
230
0.0
  0
LINE
  5
1A3
330
1F
100
AcDbEntity
  8
PV-D5
100
AcDbLine
 10
101.1099272381318
 20
-32.3244007669715
 30
0.0000000000000399
 11
101.1099272381318
 21
-30.0774500010119
 31
0.0000000000000399
210
0.0
220
1.0
230
0.0
  0
ARC
  5
1A4
330
1F
100
AcDbEntity
  8
PV-D5
100
AcDbCircle
 10
43.39007276186788
 20
-40.3244007669715
 30
0.0000000000000329
 40
12.5
100
AcDbArc
 50
68.67631373650152
 51
111.3236862634984
  0
LINE
  5
1A5
330
1F
100
AcDbEntity
  8
PV-D5
100
AcDbLine
 10
48.89007276186788
 20
-32.3244007669715
 30
0.0000000000000335
 11
48.89007276186788
 21
-30.0774500010119
 31
0.0000000000000335
210
0.0
220
1.0
230
0.0
  0
LINE
  5
1A6
330
1F
100
AcDbEntity
  8
PV-D5
100
AcDbLine
 10
37.89007276186789
 20
-32.3244007669715
 30
0.0000000000000322
 11
37.89007276186789
 21
-30.0774500010119
 31
0.0000000000000322
210
0.0
220
1.0
230
0.0
  0
LINE
  5
1A7
330
1F
100
AcDbEntity
  8
PV-D5
100
AcDbLine
 10
81.0
 20
-32.3244007669715
 30
0.0000000000000375
 11
81.0
 21
-1.52440076697151
 31
0.0000000000000375
210
0.0
220
1.0
230
0.0
  0
LINE
  5
1A8
330
1F
100
AcDbEntity
  8
PV-D5
100
AcDbLine
 10
69.0
 20
-32.3244007669715
 30
0.000000000000036
 11
69.0
 21
-1.52440076697151
 31
0.000000000000036
210
0.0
220
1.0
230
0.0
  0
ARC
  5
1A9
330
1F
100
AcDbEntity
  8
PV-D5
100
AcDbCircle
 10
-43.39007276186808
 20
-40.3244007669715
 30
0.0000000000000222
 40
12.5
100
AcDbArc
 50
68.67631373650152
 51
111.3236862634984
  0
LINE
  5
1AA
330
1F
100
AcDbEntity
  8
PV-D5
100
AcDbLine
 10
-37.89007276186808
 20
-32.3244007669715
 30
0.0000000000000229
 11
-37.89007276186808
 21
-30.0774500010119
 31
0.0000000000000229
210
0.0
220
1.0
230
0.0
  0
LINE
  5
1AB
330
1F
100
AcDbEntity
  8
PV-D5
100
AcDbLine
 10
-48.89007276186807
 20
-32.3244007669715
 30
0.0000000000000216
 11
-48.89007276186807
 21
-30.0774500010119
 31
0.0000000000000216
210
0.0
220
1.0
230
0.0
  0
ARC
  5
1AC
330
1F
100
AcDbEntity
  8
PV-D5
100
AcDbCircle
 10
-106.609927238132
 20
-40.3244007669715
 30
0.0000000000000145
 40
12.5
100
AcDbArc
 50
68.67631373650152
 51
111.3236862634984
  0
LINE
  5
1AD
330
1F
100
AcDbEntity
  8
PV-D5
100
AcDbLine
 10
-101.1099272381321
 20
-32.3244007669715
 30
0.0000000000000152
 11
-101.1099272381321
 21
-30.0774500010119
 31
0.0000000000000152
210
0.0
220
1.0
230
0.0
  0
LINE
  5
1AE
330
1F
100
AcDbEntity
  8
PV-D5
100
AcDbLine
 10
-112.1099272381321
 20
-32.3244007669715
 30
0.0000000000000138
 11
-112.1099272381321
 21
-30.0774500010119
 31
0.0000000000000138
210
0.0
220
1.0
230
0.0
  0
LINE
  5
1AF
330
1F
100
AcDbEntity
  8
PV-D5
100
AcDbLine
 10
-69.0
 20
-32.3244007669715
 30
0.0000000000000191
 11
-69.0
 21
-1.52440076697151
 31
0.0000000000000191
210
0.0
220
1.0
230
0.0
  0
LINE
  5
1B0
330
1F
100
AcDbEntity
  8
PV-D5
100
AcDbLine
 10
-81.0
 20
-32.3244007669715
 30
0.0000000000000176
 11
-81.0
 21
-1.52440076697151
 31
0.0000000000000176
210
0.0
220
1.0
230
0.0
  0
LINE
  5
1B1
330
1F
100
AcDbEntity
  8
PV-D5
100
AcDbLine
 10
-163.0
 20
4.475599233028487
 30
0.0000000000000076
 11
-97.5
 21
4.475599233028487
 31
0.0000000000000156
210
0.0
220
1.0
230
0.0
  0
LINE
  5
1B2
330
1F
100
AcDbEntity
  8
PV-D5
100
AcDbLine
 10
-52.5
 20
4.475599233028487
 30
0.0000000000000211
 11
52.49999999999993
 21
4.475599233028487
 31
0.000000000000034
210
0.0
220
1.0
230
0.0
  0
LINE
  5
1B3
330
1F
100
AcDbEntity
  8
PV-D5
100
AcDbLine
 10
97.5
 20
4.475599233028487
 30
0.0000000000000395
 11
162.9999999999999
 21
4.475599233028487
 31
0.0000000000000475
210
0.0
220
1.0
230
0.0
  0
LINE
  5
1B4
330
1F
100
AcDbEntity
  8
PV-D5
100
AcDbLine
 10
-163.0
 20
37.47559923302849
 30
0.0000000000000076
 11
-97.5
 21
37.47559923302849
 31
0.0000000000000156
210
0.0
220
1.0
230
0.0
  0
LINE
  5
1B5
330
1F
100
AcDbEntity
  8
PV-D5
100
AcDbLine
 10
-52.5
 20
37.47559923302849
 30
0.0000000000000211
 11
52.49999999999993
 21
37.47559923302849
 31
0.000000000000034
210
0.0
220
1.0
230
0.0
  0
LINE
  5
1B6
330
1F
100
AcDbEntity
  8
PV-D5
100
AcDbLine
 10
97.5
 20
37.47559923302849
 30
0.0000000000000395
 11
162.9999999999999
 21
37.47559923302849
 31
0.0000000000000475
210
0.0
220
1.0
230
0.0
  0
SPLINE
  5
1B7
330
1F
100
AcDbEntity
  8
PV-D5
100
AcDbSpline
210
0.0
220
0.0
230
1.0
 70
     8
 71
     3
 72
    26
 73
    22
 74
     0
 42
0.0000000001
 43
0.0000000001
 40
14.65637604513964
 40
14.65637604513964
 40
14.65637604513964
 40
14.65637604513964
 40
14.79952634070098
 40
14.79952634070098
 40
19.49146075960723
 40
19.49146075960723
 40
24.13942711669054
 40
24.13942711669054
 40
28.86914814270353
 40
28.86914814270353
 40
34.03386327356739
 40
34.03386327356739
 40
39.72257848106822
 40
39.72257848106822
 40
45.00539958295299
 40
45.00539958295299
 40
49.91614049975144
 40
49.91614049975144
 40
54.74320172828242
 40
54.74320172828242
 40
55.86890235669898
 40
55.86890235669898
 40
55.86890235669898
 40
55.86890235669898
 10
101.1099253963133
 20
-32.32440076704447
 30
0.0000000000000399
 10
101.1099265900996
 20
-32.3719218429679
 30
0.0000000000000399
 10
101.1097056175721
 20
-32.41945708660873
 30
0.0000000000000399
 10
101.0947212542959
 20
-34.02541956486619
 30
0.0000000000000399
 10
100.8413165156271
 20
-35.56423452609339
 30
0.0000000000000399
 10
99.89982189083249
 20
-38.42389297503808
 30
0.0000000000000398
 10
99.22687263304579
 20
-39.71495775397729
 30
0.0000000000000397
 10
97.55446442103815
 20
-41.94016153785253
 30
0.0000000000000395
 10
96.57339045099753
 20
-42.83833259731122
 30
0.0000000000000394
 10
94.35876355352013
 20
-44.21792352039857
 30
0.0000000000000391
 10
93.13429522043822
 20
-44.63906125681972
 30
0.000000000000039
 10
90.55392619410083
 20
-44.92550825177375
 30
0.0000000000000386
 10
89.17494304246464
 20
-44.73164628875328
 30
0.0000000000000385
 10
86.6221325235959
 20
-43.67001757508972
 30
0.0000000000000382
 10
85.45157729700861
 20
-42.85702606817213
 30
0.000000000000038
 10
83.45806443304002
 20
-40.70942645046579
 30
0.0000000000000378
 10
82.64691194510652
 20
-39.44516569670604
 30
0.0000000000000377
 10
81.4591969246492
 20
-36.58972078485728
 30
0.0000000000000375
 10
81.09136188476282
 20
-35.04019965202088
 30
0.0000000000000375
 10
80.94665154556281
 20
-33.07039298429412
 30
0.0000000000000375
 10
80.93305254462718
 20
-32.69716875516005
 30
0.0000000000000375
 10
80.93308720301582
 20
-32.32440078548197
 30
0.0000000000000375
  0
SPLINE
  5
1B8
330
1F
100
AcDbEntity
  8
PV-D5
100
AcDbSpline
210
-0.0000000000000001
220
0.0000000000000002
230
-1.0
 70
     8
 71
     3
 72
    22
 73
    18
 74
     0
 42
0.0000000001
 43
0.0000000001
 40
26.02964492278264
 40
26.02964492278264
 40
26.02964492278264
 40
26.02964492278264
 40
27.87314494363783
 40
27.87314494363783
 40
36.82892472546132
 40
36.82892472546132
 40
45.56324289243317
 40
45.56324289243317
 40
54.2920955383461
 40
54.2920955383461
 40
63.27954199116671
 40
63.27954199116671
 40
72.55599765330308
 40
72.55599765330308
 40
81.92997645402828
 40
81.92997645402828
 40
82.52116564710426
 40
82.52116564710426
 40
82.52116564710426
 40
82.52116564710426
 10
74.99998669161437
 20
-47.6219644386739
 30
0.0000000000000367
 10
75.3605819756035
 20
-48.091231355511
 30
0.0000000000000368
 10
75.7385613579837
 20
-48.54554426526687
 30
0.0000000000000368
 10
78.05106436341231
 20
-51.11201924922108
 30
0.0000000000000371
 10
80.33248036013668
 20
-52.82109811738762
 30
0.0000000000000374
 10
85.32653740002615
 20
-55.14957837033691
 30
0.000000000000038
 10
87.97618924508759
 20
-55.770947533649
 30
0.0000000000000383
 10
93.35699268046836
 20
-55.8712251879522
 30
0.000000000000039
 10
96.02370213015149
 20
-55.34964918735528
 30
0.0000000000000393
 10
101.097984468027
 20
-53.20401076759596
 30
0.0000000000000399
 10
103.4394690164776
 20
-51.57160211929938
 30
0.0000000000000402
 10
107.4769649776213
 20
-47.36831457033484
 30
0.0000000000000407
 10
109.1132241930384
 20
-44.80813566802877
 30
0.0000000000000409
 10
111.4064287698151
 20
-39.12153045378325
 30
0.0000000000000412
 10
112.0329893884656
 20
-36.04041932636619
 30
0.0000000000000413
 10
112.1077140652428
 20
-32.71836155324529
 30
0.0000000000000413
 10
112.1099295680273
 20
-32.52133190434759
 30
0.0000000000000413
 10
112.1099333250438
 20
-32.3244007673227
 30
0.0000000000000413
  0
ARC
  5
1B9
330
1F
100
AcDbEntity
  8
PV-D5
100
AcDbCircle
 10
110.6099272381318
 20
-30.0774500010119
 30
0.0000000000000411
 40
1.5
100
AcDbArc
 50
0.0000000000002036
 51
68.67631373650144
  0
ARC
  5
1BA
330
1F
100
AcDbEntity
  8
PV-D5
100
AcDbCircle
 10
102.6099272381318
 20
-30.0774500010119
 30
0.0000000000000401
 40
1.5
100
AcDbArc
 50
111.3236862634985
 51
179.9999999999996
  0
ARC
  5
1BB
330
1F
100
AcDbEntity
  8
PV-D5
100
AcDbCircle
 10
75.0
 20
-50.32440076697149
 30
0.0000000000000367
 40
5.5
100
AcDbArc
 50
202.4667445749797
 51
337.5332554250197
  0
SPLINE
  5
1BC
330
1F
100
AcDbEntity
  8
PV-D5
100
AcDbSpline
210
0.0000000000000001
220
0.0000000000000002
230
1.0
 70
     8
 71
     3
 72
    22
 73
    18
 74
     0
 42
0.0000000001
 43
0.0000000001
 40
25.61804833952723
 40
25.61804833952723
 40
25.61804833952723
 40
25.61804833952723
 40
27.76403548566857
 40
27.76403548566857
 40
37.05028289234322
 40
37.05028289234322
 40
46.18071570400688
 40
46.18071570400688
 40
55.07223787255082
 40
55.07223787255082
 40
63.77401221336835
 40
63.77401221336835
 40
72.53815829578321
 40
72.53815829578321
 40
81.59527452491682
 40
81.59527452491682
 40
82.07404050431595
 40
82.07404050431595
 40
82.07404050431595
 40
82.07404050431595
 10
37.89001787478457
 20
-32.32440077961432
 30
0.0000000000000322
 10
37.89004304774801
 20
-33.03809106883724
 30
0.0000000000000322
 10
37.91913804509732
 20
-33.75258279993473
 30
0.0000000000000322
 10
38.22992796860791
 20
-37.55152905641562
 30
0.0000000000000322
 10
39.02552110599272
 20
-40.55575115366585
 30
0.0000000000000323
 10
41.60556040976309
 20
-46.00943782692374
 30
0.0000000000000326
 10
43.351987263552
 20
-48.42103207273112
 30
0.0000000000000329
 10
47.55329094661282
 20
-52.3157162335271
 30
0.0000000000000334
 10
49.95234294728732
 20
-53.78713077234909
 30
0.0000000000000337
 10
55.09828069277529
 20
-55.6153748820481
 30
0.0000000000000343
 10
57.78136608535483
 20
-55.97559924302847
 30
0.0000000000000346
 10
63.15281119432977
 20
-55.55643822952393
 30
0.0000000000000353
 10
65.77654483787859
 20
-54.77389688621187
 30
0.0000000000000356
 10
70.68004899665884
 20
-52.12864844255022
 30
0.0000000000000362
 10
72.89364819788118
 20
-50.25892356253645
 30
0.0000000000000365
 10
74.81102901108982
 20
-47.86533155516674
 30
0.0000000000000367
 10
74.90611180179882
 20
-47.74413992140059
 30
0.0000000000000367
 10
75.00000233635148
 20
-47.62195354595364
 30
0.0000000000000367
  0
SPLINE
  5
1BD
330
1F
100
AcDbEntity
  8
PV-D5
100
AcDbSpline
210
0.0
220
0.0
230
1.0
 70
     8
 71
     3
 72
    24
 73
    20
 74
     0
 42
0.0000000001
 43
0.0000000001
 40
5.434945478253898
 40
5.434945478253898
 40
5.434945478253898
 40
5.434945478253898
 40
9.487097647791692
 40
9.487097647791692
 40
14.12339065628227
 40
14.12339065628227
 40
18.80913130861983
 40
18.80913130861983
 40
23.8497497232321
 40
23.8497497232321
 40
29.73883063484088
 40
29.73883063484088
 40
35.08276672747546
 40
35.08276672747546
 40
40.005698242164
 40
40.005698242164
 40
44.84161421266832
 40
44.84161421266832
 40
46.5278977326974
 40
46.5278977326974
 40
46.5278977326974
 40
46.5278977326974
 10
69.06695756792068
 20
-32.3244007601832
 30
0.000000000000036
 10
69.06685015141532
 20
-33.67140281373267
 30
0.000000000000036
 10
68.88850863732898
 20
-35.0099305118995
 30
0.000000000000036
 10
68.14261369908638
 20
-37.74406128391375
 30
0.0000000000000359
 10
67.53179408874621
 20
-39.08838451776961
 30
0.0000000000000358
 10
65.96549697556914
 20
-41.43647644374211
 30
0.0000000000000356
 10
65.028220882279
 20
-42.40622932543393
 30
0.0000000000000355
 10
62.8949359233618
 20
-43.93725168103761
 30
0.0000000000000353
 10
61.71154673356847
 20
-44.44407837308307
 30
0.0000000000000351
 10
59.11246052579798
 20
-44.94797401562173
 30
0.0000000000000348
 10
57.6751935236387
 20
-44.84668898404502
 30
0.0000000000000346
 10
55.03244861082618
 20
-43.92761963747927
 30
0.0000000000000343
 10
53.82218498528358
 20
-43.17986139237588
 30
0.0000000000000341
 10
51.74101773831131
 20
-41.1391113822875
 30
0.0000000000000339
 10
50.88205268457284
 20
-39.92121249403458
 30
0.0000000000000338
 10
49.58557689169015
 20
-37.12828999515294
 30
0.0000000000000336
 10
49.15885075079
 20
-35.59598056927383
 30
0.0000000000000336
 10
48.92079166458593
 20
-33.44370346717358
 30
0.0000000000000335
 10
48.89015921968206
 20
-32.88377436861091
 30
0.0000000000000335
 10
48.89019643023561
 20
-32.32440078778
 30
0.0000000000000335
  0
ARC
  5
1BE
330
1F
100
AcDbEntity
  8
PV-D5
100
AcDbCircle
 10
47.39007276186788
 20
-30.0774500010119
 30
0.0000000000000334
 40
1.5
100
AcDbArc
 50
0.0000000000002036
 51
68.67631373650144
  0
ARC
  5
1BF
330
1F
100
AcDbEntity
  8
PV-D5
100
AcDbCircle
 10
39.39007276186789
 20
-30.0774500010119
 30
0.0000000000000324
 40
1.5
100
AcDbArc
 50
111.3236862634985
 51
179.9999999999996
  0
SPLINE
  5
1C0
330
1F
100
AcDbEntity
  8
PV-D5
100
AcDbSpline
210
0.0
220
0.0
230
1.0
 70
     8
 71
     3
 72
    26
 73
    22
 74
     0
 42
0.0000000001
 43
0.0000000001
 40
14.65637604513846
 40
14.65637604513846
 40
14.65637604513846
 40
14.65637604513846
 40
14.79952634069975
 40
14.79952634069975
 40
19.49146075960556
 40
19.49146075960556
 40
24.1394271166887
 40
24.1394271166887
 40
28.86914814270126
 40
28.86914814270126
 40
34.03386327356488
 40
34.03386327356488
 40
39.72257848107313
 40
39.72257848107313
 40
45.00539958295664
 40
45.00539958295664
 40
49.91614049975454
 40
49.91614049975454
 40
54.74320172828507
 40
54.74320172828507
 40
55.86890235669661
 40
55.86890235669661
 40
55.86890235669661
 40
55.86890235669661
 10
-48.89007460368667
 20
-32.32440076704448
 30
0.0000000000000216
 10
-48.89007340990031
 20
-32.3719218429679
 30
0.0000000000000216
 10
-48.8902943824279
 20
-32.41945708660873
 30
0.0000000000000216
 10
-48.90527874570405
 20
-34.02541956486626
 30
0.0000000000000216
 10
-49.15868348437292
 20
-35.56423452609353
 30
0.0000000000000215
 10
-50.10017810916753
 20
-38.42389297503801
 30
0.0000000000000214
 10
-50.77312736695418
 20
-39.71495775397715
 30
0.0000000000000213
 10
-52.44553557896182
 20
-41.94016153785255
 30
0.0000000000000211
 10
-53.42660954900259
 20
-42.83833259731122
 30
0.000000000000021
 10
-55.64123644647992
 20
-44.21792352039857
 30
0.0000000000000207
 10
-56.8657047795618
 20
-44.63906125681972
 30
0.0000000000000206
 10
-59.44607380590099
 20
-44.92550825177395
 30
0.0000000000000203
 10
-60.8250569575392
 20
-44.73164628875275
 30
0.0000000000000201
 10
-63.37786747640908
 20
-43.67001757508663
 30
0.0000000000000198
 10
-64.54842270299611
 20
-42.85702606816832
 30
0.0000000000000196
 10
-66.5419355669637
 20
-40.70942645046072
 30
0.0000000000000194
 10
-67.3530880548966
 20
-39.44516569670046
 30
0.0000000000000193
 10
-68.5408030753526
 20
-36.5897207848511
 30
0.0000000000000192
 10
-68.90863811523832
 20
-35.04019965201452
 30
0.0000000000000191
 10
-69.0533484544375
 20
-33.07039298428935
 30
0.0000000000000191
 10
-69.06694745537279
 20
-32.6971687551569
 30
0.0000000000000191
 10
-69.0669127969843
 20
-32.32440078548048
 30
0.0000000000000191
  0
SPLINE
  5
1C1
330
1F
100
AcDbEntity
  8
PV-D5
100
AcDbSpline
210
-0.0000000000000001
220
0.0000000000000002
230
-1.0
 70
     8
 71
     3
 72
    22
 73
    18
 74
     0
 42
0.0000000001
 43
0.0000000001
 40
26.02964492278311
 40
26.02964492278311
 40
26.02964492278311
 40
26.02964492278311
 40
27.87314494363819
 40
27.87314494363819
 40
36.82892472546157
 40
36.82892472546157
 40
45.5632428924332
 40
45.5632428924332
 40
54.29209553834573
 40
54.29209553834573
 40
63.27954199116561
 40
63.27954199116561
 40
72.55599765330159
 40
72.55599765330159
 40
81.92997645402668
 40
81.92997645402668
 40
82.52116564710279
 40
82.52116564710279
 40
82.52116564710279
 40
82.52116564710279
 10
-75.00001330838561
 20
-47.62196443867393
 30
0.0000000000000184
 10
-74.63941802439659
 20
-48.09123135551104
 30
0.0000000000000184
 10
-74.26143864201631
 20
-48.54554426526687
 30
0.0000000000000185
 10
-71.94893563658769
 20
-51.11201924922106
 30
0.0000000000000187
 10
-69.66751963986332
 20
-52.82109811738759
 30
0.000000000000019
 10
-64.6734625999739
 20
-55.1495783703369
 30
0.0000000000000196
 10
-62.02381075491249
 20
-55.770947533649
 30
0.00000000000002
 10
-56.6430073195319
 20
-55.8712251879522
 30
0.0000000000000206
 10
-53.97629786984868
 20
-55.34964918735538
 30
0.0000000000000209
 10
-48.90201553197306
 20
-53.204010767596
 30
0.0000000000000216
 10
-46.56053098352242
 20
-51.5716021192994
 30
0.0000000000000219
 10
-42.52303502237867
 20
-47.3683145703349
 30
0.0000000000000223
 10
-40.88677580696151
 20
-44.80813566802875
 30
0.0000000000000225
 10
-38.59357123018489
 20
-39.12153045378337
 30
0.0000000000000228
 10
-37.96701061153441
 20
-36.04041932636632
 30
0.0000000000000229
 10
-37.89228593475707
 20
-32.71836155324539
 30
0.0000000000000229
 10
-37.89007043197258
 20
-32.52133190434765
 30
0.0000000000000229
 10
-37.89006667495615
 20
-32.32440076732273
 30
0.0000000000000229
  0
ARC
  5
1C2
330
1F
100
AcDbEntity
  8
PV-D5
100
AcDbCircle
 10
-39.39007276186808
 20
-30.0774500010119
 30
0.0000000000000227
 40
1.5
100
AcDbArc
 50
0.0000000000002036
 51
68.6763137365031
  0
ARC
  5
1C3
330
1F
100
AcDbEntity
  8
PV-D5
100
AcDbCircle
 10
-47.39007276186807
 20
-30.0774500010119
 30
0.0000000000000218
 40
1.5
100
AcDbArc
 50
111.3236862634968
 51
179.9999999999996
  0
ARC
  5
1C4
330
1F
100
AcDbEntity
  8
PV-D5
100
AcDbCircle
 10
-75.0
 20
-50.32440076697149
 30
0.0000000000000184
 40
5.5
100
AcDbArc
 50
202.4667445749798
 51
337.5332554250195
  0
SPLINE
  5
1C5
330
1F
100
AcDbEntity
  8
PV-D5
100
AcDbSpline
210
0.0000000000000001
220
0.0000000000000002
230
1.0
 70
     8
 71
     3
 72
    22
 73
    18
 74
     0
 42
0.0000000001
 43
0.0000000001
 40
25.61804833952831
 40
25.61804833952831
 40
25.61804833952831
 40
25.61804833952831
 40
27.76403548566959
 40
27.76403548566959
 40
37.05028289234368
 40
37.05028289234368
 40
46.18071570400704
 40
46.18071570400704
 40
55.07223787255114
 40
55.07223787255114
 40
63.77401221336882
 40
63.77401221336882
 40
72.53815829578392
 40
72.53815829578392
 40
81.59527452491785
 40
81.59527452491785
 40
82.07404050431687
 40
82.07404050431687
 40
82.07404050431687
 40
82.07404050431687
 10
-112.1099821252153
 20
-32.32440077961432
 30
0.0000000000000138
 10
-112.109956952252
 20
-33.03809106883724
 30
0.0000000000000138
 10
-112.0808619549026
 20
-33.75258279993473
 30
0.0000000000000138
 10
-111.7700720313921
 20
-37.55152905641561
 30
0.0000000000000139
 10
-110.9744788940073
 20
-40.55575115366585
 30
0.000000000000014
 10
-108.3944395902369
 20
-46.0094378269238
 30
0.0000000000000143
 10
-106.6480127364479
 20
-48.42103207273115
 30
0.0000000000000145
 10
-102.4467090533872
 20
-52.31571623352721
 30
0.000000000000015
 10
-100.0476570527125
 20
-53.7871307723491
 30
0.0000000000000153
 10
-94.90171930722471
 20
-55.61537488204809
 30
0.0000000000000159
 10
-92.21863391464507
 20
-55.97559924302847
 30
0.0000000000000163
 10
-86.84718880567023
 20
-55.55643822952393
 30
0.0000000000000169
 10
-84.2234551621213
 20
-54.77389688621182
 30
0.0000000000000172
 10
-79.319951003341
 20
-52.1286484425502
 30
0.0000000000000178
 10
-77.10635180211879
 20
-50.25892356253648
 30
0.0000000000000181
 10
-75.18897098891017
 20
-47.86533155516671
 30
0.0000000000000183
 10
-75.09388819820111
 20
-47.74413992140057
 30
0.0000000000000184
 10
-74.99999766364848
 20
-47.62195354595364
 30
0.0000000000000184
  0
SPLINE
  5
1C6
330
1F
100
AcDbEntity
  8
PV-D5
100
AcDbSpline
210
0.0
220
0.0
230
1.0
 70
     8
 71
     3
 72
    24
 73
    20
 74
     0
 42
0.0000000001
 43
0.0000000001
 40
5.434945478253884
 40
5.434945478253884
 40
5.434945478253884
 40
5.434945478253884
 40
9.487097647792083
 40
9.487097647792083
 40
14.12339065628353
 40
14.12339065628353
 40
18.80913130862175
 40
18.80913130862175
 40
23.84974972323496
 40
23.84974972323496
 40
29.73883063484482
 40
29.73883063484482
 40
35.08276672748039
 40
35.08276672748039
 40
40.00569824217046
 40
40.00569824217046
 40
44.84161421267604
 40
44.84161421267604
 40
46.52789773270553
 40
46.52789773270553
 40
46.52789773270553
 40
46.52789773270553
 10
-80.9330424320793
 20
-32.32440076018318
 30
0.0000000000000176
 10
-80.93314984858469
 20
-33.67140281373278
 30
0.0000000000000176
 10
-81.11149136267099
 20
-35.00993051189966
 30
0.0000000000000176
 10
-81.85738630091359
 20
-37.74406128391369
 30
0.0000000000000175
 10
-82.46820591125382
 20
-39.08838451776953
 30
0.0000000000000175
 10
-84.03450302443081
 20
-41.43647644374213
 30
0.0000000000000173
 10
-84.97177911772102
 20
-42.40622932543397
 30
0.0000000000000171
 10
-87.10506407663819
 20
-43.93725168103758
 30
0.0000000000000169
 10
-88.28845326643152
 20
-44.44407837308307
 30
0.0000000000000167
 10
-90.88753947420199
 20
-44.94797401562173
 30
0.0000000000000164
 10
-92.32480647636128
 20
-44.846688984045
 30
0.0000000000000162
 10
-94.9675513891737
 20
-43.92761963747927
 30
0.0000000000000159
 10
-96.17781501471641
 20
-43.17986139237588
 30
0.0000000000000158
 10
-98.25898226168872
 20
-41.1391113822875
 30
0.0000000000000155
 10
-99.11794731542707
 20
-39.92121249403457
 30
0.0000000000000154
 10
-100.4144231083095
 20
-37.12828999515315
 30
0.0000000000000153
 10
-100.8411492492099
 20
-35.595980569274
 30
0.0000000000000152
 10
-101.079208335414
 20
-33.44370346717361
 30
0.0000000000000152
 10
-101.1098407803179
 20
-32.88377436861094
 30
0.0000000000000152
 10
-101.1098035697642
 20
-32.32440078778
 30
0.0000000000000152
  0
ARC
  5
1C7
330
1F
100
AcDbEntity
  8
PV-D5
100
AcDbCircle
 10
-102.609927238132
 20
-30.0774500010119
 30
0.000000000000015
 40
1.5
100
AcDbArc
 50
0.0000000000002036
 51
68.67631373650152
  0
ARC
  5
1C8
330
1F
100
AcDbEntity
  8
PV-D5
100
AcDbCircle
 10
-110.609927238132
 20
-30.0774500010119
 30
0.000000000000014
 40
1.5
100
AcDbArc
 50
111.3236862634984
 51
179.9999999999996
  0
LINE
  5
1C9
330
1F
100
AcDbEntity
  8
PV-D5
100
AcDbLine
 10
162.9999999999999
 20
37.47559923302849
 30
0.0
 11
114.4999999999998
 21
37.47559923302849
 31
-0.0000000000000059
210
0.0
220
1.0
230
0.0
  0
LINE
  5
1CA
330
1F
100
AcDbEntity
  8
PV-D5
100
AcDbLine
 10
114.4999999999998
 20
4.475599233028487
 30
-0.0000000000000059
 11
162.9999999999999
 21
4.475599233028487
 31
0.0
210
0.0
220
1.0
230
0.0
  0
LINE
  5
1CB
330
1F
100
AcDbEntity
  8
PV-D5
100
AcDbLine
 10
-114.5000000000001
 20
37.4755992330285
 30
0.0000000000000059
 11
-163.0
 21
37.4755992330285
 31
0.0
210
0.0
220
1.0
230
0.0
  0
LINE
  5
1CC
330
1F
100
AcDbEntity
  8
PV-D5
100
AcDbLine
 10
-163.0
 20
4.475599233028502
 30
0.0
 11
-114.5000000000001
 21
4.475599233028502
 31
0.0000000000000059
210
0.0
220
1.0
230
0.0
  0
LINE
  5
1CE
330
1F
100
AcDbEntity
  8
PV-D5
100
AcDbLine
 10
364.000000014
 20
20.96330799382465
 30
0.0
 11
364.000000014
 21
55.96330799382464
 31
0.0
210
0.0
220
1.0
230
0.0
  0
LINE
  5
1CF
330
1F
100
AcDbEntity
  8
PV-D5
100
AcDbLine
 10
364.000000014
 20
-14.03669200617535
 30
0.0
 11
364.000000014
 21
20.96330799382513
 31
0.0
210
0.0
220
1.0
230
0.0
  0
LINE
  5
1D0
330
1F
100
AcDbEntity
  8
PV-D5
100
AcDbLine
 10
376.000000014
 20
20.96330799382465
 30
0.0000000000000022
 11
376.000000014
 21
53.96330799382464
 31
0.0000000000000022
210
0.0
220
1.0
230
0.0
  0
LINE
  5
1D1
330
1F
100
AcDbEntity
  8
PV-D5
100
AcDbLine
 10
376.000000014
 20
-12.03669200617535
 30
0.0000000000000022
 11
376.000000014
 21
20.96330799382511
 31
0.0000000000000022
210
0.0
220
1.0
230
0.0
  0
ARC
  5
1D2
330
1F
100
AcDbEntity
  8
PV-D5
100
AcDbCircle
 10
437.500000014
 20
20.96330799382465
 30
0.0000000000000135
 40
16.5
100
AcDbArc
 50
270.0
 51
90.0
  0
LINE
  5
1D3
330
1F
100
AcDbEntity
  8
PV-D5
100
AcDbLine
 10
376.000000014
 20
43.46330799382464
 30
0.0000000000000022
 11
460.500000014
 21
43.46330799382464
 31
0.0000000000000177
210
0.0
220
1.0
230
0.0
  0
LINE
  5
1D4
330
1F
100
AcDbEntity
  8
PV-D5
100
AcDbLine
 10
376.000000014
 20
-1.536692006175349
 30
0.0000000000000022
 11
460.500000014
 21
-1.536692006175349
 31
0.0000000000000177
210
0.0
220
1.0
230
0.0
  0
ARC
  5
1D5
330
1F
100
AcDbEntity
  8
PV-D5
100
AcDbCircle
 10
460.500000014
 20
2.463307993824648
 30
0.0000000000000177
 40
3.999999999999998
100
AcDbArc
 50
270.0
 51
0.0
  0
LINE
  5
1D6
330
1F
100
AcDbEntity
  8
PV-D5
100
AcDbLine
 10
464.5000000139998
 20
2.463307993824648
 30
0.0000000000000185
 11
464.5000000139998
 21
39.46330799382465
 31
0.0000000000000185
210
0.0
220
1.0
230
0.0
  0
ARC
  5
1D7
330
1F
100
AcDbEntity
  8
PV-D5
100
AcDbCircle
 10
460.500000014
 20
39.46330799382465
 30
0.0000000000000177
 40
3.999999999999998
100
AcDbArc
 50
0.0
 51
90.0
  0
LINE
  5
1D8
330
1F
100
AcDbEntity
  8
PV-D5
100
AcDbLine
 10
427.5000000139998
 20
-32.33669200617534
 30
0.0000000000000117
 11
424.500000014
 21
-32.33669200617534
 31
0.0000000000000111
210
0.0
220
1.0
230
0.0
  0
LINE
  5
1D9
330
1F
100
AcDbEntity
  8
PV-D5
100
AcDbLine
 10
424.500000014
 20
-32.33669200617534
 30
0.0000000000000111
 11
415.5000000139998
 21
-32.33669200617534
 31
0.0000000000000095
210
0.0
220
1.0
230
0.0
  0
SPLINE
  5
1DA
330
1F
100
AcDbEntity
  8
PV-D5
100
AcDbSpline
210
0.0
220
0.0
230
1.0
 70
     8
 71
     3
 72
    26
 73
    22
 74
     0
 42
0.0000000001
 43
0.0000000001
 40
-13.62523885215561
 40
-13.62523885215561
 40
-13.62523885215561
 40
-13.62523885215561
 40
-13.15451311658329
 40
-13.15451311658329
 40
-12.36989694943884
 40
-12.36989694943884
 40
-11.78572653947392
 40
-11.78572653947392
 40
-11.201556129509
 40
-11.201556129509
 40
-8.070733489770473
 40
-8.070733489770473
 40
-6.505322169901205
 40
-6.505322169901205
 40
-4.939910850031926
 40
-4.939910850031926
 40
-2.469955425015965
 40
-2.469955425015965
 40
-1.234977712507981
 40
-1.234977712507981
 40
0.0
 40
0.0
 40
0.0
 40
0.0
 10
418.9858862561662
 20
-46.5026301830114
 30
0.0000000000000101
 10
418.9309424107556
 20
-46.37845381417096
 30
0.0000000000000101
 10
418.8783479233069
 20
-46.24336840221439
 30
0.0000000000000101
 10
418.7503313319221
 20
-45.8659114764207
 30
0.0000000000000101
 10
418.682818244476
 20
-45.61241169405685
 30
0.00000000000001
 10
418.5904075328546
 20
-45.19525916835839
 30
0.00000000000001
 10
418.5524490669325
 20
-44.99524819687478
 30
0.00000000000001
 10
418.4875327129328
 20
-44.58802179744847
 30
0.00000000000001
 10
418.4604660985808
 20
-44.38087573013046
 30
0.00000000000001
 10
418.325982442445
 20
-43.172107641735
 30
0.00000000000001
 10
418.310134972947
 20
-42.04162675081239
 30
0.00000000000001
 10
418.3466137254557
 20
-40.33835741724071
 30
0.00000000000001
 10
418.3686029654595
 20
-39.76936936607062
 30
0.00000000000001
 10
418.4186133169188
 20
-38.655508827253
 30
0.00000000000001
 10
418.4465566215084
 20
-38.11062237152631
 30
0.00000000000001
 10
418.5135995463706
 20
-36.77219984938987
 30
0.00000000000001
 10
418.5574089927079
 20
-35.87065554714214
 30
0.00000000000001
 10
418.6027482663082
 20
-34.51613295501369
 30
0.00000000000001
 10
418.6145397903103
 20
-34.06424748731115
 30
0.00000000000001
 10
418.6299313666969
 20
-33.18035647247315
 30
0.00000000000001
 10
418.6335359890673
 20
-32.748351243678
 30
0.00000000000001
 10
418.6335359890673
 20
-32.33669200617534
 30
0.00000000000001
  0
ARC
  5
1DB
330
1F
100
AcDbEntity
  8
PV-D5
100
AcDbCircle
 10
439.7500000139998
 20
-40.33669200617532
 30
0.0000000000000139
 40
12.5
100
AcDbArc
 50
68.67631373650152
 51
111.3236862634984
  0
LINE
  5
1DC
330
1F
100
AcDbEntity
  8
PV-D5
100
AcDbLine
 10
445.2500000139997
 20
-32.33669200617534
 30
0.0000000000000149
 11
445.2500000139997
 21
-30.08974124021574
 31
0.0000000000000149
210
0.0
220
1.0
230
0.0
  0
LINE
  5
1DD
330
1F
100
AcDbEntity
  8
PV-D5
100
AcDbLine
 10
434.2500000139998
 20
-32.33669200617534
 30
0.0000000000000129
 11
434.2500000139998
 21
-30.08974124021574
 31
0.0000000000000129
210
0.0
220
1.0
230
0.0
  0
ARC
  5
1DE
330
1F
100
AcDbEntity
  8
PV-D5
100
AcDbCircle
 10
385.0000000139999
 20
-40.33669200617532
 30
0.0000000000000039
 40
12.5
100
AcDbArc
 50
68.67631373650152
 51
111.3236862634984
  0
LINE
  5
1DF
330
1F
100
AcDbEntity
  8
PV-D5
100
AcDbLine
 10
390.5000000139999
 20
-32.33669200617534
 30
0.0000000000000049
 11
390.5000000139999
 21
-30.08974124021574
 31
0.0000000000000049
210
0.0
220
1.0
230
0.0
  0
LINE
  5
1E0
330
1F
100
AcDbEntity
  8
PV-D5
100
AcDbLine
 10
379.5000000139999
 20
-32.33669200617534
 30
0.0000000000000028
 11
379.5000000139999
 21
-30.08974124021574
 31
0.0000000000000028
210
0.0
220
1.0
230
0.0
  0
LINE
  5
1E1
330
1F
100
AcDbEntity
  8
PV-D5
100
AcDbLine
 10
427.5000000139998
 20
-32.33669200617534
 30
0.0000000000000117
 11
427.5000000139998
 21
-1.536692006175349
 31
0.0000000000000117
210
0.0
220
1.0
230
0.0
  0
LINE
  5
1E2
330
1F
100
AcDbEntity
  8
PV-D5
100
AcDbLine
 10
415.5000000139998
 20
-32.33669200617534
 30
0.0000000000000095
 11
415.5000000139998
 21
-1.536692006175349
 31
0.0000000000000095
210
0.0
220
1.0
230
0.0
  0
LINE
  5
1E3
330
1F
100
AcDbEntity
  8
PV-D5
100
AcDbLine
 10
376.000000014
 20
4.463307993824647
 30
0.0000000000000022
 11
389.000000014
 21
4.463307993824647
 31
0.0000000000000046
210
0.0
220
1.0
230
0.0
  0
LINE
  5
1E4
330
1F
100
AcDbEntity
  8
PV-D5
100
AcDbLine
 10
376.000000014
 20
37.46330799382465
 30
0.0000000000000022
 11
389.000000014
 21
37.46330799382465
 31
0.0000000000000046
210
0.0
220
1.0
230
0.0
  0
LINE
  5
1E5
330
1F
100
AcDbEntity
  8
PV-D5
100
AcDbLine
 10
374.000000014
 20
55.96330799382464
 30
0.0000000000000018
 11
364.000000014
 21
55.96330799382464
 31
0.0
210
0.0
220
1.0
230
0.0
  0
LINE
  5
1E6
330
1F
100
AcDbEntity
  8
PV-D5
100
AcDbLine
 10
374.000000014
 20
-14.03669200617535
 30
0.0000000000000018
 11
364.000000014
 21
-14.03669200617535
 31
0.0
210
0.0
220
1.0
230
0.0
  0
SPLINE
  5
1E7
330
1F
100
AcDbEntity
  8
PV-D5
100
AcDbSpline
210
0.0
220
0.0
230
1.0
 70
     8
 71
     3
 72
    16
 73
    12
 74
     0
 42
0.0000000001
 43
0.0000000001
 40
44.16435405726903
 40
44.16435405726903
 40
44.16435405726903
 40
44.16435405726903
 40
48.75706912093563
 40
48.75706912093563
 40
54.30180344781009
 40
54.30180344781009
 40
58.49640451540435
 40
58.49640451540435
 40
62.25588215394828
 40
62.25588215394828
 40
63.25957230362952
 40
63.25957230362952
 40
63.25957230362952
 40
63.25957230362952
 10
434.2498786806438
 20
-32.33669198080725
 30
0.0000000000000129
 10
434.2496469887789
 20
-33.71329756365138
 30
0.0000000000000129
 10
434.1561955854733
 20
-35.08820496385768
 30
0.0000000000000129
 10
433.7515899955388
 20
-37.9954080284715
 30
0.0000000000000128
 10
433.4006906279602
 20
-39.4816955670959
 30
0.0000000000000127
 10
432.6290120243888
 20
-41.72200434937354
 30
0.0000000000000126
 10
432.2493158360508
 20
-42.55415310550132
 30
0.0000000000000125
 10
431.5301264932815
 20
-43.79485636731598
 30
0.0000000000000124
 10
431.1987717806188
 20
-44.22263974996774
 30
0.0000000000000123
 10
430.8693347899299
 20
-44.56554571592207
 30
0.0000000000000123
 10
430.8060438809993
 20
-44.62584929456881
 30
0.0000000000000123
 10
430.7499579787577
 20
-44.67563655286567
 30
0.0000000000000123
  0
SPLINE
  5
1E8
330
1F
100
AcDbEntity
  8
PV-D5
100
AcDbSpline
210
0.0
220
0.0
230
1.0
 70
     8
 71
     3
 72
    20
 73
    16
 74
     0
 42
0.0000000001
 43
0.0000000001
 40
74.18319200624873
 40
74.18319200624873
 40
74.18319200624873
 40
74.18319200624873
 40
74.5335401834215
 40
74.5335401834215
 40
76.52673799826681
 40
76.52673799826681
 40
79.24077306882089
 40
79.24077306882089
 40
82.28797423846746
 40
82.28797423846746
 40
87.03687269706362
 40
87.03687269706362
 40
92.11786503051015
 40
92.11786503051015
 40
94.23623763547395
 40
94.23623763547395
 40
94.23623763547395
 40
94.23623763547395
 10
431.024090805867
 20
-44.87857979360557
 30
0.0000000000000123
 10
431.020582852417
 20
-44.87673640401789
 30
0.0000000000000123
 10
431.0158045349453
 20
-44.87416263247189
 30
0.0000000000000123
 10
430.9750083243693
 20
-44.85121247477253
 30
0.0000000000000123
 10
430.8990683177911
 20
-44.80373554082686
 30
0.0000000000000123
 10
430.6324093335076
 20
-44.57568100365284
 30
0.0000000000000122
 10
430.4185969819712
 20
-44.35849085545181
 30
0.0000000000000122
 10
429.8998409380097
 20
-43.67291749760179
 30
0.0000000000000121
 10
429.5962981559855
 20
-43.18846268179717
 30
0.000000000000012
 10
428.8357537349035
 20
-41.6629667681192
 30
0.0000000000000119
 10
428.4002803840703
 20
-40.48549320052461
 30
0.0000000000000118
 10
427.6935446246779
 20
-37.7075323276094
 30
0.0000000000000117
 10
427.4389290947096
 20
-36.10507707630957
 30
0.0000000000000117
 10
427.274416443113
 20
-33.74384460819944
 30
0.0000000000000116
 10
427.2500919894286
 20
-33.04072223178463
 30
0.0000000000000116
 10
427.2500806632382
 20
-32.3366920046331
 30
0.0000000000000116
  0
SPLINE
  5
1E9
330
1F
100
AcDbEntity
  8
PV-D5
100
AcDbSpline
210
0.0
220
0.0
230
1.0
 70
     8
 71
     3
 72
    16
 73
    12
 74
     0
 42
0.0000000001
 43
0.0000000001
 40
44.16435405692596
 40
44.16435405692596
 40
44.16435405692596
 40
44.16435405692596
 40
48.75706912047211
 40
48.75706912047211
 40
54.30180344728761
 40
54.30180344728761
 40
58.49640451491687
 40
58.49640451491687
 40
62.25588215341041
 40
62.25588215341041
 40
63.25957230307668
 40
63.25957230307668
 40
63.25957230307668
 40
63.25957230307668
 10
434.2498786806436
 20
-32.33669198080871
 30
0.0000000000000129
 10
434.2496469887788
 20
-33.713297563634
 30
0.0000000000000129
 10
434.1561955854758
 20
-35.08820496382117
 30
0.0000000000000129
 10
433.7515899955487
 20
-37.99540802842225
 30
0.0000000000000128
 10
433.4006906279723
 20
-39.48169556705111
 30
0.0000000000000127
 10
432.6290120243974
 20
-41.72200434935603
 30
0.0000000000000126
 10
432.2493158360519
 20
-42.55415310550088
 30
0.0000000000000125
 10
431.5301264932773
 20
-43.79485636732201
 30
0.0000000000000124
 10
431.1987717806161
 20
-44.22263974997078
 30
0.0000000000000123
 10
430.8693347899292
 20
-44.56554571592284
 30
0.0000000000000123
 10
430.8060438809988
 20
-44.62584929456914
 30
0.0000000000000123
 10
430.7499579787577
 20
-44.6756365528657
 30
0.0000000000000123
  0
SPLINE
  5
1EA
330
1F
100
AcDbEntity
  8
PV-D5
100
AcDbSpline
210
0.0
220
0.0
230
1.0
 70
     8
 71
     3
 72
    20
 73
    16
 74
     0
 42
0.0000000001
 43
0.0000000001
 40
74.18319200560233
 40
74.18319200560233
 40
74.18319200560233
 40
74.18319200560233
 40
74.5335401827935
 40
74.5335401827935
 40
76.52673799762698
 40
76.52673799762698
 40
79.24077306818154
 40
79.24077306818154
 40
82.28797423788892
 40
82.28797423788892
 40
87.03687269647785
 40
87.03687269647785
 40
92.11786502991941
 40
92.11786502991941
 40
94.23623763477941
 40
94.23623763477941
 40
94.23623763477941
 40
94.23623763477941
 10
431.0240908058674
 20
-44.87857979360579
 30
0.0000000000000123
 10
431.0205828524173
 20
-44.87673640401807
 30
0.0000000000000123
 10
431.0158045349457
 20
-44.87416263247197
 30
0.0000000000000123
 10
430.9750083243689
 20
-44.85121247477226
 30
0.0000000000000123
 10
430.8990683177905
 20
-44.80373554082642
 30
0.0000000000000123
 10
430.6324093335058
 20
-44.57568100365119
 30
0.0000000000000122
 10
430.418596981968
 20
-44.35849085544822
 30
0.0000000000000122
 10
429.8998409379979
 20
-43.67291749758543
 30
0.0000000000000121
 10
429.596298155966
 20
-43.18846268176517
 30
0.000000000000012
 10
428.8357537348773
 20
-41.6629667680556
 30
0.0000000000000119
 10
428.4002803840463
 20
-40.48549320045092
 30
0.0000000000000118
 10
427.6935446246607
 20
-37.70753232751931
 30
0.0000000000000117
 10
427.4389290946973
 20
-36.10507707621322
 30
0.0000000000000117
 10
427.2744164431107
 20
-33.7438446081322
 30
0.0000000000000116
 10
427.2500919894286
 20
-33.04072223175085
 30
0.0000000000000116
 10
427.2500806632382
 20
-32.3366920046331
 30
0.0000000000000116
  0
ARC
  5
1EB
330
1F
100
AcDbEntity
  8
PV-D5
100
AcDbCircle
 10
403.0000000139998
 20
-32.33669200617534
 30
0.0000000000000072
 40
12.5
100
AcDbArc
 50
179.9999999999998
 51
0.0000000000002036
  0
ARC
  5
1EC
330
1F
100
AcDbEntity
  8
PV-D5
100
AcDbCircle
 10
403.0000000139998
 20
-32.33669200617534
 30
0.0000000000000072
 40
23.5
100
AcDbArc
 50
179.9999999999998
 51
316.3795572846366
  0
SPLINE
  5
1ED
330
1F
100
AcDbEntity
  8
PV-D5
100
AcDbSpline
210
0.0
220
0.0
230
1.0
 70
     8
 71
     3
 72
    18
 73
    14
 74
     0
 42
0.0000000001
 43
0.0000000001
 40
57.94159162373794
 40
57.94159162373794
 40
57.94159162373794
 40
57.94159162373794
 40
61.51531701854224
 40
61.51531701854224
 40
65.98097746838833
 40
65.98097746838833
 40
69.37439216154827
 40
69.37439216154827
 40
72.32988041211178
 40
72.32988041211178
 40
73.9600494444162
 40
73.9600494444162
 40
75.43657511963104
 40
75.43657511963104
 40
75.43657511963104
 40
75.43657511963104
 10
434.2498513798608
 20
-32.33669197519407
 30
0.0000000000000129
 10
434.2496327323168
 20
-33.65626024119261
 30
0.0000000000000129
 10
434.1638578418701
 20
-34.97861842128573
 30
0.0000000000000129
 10
433.7807478217174
 20
-37.84715106498807
 30
0.0000000000000128
 10
433.4370900946328
 20
-39.34766936781242
 30
0.0000000000000128
 10
432.6675869459128
 20
-41.62946999182294
 30
0.0000000000000126
 10
432.284049828336
 20
-42.48552828058565
 30
0.0000000000000125
 10
431.5604895628176
 20
-43.74950268303481
 30
0.0000000000000124
 10
431.2288064152925
 20
-44.18602449849465
 30
0.0000000000000123
 10
430.8182852805161
 20
-44.62125270178999
 30
0.0000000000000123
 10
430.6968899485168
 20
-44.72548369394618
 30
0.0000000000000123
 10
430.5324647549354
 20
-44.84889624860357
 30
0.0000000000000122
 10
430.4860586634672
 20
-44.87352417349425
 30
0.0000000000000122
 10
430.4726624953396
 20
-44.88015586764346
 30
0.0000000000000122
  0
SPLINE
  5
1EE
330
1F
100
AcDbEntity
  8
PV-D5
100
AcDbSpline
210
0.0
220
0.0
230
1.0
 70
     8
 71
     3
 72
    19
 73
    15
 74
     0
 42
0.0000000001
 43
0.0000000001
 40
84.61159937310652
 40
84.61159937310652
 40
84.61159937310652
 40
84.61159937310652
 40
84.80912976378256
 40
84.80912976378256
 40
87.27350245135623
 40
87.27350245135623
 40
87.27350245135623
 40
90.32365874565057
 40
90.32365874565057
 40
94.94016564412351
 40
94.94016564412351
 40
99.83287277807008
 40
99.83287277807008
 40
101.5279342305122
 40
101.5279342305122
 40
101.5279342305122
 40
101.5279342305122
 10
430.7500033364068
 20
-44.67566203800465
 30
0.0000000000000123
 10
430.7378753237692
 20
-44.66489235469221
 30
0.0000000000000123
 10
430.7253819323711
 20
-44.65360477251409
 30
0.0000000000000123
 10
430.5521698289582
 20
-44.49423029845642
 30
0.0000000000000122
 10
430.3442563563452
 20
-44.26887477987415
 30
0.0000000000000122
 10
430.1137586639137
 20
-43.95432319075157
 30
0.0000000000000121
 10
429.8284714624549
 20
-43.56500240567704
 30
0.0000000000000121
 10
429.5152244256213
 20
-43.04736195749761
 30
0.000000000000012
 10
428.7497046091799
 20
-41.4487096465061
 30
0.0000000000000119
 10
428.3211887634003
 20
-40.2394817828318
 30
0.0000000000000118
 10
427.6384850747127
 20
-37.40716438742202
 30
0.0000000000000117
 10
427.3993443581336
 20
-35.7853985544412
 30
0.0000000000000116
 10
427.2671399372089
 20
-33.51587462918558
 30
0.0000000000000116
 10
427.2501527221806
 20
-32.92668091513852
 30
0.0000000000000116
 10
427.2502238752241
 20
-32.33669204065757
 30
0.0000000000000116
  0
SPLINE
  5
1EF
330
1F
100
AcDbEntity
  8
PV-D5
100
AcDbSpline
210
-0.0000000000000001
220
0.0000000000000002
230
-1.0
 70
     8
 71
     3
 72
    28
 73
    24
 74
     0
 42
0.0000000001
 43
0.0000000001
 40
23.02031332930044
 40
23.02031332930044
 40
23.02031332930044
 40
23.02031332930044
 40
27.68481021379719
 40
27.68481021379719
 40
32.81387264412497
 40
32.81387264412497
 40
37.20300328693689
 40
37.20300328693689
 40
41.69091738922586
 40
41.69091738922586
 40
48.76072113985898
 40
48.76072113985898
 40
52.51498334422836
 40
52.51498334422836
 40
56.8308907235313
 40
56.8308907235313
 40
65.98824508692385
 40
65.98824508692385
 40
70.95411122429472
 40
70.95411122429472
 40
79.60620444801114
 40
79.60620444801114
 40
81.24831363641591
 40
81.24831363641591
 40
81.24831363641591
 40
81.24831363641591
 10
418.9851418681369
 20
-46.50292589512916
 30
0.0000000000000101
 10
419.5112085821346
 20
-47.6900515777325
 30
0.0000000000000102
 10
420.0992331350123
 20
-48.76881796347706
 30
0.0000000000000103
 10
421.4433400179758
 20
-50.79927143171206
 30
0.0000000000000106
 10
422.2389779853727
 20
-51.76954003148779
 30
0.0000000000000107
 10
423.8912376031342
 20
-53.33036699192398
 30
0.000000000000011
 10
424.7276346131177
 20
-53.96006077563488
 30
0.0000000000000112
 10
426.5635482820306
 20
-54.98832456966152
 30
0.0000000000000115
 10
427.5568704452091
 20
-55.37622382915034
 30
0.0000000000000117
 10
430.2481074261065
 20
-55.96330800382467
 30
0.0000000000000122
 10
431.9321011263189
 20
-55.90540063371143
 30
0.0000000000000125
 10
434.416080548596
 20
-55.19011473691322
 30
0.0000000000000129
 10
435.2384420821301
 20
-54.83296052509341
 30
0.0000000000000131
 10
436.9058714005343
 20
-53.86630118003054
 30
0.0000000000000134
 10
437.729387948076
 20
-53.2306675613858
 30
0.0000000000000135
 10
440.0754215891161
 20
-50.96646185775393
 30
0.000000000000014
 10
441.4353643008528
 20
-48.93840174151423
 30
0.0000000000000142
 10
443.1007851769336
 20
-45.17877564905647
 30
0.0000000000000145
 10
443.5937049514018
 20
-43.76091165770274
 30
0.0000000000000146
 10
444.6937407671483
 20
-39.65641904448317
 30
0.0000000000000148
 10
445.1034850146307
 20
-36.85609679689444
 30
0.0000000000000149
 10
445.239228733618
 20
-33.42942903098416
 30
0.0000000000000149
 10
445.2501114245857
 20
-32.88269268455005
 30
0.0000000000000149
 10
445.2502311061902
 20
-32.33669207605025
 30
0.0000000000000149
  0
ARC
  5
1F0
330
1F
100
AcDbEntity
  8
PV-D5
100
AcDbCircle
 10
443.7500000139998
 20
-30.08974124021574
 30
0.0000000000000146
 40
1.5
100
AcDbArc
 50
0.0000000000002036
 51
68.67631373650152
  0
ARC
  5
1F1
330
1F
100
AcDbEntity
  8
PV-D5
100
AcDbCircle
 10
435.7500000139999
 20
-30.08974124021574
 30
0.0000000000000132
 40
1.5
100
AcDbArc
 50
111.3236862634984
 51
179.9999999999996
  0
ARC
  5
1F2
330
1F
100
AcDbEntity
  8
PV-D5
100
AcDbCircle
 10
389.0000000139999
 20
-30.08974124021574
 30
0.0000000000000046
 40
1.5
100
AcDbArc
 50
0.0000000000002036
 51
68.67631373650159
  0
ARC
  5
1F3
330
1F
100
AcDbEntity
  8
PV-D5
100
AcDbCircle
 10
381.0000000139999
 20
-30.08974124021574
 30
0.0000000000000031
 40
1.5
100
AcDbArc
 50
111.3236862634984
 51
179.9999999999996
  0
LINE
  5
1F4
330
1F
100
AcDbEntity
  8
PV-D5
100
AcDbLine
 10
437.500000014
 20
37.46330799382465
 30
0.0000000000000135
 11
389.000000014
 21
37.46330799382465
 31
0.0000000000000046
210
0.0
220
1.0
230
0.0
  0
LINE
  5
1F5
330
1F
100
AcDbEntity
  8
PV-D5
100
AcDbLine
 10
389.000000014
 20
4.463307993824647
 30
0.0000000000000046
 11
437.500000014
 21
4.463307993824647
 31
0.0000000000000135
210
0.0
220
1.0
230
0.0
  0
ARC
  5
1F6
330
1F
100
AcDbEntity
  8
PV-D5
100
AcDbCircle
 10
374.000000014
 20
-12.03669200617535
 30
0.0000000000000018
 40
2.0
100
AcDbArc
 50
270.0
 51
0.0000000000012213
  0
ARC
  5
1F7
330
1F
100
AcDbEntity
  8
PV-D5
100
AcDbCircle
 10
374.000000014
 20
53.96330799382464
 30
0.0000000000000018
 40
2.0
100
AcDbArc
 50
359.9999999999978
 51
90.0
  0
LINE
  5
1F9
330
1F
100
AcDbEntity
  8
PV-D5
100
AcDbLine
 10
-198.0
 20
-159.9755992470284
 30
0.0
 11
-128.0
 21
-159.9755992470284
 31
0.0
  0
LINE
  5
1FA
330
1F
100
AcDbEntity
  8
PV-D5
100
AcDbLine
 10
-196.0
 20
-171.9755992470283
 30
0.0
 11
-130.0
 21
-171.9755992470283
 31
0.0
  0
LINE
  5
1FB
330
1F
100
AcDbEntity
  8
PV-D5
100
AcDbLine
 10
128.0
 20
-159.9755992470284
 30
-0.0000000000000551
 11
198.0
 21
-159.9755992470284
 31
-0.0000000000000551
  0
LINE
  5
1FC
330
1F
100
AcDbEntity
  8
PV-D5
100
AcDbLine
 10
130.0
 20
-171.9755992470284
 30
-0.0000000000000551
 11
195.9999999999999
 21
-171.9755992470284
 31
-0.0000000000000551
  0
LINE
  5
1FD
330
1F
100
AcDbEntity
  8
PV-D5
100
AcDbLine
 10
-52.5
 20
-163.4755992470283
 30
0.0
 11
-56.5
 21
-163.4755992470283
 31
0.0
  0
LINE
  5
1FE
330
1F
100
AcDbEntity
  8
PV-D5
100
AcDbLine
 10
-52.5
 20
-163.4755992470283
 30
0.0
 11
-52.5
 21
-256.4755992470284
 31
0.0
  0
LINE
  5
1FF
330
1F
100
AcDbEntity
  8
PV-D5
100
AcDbLine
 10
-56.5
 20
-163.4755992470283
 30
0.0
 11
-93.50000000000006
 21
-163.4755992470283
 31
0.0
  0
LINE
  5
200
330
1F
100
AcDbEntity
  8
PV-D5
100
AcDbLine
 10
-93.50000000000006
 20
-163.4755992470283
 30
0.0
 11
-97.5
 21
-163.4755992470283
 31
0.0
  0
LINE
  5
201
330
1F
100
AcDbEntity
  8
PV-D5
100
AcDbLine
 10
-97.5
 20
-163.4755992470283
 30
0.0
 11
-97.5
 21
-256.4755992470284
 31
0.0
  0
ARC
  5
202
330
1F
100
AcDbEntity
  8
PV-D5
100
AcDbCircle
 10
-56.5
 20
-256.4755992470284
 30
0.0
 40
3.999999999999998
100
AcDbArc
 50
270.0
 51
0.0
  0
ARC
  5
203
330
1F
100
AcDbEntity
  8
PV-D5
100
AcDbCircle
 10
-93.50000000000006
 20
-256.4755992470284
 30
0.0
 40
3.999999999999998
100
AcDbArc
 50
180.0
 51
270.0
  0
LINE
  5
204
330
1F
100
AcDbEntity
  8
PV-D5
100
AcDbLine
 10
-93.50000000000006
 20
-260.4755992470283
 30
0.0
 11
-56.5
 21
-260.4755992470283
 31
0.0
  0
LINE
  5
205
330
1F
100
AcDbEntity
  8
PV-D5
100
AcDbLine
 10
97.5
 20
-163.4755992470283
 30
0.0
 11
93.49999999999999
 21
-163.4755992470283
 31
0.0
  0
LINE
  5
206
330
1F
100
AcDbEntity
  8
PV-D5
100
AcDbLine
 10
97.5
 20
-163.4755992470283
 30
0.0
 11
97.5
 21
-256.4755992470284
 31
0.0
  0
LINE
  5
207
330
1F
100
AcDbEntity
  8
PV-D5
100
AcDbLine
 10
93.49999999999999
 20
-163.4755992470283
 30
0.0
 11
56.49999999999988
 21
-163.4755992470283
 31
0.0
  0
LINE
  5
208
330
1F
100
AcDbEntity
  8
PV-D5
100
AcDbLine
 10
56.49999999999988
 20
-163.4755992470283
 30
0.0
 11
52.49999999999993
 21
-163.4755992470283
 31
0.0
  0
LINE
  5
209
330
1F
100
AcDbEntity
  8
PV-D5
100
AcDbLine
 10
52.49999999999993
 20
-163.4755992470283
 30
0.0
 11
52.49999999999993
 21
-256.4755992470284
 31
0.0
  0
ARC
  5
20A
330
1F
100
AcDbEntity
  8
PV-D5
100
AcDbCircle
 10
93.49999999999999
 20
-256.4755992470284
 30
0.0
 40
3.999999999999998
100
AcDbArc
 50
270.0
 51
0.0
  0
ARC
  5
20B
330
1F
100
AcDbEntity
  8
PV-D5
100
AcDbCircle
 10
56.49999999999988
 20
-256.4755992470284
 30
0.0
 40
3.999999999999998
100
AcDbArc
 50
180.0
 51
270.0
  0
LINE
  5
20C
330
1F
100
AcDbEntity
  8
PV-D5
100
AcDbLine
 10
56.49999999999988
 20
-260.4755992470283
 30
0.0
 11
93.49999999999999
 21
-260.4755992470283
 31
0.0
  0
LINE
  5
20D
330
1F
100
AcDbEntity
  8
PV-D5
100
AcDbLine
 10
198.0
 20
-169.9755992470284
 30
-0.0000000000000551
 11
198.0
 21
-159.9755992470284
 31
-0.0000000000000551
  0
LINE
  5
20E
330
1F
100
AcDbEntity
  8
PV-D5
100
AcDbLine
 10
128.0
 20
-169.9755992470284
 30
-0.0000000000000551
 11
128.0
 21
-159.9755992470284
 31
-0.0000000000000551
  0
LINE
  5
20F
330
1F
100
AcDbEntity
  8
PV-D5
100
AcDbLine
 10
179.4999999999999
 20
-184.9755992470283
 30
-0.0000000000000551
 11
179.4999999999999
 21
-171.9755992470284
 31
-0.0000000000000551
  0
LINE
  5
210
330
1F
100
AcDbEntity
  8
PV-D5
100
AcDbLine
 10
146.4999999999998
 20
-184.9755992470283
 30
-0.0000000000000551
 11
146.4999999999998
 21
-171.9755992470284
 31
-0.0000000000000551
  0
LINE
  5
211
330
1F
100
AcDbEntity
  8
PV-D5
100
AcDbLine
 10
-114.5
 20
-249.9755992470284
 30
0.0
 11
-97.5
 21
-249.9755992470284
 31
0.0
  0
LINE
  5
212
330
1F
100
AcDbEntity
  8
PV-D5
100
AcDbLine
 10
-52.5
 20
-249.9755992470284
 30
0.0
 11
52.49999999999993
 21
-249.9755992470284
 31
0.0
  0
LINE
  5
213
330
1F
100
AcDbEntity
  8
PV-D5
100
AcDbLine
 10
97.5
 20
-249.9755992470284
 30
0.0
 11
114.4999999999998
 21
-249.9755992470284
 31
0.0
  0
LINE
  5
215
330
1F
100
AcDbEntity
  8
PV-D5
100
AcDbLine
 10
-52.5
 20
-216.9755992470284
 30
0.0
 11
52.49999999999993
 21
-216.9755992470284
 31
0.0
  0
LINE
  5
216
330
1F
100
AcDbEntity
  8
PV-D5
100
AcDbLine
 10
97.5
 20
-216.9755992470284
 30
0.0
 11
114.4999999999998
 21
-216.9755992470284
 31
0.0
  0
LINE
  5
217
330
1F
100
AcDbEntity
  8
PV-D5
100
AcDbLine
 10
-179.5
 20
-171.9755992470283
 30
0.0
 11
-179.5
 21
-184.9755992470283
 31
0.0
  0
LINE
  5
218
330
1F
100
AcDbEntity
  8
PV-D5
100
AcDbLine
 10
-146.4999999999999
 20
-171.9755992470283
 30
0.0
 11
-146.4999999999999
 21
-184.9755992470283
 31
0.0
  0
LINE
  5
219
330
1F
100
AcDbEntity
  8
PV-D5
100
AcDbLine
 10
-128.0
 20
-169.9755992470284
 30
0.0
 11
-128.0
 21
-159.9755992470284
 31
0.0
  0
LINE
  5
21A
330
1F
100
AcDbEntity
  8
PV-D5
100
AcDbLine
 10
-198.0
 20
-169.9755992470284
 30
0.0
 11
-198.0
 21
-159.9755992470284
 31
0.0
  0
ARC
  5
21B
330
1F
100
AcDbEntity
  8
PV-D5
100
AcDbCircle
 10
130.0
 20
-169.9755992470284
 30
-0.0000000000000551
 40
2.0
100
AcDbArc
 50
180.0
 51
270.0
  0
ARC
  5
21C
330
1F
100
AcDbEntity
  8
PV-D5
100
AcDbCircle
 10
195.9999999999999
 20
-169.9755992470284
 30
-0.0000000000000551
 40
2.0
100
AcDbArc
 50
270.0
 51
0.0
  0
ARC
  5
21D
330
1F
100
AcDbEntity
  8
PV-D5
100
AcDbCircle
 10
114.4999999999998
 20
-184.9755992470283
 30
-0.0000000000000551
 40
65.0
100
AcDbArc
 50
270.0
 51
0.0
  0
ARC
  5
21E
330
1F
100
AcDbEntity
  8
PV-D5
100
AcDbCircle
 10
114.4999999999998
 20
-184.9755992470283
 30
-0.0000000000000551
 40
32.0
100
AcDbArc
 50
270.0
 51
0.0
  0
ARC
  5
21F
330
1F
100
AcDbEntity
  8
PV-D5
100
AcDbCircle
 10
-114.5
 20
-184.9755992470283
 30
0.0
 40
65.0
100
AcDbArc
 50
179.9999999999983
 51
270.0
  0
ARC
  5
220
330
1F
100
AcDbEntity
  8
PV-D5
100
AcDbCircle
 10
-114.5
 20
-184.9755992470283
 30
0.0
 40
32.0
100
AcDbArc
 50
179.9999999999983
 51
270.0
  0
ARC
  5
221
330
1F
100
AcDbEntity
  8
PV-D5
100
AcDbCircle
 10
-196.0
 20
-169.9755992470284
 30
0.0
 40
2.0
100
AcDbArc
 50
180.0
 51
270.0000000000017
  0
ARC
  5
222
330
1F
100
AcDbEntity
  8
PV-D5
100
AcDbCircle
 10
-130.0
 20
-169.9755992470284
 30
0.0
 40
2.0
100
AcDbArc
 50
269.9999999999984
 51
0.0
  0
LINE
  5
2B9
330
1F
100
AcDbEntity
  8
PV-D5
100
AcDbLine
 10
-114.5
 20
-216.9755992470284
 30
0.0
 11
-97.5
 21
-216.9755992470284
 31
0.0
  0
ENDSEC
  0
SECTION
  2
OBJECTS
  0
DICTIONARY
  5
C
330
0
100
AcDbDictionary
281
     1
  3
ACAD_CIP_PREVIOUS_PRODUCT_INFO
350
29A
  3
ACAD_COLOR
350
27A
  3
ACAD_DETAILVIEWSTYLE
350
294
  3
ACAD_GROUP
350
D
  3
ACAD_LAYOUT
350
1A
  3
ACAD_MATERIAL
350
248
  3
ACAD_MLEADERSTYLE
350
28F
  3
ACAD_MLINESTYLE
350
17
  3
ACAD_PLOTSETTINGS
350
19
  3
ACAD_PLOTSTYLENAME
350
147
  3
ACAD_SCALELIST
350
27D
  3
ACAD_SECTIONVIEWSTYLE
350
291
  3
ACAD_TABLESTYLE
350
27B
  3
ACAD_VISUALSTYLE
350
261
  3
ACDB_RECOMPOSE_DATA
350
2CD
  3
AcDbVariableDictionary
350
2C0
  3
DWGPROPS
350
2CE
  0
DICTIONARY
  5
2BC
330
10
100
AcDbDictionary
280
     1
281
     1
  3
ADSK_XREC_LAYER_RECONCILED
360
2BD
  0
DICTIONARY
  5
2BE
330
A1
100
AcDbDictionary
280
     1
281
     1
  3
ADSK_XREC_LAYER_RECONCILED
360
2BF
  0
DICTIONARY
  5
141
330
1F
100
AcDbDictionary
281
     1
  3
ACAD_LAYOUTSELFREF
350
245
  3
ACAD_SORTENTS
350
2BA
  0
DICTIONARY
  5
13F
330
1B
100
AcDbDictionary
281
     1
  3
ACAD_LAYOUTSELFREF
350
244
  0
XRECORD
  5
29A
102
{ACAD_REACTORS
330
C
102
}
330
C
100
AcDbXrecord
280
     1
300
ACDLT
300
2013
300
ACDLT_F_S
  0
DICTIONARY
  5
27A
102
{ACAD_REACTORS
330
C
102
}
330
C
100
AcDbDictionary
281
     1
  0
DICTIONARY
  5
294
102
{ACAD_REACTORS
330
C
102
}
330
C
100
AcDbDictionary
281
     1
  3
Imperial24
350
295
  0
DICTIONARY
  5
D
102
{ACAD_REACTORS
330
C
102
}
330
C
100
AcDbDictionary
281
     1
  0
DICTIONARY
  5
1A
102
{ACAD_REACTORS
330
C
102
}
330
C
100
AcDbDictionary
281
     1
  3
Layout1
350
297
  3
Model
350
296
  0
DICTIONARY
  5
248
102
{ACAD_REACTORS
330
C
102
}
330
C
100
AcDbDictionary
281
     1
  3
ByBlock
350
251
  3
ByLayer
350
249
  3
Global
350
259
  0
DICTIONARY
  5
28F
102
{ACAD_REACTORS
330
C
102
}
330
C
100
AcDbDictionary
281
     1
  3
Standard
350
290
  0
DICTIONARY
  5
17
102
{ACAD_REACTORS
330
C
102
}
330
C
100
AcDbDictionary
281
     1
  3
STANDARD
350
18
  0
DICTIONARY
  5
19
102
{ACAD_REACTORS
330
C
102
}
330
C
100
AcDbDictionary
281
     1
  0
ACDBDICTIONARYWDFLT
  5
147
102
{ACAD_REACTORS
330
C
102
}
330
C
100
AcDbDictionary
281
     1
  3
Normal
350
148
100
AcDbDictionaryWithDefault
340
148
  0
DICTIONARY
  5
27D
102
{ACAD_REACTORS
330
C
102
}
330
C
100
AcDbDictionary
281
     1
  3
A0
350
27E
  3
A1
350
27F
  3
A2
350
280
  3
A3
350
281
  3
A4
350
282
  3
A5
350
283
  3
A6
350
284
  3
A7
350
285
  3
A8
350
286
  3
A9
350
287
  3
B0
350
288
  3
B1
350
289
  3
B2
350
28A
  3
B3
350
28B
  3
B4
350
28C
  3
B5
350
28D
  3
B6
350
28E
  0
DICTIONARY
  5
291
102
{ACAD_REACTORS
330
C
102
}
330
C
100
AcDbDictionary
281
     1
  3
Imperial24
350
293
  0
DICTIONARY
  5
27B
102
{ACAD_REACTORS
330
C
102
}
330
C
100
AcDbDictionary
281
     1
  3
Standard
350
27C
  0
DICTIONARY
  5
261
102
{ACAD_REACTORS
330
C
102
}
330
C
100
AcDbDictionary
281
     1
  3
2dWireframe
350
267
  3
Basic
350
266
  3
Brighten
350
26D
  3
ColorChange
350
271
  3
Conceptual
350
26A
  3
Dim
350
26C
  3
EdgeColorOff
350
279
  3
Facepattern
350
270
  3
Flat
350
262
  3
FlatWithEdges
350
263
  3
Gouraud
350
264
  3
GouraudWithEdges
350
265
  3
Hidden
350
269
  3
JitterOff
350
277
  3
Linepattern
350
26F
  3
OverhangOff
350
278
  3
Realistic
350
26B
  3
Shaded
350
276
  3
Shaded with edges
350
275
  3
Shades of Gray
350
272
  3
Sketchy
350
273
  3
Thicken
350
26E
  3
Wireframe
350
268
  3
X-Ray
350
274
  0
XRECORD
  5
2CD
102
{ACAD_REACTORS
330
C
102
}
330
C
100
AcDbXrecord
280
     1
 90
        1
330
27C
  0
DICTIONARY
  5
2C0
102
{ACAD_REACTORS
330
C
102
}
330
C
100
AcDbDictionary
281
     1
  3
CANNOSCALE
350
2C5
  3
CMLEADERSTYLE
350
2C2
  3
CTABLESTYLE
350
2C1
  3
CVIEWDETAILSTYLE
350
2C3
  3
CVIEWSECTIONSTYLE
350
2C4
  3
DIMASSOC
350
2C8
  3
INDEXCTL
350
2C7
  3
SORTENTS
350
2C6
  3
XCLIPFRAME
350
2C9
  0
XRECORD
  5
2CE
102
{ACAD_REACTORS
330
C
102
}
330
C
100
AcDbXrecord
280
     1
  1
DWGPROPS COOKIE
  2

  3

  4

  6

  7

  8
kaschu
  9

300
=
301
=
302
=
303
=
304
=
305
=
306
=
307
=
308
=
309
=
 40
0.0018547106481481
 41
2451762.476526273
 42
2456990.523867569
  1

 90
        0
  0
XRECORD
  5
2BD
102
{ACAD_REACTORS
330
2BC
102
}
330
2BC
100
AcDbXrecord
280
     1
290
     1
  0
XRECORD
  5
2BF
102
{ACAD_REACTORS
330
2BE
102
}
330
2BE
100
AcDbXrecord
280
     1
290
     1
  0
XRECORD
  5
245
102
{ACAD_REACTORS
330
141
102
}
330
141
100
AcDbXrecord
280
     1
340
1F
  0
SORTENTSTABLE
  5
2BA
102
{ACAD_REACTORS
330
141
102
}
330
141
100
AcDbSortentsTable
330
1F
331
205
  5
205
331
1E8
  5
1E8
331
1D7
  5
1D7
331
1C6
  5
1C6
331
1B5
  5
1B5
331
1A4
  5
1A4
331
193
  5
193
331
182
  5
182
331
216
  5
217
331
167
  5
167
331
156
  5
156
331
220
  5
222
331
2B9
  5
215
331
206
  5
206
331
1E9
  5
1E9
331
1D8
  5
1D8
331
1C7
  5
1C7
331
1B6
  5
1B6
331
1A5
  5
1A5
331
194
  5
194
331
183
  5
183
331
179
  5
179
331
168
  5
168
331
217
  5
219
331
157
  5
157
331
221
  5
29B
331
218
  5
21A
331
207
  5
207
331
1EA
  5
1EA
331
1D9
  5
1D9
331
1C8
  5
1C8
331
1B7
  5
1B7
331
1A6
  5
1A6
331
195
  5
195
331
184
  5
184
331
17A
  5
17A
331
169
  5
169
331
158
  5
158
331
208
  5
208
331
222
  5
2B8
331
219
  5
21B
331
1EB
  5
1EB
331
1DA
  5
1DA
331
1C9
  5
1C9
331
1B8
  5
1B8
331
1A7
  5
1A7
331
196
  5
196
331
185
  5
185
331
17B
  5
17B
331
16A
  5
16A
331
159
  5
159
331
209
  5
209
331
21A
  5
21C
331
1EC
  5
1EC
331
1DB
  5
1DB
331
1CA
  5
1CA
331
1B9
  5
1B9
331
1A8
  5
1A8
331
197
  5
197
331
186
  5
186
331
17C
  5
17C
331
16B
  5
16B
331
15A
  5
15A
331
20A
  5
20A
331
1F9
  5
1F9
331
21B
  5
21D
331
1ED
  5
1ED
331
1DC
  5
1DC
331
1CB
  5
1CB
331
1BA
  5
1BA
331
1A9
  5
1A9
331
198
  5
198
331
187
  5
187
331
17D
  5
17D
331
16C
  5
16C
331
15B
  5
15B
331
20B
  5
20B
331
1FA
  5
1FA
331
21C
  5
21E
331
1EE
  5
1EE
331
1DD
  5
1DD
331
1CC
  5
1CC
331
1BB
  5
1BB
331
1AA
  5
1AA
331
199
  5
199
331
188
  5
188
331
17E
  5
17E
331
16D
  5
16D
331
15C
  5
15C
331
20C
  5
20C
331
1FB
  5
1FB
331
21D
  5
21F
331
1EF
  5
1EF
331
1DE
  5
1DE
331
1BC
  5
1BC
331
1AB
  5
1AB
331
19A
  5
19A
331
189
  5
189
331
17F
  5
17F
331
16E
  5
16E
331
15D
  5
15D
331
20D
  5
20D
331
1FC
  5
1FC
331
1F0
  5
1F0
331
21E
  5
220
331
1DF
  5
1DF
331
1CE
  5
1CE
331
1BD
  5
1BD
331
1AC
  5
1AC
331
19B
  5
19B
331
18A
  5
18A
331
16F
  5
16F
331
15E
  5
15E
331
1FD
  5
1FD
331
1F1
  5
1F1
331
1E0
  5
1E0
331
20E
  5
20E
331
21F
  5
221
331
1CF
  5
1CF
331
1BE
  5
1BE
331
1AD
  5
1AD
331
19C
  5
19C
331
18B
  5
18B
331
170
  5
170
331
15F
  5
15F
331
14E
  5
14E
331
1FE
  5
1FE
331
1F2
  5
1F2
331
1E1
  5
1E1
331
1D0
  5
1D0
331
20F
  5
20F
331
1BF
  5
1BF
331
1AE
  5
1AE
331
19D
  5
19D
331
18C
  5
18C
331
171
  5
171
331
160
  5
160
331
14F
  5
14F
331
1FF
  5
1FF
331
1F3
  5
1F3
331
1E2
  5
1E2
331
1D1
  5
1D1
331
1C0
  5
1C0
331
210
  5
210
331
1AF
  5
1AF
331
19E
  5
19E
331
18D
  5
18D
331
172
  5
172
331
161
  5
161
331
150
  5
150
331
200
  5
200
331
1F4
  5
1F4
331
1E3
  5
1E3
331
1D2
  5
1D2
331
1C1
  5
1C1
331
1B0
  5
1B0
331
211
  5
211
331
19F
  5
19F
331
18E
  5
18E
331
173
  5
173
331
162
  5
162
331
151
  5
151
331
201
  5
201
331
1F5
  5
1F5
331
1E4
  5
1E4
331
1D3
  5
1D3
331
1C2
  5
1C2
331
1B1
  5
1B1
331
1A0
  5
1A0
331
212
  5
212
331
18F
  5
18F
331
174
  5
174
331
163
  5
163
331
152
  5
152
331
202
  5
202
331
1F6
  5
1F6
331
1E5
  5
1E5
331
1D4
  5
1D4
331
1C3
  5
1C3
331
1B2
  5
1B2
331
1A1
  5
1A1
331
190
  5
190
331
213
  5
213
331
175
  5
175
331
164
  5
164
331
153
  5
153
331
203
  5
203
331
1F7
  5
1F7
331
1E6
  5
1E6
331
1D5
  5
1D5
331
1C4
  5
1C4
331
1B3
  5
1B3
331
1A2
  5
1A2
331
191
  5
191
331
180
  5
180
331
176
  5
176
331
165
  5
165
331
154
  5
154
331
204
  5
204
331
1E7
  5
1E7
331
1D6
  5
1D6
331
1C5
  5
1C5
331
1B4
  5
1B4
331
1A3
  5
1A3
331
192
  5
192
331
181
  5
181
331
215
  5
216
331
177
  5
177
331
166
  5
166
331
155
  5
155
  0
XRECORD
  5
244
102
{ACAD_REACTORS
330
13F
102
}
330
13F
100
AcDbXrecord
280
     1
340
1B
  0
ACDBDETAILVIEWSTYLE
  5
295
102
{ACAD_REACTORS
330
294
102
}
330
294
100
AcDbModelDocViewStyle
 70
     0
  3
Imperial24
290
     0
100
AcDbDetailViewStyle
 70
     0
 71
     0
 90
        3
 71
     1
340
11
 40
0.24
340
0
 40
0.24
300

 40
0.36
280
     3
 71
     2
340
16
 90
       25
 71
     3
340
11
 40
0.24
 90
        1
 40
0.75
 90
        1
300
%<\AcVar ViewType \f "%tc1">% %<\AcVar ViewDetailId>%\PVARIA %<\AcVar ViewScale \f "%sn">%
 71
     4
340
16
 90
       25
340
16
 90
       25
280
     0
  0
LAYOUT
  5
297
102
{ACAD_XDICTIONARY
360
306
102
}
102
{ACAD_REACTORS
330
1A
102
}
330
1A
100
AcDbPlotSettings
  1

  2
\\srvadruck01\MFSA15
  4

  6

 40
0.0
 41
0.0
 42
0.0
 43
0.0
 44
0.0
 45
0.0
 46
0.0
 47
0.0
 48
0.0
 49
0.0
140
0.0
141
0.0
142
1.0
143
1.0
 70
   688
 72
     0
 73
     0
 74
     5
  7

 75
    16
147
1.0
148
0.0
149
0.0
100
AcDbLayout
  1
Layout1
 70
     1
 71
     1
 10
0.0
 20
0.0
 11
12.0
 21
9.0
 12
0.0
 22
0.0
 32
0.0
 14
1.000000000000000E+20
 24
1.000000000000000E+20
 34
1.000000000000000E+20
 15
-1.000000000000000E+20
 25
-1.000000000000000E+20
 35
-1.000000000000000E+20
146
0.0
 13
0.0
 23
0.0
 33
0.0
 16
1.0
 26
0.0
 36
0.0
 17
0.0
 27
1.0
 37
0.0
 76
     0
330
1B
  0
LAYOUT
  5
296
102
{ACAD_XDICTIONARY
360
304
102
}
102
{ACAD_REACTORS
330
1A
102
}
330
1A
100
AcDbPlotSettings
  1

  2
\\srvadruck01\MFSA15
  4

  6

 40
0.0
 41
0.0
 42
0.0
 43
0.0
 44
0.0
 45
0.0
 46
0.0
 47
0.0
 48
0.0
 49
0.0
140
0.0
141
0.0
142
1.0
143
1.0
 70
  1712
 72
     0
 73
     0
 74
     0
  7

 75
     0
147
1.0
148
0.0
149
0.0
100
AcDbLayout
  1
Model
 70
     1
 71
     0
 10
0.0
 20
0.0
 11
12.0
 21
9.0
 12
0.0
 22
0.0
 32
0.0
 14
0.0
 24
0.0
 34
0.0
 15
0.0
 25
0.0
 35
0.0
146
0.0
 13
0.0
 23
0.0
 33
0.0
 16
1.0
 26
0.0
 36
0.0
 17
0.0
 27
1.0
 37
0.0
 76
     0
330
1F
331
223
  0
MATERIAL
  5
251
102
{ACAD_XDICTIONARY
360
252
102
}
102
{ACAD_REACTORS
330
248
102
}
330
248
100
AcDbMaterial
  1
ByBlock
 72
     0
 43
0.0208333333333333
 43
0.0
 43
0.0
 43
0.0
 43
0.0
 43
0.0208333333333333
 43
0.0
 43
0.0
 43
0.0
 43
0.0
 43
1.0
 43
0.0
 43
0.0
 43
0.0
 43
0.0
 43
1.0
 77
     0
 47
0.0208333333333333
 47
0.0
 47
0.0
 47
0.0
 47
0.0
 47
0.0208333333333333
 47
0.0
 47
0.0
 47
0.0
 47
0.0
 47
1.0
 47
0.0
 47
0.0
 47
0.0
 47
0.0
 47
1.0
171
     0
 49
0.0208333333333333
 49
0.0
 49
0.0
 49
0.0
 49
0.0
 49
0.0208333333333333
 49
0.0
 49
0.0
 49
0.0
 49
0.0
 49
1.0
 49
0.0
 49
0.0
 49
0.0
 49
0.0
 49
1.0
175
     0
142
0.0208333333333333
142
0.0
142
0.0
142
0.0
142
0.0
142
0.0208333333333333
142
0.0
142
0.0
142
0.0
142
0.0
142
1.0
142
0.0
142
0.0
142
0.0
142
0.0
142
1.0
179
     0
144
0.0208333333333333
144
0.0
144
0.0
144
0.0
144
0.0
144
0.0208333333333333
144
0.0
144
0.0
144
0.0
144
0.0
144
1.0
144
0.0
144
0.0
144
0.0
144
0.0
144
1.0
147
0.0208333333333333
147
0.0
147
0.0
147
0.0
147
0.0
147
0.0208333333333333
147
0.0
147
0.0
147
0.0
147
0.0
147
1.0
147
0.0
147
0.0
147
0.0
147
0.0
147
1.0
  0
MATERIAL
  5
249
102
{ACAD_XDICTIONARY
360
24A
102
}
102
{ACAD_REACTORS
330
248
102
}
330
248
100
AcDbMaterial
  1
ByLayer
 72
     0
 43
0.0208333333333333
 43
0.0
 43
0.0
 43
0.0
 43
0.0
 43
0.0208333333333333
 43
0.0
 43
0.0
 43
0.0
 43
0.0
 43
1.0
 43
0.0
 43
0.0
 43
0.0
 43
0.0
 43
1.0
 77
     0
 47
0.0208333333333333
 47
0.0
 47
0.0
 47
0.0
 47
0.0
 47
0.0208333333333333
 47
0.0
 47
0.0
 47
0.0
 47
0.0
 47
1.0
 47
0.0
 47
0.0
 47
0.0
 47
0.0
 47
1.0
171
     0
 49
0.0208333333333333
 49
0.0
 49
0.0
 49
0.0
 49
0.0
 49
0.0208333333333333
 49
0.0
 49
0.0
 49
0.0
 49
0.0
 49
1.0
 49
0.0
 49
0.0
 49
0.0
 49
0.0
 49
1.0
175
     0
142
0.0208333333333333
142
0.0
142
0.0
142
0.0
142
0.0
142
0.0208333333333333
142
0.0
142
0.0
142
0.0
142
0.0
142
1.0
142
0.0
142
0.0
142
0.0
142
0.0
142
1.0
179
     0
144
0.0208333333333333
144
0.0
144
0.0
144
0.0
144
0.0
144
0.0208333333333333
144
0.0
144
0.0
144
0.0
144
0.0
144
1.0
144
0.0
144
0.0
144
0.0
144
0.0
144
1.0
147
0.0208333333333333
147
0.0
147
0.0
147
0.0
147
0.0
147
0.0208333333333333
147
0.0
147
0.0
147
0.0
147
0.0
147
1.0
147
0.0
147
0.0
147
0.0
147
0.0
147
1.0
  0
MATERIAL
  5
259
102
{ACAD_XDICTIONARY
360
25A
102
}
102
{ACAD_REACTORS
330
248
102
}
330
248
100
AcDbMaterial
  1
Global
 72
     0
 43
0.0208333333333333
 43
0.0
 43
0.0
 43
0.0
 43
0.0
 43
0.0208333333333333
 43
0.0
 43
0.0
 43
0.0
 43
0.0
 43
1.0
 43
0.0
 43
0.0
 43
0.0
 43
0.0
 43
1.0
 77
     0
 47
0.0208333333333333
 47
0.0
 47
0.0
 47
0.0
 47
0.0
 47
0.0208333333333333
 47
0.0
 47
0.0
 47
0.0
 47
0.0
 47
1.0
 47
0.0
 47
0.0
 47
0.0
 47
0.0
 47
1.0
171
     0
 49
0.0208333333333333
 49
0.0
 49
0.0
 49
0.0
 49
0.0
 49
0.0208333333333333
 49
0.0
 49
0.0
 49
0.0
 49
0.0
 49
1.0
 49
0.0
 49
0.0
 49
0.0
 49
0.0
 49
1.0
175
     0
142
0.0208333333333333
142
0.0
142
0.0
142
0.0
142
0.0
142
0.0208333333333333
142
0.0
142
0.0
142
0.0
142
0.0
142
1.0
142
0.0
142
0.0
142
0.0
142
0.0
142
1.0
179
     0
144
0.0208333333333333
144
0.0
144
0.0
144
0.0
144
0.0
144
0.0208333333333333
144
0.0
144
0.0
144
0.0
144
0.0
144
1.0
144
0.0
144
0.0
144
0.0
144
0.0
144
1.0
147
0.0208333333333333
147
0.0
147
0.0
147
0.0
147
0.0
147
0.0208333333333333
147
0.0
147
0.0
147
0.0
147
0.0
147
1.0
147
0.0
147
0.0
147
0.0
147
0.0
147
1.0
  0
MLEADERSTYLE
  5
290
102
{ACAD_REACTORS
330
28F
102
}
330
28F
100
AcDbMLeaderStyle
170
     2
171
     1
172
     0
 90
        2
 40
0.0
 41
0.0
173
     1
 91
-1056964608
340
14
 92
       -2
290
     1
 42
0.09
291
     1
 43
0.36
  3
Standard
 44
0.18
300

342
11
174
     1
178
     6
175
     1
176
     0
 93
-1056964608
 45
0.18
292
     0
297
     0
 46
0.18
 94
-1056964608
 47
1.0
 49
1.0
140
1.0
293
     1
141
0.0
294
     1
177
     0
142
1.0
295
     0
296
     0
143
0.125
1001
ACAD_MLEADERVER
1070
     2
  0
MLINESTYLE
  5
18
102
{ACAD_REACTORS
330
17
102
}
330
17
100
AcDbMlineStyle
  2
STANDARD
 70
     0
  3

 62
   256
 51
90.0
 52
90.0
 71
     2
 49
0.5
 62
   256
  6
BYLAYER
 49
-0.5
 62
   256
  6
BYLAYER
  0
ACDBPLACEHOLDER
  5
148
102
{ACAD_REACTORS
330
147
102
}
330
147
  0
SCALE
  5
27E
102
{ACAD_REACTORS
330
27D
102
}
330
27D
100
AcDbScale
 70
     0
300
1:1
140
1.0
141
1.0
290
     1
  0
SCALE
  5
27F
102
{ACAD_REACTORS
330
27D
102
}
330
27D
100
AcDbScale
 70
     0
300
1/128" = 1'-0"
140
0.0078125
141
12.0
290
     0
  0
SCALE
  5
280
102
{ACAD_REACTORS
330
27D
102
}
330
27D
100
AcDbScale
 70
     0
300
1/64" = 1'-0"
140
0.015625
141
12.0
290
     0
  0
SCALE
  5
281
102
{ACAD_REACTORS
330
27D
102
}
330
27D
100
AcDbScale
 70
     0
300
1/32" = 1'-0"
140
0.03125
141
12.0
290
     0
  0
SCALE
  5
282
102
{ACAD_REACTORS
330
27D
102
}
330
27D
100
AcDbScale
 70
     0
300
1/16" = 1'-0"
140
0.0625
141
12.0
290
     0
  0
SCALE
  5
283
102
{ACAD_REACTORS
330
27D
102
}
330
27D
100
AcDbScale
 70
     0
300
3/32" = 1'-0"
140
0.09375
141
12.0
290
     0
  0
SCALE
  5
284
102
{ACAD_REACTORS
330
27D
102
}
330
27D
100
AcDbScale
 70
     0
300
1/8" = 1'-0"
140
0.125
141
12.0
290
     0
  0
SCALE
  5
285
102
{ACAD_REACTORS
330
27D
102
}
330
27D
100
AcDbScale
 70
     0
300
3/16" = 1'-0"
140
0.1875
141
12.0
290
     0
  0
SCALE
  5
286
102
{ACAD_REACTORS
330
27D
102
}
330
27D
100
AcDbScale
 70
     0
300
1/4" = 1'-0"
140
0.25
141
12.0
290
     0
  0
SCALE
  5
287
102
{ACAD_REACTORS
330
27D
102
}
330
27D
100
AcDbScale
 70
     0
300
3/8" = 1'-0"
140
0.375
141
12.0
290
     0
  0
SCALE
  5
288
102
{ACAD_REACTORS
330
27D
102
}
330
27D
100
AcDbScale
 70
     0
300
1/2" = 1'-0"
140
0.5
141
12.0
290
     0
  0
SCALE
  5
289
102
{ACAD_REACTORS
330
27D
102
}
330
27D
100
AcDbScale
 70
     0
300
3/4" = 1'-0"
140
0.75
141
12.0
290
     0
  0
SCALE
  5
28A
102
{ACAD_REACTORS
330
27D
102
}
330
27D
100
AcDbScale
 70
     0
300
1" = 1'-0"
140
1.0
141
12.0
290
     0
  0
SCALE
  5
28B
102
{ACAD_REACTORS
330
27D
102
}
330
27D
100
AcDbScale
 70
     0
300
1-1/2" = 1'-0"
140
1.5
141
12.0
290
     0
  0
SCALE
  5
28C
102
{ACAD_REACTORS
330
27D
102
}
330
27D
100
AcDbScale
 70
     0
300
3" = 1'-0"
140
3.0
141
12.0
290
     0
  0
SCALE
  5
28D
102
{ACAD_REACTORS
330
27D
102
}
330
27D
100
AcDbScale
 70
     0
300
6" = 1'-0"
140
6.0
141
12.0
290
     0
  0
SCALE
  5
28E
102
{ACAD_REACTORS
330
27D
102
}
330
27D
100
AcDbScale
 70
     0
300
1'-0" = 1'-0"
140
12.0
141
12.0
290
     0
  0
ACDBSECTIONVIEWSTYLE
  5
293
102
{ACAD_REACTORS
330
291
102
}
330
291
100
AcDbModelDocViewStyle
 70
     0
  3
Imperial24
290
     0
100
AcDbSectionViewStyle
 70
     0
 71
     0
 90
       78
 71
     1
340
11
 40
0.24
340
0
340
0
 40
0.24
300
I, O, Q, S, X, Z
 40
0.48
 90
        3
 40
0.18
 90
        1
 71
     2
340
292
 90
       25
340
16
 90
       50
 40
0.24
 40
0.0
 40
0.24
 71
     3
340
11
 40
0.24
 90
        1
 40
0.75
 90
        1
300
%<\AcVar ViewType \f "%tc1">% %<\AcVar ViewSectionStartId>%-%<\AcVar ViewSectionEndId>%\PVARIA %<\AcVar ViewScale \f "%sn">%
 71
     4
300
ANSI31
 40
1.0
 90
        0
290
     0
290
     0
 90
        6
 40
0.0
 40
1.570796326794896
 40
0.2617993877991494
 40
1.308996938995747
 40
-0.2617993877991494
 40
1.832595714594046
  0
TABLESTYLE
  5
27C
102
{ACAD_XDICTIONARY
360
2CB
102
}
102
{ACAD_REACTORS
330
27B
102
}
330
27B
100
AcDbTableStyle
  3
Standard
 70
     0
 71
     0
 40
0.06
 41
0.06
280
     0
281
     0
  7
STANDARD
140
0.18
170
     2
 62
     0
 63
     7
283
     0
274
    -2
284
     1
 64
     0
275
    -2
285
     1
 65
     0
276
    -2
286
     1
 66
     0
277
    -2
287
     1
 67
     0
278
    -2
288
     1
 68
     0
279
    -2
289
     1
 69
     0
  7
STANDARD
140
0.25
170
     5
 62
     0
 63
     7
283
     0
274
    -2
284
     1
 64
     0
275
    -2
285
     1
 65
     0
276
    -2
286
     1
 66
     0
277
    -2
287
     1
 67
     0
278
    -2
288
     1
 68
     0
279
    -2
289
     1
 69
     0
  7
STANDARD
140
0.18
170
     5
 62
     0
 63
     7
283
     0
274
    -2
284
     1
 64
     0
275
    -2
285
     1
 65
     0
276
    -2
286
     1
 66
     0
277
    -2
287
     1
 67
     0
278
    -2
288
     1
 68
     0
279
    -2
289
     1
 69
     0
  0
VISUALSTYLE
  5
267
102
{ACAD_XDICTIONARY
360
2DC
102
}
102
{ACAD_REACTORS
330
261
102
}
330
261
100
AcDbVisualStyle
  2
2dWireframe
 70
     4
 71
     0
 72
     2
 73
     0
 90
        0
 40
-0.6
 41
-30.0
 62
     5
 63
     7
 74
     1
 91
        4
 64
     7
 65
   257
 75
     1
175
     1
 42
1.0
 92
        0
 66
   257
 43
1.0
 76
     1
 77
     6
 78
     2
 67
     7
 79
     5
170
     0
171
     0
290
     0
174
     0
 93
        1
 44
0.0
173
     0
291
     0
 45
0.0
1001
ACAD
1000
AcDbSavedByObjectVersion
1070
     0
  0
VISUALSTYLE
  5
266
102
{ACAD_XDICTIONARY
360
2DA
102
}
102
{ACAD_REACTORS
330
261
102
}
330
261
100
AcDbVisualStyle
  2
Basic
 70
     7
 71
     1
 72
     0
 73
     1
 90
        0
 40
-0.6
 41
-30.0
 62
     5
 63
     7
 74
     0
 91
        4
 64
     7
 65
   257
 75
     1
175
     1
 42
1.0
 92
        8
 66
     7
 43
1.0
 76
     1
 77
     6
 78
     2
 67
     7
 79
     5
170
     0
171
     0
290
     0
174
     0
 93
        1
 44
0.0
173
     0
291
     1
 45
0.0
1001
ACAD
1000
AcDbSavedByObjectVersion
1070
     0
  0
VISUALSTYLE
  5
26D
102
{ACAD_XDICTIONARY
360
2E8
102
}
102
{ACAD_REACTORS
330
261
102
}
330
261
100
AcDbVisualStyle
  2
Brighten
 70
    12
 71
     2
 72
     2
 73
     0
 90
        0
 40
-0.6
 41
-30.0
 62
     5
 63
     7
 74
     1
 91
        4
 64
     7
 65
   257
 75
     1
175
     1
 42
1.0
 92
        8
 66
     7
 43
1.0
 76
     1
 77
     6
 78
     2
 67
     7
 79
     5
170
     0
171
     0
290
     0
174
     0
 93
        1
 44
50.0
173
     0
291
     1
 45
0.0
1001
ACAD
1000
AcDbSavedByObjectVersion
1070
     0
  0
VISUALSTYLE
  5
271
102
{ACAD_XDICTIONARY
360
2F0
102
}
102
{ACAD_REACTORS
330
261
102
}
330
261
100
AcDbVisualStyle
  2
ColorChange
 70
    16
 71
     2
 72
     2
 73
     3
 90
        0
 40
-0.6
 41
-30.0
 62
     5
 63
     8
 74
     1
 91
        4
 64
     7
 65
   257
 75
     1
175
     1
 42
1.0
 92
        8
 66
     8
 43
1.0
 76
     1
 77
     6
 78
     2
 67
     7
 79
     5
170
     0
171
     0
290
     0
174
     0
 93
        1
 44
0.0
173
     0
291
     1
 45
0.0
1001
ACAD
1000
AcDbSavedByObjectVersion
1070
     0
  0
VISUALSTYLE
  5
26A
102
{ACAD_XDICTIONARY
360
2E2
102
}
102
{ACAD_REACTORS
330
261
102
}
330
261
100
AcDbVisualStyle
  2
Conceptual
 70
     9
 71
     3
 72
     2
 73
     0
 90
        0
 40
-0.6
 41
-30.0
 62
     5
 63
     7
 74
     2
 91
        2
 64
     7
 65
   257
 75
     1
175
     1
 42
179.0
 92
        8
 66
     7
 43
1.0
 76
     1
 77
     6
 78
     2
 67
     7
 79
     3
170
     0
171
     0
290
     0
174
     0
 93
        1
 44
0.0
173
     0
291
     0
 45
0.0
1001
ACAD
1000
AcDbSavedByObjectVersion
1070
     0
  0
VISUALSTYLE
  5
26C
102
{ACAD_XDICTIONARY
360
2E6
102
}
102
{ACAD_REACTORS
330
261
102
}
330
261
100
AcDbVisualStyle
  2
Dim
 70
    11
 71
     2
 72
     2
 73
     0
 90
        0
 40
-0.6
 41
-30.0
 62
     5
 63
     7
 74
     1
 91
        4
 64
     7
 65
   257
 75
     1
175
     1
 42
1.0
 92
        8
 66
     7
 43
1.0
 76
     1
 77
     6
 78
     2
 67
     7
 79
     5
170
     0
171
     0
290
     0
174
     0
 93
        1
 44
-50.0
173
     0
291
     1
 45
0.0
1001
ACAD
1000
AcDbSavedByObjectVersion
1070
     0
  0
VISUALSTYLE
  5
279
102
{ACAD_XDICTIONARY
360
300
102
}
102
{ACAD_REACTORS
330
261
102
}
330
261
100
AcDbVisualStyle
  2
EdgeColorOff
 70
    22
 71
     2
 72
     2
 73
     0
 90
        0
 40
-0.6
 41
-30.0
 62
     5
 63
     7
 74
     1
 91
        4
 64
     7
 65
   257
 75
     1
175
     1
 42
1.0
 92
        8
 66
     7
 43
1.0
 76
     1
 77
     6
 78
     2
 67
     7
 79
     5
170
     0
171
     0
290
     0
174
     0
 93
        1
 44
0.0
173
     0
291
     1
 45
0.0
1001
ACAD
1000
AcDbSavedByObjectVersion
1070
     0
  0
VISUALSTYLE
  5
270
102
{ACAD_XDICTIONARY
360
2EE
102
}
102
{ACAD_REACTORS
330
261
102
}
330
261
100
AcDbVisualStyle
  2
Facepattern
 70
    15
 71
     2
 72
     2
 73
     0
 90
        0
 40
-0.6
 41
-30.0
 62
     5
 63
     7
 74
     1
 91
        4
 64
     7
 65
   257
 75
     1
175
     1
 42
1.0
 92
        8
 66
     7
 43
1.0
 76
     1
 77
     6
 78
     2
 67
     7
 79
     5
170
     0
171
     0
290
     0
174
     0
 93
        1
 44
0.0
173
     0
291
     1
 45
0.0
1001
ACAD
1000
AcDbSavedByObjectVersion
1070
     0
  0
VISUALSTYLE
  5
262
102
{ACAD_XDICTIONARY
360
2D2
102
}
102
{ACAD_REACTORS
330
261
102
}
330
261
100
AcDbVisualStyle
  2
Flat
 70
     0
 71
     2
 72
     1
 73
     1
 90
        2
 40
-0.6
 41
30.0
 62
     5
 63
     7
 74
     0
 91
        0
 64
     7
 65
   257
 75
     1
175
     1
 42
1.0
 92
        8
 66
     7
 43
1.0
 76
     1
 77
     6
 78
     2
 67
     7
 79
     5
170
     0
171
     0
290
     0
174
     0
 93
       13
 44
0.0
173
     0
291
     1
 45
0.0
1001
ACAD
1000
AcDbSavedByObjectVersion
1070
     0
  0
VISUALSTYLE
  5
263
102
{ACAD_XDICTIONARY
360
2D4
102
}
102
{ACAD_REACTORS
330
261
102
}
330
261
100
AcDbVisualStyle
  2
FlatWithEdges
 70
     1
 71
     2
 72
     1
 73
     1
 90
        2
 40
-0.6
 41
30.0
 62
     5
 63
     7
 74
     1
 91
        0
 64
     7
 65
   257
 75
     1
175
     1
 42
1.0
 92
        0
 66
   257
 43
1.0
 76
     1
 77
     6
 78
     2
 67
     7
 79
     5
170
     0
171
     0
290
     0
174
     0
 93
       13
 44
0.0
173
     0
291
     1
 45
0.0
1001
ACAD
1000
AcDbSavedByObjectVersion
1070
     0
  0
VISUALSTYLE
  5
264
102
{ACAD_XDICTIONARY
360
2D6
102
}
102
{ACAD_REACTORS
330
261
102
}
330
261
100
AcDbVisualStyle
  2
Gouraud
 70
     2
 71
     2
 72
     2
 73
     1
 90
        2
 40
-0.6
 41
30.0
 62
     5
 63
     7
 74
     0
 91
        0
 64
     7
 65
   257
 75
     1
175
     1
 42
1.0
 92
        0
 66
     7
 43
1.0
 76
     1
 77
     6
 78
     2
 67
     7
 79
     5
170
     0
171
     0
290
     0
174
     0
 93
       13
 44
0.0
173
     0
291
     1
 45
0.0
1001
ACAD
1000
AcDbSavedByObjectVersion
1070
     0
  0
VISUALSTYLE
  5
265
102
{ACAD_XDICTIONARY
360
2D8
102
}
102
{ACAD_REACTORS
330
261
102
}
330
261
100
AcDbVisualStyle
  2
GouraudWithEdges
 70
     3
 71
     2
 72
     2
 73
     1
 90
        2
 40
-0.6
 41
30.0
 62
     5
 63
     7
 74
     1
 91
        0
 64
     7
 65
   257
 75
     1
175
     1
 42
1.0
 92
        0
 66
   257
 43
1.0
 76
     1
 77
     6
 78
     2
 67
     7
 79
     5
170
     0
171
     0
290
     0
174
     0
 93
       13
 44
0.0
173
     0
291
     1
 45
0.0
1001
ACAD
1000
AcDbSavedByObjectVersion
1070
     0
  0
VISUALSTYLE
  5
269
102
{ACAD_XDICTIONARY
360
2E0
102
}
102
{ACAD_REACTORS
330
261
102
}
330
261
100
AcDbVisualStyle
  2
Hidden
 70
     6
 71
     1
 72
     2
 73
     2
 90
        0
 40
-0.6
 41
-30.0
 62
     5
 63
     7
 74
     2
 91
        2
 64
     7
 65
   257
 75
     2
175
     1
 42
40.0
 92
        0
 66
   257
 43
1.0
 76
     1
 77
     6
 78
     2
 67
     7
 79
     3
170
     0
171
     0
290
     0
174
     0
 93
        1
 44
0.0
173
     0
291
     0
 45
0.0
1001
ACAD
1000
AcDbSavedByObjectVersion
1070
     0
  0
VISUALSTYLE
  5
277
102
{ACAD_XDICTIONARY
360
2FC
102
}
102
{ACAD_REACTORS
330
261
102
}
330
261
100
AcDbVisualStyle
  2
JitterOff
 70
    20
 71
     2
 72
     2
 73
     0
 90
        0
 40
-0.6
 41
-30.0
 62
     5
 63
     7
 74
     1
 91
        4
 64
     7
 65
   257
 75
     1
175
     1
 42
1.0
 92
       10
 66
     7
 43
1.0
 76
     1
 77
     6
 78
     2
 67
     7
 79
     5
170
     0
171
     0
290
     0
174
     0
 93
        1
 44
0.0
173
     0
291
     1
 45
0.0
1001
ACAD
1000
AcDbSavedByObjectVersion
1070
     0
  0
VISUALSTYLE
  5
26F
102
{ACAD_XDICTIONARY
360
2EC
102
}
102
{ACAD_REACTORS
330
261
102
}
330
261
100
AcDbVisualStyle
  2
Linepattern
 70
    14
 71
     2
 72
     2
 73
     0
 90
        0
 40
-0.6
 41
-30.0
 62
     5
 63
     7
 74
     1
 91
        4
 64
     7
 65
   257
 75
     7
175
     7
 42
1.0
 92
        8
 66
     7
 43
1.0
 76
     1
 77
     6
 78
     2
 67
     7
 79
     5
170
     0
171
     0
290
     0
174
     0
 93
        1
 44
0.0
173
     0
291
     1
 45
0.0
1001
ACAD
1000
AcDbSavedByObjectVersion
1070
     0
  0
VISUALSTYLE
  5
278
102
{ACAD_XDICTIONARY
360
2FE
102
}
102
{ACAD_REACTORS
330
261
102
}
330
261
100
AcDbVisualStyle
  2
OverhangOff
 70
    21
 71
     2
 72
     2
 73
     0
 90
        0
 40
-0.6
 41
-30.0
 62
     5
 63
     7
 74
     1
 91
        4
 64
     7
 65
   257
 75
     1
175
     1
 42
1.0
 92
        9
 66
     7
 43
1.0
 76
     1
 77
     6
 78
     2
 67
     7
 79
     5
170
     0
171
     0
290
     0
174
     0
 93
        1
 44
0.0
173
     0
291
     1
 45
0.0
1001
ACAD
1000
AcDbSavedByObjectVersion
1070
     0
  0
VISUALSTYLE
  5
26B
102
{ACAD_XDICTIONARY
360
2E4
102
}
102
{ACAD_REACTORS
330
261
102
}
330
261
100
AcDbVisualStyle
  2
Realistic
 70
     8
 71
     2
 72
     3
 73
     0
 90
        2
 40
-0.6
 41
30.0
 62
     5
 63
     7
 74
     0
 91
        0
 64
     7
 65
   257
 75
     1
175
     1
 42
1.0
 92
        8
 66
   257
 43
1.0
 76
     1
 77
     6
 78
     2
 67
     7
 79
     3
170
     0
171
     0
290
     0
174
     0
 93
       13
 44
0.0
173
     0
291
     0
 45
0.0
1001
ACAD
1000
AcDbSavedByObjectVersion
1070
     0
  0
VISUALSTYLE
  5
276
102
{ACAD_XDICTIONARY
360
2FA
102
}
102
{ACAD_REACTORS
330
261
102
}
330
261
100
AcDbVisualStyle
  2
Shaded
 70
    27
 71
     2
 72
     2
 73
     1
 90
        2
 40
-0.6
 41
30.0
 62
     5
 63
     7
 74
     0
 91
        4
 64
     7
 65
   257
 75
     1
175
     1
 42
1.0
 92
        8
 66
   257
 43
1.0
 76
     1
 77
     6
 78
     2
 67
     8
 79
     3
170
     0
171
     0
290
     0
174
     0
 93
        5
 44
0.0
173
     0
291
     0
 45
0.0
1001
ACAD
1000
AcDbSavedByObjectVersion
1070
     0
  0
VISUALSTYLE
  5
275
102
{ACAD_XDICTIONARY
360
2F8
102
}
102
{ACAD_REACTORS
330
261
102
}
330
261
100
AcDbVisualStyle
  2
Shaded with edges
 70
    26
 71
     2
 72
     2
 73
     1
 90
        2
 40
-0.6
 41
30.0
 62
     5
 63
     7
 74
     1
 91
       10
 64
     7
 65
   257
 75
     2
175
     1
 42
1.0
 92
        8
 66
   257
 43
1.0
 76
     1
 77
     6
 78
     2
 67
     7
 79
     3
170
     0
171
     0
290
     0
174
     0
 93
        5
 44
0.0
173
     0
291
     0
 45
0.0
1001
ACAD
1000
AcDbSavedByObjectVersion
1070
     0
  0
VISUALSTYLE
  5
272
102
{ACAD_XDICTIONARY
360
2F2
102
}
102
{ACAD_REACTORS
330
261
102
}
330
261
100
AcDbVisualStyle
  2
Shades of Gray
 70
    23
 71
     2
 72
     2
 73
     3
 90
        0
 40
-0.6
 41
-30.0
 62
     5
 63
     7
 74
     2
 91
        2
 64
     7
 65
     7
 75
     1
175
     1
 42
40.0
 92
        8
 66
     7
 43
1.0
 76
     1
 77
     6
 78
     2
 67
     7
 79
     3
170
     0
171
     0
290
     0
174
     0
 93
        1
 44
0.0
173
     0
291
     0
 45
0.0
1001
ACAD
1000
AcDbSavedByObjectVersion
1070
     0
  0
VISUALSTYLE
  5
273
102
{ACAD_XDICTIONARY
360
2F4
102
}
102
{ACAD_REACTORS
330
261
102
}
330
261
100
AcDbVisualStyle
  2
Sketchy
 70
    24
 71
     1
 72
     2
 73
     2
 90
        0
 40
-0.6
 41
-30.0
 62
     5
 63
     7
 74
     2
 91
        2
 64
     7
 65
     7
 75
     1
175
     1
 42
40.0
 92
       11
 66
     7
 43
1.0
 76
     1
 77
     6
 78
     2
 67
     7
 79
     6
170
     0
171
     0
290
     0
174
     0
 93
        1
 44
0.0
173
     0
291
     0
 45
0.0
1001
ACAD
1000
AcDbSavedByObjectVersion
1070
     0
  0
VISUALSTYLE
  5
26E
102
{ACAD_XDICTIONARY
360
2EA
102
}
102
{ACAD_REACTORS
330
261
102
}
330
261
100
AcDbVisualStyle
  2
Thicken
 70
    13
 71
     2
 72
     2
 73
     0
 90
        0
 40
-0.6
 41
-30.0
 62
     5
 63
     7
 74
     1
 91
        4
 64
     7
 65
   257
 75
     1
175
     1
 42
1.0
 92
       12
 66
     7
 43
1.0
 76
     1
 77
     6
 78
     2
 67
     7
 79
     5
170
     0
171
     0
290
     0
174
     0
 93
        1
 44
0.0
173
     0
291
     1
 45
0.0
1001
ACAD
1000
AcDbSavedByObjectVersion
1070
     0
  0
VISUALSTYLE
  5
268
102
{ACAD_XDICTIONARY
360
2DE
102
}
102
{ACAD_REACTORS
330
261
102
}
330
261
100
AcDbVisualStyle
  2
Wireframe
 70
     5
 71
     0
 72
     2
 73
     0
 90
        0
 40
-0.6
 41
-30.0
 62
     5
 63
     7
 74
     1
 91
        4
 64
     7
 65
   257
 75
     1
175
     1
 42
1.0
 92
        0
 66
   257
 43
1.0
 76
     1
 77
     6
 78
     2
 67
     7
 79
     3
170
     0
171
     0
290
     0
174
     0
 93
        1
 44
0.0
173
     0
291
     0
 45
0.0
1001
ACAD
1000
AcDbSavedByObjectVersion
1070
     0
  0
VISUALSTYLE
  5
274
102
{ACAD_XDICTIONARY
360
2F6
102
}
102
{ACAD_REACTORS
330
261
102
}
330
261
100
AcDbVisualStyle
  2
X-Ray
 70
    25
 71
     2
 72
     2
 73
     1
 90
        1
 40
0.5
 41
-30.0
 62
     5
 63
     7
 74
     1
 91
        0
 64
     7
 65
   257
 75
     1
175
     1
 42
1.0
 92
        8
 66
     7
 43
1.0
 76
     1
 77
     6
 78
     2
 67
     7
 79
     3
170
     0
171
     0
290
     0
174
     0
 93
       13
 44
0.0
173
     0
291
     0
 45
0.0
1001
ACAD
1000
AcDbSavedByObjectVersion
1070
     0
  0
DICTIONARYVAR
  5
2C5
102
{ACAD_REACTORS
330
2C0
102
}
330
2C0
100
DictionaryVariables
280
     0
  1
1:1
  0
DICTIONARYVAR
  5
2C2
102
{ACAD_REACTORS
330
2C0
102
}
330
2C0
100
DictionaryVariables
280
     0
  1
STANDARD
  0
DICTIONARYVAR
  5
2C1
102
{ACAD_REACTORS
330
2C0
102
}
330
2C0
100
DictionaryVariables
280
     0
  1
STANDARD
  0
DICTIONARYVAR
  5
2C3
102
{ACAD_REACTORS
330
2C0
102
}
330
2C0
100
DictionaryVariables
280
     0
  1
Imperial24
  0
DICTIONARYVAR
  5
2C4
102
{ACAD_REACTORS
330
2C0
102
}
330
2C0
100
DictionaryVariables
280
     0
  1
Imperial24
  0
DICTIONARYVAR
  5
2C8
102
{ACAD_REACTORS
330
2C0
102
}
330
2C0
100
DictionaryVariables
280
     0
  1
1
  0
DICTIONARYVAR
  5
2C7
102
{ACAD_REACTORS
330
2C0
102
}
330
2C0
100
DictionaryVariables
280
     0
  1
0
  0
DICTIONARYVAR
  5
2C6
102
{ACAD_REACTORS
330
2C0
102
}
330
2C0
100
DictionaryVariables
280
     0
  1
127
  0
DICTIONARYVAR
  5
2C9
102
{ACAD_REACTORS
330
2C0
102
}
330
2C0
100
DictionaryVariables
280
     0
  1
2
  0
DICTIONARY
  5
306
330
297
100
AcDbDictionary
280
     1
281
     1
  3
ACAD_XREC_ROUNDTRIP
360
307
  0
DICTIONARY
  5
304
330
296
100
AcDbDictionary
280
     1
281
     1
  3
ACAD_XREC_ROUNDTRIP
360
305
  0
DICTIONARY
  5
252
330
251
100
AcDbDictionary
280
     1
281
     1
  3
ACAD_XREC_ROUNDTRIP
360
2D0
  3
BUMPTILE
360
254
  3
DIFFUSETILE
360
253
  3
OPACITYTILE
360
257
  3
REFLECTIONTILE
360
256
  3
REFRACTIONTILE
360
258
  3
SPECULARTILE
360
255
  0
DICTIONARY
  5
24A
330
249
100
AcDbDictionary
280
     1
281
     1
  3
ACAD_XREC_ROUNDTRIP
360
2CF
  3
BUMPTILE
360
24C
  3
DIFFUSETILE
360
24B
  3
OPACITYTILE
360
24F
  3
REFLECTIONTILE
360
24E
  3
REFRACTIONTILE
360
250
  3
SPECULARTILE
360
24D
  0
DICTIONARY
  5
25A
330
259
100
AcDbDictionary
280
     1
281
     1
  3
ACAD_XREC_ROUNDTRIP
360
2D1
  3
BUMPTILE
360
25C
  3
DIFFUSETILE
360
25B
  3
OPACITYTILE
360
25F
  3
REFLECTIONTILE
360
25E
  3
REFRACTIONTILE
360
260
  3
SPECULARTILE
360
25D
  0
DICTIONARY
  5
2CB
330
27C
100
AcDbDictionary
280
     1
281
     1
  3
ACAD_ROUNDTRIP_2008_TABLESTYLE_CELLSTYLEMAP
360
2CC
  3
ACAD_XREC_ROUNDTRIP
360
302
  0
DICTIONARY
  5
2DC
330
267
100
AcDbDictionary
280
     1
281
     1
  3
ACAD_XREC_ROUNDTRIP
360
2DD
  0
DICTIONARY
  5
2DA
330
266
100
AcDbDictionary
280
     1
281
     1
  3
ACAD_XREC_ROUNDTRIP
360
2DB
  0
DICTIONARY
  5
2E8
330
26D
100
AcDbDictionary
280
     1
281
     1
  3
ACAD_XREC_ROUNDTRIP
360
2E9
  0
DICTIONARY
  5
2F0
330
271
100
AcDbDictionary
280
     1
281
     1
  3
ACAD_XREC_ROUNDTRIP
360
2F1
  0
DICTIONARY
  5
2E2
330
26A
100
AcDbDictionary
280
     1
281
     1
  3
ACAD_XREC_ROUNDTRIP
360
2E3
  0
DICTIONARY
  5
2E6
330
26C
100
AcDbDictionary
280
     1
281
     1
  3
ACAD_XREC_ROUNDTRIP
360
2E7
  0
DICTIONARY
  5
300
330
279
100
AcDbDictionary
280
     1
281
     1
  3
ACAD_XREC_ROUNDTRIP
360
301
  0
DICTIONARY
  5
2EE
330
270
100
AcDbDictionary
280
     1
281
     1
  3
ACAD_XREC_ROUNDTRIP
360
2EF
  0
DICTIONARY
  5
2D2
330
262
100
AcDbDictionary
280
     1
281
     1
  3
ACAD_XREC_ROUNDTRIP
360
2D3
  0
DICTIONARY
  5
2D4
330
263
100
AcDbDictionary
280
     1
281
     1
  3
ACAD_XREC_ROUNDTRIP
360
2D5
  0
DICTIONARY
  5
2D6
330
264
100
AcDbDictionary
280
     1
281
     1
  3
ACAD_XREC_ROUNDTRIP
360
2D7
  0
DICTIONARY
  5
2D8
330
265
100
AcDbDictionary
280
     1
281
     1
  3
ACAD_XREC_ROUNDTRIP
360
2D9
  0
DICTIONARY
  5
2E0
330
269
100
AcDbDictionary
280
     1
281
     1
  3
ACAD_XREC_ROUNDTRIP
360
2E1
  0
DICTIONARY
  5
2FC
330
277
100
AcDbDictionary
280
     1
281
     1
  3
ACAD_XREC_ROUNDTRIP
360
2FD
  0
DICTIONARY
  5
2EC
330
26F
100
AcDbDictionary
280
     1
281
     1
  3
ACAD_XREC_ROUNDTRIP
360
2ED
  0
DICTIONARY
  5
2FE
330
278
100
AcDbDictionary
280
     1
281
     1
  3
ACAD_XREC_ROUNDTRIP
360
2FF
  0
DICTIONARY
  5
2E4
330
26B
100
AcDbDictionary
280
     1
281
     1
  3
ACAD_XREC_ROUNDTRIP
360
2E5
  0
DICTIONARY
  5
2FA
330
276
100
AcDbDictionary
280
     1
281
     1
  3
ACAD_XREC_ROUNDTRIP
360
2FB
  0
DICTIONARY
  5
2F8
330
275
100
AcDbDictionary
280
     1
281
     1
  3
ACAD_XREC_ROUNDTRIP
360
2F9
  0
DICTIONARY
  5
2F2
330
272
100
AcDbDictionary
280
     1
281
     1
  3
ACAD_XREC_ROUNDTRIP
360
2F3
  0
DICTIONARY
  5
2F4
330
273
100
AcDbDictionary
280
     1
281
     1
  3
ACAD_XREC_ROUNDTRIP
360
2F5
  0
DICTIONARY
  5
2EA
330
26E
100
AcDbDictionary
280
     1
281
     1
  3
ACAD_XREC_ROUNDTRIP
360
2EB
  0
DICTIONARY
  5
2DE
330
268
100
AcDbDictionary
280
     1
281
     1
  3
ACAD_XREC_ROUNDTRIP
360
2DF
  0
DICTIONARY
  5
2F6
330
274
100
AcDbDictionary
280
     1
281
     1
  3
ACAD_XREC_ROUNDTRIP
360
2F7
  0
XRECORD
  5
307
102
{ACAD_REACTORS
330
306
102
}
330
306
100
AcDbXrecord
280
     1
102
SHADEPLOT
 70
     0
102
SHADEPLOTRESLEVEL
 70
     2
102
SHADEPLOTCUSTOMDPI
 70
   300
  0
XRECORD
  5
305
102
{ACAD_REACTORS
330
304
102
}
330
304
100
AcDbXrecord
280
     1
102
SHADEPLOT
 70
     0
102
SHADEPLOTRESLEVEL
 70
     2
102
SHADEPLOTCUSTOMDPI
 70
   300
  0
XRECORD
  5
2D0
102
{ACAD_REACTORS
330
252
102
}
330
252
100
AcDbXrecord
280
     1
102
MATERIAL
148
0.0
149
0.0
149
0.0
 93
        0
 94
      127
282
     0
 72
     0
 77
     0
171
     0
175
     0
179
     0
273
     0
  0
XRECORD
  5
254
102
{ACAD_REACTORS
330
252
102
}
330
252
100
AcDbXrecord
280
     1
270
     1
271
     1
  0
XRECORD
  5
253
102
{ACAD_REACTORS
330
252
102
}
330
252
100
AcDbXrecord
280
     1
270
     1
271
     1
  0
XRECORD
  5
257
102
{ACAD_REACTORS
330
252
102
}
330
252
100
AcDbXrecord
280
     1
270
     1
271
     1
  0
XRECORD
  5
256
102
{ACAD_REACTORS
330
252
102
}
330
252
100
AcDbXrecord
280
     1
270
     1
271
     1
  0
XRECORD
  5
258
102
{ACAD_REACTORS
330
252
102
}
330
252
100
AcDbXrecord
280
     1
270
     1
271
     1
  0
XRECORD
  5
255
102
{ACAD_REACTORS
330
252
102
}
330
252
100
AcDbXrecord
280
     1
270
     1
271
     1
  0
XRECORD
  5
2CF
102
{ACAD_REACTORS
330
24A
102
}
330
24A
100
AcDbXrecord
280
     1
102
MATERIAL
148
0.0
149
0.0
149
0.0
 93
        0
 94
      127
282
     0
 72
     0
 77
     0
171
     0
175
     0
179
     0
273
     0
  0
XRECORD
  5
24C
102
{ACAD_REACTORS
330
24A
102
}
330
24A
100
AcDbXrecord
280
     1
270
     1
271
     1
  0
XRECORD
  5
24B
102
{ACAD_REACTORS
330
24A
102
}
330
24A
100
AcDbXrecord
280
     1
270
     1
271
     1
  0
XRECORD
  5
24F
102
{ACAD_REACTORS
330
24A
102
}
330
24A
100
AcDbXrecord
280
     1
270
     1
271
     1
  0
XRECORD
  5
24E
102
{ACAD_REACTORS
330
24A
102
}
330
24A
100
AcDbXrecord
280
     1
270
     1
271
     1
  0
XRECORD
  5
250
102
{ACAD_REACTORS
330
24A
102
}
330
24A
100
AcDbXrecord
280
     1
270
     1
271
     1
  0
XRECORD
  5
24D
102
{ACAD_REACTORS
330
24A
102
}
330
24A
100
AcDbXrecord
280
     1
270
     1
271
     1
  0
XRECORD
  5
2D1
102
{ACAD_REACTORS
330
25A
102
}
330
25A
100
AcDbXrecord
280
     1
102
MATERIAL
148
0.0
149
0.0
149
0.0
 93
        0
 94
      127
282
     0
 72
     0
 77
     0
171
     0
175
     0
179
     0
273
     0
  0
XRECORD
  5
25C
102
{ACAD_REACTORS
330
25A
102
}
330
25A
100
AcDbXrecord
280
     1
270
     1
271
     1
  0
XRECORD
  5
25B
102
{ACAD_REACTORS
330
25A
102
}
330
25A
100
AcDbXrecord
280
     1
270
     1
271
     1
  0
XRECORD
  5
25F
102
{ACAD_REACTORS
330
25A
102
}
330
25A
100
AcDbXrecord
280
     1
270
     1
271
     1
  0
XRECORD
  5
25E
102
{ACAD_REACTORS
330
25A
102
}
330
25A
100
AcDbXrecord
280
     1
270
     1
271
     1
  0
XRECORD
  5
260
102
{ACAD_REACTORS
330
25A
102
}
330
25A
100
AcDbXrecord
280
     1
270
     1
271
     1
  0
XRECORD
  5
25D
102
{ACAD_REACTORS
330
25A
102
}
330
25A
100
AcDbXrecord
280
     1
270
     1
271
     1
  0
CELLSTYLEMAP
  5
2CC
102
{ACAD_REACTORS
330
2CB
102
}
330
2CB
100
AcDbCellStyleMap
 90
        3
300
CELLSTYLE
  1
TABLEFORMAT_BEGIN
 90
        5
170
     1
 91
        0
 92
    32768
 62
   257
 93
        1
300
CONTENTFORMAT
  1
CONTENTFORMAT_BEGIN
 90
        0
 91
        0
 92
      512
 93
        0
300

 40
0.0
140
1.0
 94
        5
 62
     0
340
11
144
0.25
309
CONTENTFORMAT_END
171
     0
 94
        0
309
TABLEFORMAT_END
  1
CELLSTYLE_BEGIN
 90
        1
 91
        1
300
_TITLE
309
CELLSTYLE_END
300
CELLSTYLE
  1
TABLEFORMAT_BEGIN
 90
        5
170
     1
 91
        0
 92
        0
 62
   257
 93
        1
300
CONTENTFORMAT
  1
CONTENTFORMAT_BEGIN
 90
        0
 91
        0
 92
      512
 93
        0
300

 40
0.0
140
1.0
 94
        5
 62
     0
340
11
144
0.18
309
CONTENTFORMAT_END
171
     0
 94
        0
309
TABLEFORMAT_END
  1
CELLSTYLE_BEGIN
 90
        2
 91
        1
300
_HEADER
309
CELLSTYLE_END
300
CELLSTYLE
  1
TABLEFORMAT_BEGIN
 90
        5
170
     1
 91
        0
 92
        0
 62
   257
 93
        1
300
CONTENTFORMAT
  1
CONTENTFORMAT_BEGIN
 90
        0
 91
        0
 92
      512
 93
        0
300

 40
0.0
140
1.0
 94
        2
 62
     0
340
11
144
0.18
309
CONTENTFORMAT_END
171
     0
 94
        0
309
TABLEFORMAT_END
  1
CELLSTYLE_BEGIN
 90
        3
 91
        2
300
_DATA
309
CELLSTYLE_END
  0
XRECORD
  5
302
102
{ACAD_REACTORS
330
2CB
102
}
330
2CB
100
AcDbXrecord
280
     1
102
ACAD_ROUNDTRIP_PRE2007_TABLESTYLE
 90
      512
 91
        0
  1

 92
      512
 93
        0
  2

 94
      512
 95
        0
  3

  0
XRECORD
  5
2DD
102
{ACAD_REACTORS
330
2DC
102
}
330
2DC
100
AcDbXrecord
280
     1
102
RTVSPost2010Prop28
280
     1
102
RTVSPost2010PropOp28
 70
     1
102
RTVSPost2010Prop29
280
     1
102
RTVSPost2010PropOp29
 70
     1
102
RTVSPost2010Prop30
280
     0
102
RTVSPost2010PropOp30
 70
     1
102
RTVSPost2010Prop31
280
     0
102
RTVSPost2010PropOp31
 70
     1
102
RTVSPost2010Prop32
280
     0
102
RTVSPost2010PropOp32
 70
     1
102
RTVSPost2010Prop33
280
     0
102
RTVSPost2010PropOp33
 70
     1
102
RTVSPost2010Prop34
280
     0
102
RTVSPost2010PropOp34
 70
     1
102
RTVSPost2010Prop35
280
     0
102
RTVSPost2010PropOp35
 70
     1
102
RTVSPost2010Prop36
280
     0
102
RTVSPost2010PropOp36
 70
     1
102
RTVSPost2010Prop37
 90
       50
102
RTVSPost2010PropOp37
 70
     1
102
RTVSPost2010Prop38
140
0.0
102
RTVSPost2010PropOp38
 70
     1
102
RTVSPost2010Prop39
140
1.0
102
RTVSPost2010PropOp39
 70
     1
102
RTVSPost2010Prop40
 90
        0
102
RTVSPost2010PropOp40
 70
     1
102
RTVSPost2010Prop41ColorIndex
 90
       18
102
RTVSPost2010Prop41ColorRGB
 90
        0
102
RTVSPost2010PropOp41
 70
     1
102
RTVSPost2010Prop42
 90
       50
102
RTVSPost2010PropOp42
 70
     1
102
RTVSPost2010Prop43
 90
        3
102
RTVSPost2010PropOp43
 70
     1
102
RTVSPost2010Prop44ColorIndex
 90
        5
102
RTVSPost2010Prop44ColorRGB
 90
      255
102
RTVSPost2010PropOp44
 70
     1
102
RTVSPost2010Prop45
280
     0
102
RTVSPost2010PropOp45
 70
     1
102
RTVSPost2010Prop46
 90
       50
102
RTVSPost2010PropOp46
 70
     1
102
RTVSPost2010Prop47
 90
       50
102
RTVSPost2010PropOp47
 70
     1
102
RTVSPost2010Prop48
 90
       50
102
RTVSPost2010PropOp48
 70
     1
102
RTVSPost2010Prop49
280
     0
102
RTVSPost2010PropOp49
 70
     1
102
RTVSPost2010Prop50
 90
       50
102
RTVSPost2010PropOp50
 70
     1
102
RTVSPost2010Prop51ColorIndex
 90
      256
102
RTVSPost2010Prop51ColorRGB
 90
-16777216
102
RTVSPost2010PropOp51
 70
     0
102
RTVSPost2010Prop52
140
1.0
102
RTVSPost2010PropOp52
 70
     0
102
RTVSPost2010Prop53
 90
        2
102
RTVSPost2010PropOp53
 70
     1
102
RTVSPost2010Prop54
  1
strokes_ogs.tif
102
RTVSPost2010PropOp54
 70
     1
102
RTVSPost2010Prop55
280
     0
102
RTVSPost2010PropOp55
 70
     1
102
RTVSPost2010Prop56
140
1.0
102
RTVSPost2010PropOp56
 70
     1
102
RTVSPost2010Prop57
140
1.0
102
RTVSPost2010PropOp57
 70
     1
102
RTVSPropertyOp0
 70
     1
102
RTVSPropertyOp1
 70
     1
102
RTVSPropertyOp2
 70
     1
102
RTVSPropertyOp3
 70
     1
102
RTVSPropertyOp4
 70
     1
102
RTVSPropertyOp5
 70
     1
102
RTVSPropertyOp6
 70
     1
102
RTVSPropertyOp7
 70
     1
102
RTVSPropertyOp8
 70
     1
102
RTVSPropertyOp9
 70
     1
102
RTVSPropertyOp10
 70
     1
102
RTVSPropertyOp11
 70
     1
102
RTVSPropertyOp12
 70
     1
102
RTVSPropertyOp13
 70
     1
102
RTVSPropertyOp14
 70
     1
102
RTVSPropertyOp15
 70
     1
102
RTVSPropertyOp16
 70
     1
102
RTVSPropertyOp17
 70
     1
102
RTVSPropertyOp18
 70
     1
102
RTVSPropertyOp19
 70
     1
102
RTVSPropertyOp20
 70
     1
102
RTVSPropertyOp21
 70
     1
102
RTVSPropertyOp22
 70
     1
102
RTVSPropertyOp23
 70
     1
102
RTVSPropertyOp24
 70
     1
102
RTVSPropertyOp25
 70
     1
102
RTVSPropertyOp26
 70
     1
102
RTVSPropertyOp27
 70
     1
102
RTVSPropertyOp28
 70
     1
102
RTVSPropertyOp29
 70
     1
102
RTVSPropertyOp30
 70
     1
102
RTVSPropertyOp31
 70
     1
102
RTVSPropertyOp32
 70
     1
102
RTVSPropertyOp33
 70
     1
102
RTVSPropertyOp34
 70
     1
102
RTVSPropertyOp35
 70
     1
102
RTVSPropertyOp36
 70
     1
102
RTVSPropertyOp37
 70
     1
102
RTVSPropertyOp38
 70
     1
102
RTVSPropertyOp39
 70
     1
102
RTVSPropertyOp40
 70
     1
102
RTVSPropertyOp41
 70
     1
102
RTVSPropertyOp42
 70
     1
102
RTVSPropertyOp43
 70
     1
102
RTVSPropertyOp44
 70
     1
102
RTVSPropertyOp45
 70
     1
102
RTVSPropertyOp46
 70
     1
102
RTVSPropertyOp47
 70
     1
102
RTVSPropertyOp48
 70
     1
102
RTVSPropertyOp49
 70
     1
102
RTVSPropertyOp50
 70
     1
102
RTVSPropertyOp51
 70
     0
102
RTVSPropertyOp52
 70
     0
102
RTVSPropertyOp53
 70
     1
102
RTVSPropertyOp54
 70
     1
102
RTVSPropertyOp55
 70
     1
102
RTVSPropertyOp56
 70
     1
102
RTVSPropertyOp57
 70
     1
102
RTVSPropertyOp58
 70
     1
102
RTVSPropertyOp59
 70
     1
102
RTVSPropertyOp60
 70
     1
102
RTVSPropertyOp61
 70
     1
102
RTVSPropertyOp62
 70
     1
  0
XRECORD
  5
2DB
102
{ACAD_REACTORS
330
2DA
102
}
330
2DA
100
AcDbXrecord
280
     1
102
RTVSPost2010Prop28
280
     0
102
RTVSPost2010PropOp28
 70
     1
102
RTVSPost2010Prop29
280
     1
102
RTVSPost2010PropOp29
 70
     1
102
RTVSPost2010Prop30
280
     1
102
RTVSPost2010PropOp30
 70
     1
102
RTVSPost2010Prop31
280
     0
102
RTVSPost2010PropOp31
 70
     1
102
RTVSPost2010Prop32
280
     0
102
RTVSPost2010PropOp32
 70
     1
102
RTVSPost2010Prop33
280
     0
102
RTVSPost2010PropOp33
 70
     1
102
RTVSPost2010Prop34
280
     0
102
RTVSPost2010PropOp34
 70
     1
102
RTVSPost2010Prop35
280
     0
102
RTVSPost2010PropOp35
 70
     1
102
RTVSPost2010Prop36
280
     0
102
RTVSPost2010PropOp36
 70
     1
102
RTVSPost2010Prop37
 90
       50
102
RTVSPost2010PropOp37
 70
     1
102
RTVSPost2010Prop38
140
0.0
102
RTVSPost2010PropOp38
 70
     1
102
RTVSPost2010Prop39
140
1.0
102
RTVSPost2010PropOp39
 70
     1
102
RTVSPost2010Prop40
 90
        0
102
RTVSPost2010PropOp40
 70
     1
102
RTVSPost2010Prop41ColorIndex
 90
       18
102
RTVSPost2010Prop41ColorRGB
 90
        0
102
RTVSPost2010PropOp41
 70
     1
102
RTVSPost2010Prop42
 90
       50
102
RTVSPost2010PropOp42
 70
     1
102
RTVSPost2010Prop43
 90
        3
102
RTVSPost2010PropOp43
 70
     1
102
RTVSPost2010Prop44ColorIndex
 90
        5
102
RTVSPost2010Prop44ColorRGB
 90
      255
102
RTVSPost2010PropOp44
 70
     1
102
RTVSPost2010Prop45
280
     0
102
RTVSPost2010PropOp45
 70
     1
102
RTVSPost2010Prop46
 90
       50
102
RTVSPost2010PropOp46
 70
     1
102
RTVSPost2010Prop47
 90
       50
102
RTVSPost2010PropOp47
 70
     1
102
RTVSPost2010Prop48
 90
       50
102
RTVSPost2010PropOp48
 70
     1
102
RTVSPost2010Prop49
280
     0
102
RTVSPost2010PropOp49
 70
     1
102
RTVSPost2010Prop50
 90
       50
102
RTVSPost2010PropOp50
 70
     1
102
RTVSPost2010Prop51ColorIndex
 90
      256
102
RTVSPost2010Prop51ColorRGB
 90
-16777216
102
RTVSPost2010PropOp51
 70
     0
102
RTVSPost2010Prop52
140
1.0
102
RTVSPost2010PropOp52
 70
     0
102
RTVSPost2010Prop53
 90
        2
102
RTVSPost2010PropOp53
 70
     1
102
RTVSPost2010Prop54
  1
strokes_ogs.tif
102
RTVSPost2010PropOp54
 70
     1
102
RTVSPost2010Prop55
280
     0
102
RTVSPost2010PropOp55
 70
     1
102
RTVSPost2010Prop56
140
1.0
102
RTVSPost2010PropOp56
 70
     1
102
RTVSPost2010Prop57
140
1.0
102
RTVSPost2010PropOp57
 70
     1
102
RTVSPropertyOp0
 70
     1
102
RTVSPropertyOp1
 70
     1
102
RTVSPropertyOp2
 70
     1
102
RTVSPropertyOp3
 70
     1
102
RTVSPropertyOp4
 70
     1
102
RTVSPropertyOp5
 70
     1
102
RTVSPropertyOp6
 70
     1
102
RTVSPropertyOp7
 70
     1
102
RTVSPropertyOp8
 70
     1
102
RTVSPropertyOp9
 70
     1
102
RTVSPropertyOp10
 70
     1
102
RTVSPropertyOp11
 70
     1
102
RTVSPropertyOp12
 70
     1
102
RTVSPropertyOp13
 70
     1
102
RTVSPropertyOp14
 70
     1
102
RTVSPropertyOp15
 70
     1
102
RTVSPropertyOp16
 70
     1
102
RTVSPropertyOp17
 70
     1
102
RTVSPropertyOp18
 70
     1
102
RTVSPropertyOp19
 70
     1
102
RTVSPropertyOp20
 70
     1
102
RTVSPropertyOp21
 70
     1
102
RTVSPropertyOp22
 70
     1
102
RTVSPropertyOp23
 70
     1
102
RTVSPropertyOp24
 70
     1
102
RTVSPropertyOp25
 70
     1
102
RTVSPropertyOp26
 70
     1
102
RTVSPropertyOp27
 70
     1
102
RTVSPropertyOp28
 70
     1
102
RTVSPropertyOp29
 70
     1
102
RTVSPropertyOp30
 70
     1
102
RTVSPropertyOp31
 70
     1
102
RTVSPropertyOp32
 70
     1
102
RTVSPropertyOp33
 70
     1
102
RTVSPropertyOp34
 70
     1
102
RTVSPropertyOp35
 70
     1
102
RTVSPropertyOp36
 70
     1
102
RTVSPropertyOp37
 70
     1
102
RTVSPropertyOp38
 70
     1
102
RTVSPropertyOp39
 70
     1
102
RTVSPropertyOp40
 70
     1
102
RTVSPropertyOp41
 70
     1
102
RTVSPropertyOp42
 70
     1
102
RTVSPropertyOp43
 70
     1
102
RTVSPropertyOp44
 70
     1
102
RTVSPropertyOp45
 70
     1
102
RTVSPropertyOp46
 70
     1
102
RTVSPropertyOp47
 70
     1
102
RTVSPropertyOp48
 70
     1
102
RTVSPropertyOp49
 70
     1
102
RTVSPropertyOp50
 70
     1
102
RTVSPropertyOp51
 70
     0
102
RTVSPropertyOp52
 70
     0
102
RTVSPropertyOp53
 70
     1
102
RTVSPropertyOp54
 70
     1
102
RTVSPropertyOp55
 70
     1
102
RTVSPropertyOp56
 70
     1
102
RTVSPropertyOp57
 70
     1
102
RTVSPropertyOp58
 70
     1
102
RTVSPropertyOp59
 70
     1
102
RTVSPropertyOp60
 70
     1
102
RTVSPropertyOp61
 70
     1
102
RTVSPropertyOp62
 70
     1
  0
XRECORD
  5
2E9
102
{ACAD_REACTORS
330
2E8
102
}
330
2E8
100
AcDbXrecord
280
     1
102
RTVSPost2010Prop28
280
     0
102
RTVSPost2010PropOp28
 70
     1
102
RTVSPost2010Prop29
280
     1
102
RTVSPost2010PropOp29
 70
     1
102
RTVSPost2010Prop30
280
     1
102
RTVSPost2010PropOp30
 70
     1
102
RTVSPost2010Prop31
280
     0
102
RTVSPost2010PropOp31
 70
     1
102
RTVSPost2010Prop32
280
     0
102
RTVSPost2010PropOp32
 70
     1
102
RTVSPost2010Prop33
280
     0
102
RTVSPost2010PropOp33
 70
     1
102
RTVSPost2010Prop34
280
     0
102
RTVSPost2010PropOp34
 70
     1
102
RTVSPost2010Prop35
280
     0
102
RTVSPost2010PropOp35
 70
     1
102
RTVSPost2010Prop36
280
     0
102
RTVSPost2010PropOp36
 70
     1
102
RTVSPost2010Prop37
 90
       50
102
RTVSPost2010PropOp37
 70
     1
102
RTVSPost2010Prop38
140
0.0
102
RTVSPost2010PropOp38
 70
     1
102
RTVSPost2010Prop39
140
1.0
102
RTVSPost2010PropOp39
 70
     1
102
RTVSPost2010Prop40
 90
        0
102
RTVSPost2010PropOp40
 70
     1
102
RTVSPost2010Prop41ColorIndex
 90
       18
102
RTVSPost2010Prop41ColorRGB
 90
        0
102
RTVSPost2010PropOp41
 70
     1
102
RTVSPost2010Prop42
 90
       50
102
RTVSPost2010PropOp42
 70
     1
102
RTVSPost2010Prop43
 90
        3
102
RTVSPost2010PropOp43
 70
     1
102
RTVSPost2010Prop44ColorIndex
 90
        5
102
RTVSPost2010Prop44ColorRGB
 90
      255
102
RTVSPost2010PropOp44
 70
     1
102
RTVSPost2010Prop45
280
     0
102
RTVSPost2010PropOp45
 70
     1
102
RTVSPost2010Prop46
 90
       50
102
RTVSPost2010PropOp46
 70
     1
102
RTVSPost2010Prop47
 90
       50
102
RTVSPost2010PropOp47
 70
     1
102
RTVSPost2010Prop48
 90
       50
102
RTVSPost2010PropOp48
 70
     1
102
RTVSPost2010Prop49
280
     0
102
RTVSPost2010PropOp49
 70
     1
102
RTVSPost2010Prop50
 90
       50
102
RTVSPost2010PropOp50
 70
     1
102
RTVSPost2010Prop51ColorIndex
 90
      256
102
RTVSPost2010Prop51ColorRGB
 90
-16777216
102
RTVSPost2010PropOp51
 70
     0
102
RTVSPost2010Prop52
140
1.0
102
RTVSPost2010PropOp52
 70
     0
102
RTVSPost2010Prop53
 90
        2
102
RTVSPost2010PropOp53
 70
     1
102
RTVSPost2010Prop54
  1
strokes_ogs.tif
102
RTVSPost2010PropOp54
 70
     1
102
RTVSPost2010Prop55
280
     0
102
RTVSPost2010PropOp55
 70
     1
102
RTVSPost2010Prop56
140
1.0
102
RTVSPost2010PropOp56
 70
     1
102
RTVSPost2010Prop57
140
1.0
102
RTVSPost2010PropOp57
 70
     1
102
RTVSPropertyOp0
 70
     1
102
RTVSPropertyOp1
 70
     1
102
RTVSPropertyOp2
 70
     1
102
RTVSPropertyOp3
 70
     1
102
RTVSPropertyOp4
 70
     1
102
RTVSPropertyOp5
 70
     1
102
RTVSPropertyOp6
 70
     1
102
RTVSPropertyOp7
 70
     1
102
RTVSPropertyOp8
 70
     1
102
RTVSPropertyOp9
 70
     1
102
RTVSPropertyOp10
 70
     1
102
RTVSPropertyOp11
 70
     1
102
RTVSPropertyOp12
 70
     1
102
RTVSPropertyOp13
 70
     1
102
RTVSPropertyOp14
 70
     1
102
RTVSPropertyOp15
 70
     1
102
RTVSPropertyOp16
 70
     1
102
RTVSPropertyOp17
 70
     1
102
RTVSPropertyOp18
 70
     1
102
RTVSPropertyOp19
 70
     1
102
RTVSPropertyOp20
 70
     1
102
RTVSPropertyOp21
 70
     1
102
RTVSPropertyOp22
 70
     1
102
RTVSPropertyOp23
 70
     1
102
RTVSPropertyOp24
 70
     1
102
RTVSPropertyOp25
 70
     1
102
RTVSPropertyOp26
 70
     1
102
RTVSPropertyOp27
 70
     1
102
RTVSPropertyOp28
 70
     1
102
RTVSPropertyOp29
 70
     1
102
RTVSPropertyOp30
 70
     1
102
RTVSPropertyOp31
 70
     1
102
RTVSPropertyOp32
 70
     1
102
RTVSPropertyOp33
 70
     1
102
RTVSPropertyOp34
 70
     1
102
RTVSPropertyOp35
 70
     1
102
RTVSPropertyOp36
 70
     1
102
RTVSPropertyOp37
 70
     1
102
RTVSPropertyOp38
 70
     1
102
RTVSPropertyOp39
 70
     1
102
RTVSPropertyOp40
 70
     1
102
RTVSPropertyOp41
 70
     1
102
RTVSPropertyOp42
 70
     1
102
RTVSPropertyOp43
 70
     1
102
RTVSPropertyOp44
 70
     1
102
RTVSPropertyOp45
 70
     1
102
RTVSPropertyOp46
 70
     1
102
RTVSPropertyOp47
 70
     1
102
RTVSPropertyOp48
 70
     1
102
RTVSPropertyOp49
 70
     1
102
RTVSPropertyOp50
 70
     1
102
RTVSPropertyOp51
 70
     0
102
RTVSPropertyOp52
 70
     0
102
RTVSPropertyOp53
 70
     1
102
RTVSPropertyOp54
 70
     1
102
RTVSPropertyOp55
 70
     1
102
RTVSPropertyOp56
 70
     1
102
RTVSPropertyOp57
 70
     1
102
RTVSPropertyOp58
 70
     1
102
RTVSPropertyOp59
 70
     1
102
RTVSPropertyOp60
 70
     1
102
RTVSPropertyOp61
 70
     1
102
RTVSPropertyOp62
 70
     1
  0
XRECORD
  5
2F1
102
{ACAD_REACTORS
330
2F0
102
}
330
2F0
100
AcDbXrecord
280
     1
102
RTVSPost2010Prop28
280
     0
102
RTVSPost2010PropOp28
 70
     1
102
RTVSPost2010Prop29
280
     1
102
RTVSPost2010PropOp29
 70
     1
102
RTVSPost2010Prop30
280
     1
102
RTVSPost2010PropOp30
 70
     1
102
RTVSPost2010Prop31
280
     0
102
RTVSPost2010PropOp31
 70
     1
102
RTVSPost2010Prop32
280
     0
102
RTVSPost2010PropOp32
 70
     1
102
RTVSPost2010Prop33
280
     0
102
RTVSPost2010PropOp33
 70
     1
102
RTVSPost2010Prop34
280
     0
102
RTVSPost2010PropOp34
 70
     1
102
RTVSPost2010Prop35
280
     0
102
RTVSPost2010PropOp35
 70
     1
102
RTVSPost2010Prop36
280
     0
102
RTVSPost2010PropOp36
 70
     1
102
RTVSPost2010Prop37
 90
       50
102
RTVSPost2010PropOp37
 70
     1
102
RTVSPost2010Prop38
140
0.0
102
RTVSPost2010PropOp38
 70
     1
102
RTVSPost2010Prop39
140
1.0
102
RTVSPost2010PropOp39
 70
     1
102
RTVSPost2010Prop40
 90
        0
102
RTVSPost2010PropOp40
 70
     1
102
RTVSPost2010Prop41ColorIndex
 90
       18
102
RTVSPost2010Prop41ColorRGB
 90
        0
102
RTVSPost2010PropOp41
 70
     1
102
RTVSPost2010Prop42
 90
       50
102
RTVSPost2010PropOp42
 70
     1
102
RTVSPost2010Prop43
 90
        3
102
RTVSPost2010PropOp43
 70
     1
102
RTVSPost2010Prop44ColorIndex
 90
        5
102
RTVSPost2010Prop44ColorRGB
 90
      255
102
RTVSPost2010PropOp44
 70
     1
102
RTVSPost2010Prop45
280
     0
102
RTVSPost2010PropOp45
 70
     1
102
RTVSPost2010Prop46
 90
       50
102
RTVSPost2010PropOp46
 70
     1
102
RTVSPost2010Prop47
 90
       50
102
RTVSPost2010PropOp47
 70
     1
102
RTVSPost2010Prop48
 90
       50
102
RTVSPost2010PropOp48
 70
     1
102
RTVSPost2010Prop49
280
     0
102
RTVSPost2010PropOp49
 70
     1
102
RTVSPost2010Prop50
 90
       50
102
RTVSPost2010PropOp50
 70
     1
102
RTVSPost2010Prop51ColorIndex
 90
      256
102
RTVSPost2010Prop51ColorRGB
 90
-16777216
102
RTVSPost2010PropOp51
 70
     0
102
RTVSPost2010Prop52
140
1.0
102
RTVSPost2010PropOp52
 70
     0
102
RTVSPost2010Prop53
 90
        2
102
RTVSPost2010PropOp53
 70
     1
102
RTVSPost2010Prop54
  1
strokes_ogs.tif
102
RTVSPost2010PropOp54
 70
     1
102
RTVSPost2010Prop55
280
     0
102
RTVSPost2010PropOp55
 70
     1
102
RTVSPost2010Prop56
140
1.0
102
RTVSPost2010PropOp56
 70
     1
102
RTVSPost2010Prop57
140
1.0
102
RTVSPost2010PropOp57
 70
     1
102
RTVSPropertyOp0
 70
     1
102
RTVSPropertyOp1
 70
     1
102
RTVSPropertyOp2
 70
     1
102
RTVSPropertyOp3
 70
     1
102
RTVSPropertyOp4
 70
     1
102
RTVSPropertyOp5
 70
     1
102
RTVSPropertyOp6
 70
     1
102
RTVSPropertyOp7
 70
     1
102
RTVSPropertyOp8
 70
     1
102
RTVSPropertyOp9
 70
     1
102
RTVSPropertyOp10
 70
     1
102
RTVSPropertyOp11
 70
     1
102
RTVSPropertyOp12
 70
     1
102
RTVSPropertyOp13
 70
     1
102
RTVSPropertyOp14
 70
     1
102
RTVSPropertyOp15
 70
     1
102
RTVSPropertyOp16
 70
     1
102
RTVSPropertyOp17
 70
     1
102
RTVSPropertyOp18
 70
     1
102
RTVSPropertyOp19
 70
     1
102
RTVSPropertyOp20
 70
     1
102
RTVSPropertyOp21
 70
     1
102
RTVSPropertyOp22
 70
     1
102
RTVSPropertyOp23
 70
     1
102
RTVSPropertyOp24
 70
     1
102
RTVSPropertyOp25
 70
     1
102
RTVSPropertyOp26
 70
     1
102
RTVSPropertyOp27
 70
     1
102
RTVSPropertyOp28
 70
     1
102
RTVSPropertyOp29
 70
     1
102
RTVSPropertyOp30
 70
     1
102
RTVSPropertyOp31
 70
     1
102
RTVSPropertyOp32
 70
     1
102
RTVSPropertyOp33
 70
     1
102
RTVSPropertyOp34
 70
     1
102
RTVSPropertyOp35
 70
     1
102
RTVSPropertyOp36
 70
     1
102
RTVSPropertyOp37
 70
     1
102
RTVSPropertyOp38
 70
     1
102
RTVSPropertyOp39
 70
     1
102
RTVSPropertyOp40
 70
     1
102
RTVSPropertyOp41
 70
     1
102
RTVSPropertyOp42
 70
     1
102
RTVSPropertyOp43
 70
     1
102
RTVSPropertyOp44
 70
     1
102
RTVSPropertyOp45
 70
     1
102
RTVSPropertyOp46
 70
     1
102
RTVSPropertyOp47
 70
     1
102
RTVSPropertyOp48
 70
     1
102
RTVSPropertyOp49
 70
     1
102
RTVSPropertyOp50
 70
     1
102
RTVSPropertyOp51
 70
     0
102
RTVSPropertyOp52
 70
     0
102
RTVSPropertyOp53
 70
     1
102
RTVSPropertyOp54
 70
     1
102
RTVSPropertyOp55
 70
     1
102
RTVSPropertyOp56
 70
     1
102
RTVSPropertyOp57
 70
     1
102
RTVSPropertyOp58
 70
     1
102
RTVSPropertyOp59
 70
     1
102
RTVSPropertyOp60
 70
     1
102
RTVSPropertyOp61
 70
     1
102
RTVSPropertyOp62
 70
     1
  0
XRECORD
  5
2E3
102
{ACAD_REACTORS
330
2E2
102
}
330
2E2
100
AcDbXrecord
280
     1
102
RTVSPost2010Prop28
280
     0
102
RTVSPost2010PropOp28
 70
     1
102
RTVSPost2010Prop29
280
     1
102
RTVSPost2010PropOp29
 70
     1
102
RTVSPost2010Prop30
280
     1
102
RTVSPost2010PropOp30
 70
     1
102
RTVSPost2010Prop31
280
     0
102
RTVSPost2010PropOp31
 70
     1
102
RTVSPost2010Prop32
280
     0
102
RTVSPost2010PropOp32
 70
     1
102
RTVSPost2010Prop33
280
     0
102
RTVSPost2010PropOp33
 70
     1
102
RTVSPost2010Prop34
280
     0
102
RTVSPost2010PropOp34
 70
     1
102
RTVSPost2010Prop35
280
     0
102
RTVSPost2010PropOp35
 70
     1
102
RTVSPost2010Prop36
280
     0
102
RTVSPost2010PropOp36
 70
     1
102
RTVSPost2010Prop37
 90
       50
102
RTVSPost2010PropOp37
 70
     1
102
RTVSPost2010Prop38
140
0.0
102
RTVSPost2010PropOp38
 70
     1
102
RTVSPost2010Prop39
140
1.0
102
RTVSPost2010PropOp39
 70
     1
102
RTVSPost2010Prop40
 90
        0
102
RTVSPost2010PropOp40
 70
     1
102
RTVSPost2010Prop41ColorIndex
 90
       18
102
RTVSPost2010Prop41ColorRGB
 90
        0
102
RTVSPost2010PropOp41
 70
     1
102
RTVSPost2010Prop42
 90
       50
102
RTVSPost2010PropOp42
 70
     1
102
RTVSPost2010Prop43
 90
        3
102
RTVSPost2010PropOp43
 70
     1
102
RTVSPost2010Prop44ColorIndex
 90
        5
102
RTVSPost2010Prop44ColorRGB
 90
      255
102
RTVSPost2010PropOp44
 70
     1
102
RTVSPost2010Prop45
280
     0
102
RTVSPost2010PropOp45
 70
     1
102
RTVSPost2010Prop46
 90
       50
102
RTVSPost2010PropOp46
 70
     1
102
RTVSPost2010Prop47
 90
       50
102
RTVSPost2010PropOp47
 70
     1
102
RTVSPost2010Prop48
 90
       50
102
RTVSPost2010PropOp48
 70
     1
102
RTVSPost2010Prop49
280
     0
102
RTVSPost2010PropOp49
 70
     1
102
RTVSPost2010Prop50
 90
       50
102
RTVSPost2010PropOp50
 70
     1
102
RTVSPost2010Prop51ColorIndex
 90
      256
102
RTVSPost2010Prop51ColorRGB
 90
-16777216
102
RTVSPost2010PropOp51
 70
     0
102
RTVSPost2010Prop52
140
1.0
102
RTVSPost2010PropOp52
 70
     0
102
RTVSPost2010Prop53
 90
        2
102
RTVSPost2010PropOp53
 70
     1
102
RTVSPost2010Prop54
  1
strokes_ogs.tif
102
RTVSPost2010PropOp54
 70
     1
102
RTVSPost2010Prop55
280
     0
102
RTVSPost2010PropOp55
 70
     1
102
RTVSPost2010Prop56
140
1.0
102
RTVSPost2010PropOp56
 70
     1
102
RTVSPost2010Prop57
140
1.0
102
RTVSPost2010PropOp57
 70
     1
102
RTVSPropertyOp0
 70
     1
102
RTVSPropertyOp1
 70
     1
102
RTVSPropertyOp2
 70
     1
102
RTVSPropertyOp3
 70
     1
102
RTVSPropertyOp4
 70
     1
102
RTVSPropertyOp5
 70
     1
102
RTVSPropertyOp6
 70
     1
102
RTVSPropertyOp7
 70
     1
102
RTVSPropertyOp8
 70
     1
102
RTVSPropertyOp9
 70
     1
102
RTVSPropertyOp10
 70
     1
102
RTVSPropertyOp11
 70
     1
102
RTVSPropertyOp12
 70
     1
102
RTVSPropertyOp13
 70
     1
102
RTVSPropertyOp14
 70
     1
102
RTVSPropertyOp15
 70
     1
102
RTVSPropertyOp16
 70
     1
102
RTVSPropertyOp17
 70
     1
102
RTVSPropertyOp18
 70
     1
102
RTVSPropertyOp19
 70
     1
102
RTVSPropertyOp20
 70
     1
102
RTVSPropertyOp21
 70
     1
102
RTVSPropertyOp22
 70
     1
102
RTVSPropertyOp23
 70
     1
102
RTVSPropertyOp24
 70
     1
102
RTVSPropertyOp25
 70
     1
102
RTVSPropertyOp26
 70
     1
102
RTVSPropertyOp27
 70
     1
102
RTVSPropertyOp28
 70
     1
102
RTVSPropertyOp29
 70
     1
102
RTVSPropertyOp30
 70
     1
102
RTVSPropertyOp31
 70
     1
102
RTVSPropertyOp32
 70
     1
102
RTVSPropertyOp33
 70
     1
102
RTVSPropertyOp34
 70
     1
102
RTVSPropertyOp35
 70
     1
102
RTVSPropertyOp36
 70
     1
102
RTVSPropertyOp37
 70
     1
102
RTVSPropertyOp38
 70
     1
102
RTVSPropertyOp39
 70
     1
102
RTVSPropertyOp40
 70
     1
102
RTVSPropertyOp41
 70
     1
102
RTVSPropertyOp42
 70
     1
102
RTVSPropertyOp43
 70
     1
102
RTVSPropertyOp44
 70
     1
102
RTVSPropertyOp45
 70
     1
102
RTVSPropertyOp46
 70
     1
102
RTVSPropertyOp47
 70
     1
102
RTVSPropertyOp48
 70
     1
102
RTVSPropertyOp49
 70
     1
102
RTVSPropertyOp50
 70
     1
102
RTVSPropertyOp51
 70
     0
102
RTVSPropertyOp52
 70
     0
102
RTVSPropertyOp53
 70
     1
102
RTVSPropertyOp54
 70
     1
102
RTVSPropertyOp55
 70
     1
102
RTVSPropertyOp56
 70
     1
102
RTVSPropertyOp57
 70
     1
102
RTVSPropertyOp58
 70
     1
102
RTVSPropertyOp59
 70
     1
102
RTVSPropertyOp60
 70
     1
102
RTVSPropertyOp61
 70
     1
102
RTVSPropertyOp62
 70
     1
  0
XRECORD
  5
2E7
102
{ACAD_REACTORS
330
2E6
102
}
330
2E6
100
AcDbXrecord
280
     1
102
RTVSPost2010Prop28
280
     0
102
RTVSPost2010PropOp28
 70
     1
102
RTVSPost2010Prop29
280
     1
102
RTVSPost2010PropOp29
 70
     1
102
RTVSPost2010Prop30
280
     1
102
RTVSPost2010PropOp30
 70
     1
102
RTVSPost2010Prop31
280
     0
102
RTVSPost2010PropOp31
 70
     1
102
RTVSPost2010Prop32
280
     0
102
RTVSPost2010PropOp32
 70
     1
102
RTVSPost2010Prop33
280
     0
102
RTVSPost2010PropOp33
 70
     1
102
RTVSPost2010Prop34
280
     0
102
RTVSPost2010PropOp34
 70
     1
102
RTVSPost2010Prop35
280
     0
102
RTVSPost2010PropOp35
 70
     1
102
RTVSPost2010Prop36
280
     0
102
RTVSPost2010PropOp36
 70
     1
102
RTVSPost2010Prop37
 90
       50
102
RTVSPost2010PropOp37
 70
     1
102
RTVSPost2010Prop38
140
0.0
102
RTVSPost2010PropOp38
 70
     1
102
RTVSPost2010Prop39
140
1.0
102
RTVSPost2010PropOp39
 70
     1
102
RTVSPost2010Prop40
 90
        0
102
RTVSPost2010PropOp40
 70
     1
102
RTVSPost2010Prop41ColorIndex
 90
       18
102
RTVSPost2010Prop41ColorRGB
 90
        0
102
RTVSPost2010PropOp41
 70
     1
102
RTVSPost2010Prop42
 90
       50
102
RTVSPost2010PropOp42
 70
     1
102
RTVSPost2010Prop43
 90
        3
102
RTVSPost2010PropOp43
 70
     1
102
RTVSPost2010Prop44ColorIndex
 90
        5
102
RTVSPost2010Prop44ColorRGB
 90
      255
102
RTVSPost2010PropOp44
 70
     1
102
RTVSPost2010Prop45
280
     0
102
RTVSPost2010PropOp45
 70
     1
102
RTVSPost2010Prop46
 90
       50
102
RTVSPost2010PropOp46
 70
     1
102
RTVSPost2010Prop47
 90
       50
102
RTVSPost2010PropOp47
 70
     1
102
RTVSPost2010Prop48
 90
       50
102
RTVSPost2010PropOp48
 70
     1
102
RTVSPost2010Prop49
280
     0
102
RTVSPost2010PropOp49
 70
     1
102
RTVSPost2010Prop50
 90
       50
102
RTVSPost2010PropOp50
 70
     1
102
RTVSPost2010Prop51ColorIndex
 90
      256
102
RTVSPost2010Prop51ColorRGB
 90
-16777216
102
RTVSPost2010PropOp51
 70
     0
102
RTVSPost2010Prop52
140
1.0
102
RTVSPost2010PropOp52
 70
     0
102
RTVSPost2010Prop53
 90
        2
102
RTVSPost2010PropOp53
 70
     1
102
RTVSPost2010Prop54
  1
strokes_ogs.tif
102
RTVSPost2010PropOp54
 70
     1
102
RTVSPost2010Prop55
280
     0
102
RTVSPost2010PropOp55
 70
     1
102
RTVSPost2010Prop56
140
1.0
102
RTVSPost2010PropOp56
 70
     1
102
RTVSPost2010Prop57
140
1.0
102
RTVSPost2010PropOp57
 70
     1
102
RTVSPropertyOp0
 70
     1
102
RTVSPropertyOp1
 70
     1
102
RTVSPropertyOp2
 70
     1
102
RTVSPropertyOp3
 70
     1
102
RTVSPropertyOp4
 70
     1
102
RTVSPropertyOp5
 70
     1
102
RTVSPropertyOp6
 70
     1
102
RTVSPropertyOp7
 70
     1
102
RTVSPropertyOp8
 70
     1
102
RTVSPropertyOp9
 70
     1
102
RTVSPropertyOp10
 70
     1
102
RTVSPropertyOp11
 70
     1
102
RTVSPropertyOp12
 70
     1
102
RTVSPropertyOp13
 70
     1
102
RTVSPropertyOp14
 70
     1
102
RTVSPropertyOp15
 70
     1
102
RTVSPropertyOp16
 70
     1
102
RTVSPropertyOp17
 70
     1
102
RTVSPropertyOp18
 70
     1
102
RTVSPropertyOp19
 70
     1
102
RTVSPropertyOp20
 70
     1
102
RTVSPropertyOp21
 70
     1
102
RTVSPropertyOp22
 70
     1
102
RTVSPropertyOp23
 70
     1
102
RTVSPropertyOp24
 70
     1
102
RTVSPropertyOp25
 70
     1
102
RTVSPropertyOp26
 70
     1
102
RTVSPropertyOp27
 70
     1
102
RTVSPropertyOp28
 70
     1
102
RTVSPropertyOp29
 70
     1
102
RTVSPropertyOp30
 70
     1
102
RTVSPropertyOp31
 70
     1
102
RTVSPropertyOp32
 70
     1
102
RTVSPropertyOp33
 70
     1
102
RTVSPropertyOp34
 70
     1
102
RTVSPropertyOp35
 70
     1
102
RTVSPropertyOp36
 70
     1
102
RTVSPropertyOp37
 70
     1
102
RTVSPropertyOp38
 70
     1
102
RTVSPropertyOp39
 70
     1
102
RTVSPropertyOp40
 70
     1
102
RTVSPropertyOp41
 70
     1
102
RTVSPropertyOp42
 70
     1
102
RTVSPropertyOp43
 70
     1
102
RTVSPropertyOp44
 70
     1
102
RTVSPropertyOp45
 70
     1
102
RTVSPropertyOp46
 70
     1
102
RTVSPropertyOp47
 70
     1
102
RTVSPropertyOp48
 70
     1
102
RTVSPropertyOp49
 70
     1
102
RTVSPropertyOp50
 70
     1
102
RTVSPropertyOp51
 70
     0
102
RTVSPropertyOp52
 70
     0
102
RTVSPropertyOp53
 70
     1
102
RTVSPropertyOp54
 70
     1
102
RTVSPropertyOp55
 70
     1
102
RTVSPropertyOp56
 70
     1
102
RTVSPropertyOp57
 70
     1
102
RTVSPropertyOp58
 70
     1
102
RTVSPropertyOp59
 70
     1
102
RTVSPropertyOp60
 70
     1
102
RTVSPropertyOp61
 70
     1
102
RTVSPropertyOp62
 70
     1
  0
XRECORD
  5
301
102
{ACAD_REACTORS
330
300
102
}
330
300
100
AcDbXrecord
280
     1
102
RTVSPost2010Prop28
280
     0
102
RTVSPost2010PropOp28
 70
     1
102
RTVSPost2010Prop29
280
     1
102
RTVSPost2010PropOp29
 70
     1
102
RTVSPost2010Prop30
280
     1
102
RTVSPost2010PropOp30
 70
     1
102
RTVSPost2010Prop31
280
     0
102
RTVSPost2010PropOp31
 70
     1
102
RTVSPost2010Prop32
280
     0
102
RTVSPost2010PropOp32
 70
     1
102
RTVSPost2010Prop33
280
     0
102
RTVSPost2010PropOp33
 70
     1
102
RTVSPost2010Prop34
280
     0
102
RTVSPost2010PropOp34
 70
     1
102
RTVSPost2010Prop35
280
     0
102
RTVSPost2010PropOp35
 70
     1
102
RTVSPost2010Prop36
280
     0
102
RTVSPost2010PropOp36
 70
     1
102
RTVSPost2010Prop37
 90
       50
102
RTVSPost2010PropOp37
 70
     0
102
RTVSPost2010Prop38
140
0.0
102
RTVSPost2010PropOp38
 70
     0
102
RTVSPost2010Prop39
140
1.0
102
RTVSPost2010PropOp39
 70
     0
102
RTVSPost2010Prop40
 90
        0
102
RTVSPost2010PropOp40
 70
     0
102
RTVSPost2010Prop41ColorIndex
 90
       18
102
RTVSPost2010Prop41ColorRGB
 90
        0
102
RTVSPost2010PropOp41
 70
     0
102
RTVSPost2010Prop42
 90
       50
102
RTVSPost2010PropOp42
 70
     0
102
RTVSPost2010Prop43
 90
        3
102
RTVSPost2010PropOp43
 70
     0
102
RTVSPost2010Prop44ColorIndex
 90
        5
102
RTVSPost2010Prop44ColorRGB
 90
      255
102
RTVSPost2010PropOp44
 70
     0
102
RTVSPost2010Prop45
280
     0
102
RTVSPost2010PropOp45
 70
     1
102
RTVSPost2010Prop46
 90
       50
102
RTVSPost2010PropOp46
 70
     0
102
RTVSPost2010Prop47
 90
       50
102
RTVSPost2010PropOp47
 70
     0
102
RTVSPost2010Prop48
 90
       50
102
RTVSPost2010PropOp48
 70
     0
102
RTVSPost2010Prop49
280
     0
102
RTVSPost2010PropOp49
 70
     1
102
RTVSPost2010Prop50
 90
       50
102
RTVSPost2010PropOp50
 70
     0
102
RTVSPost2010Prop51ColorIndex
 90
      256
102
RTVSPost2010Prop51ColorRGB
 90
-16777216
102
RTVSPost2010PropOp51
 70
     0
102
RTVSPost2010Prop52
140
1.0
102
RTVSPost2010PropOp52
 70
     0
102
RTVSPost2010Prop53
 90
        2
102
RTVSPost2010PropOp53
 70
     0
102
RTVSPost2010Prop54
  1
strokes_ogs.tif
102
RTVSPost2010PropOp54
 70
     0
102
RTVSPost2010Prop55
280
     0
102
RTVSPost2010PropOp55
 70
     1
102
RTVSPost2010Prop56
140
1.0
102
RTVSPost2010PropOp56
 70
     0
102
RTVSPost2010Prop57
140
1.0
102
RTVSPost2010PropOp57
 70
     0
102
RTVSPropertyOp0
 70
     0
102
RTVSPropertyOp1
 70
     0
102
RTVSPropertyOp2
 70
     0
102
RTVSPropertyOp3
 70
     0
102
RTVSPropertyOp4
 70
     0
102
RTVSPropertyOp5
 70
     0
102
RTVSPropertyOp6
 70
     0
102
RTVSPropertyOp7
 70
     0
102
RTVSPropertyOp8
 70
     0
102
RTVSPropertyOp9
 70
     0
102
RTVSPropertyOp10
 70
     0
102
RTVSPropertyOp11
 70
     0
102
RTVSPropertyOp12
 70
     0
102
RTVSPropertyOp13
 70
     0
102
RTVSPropertyOp14
 70
     2
102
RTVSPropertyOp15
 70
     0
102
RTVSPropertyOp16
 70
     0
102
RTVSPropertyOp17
 70
     0
102
RTVSPropertyOp18
 70
     0
102
RTVSPropertyOp19
 70
     0
102
RTVSPropertyOp20
 70
     0
102
RTVSPropertyOp21
 70
     0
102
RTVSPropertyOp22
 70
     0
102
RTVSPropertyOp23
 70
     0
102
RTVSPropertyOp24
 70
     0
102
RTVSPropertyOp25
 70
     0
102
RTVSPropertyOp26
 70
     0
102
RTVSPropertyOp27
 70
     0
102
RTVSPropertyOp28
 70
     1
102
RTVSPropertyOp29
 70
     1
102
RTVSPropertyOp30
 70
     1
102
RTVSPropertyOp31
 70
     1
102
RTVSPropertyOp32
 70
     1
102
RTVSPropertyOp33
 70
     1
102
RTVSPropertyOp34
 70
     1
102
RTVSPropertyOp35
 70
     1
102
RTVSPropertyOp36
 70
     1
102
RTVSPropertyOp37
 70
     0
102
RTVSPropertyOp38
 70
     0
102
RTVSPropertyOp39
 70
     0
102
RTVSPropertyOp40
 70
     0
102
RTVSPropertyOp41
 70
     0
102
RTVSPropertyOp42
 70
     0
102
RTVSPropertyOp43
 70
     0
102
RTVSPropertyOp44
 70
     0
102
RTVSPropertyOp45
 70
     1
102
RTVSPropertyOp46
 70
     0
102
RTVSPropertyOp47
 70
     0
102
RTVSPropertyOp48
 70
     0
102
RTVSPropertyOp49
 70
     1
102
RTVSPropertyOp50
 70
     0
102
RTVSPropertyOp51
 70
     0
102
RTVSPropertyOp52
 70
     0
102
RTVSPropertyOp53
 70
     0
102
RTVSPropertyOp54
 70
     0
102
RTVSPropertyOp55
 70
     1
102
RTVSPropertyOp56
 70
     0
102
RTVSPropertyOp57
 70
     0
102
RTVSPropertyOp58
 70
     0
102
RTVSPropertyOp59
 70
     0
102
RTVSPropertyOp60
 70
     0
102
RTVSPropertyOp61
 70
     0
102
RTVSPropertyOp62
 70
     0
  0
XRECORD
  5
2EF
102
{ACAD_REACTORS
330
2EE
102
}
330
2EE
100
AcDbXrecord
280
     1
102
RTVSPost2010Prop28
280
     0
102
RTVSPost2010PropOp28
 70
     1
102
RTVSPost2010Prop29
280
     1
102
RTVSPost2010PropOp29
 70
     1
102
RTVSPost2010Prop30
280
     1
102
RTVSPost2010PropOp30
 70
     1
102
RTVSPost2010Prop31
280
     0
102
RTVSPost2010PropOp31
 70
     1
102
RTVSPost2010Prop32
280
     0
102
RTVSPost2010PropOp32
 70
     1
102
RTVSPost2010Prop33
280
     0
102
RTVSPost2010PropOp33
 70
     1
102
RTVSPost2010Prop34
280
     0
102
RTVSPost2010PropOp34
 70
     1
102
RTVSPost2010Prop35
280
     0
102
RTVSPost2010PropOp35
 70
     1
102
RTVSPost2010Prop36
280
     0
102
RTVSPost2010PropOp36
 70
     1
102
RTVSPost2010Prop37
 90
       50
102
RTVSPost2010PropOp37
 70
     1
102
RTVSPost2010Prop38
140
0.0
102
RTVSPost2010PropOp38
 70
     1
102
RTVSPost2010Prop39
140
1.0
102
RTVSPost2010PropOp39
 70
     1
102
RTVSPost2010Prop40
 90
        0
102
RTVSPost2010PropOp40
 70
     1
102
RTVSPost2010Prop41ColorIndex
 90
       18
102
RTVSPost2010Prop41ColorRGB
 90
        0
102
RTVSPost2010PropOp41
 70
     1
102
RTVSPost2010Prop42
 90
       50
102
RTVSPost2010PropOp42
 70
     1
102
RTVSPost2010Prop43
 90
        3
102
RTVSPost2010PropOp43
 70
     1
102
RTVSPost2010Prop44ColorIndex
 90
        5
102
RTVSPost2010Prop44ColorRGB
 90
      255
102
RTVSPost2010PropOp44
 70
     1
102
RTVSPost2010Prop45
280
     0
102
RTVSPost2010PropOp45
 70
     1
102
RTVSPost2010Prop46
 90
       50
102
RTVSPost2010PropOp46
 70
     1
102
RTVSPost2010Prop47
 90
       50
102
RTVSPost2010PropOp47
 70
     1
102
RTVSPost2010Prop48
 90
       50
102
RTVSPost2010PropOp48
 70
     1
102
RTVSPost2010Prop49
280
     0
102
RTVSPost2010PropOp49
 70
     1
102
RTVSPost2010Prop50
 90
       50
102
RTVSPost2010PropOp50
 70
     1
102
RTVSPost2010Prop51ColorIndex
 90
      256
102
RTVSPost2010Prop51ColorRGB
 90
-16777216
102
RTVSPost2010PropOp51
 70
     0
102
RTVSPost2010Prop52
140
1.0
102
RTVSPost2010PropOp52
 70
     0
102
RTVSPost2010Prop53
 90
        2
102
RTVSPost2010PropOp53
 70
     1
102
RTVSPost2010Prop54
  1
strokes_ogs.tif
102
RTVSPost2010PropOp54
 70
     1
102
RTVSPost2010Prop55
280
     0
102
RTVSPost2010PropOp55
 70
     1
102
RTVSPost2010Prop56
140
1.0
102
RTVSPost2010PropOp56
 70
     1
102
RTVSPost2010Prop57
140
1.0
102
RTVSPost2010PropOp57
 70
     1
102
RTVSPropertyOp0
 70
     1
102
RTVSPropertyOp1
 70
     1
102
RTVSPropertyOp2
 70
     1
102
RTVSPropertyOp3
 70
     1
102
RTVSPropertyOp4
 70
     1
102
RTVSPropertyOp5
 70
     1
102
RTVSPropertyOp6
 70
     1
102
RTVSPropertyOp7
 70
     1
102
RTVSPropertyOp8
 70
     1
102
RTVSPropertyOp9
 70
     1
102
RTVSPropertyOp10
 70
     1
102
RTVSPropertyOp11
 70
     1
102
RTVSPropertyOp12
 70
     1
102
RTVSPropertyOp13
 70
     1
102
RTVSPropertyOp14
 70
     1
102
RTVSPropertyOp15
 70
     1
102
RTVSPropertyOp16
 70
     1
102
RTVSPropertyOp17
 70
     1
102
RTVSPropertyOp18
 70
     1
102
RTVSPropertyOp19
 70
     1
102
RTVSPropertyOp20
 70
     1
102
RTVSPropertyOp21
 70
     1
102
RTVSPropertyOp22
 70
     1
102
RTVSPropertyOp23
 70
     1
102
RTVSPropertyOp24
 70
     1
102
RTVSPropertyOp25
 70
     1
102
RTVSPropertyOp26
 70
     1
102
RTVSPropertyOp27
 70
     1
102
RTVSPropertyOp28
 70
     1
102
RTVSPropertyOp29
 70
     1
102
RTVSPropertyOp30
 70
     1
102
RTVSPropertyOp31
 70
     1
102
RTVSPropertyOp32
 70
     1
102
RTVSPropertyOp33
 70
     1
102
RTVSPropertyOp34
 70
     1
102
RTVSPropertyOp35
 70
     1
102
RTVSPropertyOp36
 70
     1
102
RTVSPropertyOp37
 70
     1
102
RTVSPropertyOp38
 70
     1
102
RTVSPropertyOp39
 70
     1
102
RTVSPropertyOp40
 70
     1
102
RTVSPropertyOp41
 70
     1
102
RTVSPropertyOp42
 70
     1
102
RTVSPropertyOp43
 70
     1
102
RTVSPropertyOp44
 70
     1
102
RTVSPropertyOp45
 70
     1
102
RTVSPropertyOp46
 70
     1
102
RTVSPropertyOp47
 70
     1
102
RTVSPropertyOp48
 70
     1
102
RTVSPropertyOp49
 70
     1
102
RTVSPropertyOp50
 70
     1
102
RTVSPropertyOp51
 70
     0
102
RTVSPropertyOp52
 70
     0
102
RTVSPropertyOp53
 70
     1
102
RTVSPropertyOp54
 70
     1
102
RTVSPropertyOp55
 70
     1
102
RTVSPropertyOp56
 70
     1
102
RTVSPropertyOp57
 70
     1
102
RTVSPropertyOp58
 70
     1
102
RTVSPropertyOp59
 70
     1
102
RTVSPropertyOp60
 70
     1
102
RTVSPropertyOp61
 70
     1
102
RTVSPropertyOp62
 70
     1
  0
XRECORD
  5
2D3
102
{ACAD_REACTORS
330
2D2
102
}
330
2D2
100
AcDbXrecord
280
     1
102
RTVSPost2010Prop28
280
     0
102
RTVSPost2010PropOp28
 70
     1
102
RTVSPost2010Prop29
280
     1
102
RTVSPost2010PropOp29
 70
     1
102
RTVSPost2010Prop30
280
     1
102
RTVSPost2010PropOp30
 70
     1
102
RTVSPost2010Prop31
280
     0
102
RTVSPost2010PropOp31
 70
     1
102
RTVSPost2010Prop32
280
     0
102
RTVSPost2010PropOp32
 70
     1
102
RTVSPost2010Prop33
280
     0
102
RTVSPost2010PropOp33
 70
     1
102
RTVSPost2010Prop34
280
     0
102
RTVSPost2010PropOp34
 70
     1
102
RTVSPost2010Prop35
280
     0
102
RTVSPost2010PropOp35
 70
     1
102
RTVSPost2010Prop36
280
     0
102
RTVSPost2010PropOp36
 70
     1
102
RTVSPost2010Prop37
 90
       50
102
RTVSPost2010PropOp37
 70
     1
102
RTVSPost2010Prop38
140
0.0
102
RTVSPost2010PropOp38
 70
     1
102
RTVSPost2010Prop39
140
1.0
102
RTVSPost2010PropOp39
 70
     1
102
RTVSPost2010Prop40
 90
        0
102
RTVSPost2010PropOp40
 70
     1
102
RTVSPost2010Prop41ColorIndex
 90
       18
102
RTVSPost2010Prop41ColorRGB
 90
        0
102
RTVSPost2010PropOp41
 70
     1
102
RTVSPost2010Prop42
 90
       50
102
RTVSPost2010PropOp42
 70
     1
102
RTVSPost2010Prop43
 90
        3
102
RTVSPost2010PropOp43
 70
     1
102
RTVSPost2010Prop44ColorIndex
 90
        5
102
RTVSPost2010Prop44ColorRGB
 90
      255
102
RTVSPost2010PropOp44
 70
     1
102
RTVSPost2010Prop45
280
     0
102
RTVSPost2010PropOp45
 70
     1
102
RTVSPost2010Prop46
 90
       50
102
RTVSPost2010PropOp46
 70
     1
102
RTVSPost2010Prop47
 90
       50
102
RTVSPost2010PropOp47
 70
     1
102
RTVSPost2010Prop48
 90
       50
102
RTVSPost2010PropOp48
 70
     1
102
RTVSPost2010Prop49
280
     0
102
RTVSPost2010PropOp49
 70
     1
102
RTVSPost2010Prop50
 90
       50
102
RTVSPost2010PropOp50
 70
     1
102
RTVSPost2010Prop51ColorIndex
 90
      256
102
RTVSPost2010Prop51ColorRGB
 90
-16777216
102
RTVSPost2010PropOp51
 70
     0
102
RTVSPost2010Prop52
140
1.0
102
RTVSPost2010PropOp52
 70
     0
102
RTVSPost2010Prop53
 90
        2
102
RTVSPost2010PropOp53
 70
     1
102
RTVSPost2010Prop54
  1
strokes_ogs.tif
102
RTVSPost2010PropOp54
 70
     1
102
RTVSPost2010Prop55
280
     0
102
RTVSPost2010PropOp55
 70
     1
102
RTVSPost2010Prop56
140
1.0
102
RTVSPost2010PropOp56
 70
     1
102
RTVSPost2010Prop57
140
1.0
102
RTVSPost2010PropOp57
 70
     1
102
RTVSPropertyOp0
 70
     1
102
RTVSPropertyOp1
 70
     1
102
RTVSPropertyOp2
 70
     1
102
RTVSPropertyOp3
 70
     1
102
RTVSPropertyOp4
 70
     1
102
RTVSPropertyOp5
 70
     1
102
RTVSPropertyOp6
 70
     1
102
RTVSPropertyOp7
 70
     1
102
RTVSPropertyOp8
 70
     1
102
RTVSPropertyOp9
 70
     1
102
RTVSPropertyOp10
 70
     1
102
RTVSPropertyOp11
 70
     1
102
RTVSPropertyOp12
 70
     1
102
RTVSPropertyOp13
 70
     1
102
RTVSPropertyOp14
 70
     1
102
RTVSPropertyOp15
 70
     1
102
RTVSPropertyOp16
 70
     1
102
RTVSPropertyOp17
 70
     1
102
RTVSPropertyOp18
 70
     1
102
RTVSPropertyOp19
 70
     1
102
RTVSPropertyOp20
 70
     1
102
RTVSPropertyOp21
 70
     1
102
RTVSPropertyOp22
 70
     1
102
RTVSPropertyOp23
 70
     1
102
RTVSPropertyOp24
 70
     1
102
RTVSPropertyOp25
 70
     1
102
RTVSPropertyOp26
 70
     1
102
RTVSPropertyOp27
 70
     1
102
RTVSPropertyOp28
 70
     1
102
RTVSPropertyOp29
 70
     1
102
RTVSPropertyOp30
 70
     1
102
RTVSPropertyOp31
 70
     1
102
RTVSPropertyOp32
 70
     1
102
RTVSPropertyOp33
 70
     1
102
RTVSPropertyOp34
 70
     1
102
RTVSPropertyOp35
 70
     1
102
RTVSPropertyOp36
 70
     1
102
RTVSPropertyOp37
 70
     1
102
RTVSPropertyOp38
 70
     1
102
RTVSPropertyOp39
 70
     1
102
RTVSPropertyOp40
 70
     1
102
RTVSPropertyOp41
 70
     1
102
RTVSPropertyOp42
 70
     1
102
RTVSPropertyOp43
 70
     1
102
RTVSPropertyOp44
 70
     1
102
RTVSPropertyOp45
 70
     1
102
RTVSPropertyOp46
 70
     1
102
RTVSPropertyOp47
 70
     1
102
RTVSPropertyOp48
 70
     1
102
RTVSPropertyOp49
 70
     1
102
RTVSPropertyOp50
 70
     1
102
RTVSPropertyOp51
 70
     0
102
RTVSPropertyOp52
 70
     0
102
RTVSPropertyOp53
 70
     1
102
RTVSPropertyOp54
 70
     1
102
RTVSPropertyOp55
 70
     1
102
RTVSPropertyOp56
 70
     1
102
RTVSPropertyOp57
 70
     1
102
RTVSPropertyOp58
 70
     1
102
RTVSPropertyOp59
 70
     1
102
RTVSPropertyOp60
 70
     1
102
RTVSPropertyOp61
 70
     1
102
RTVSPropertyOp62
 70
     1
  0
XRECORD
  5
2D5
102
{ACAD_REACTORS
330
2D4
102
}
330
2D4
100
AcDbXrecord
280
     1
102
RTVSPost2010Prop28
280
     0
102
RTVSPost2010PropOp28
 70
     1
102
RTVSPost2010Prop29
280
     1
102
RTVSPost2010PropOp29
 70
     1
102
RTVSPost2010Prop30
280
     1
102
RTVSPost2010PropOp30
 70
     1
102
RTVSPost2010Prop31
280
     0
102
RTVSPost2010PropOp31
 70
     1
102
RTVSPost2010Prop32
280
     0
102
RTVSPost2010PropOp32
 70
     1
102
RTVSPost2010Prop33
280
     0
102
RTVSPost2010PropOp33
 70
     1
102
RTVSPost2010Prop34
280
     0
102
RTVSPost2010PropOp34
 70
     1
102
RTVSPost2010Prop35
280
     0
102
RTVSPost2010PropOp35
 70
     1
102
RTVSPost2010Prop36
280
     0
102
RTVSPost2010PropOp36
 70
     1
102
RTVSPost2010Prop37
 90
       50
102
RTVSPost2010PropOp37
 70
     1
102
RTVSPost2010Prop38
140
0.0
102
RTVSPost2010PropOp38
 70
     1
102
RTVSPost2010Prop39
140
1.0
102
RTVSPost2010PropOp39
 70
     1
102
RTVSPost2010Prop40
 90
        0
102
RTVSPost2010PropOp40
 70
     1
102
RTVSPost2010Prop41ColorIndex
 90
       18
102
RTVSPost2010Prop41ColorRGB
 90
        0
102
RTVSPost2010PropOp41
 70
     1
102
RTVSPost2010Prop42
 90
       50
102
RTVSPost2010PropOp42
 70
     1
102
RTVSPost2010Prop43
 90
        3
102
RTVSPost2010PropOp43
 70
     1
102
RTVSPost2010Prop44ColorIndex
 90
        5
102
RTVSPost2010Prop44ColorRGB
 90
      255
102
RTVSPost2010PropOp44
 70
     1
102
RTVSPost2010Prop45
280
     0
102
RTVSPost2010PropOp45
 70
     1
102
RTVSPost2010Prop46
 90
       50
102
RTVSPost2010PropOp46
 70
     1
102
RTVSPost2010Prop47
 90
       50
102
RTVSPost2010PropOp47
 70
     1
102
RTVSPost2010Prop48
 90
       50
102
RTVSPost2010PropOp48
 70
     1
102
RTVSPost2010Prop49
280
     0
102
RTVSPost2010PropOp49
 70
     1
102
RTVSPost2010Prop50
 90
       50
102
RTVSPost2010PropOp50
 70
     1
102
RTVSPost2010Prop51ColorIndex
 90
      256
102
RTVSPost2010Prop51ColorRGB
 90
-16777216
102
RTVSPost2010PropOp51
 70
     0
102
RTVSPost2010Prop52
140
1.0
102
RTVSPost2010PropOp52
 70
     0
102
RTVSPost2010Prop53
 90
        2
102
RTVSPost2010PropOp53
 70
     1
102
RTVSPost2010Prop54
  1
strokes_ogs.tif
102
RTVSPost2010PropOp54
 70
     1
102
RTVSPost2010Prop55
280
     0
102
RTVSPost2010PropOp55
 70
     1
102
RTVSPost2010Prop56
140
1.0
102
RTVSPost2010PropOp56
 70
     1
102
RTVSPost2010Prop57
140
1.0
102
RTVSPost2010PropOp57
 70
     1
102
RTVSPropertyOp0
 70
     1
102
RTVSPropertyOp1
 70
     1
102
RTVSPropertyOp2
 70
     1
102
RTVSPropertyOp3
 70
     1
102
RTVSPropertyOp4
 70
     1
102
RTVSPropertyOp5
 70
     1
102
RTVSPropertyOp6
 70
     1
102
RTVSPropertyOp7
 70
     1
102
RTVSPropertyOp8
 70
     1
102
RTVSPropertyOp9
 70
     1
102
RTVSPropertyOp10
 70
     1
102
RTVSPropertyOp11
 70
     1
102
RTVSPropertyOp12
 70
     1
102
RTVSPropertyOp13
 70
     1
102
RTVSPropertyOp14
 70
     1
102
RTVSPropertyOp15
 70
     1
102
RTVSPropertyOp16
 70
     1
102
RTVSPropertyOp17
 70
     1
102
RTVSPropertyOp18
 70
     1
102
RTVSPropertyOp19
 70
     1
102
RTVSPropertyOp20
 70
     1
102
RTVSPropertyOp21
 70
     1
102
RTVSPropertyOp22
 70
     1
102
RTVSPropertyOp23
 70
     1
102
RTVSPropertyOp24
 70
     1
102
RTVSPropertyOp25
 70
     1
102
RTVSPropertyOp26
 70
     1
102
RTVSPropertyOp27
 70
     1
102
RTVSPropertyOp28
 70
     1
102
RTVSPropertyOp29
 70
     1
102
RTVSPropertyOp30
 70
     1
102
RTVSPropertyOp31
 70
     1
102
RTVSPropertyOp32
 70
     1
102
RTVSPropertyOp33
 70
     1
102
RTVSPropertyOp34
 70
     1
102
RTVSPropertyOp35
 70
     1
102
RTVSPropertyOp36
 70
     1
102
RTVSPropertyOp37
 70
     1
102
RTVSPropertyOp38
 70
     1
102
RTVSPropertyOp39
 70
     1
102
RTVSPropertyOp40
 70
     1
102
RTVSPropertyOp41
 70
     1
102
RTVSPropertyOp42
 70
     1
102
RTVSPropertyOp43
 70
     1
102
RTVSPropertyOp44
 70
     1
102
RTVSPropertyOp45
 70
     1
102
RTVSPropertyOp46
 70
     1
102
RTVSPropertyOp47
 70
     1
102
RTVSPropertyOp48
 70
     1
102
RTVSPropertyOp49
 70
     1
102
RTVSPropertyOp50
 70
     1
102
RTVSPropertyOp51
 70
     0
102
RTVSPropertyOp52
 70
     0
102
RTVSPropertyOp53
 70
     1
102
RTVSPropertyOp54
 70
     1
102
RTVSPropertyOp55
 70
     1
102
RTVSPropertyOp56
 70
     1
102
RTVSPropertyOp57
 70
     1
102
RTVSPropertyOp58
 70
     1
102
RTVSPropertyOp59
 70
     1
102
RTVSPropertyOp60
 70
     1
102
RTVSPropertyOp61
 70
     1
102
RTVSPropertyOp62
 70
     1
  0
XRECORD
  5
2D7
102
{ACAD_REACTORS
330
2D6
102
}
330
2D6
100
AcDbXrecord
280
     1
102
RTVSPost2010Prop28
280
     0
102
RTVSPost2010PropOp28
 70
     1
102
RTVSPost2010Prop29
280
     1
102
RTVSPost2010PropOp29
 70
     1
102
RTVSPost2010Prop30
280
     1
102
RTVSPost2010PropOp30
 70
     1
102
RTVSPost2010Prop31
280
     0
102
RTVSPost2010PropOp31
 70
     1
102
RTVSPost2010Prop32
280
     0
102
RTVSPost2010PropOp32
 70
     1
102
RTVSPost2010Prop33
280
     0
102
RTVSPost2010PropOp33
 70
     1
102
RTVSPost2010Prop34
280
     0
102
RTVSPost2010PropOp34
 70
     1
102
RTVSPost2010Prop35
280
     0
102
RTVSPost2010PropOp35
 70
     1
102
RTVSPost2010Prop36
280
     0
102
RTVSPost2010PropOp36
 70
     1
102
RTVSPost2010Prop37
 90
       50
102
RTVSPost2010PropOp37
 70
     1
102
RTVSPost2010Prop38
140
0.0
102
RTVSPost2010PropOp38
 70
     1
102
RTVSPost2010Prop39
140
1.0
102
RTVSPost2010PropOp39
 70
     1
102
RTVSPost2010Prop40
 90
        0
102
RTVSPost2010PropOp40
 70
     1
102
RTVSPost2010Prop41ColorIndex
 90
       18
102
RTVSPost2010Prop41ColorRGB
 90
        0
102
RTVSPost2010PropOp41
 70
     1
102
RTVSPost2010Prop42
 90
       50
102
RTVSPost2010PropOp42
 70
     1
102
RTVSPost2010Prop43
 90
        3
102
RTVSPost2010PropOp43
 70
     1
102
RTVSPost2010Prop44ColorIndex
 90
        5
102
RTVSPost2010Prop44ColorRGB
 90
      255
102
RTVSPost2010PropOp44
 70
     1
102
RTVSPost2010Prop45
280
     0
102
RTVSPost2010PropOp45
 70
     1
102
RTVSPost2010Prop46
 90
       50
102
RTVSPost2010PropOp46
 70
     1
102
RTVSPost2010Prop47
 90
       50
102
RTVSPost2010PropOp47
 70
     1
102
RTVSPost2010Prop48
 90
       50
102
RTVSPost2010PropOp48
 70
     1
102
RTVSPost2010Prop49
280
     0
102
RTVSPost2010PropOp49
 70
     1
102
RTVSPost2010Prop50
 90
       50
102
RTVSPost2010PropOp50
 70
     1
102
RTVSPost2010Prop51ColorIndex
 90
      256
102
RTVSPost2010Prop51ColorRGB
 90
-16777216
102
RTVSPost2010PropOp51
 70
     0
102
RTVSPost2010Prop52
140
1.0
102
RTVSPost2010PropOp52
 70
     0
102
RTVSPost2010Prop53
 90
        2
102
RTVSPost2010PropOp53
 70
     1
102
RTVSPost2010Prop54
  1
strokes_ogs.tif
102
RTVSPost2010PropOp54
 70
     1
102
RTVSPost2010Prop55
280
     0
102
RTVSPost2010PropOp55
 70
     1
102
RTVSPost2010Prop56
140
1.0
102
RTVSPost2010PropOp56
 70
     1
102
RTVSPost2010Prop57
140
1.0
102
RTVSPost2010PropOp57
 70
     1
102
RTVSPropertyOp0
 70
     1
102
RTVSPropertyOp1
 70
     1
102
RTVSPropertyOp2
 70
     1
102
RTVSPropertyOp3
 70
     1
102
RTVSPropertyOp4
 70
     1
102
RTVSPropertyOp5
 70
     1
102
RTVSPropertyOp6
 70
     1
102
RTVSPropertyOp7
 70
     1
102
RTVSPropertyOp8
 70
     1
102
RTVSPropertyOp9
 70
     1
102
RTVSPropertyOp10
 70
     1
102
RTVSPropertyOp11
 70
     1
102
RTVSPropertyOp12
 70
     1
102
RTVSPropertyOp13
 70
     1
102
RTVSPropertyOp14
 70
     1
102
RTVSPropertyOp15
 70
     1
102
RTVSPropertyOp16
 70
     1
102
RTVSPropertyOp17
 70
     1
102
RTVSPropertyOp18
 70
     1
102
RTVSPropertyOp19
 70
     1
102
RTVSPropertyOp20
 70
     1
102
RTVSPropertyOp21
 70
     1
102
RTVSPropertyOp22
 70
     1
102
RTVSPropertyOp23
 70
     1
102
RTVSPropertyOp24
 70
     1
102
RTVSPropertyOp25
 70
     1
102
RTVSPropertyOp26
 70
     1
102
RTVSPropertyOp27
 70
     1
102
RTVSPropertyOp28
 70
     1
102
RTVSPropertyOp29
 70
     1
102
RTVSPropertyOp30
 70
     1
102
RTVSPropertyOp31
 70
     1
102
RTVSPropertyOp32
 70
     1
102
RTVSPropertyOp33
 70
     1
102
RTVSPropertyOp34
 70
     1
102
RTVSPropertyOp35
 70
     1
102
RTVSPropertyOp36
 70
     1
102
RTVSPropertyOp37
 70
     1
102
RTVSPropertyOp38
 70
     1
102
RTVSPropertyOp39
 70
     1
102
RTVSPropertyOp40
 70
     1
102
RTVSPropertyOp41
 70
     1
102
RTVSPropertyOp42
 70
     1
102
RTVSPropertyOp43
 70
     1
102
RTVSPropertyOp44
 70
     1
102
RTVSPropertyOp45
 70
     1
102
RTVSPropertyOp46
 70
     1
102
RTVSPropertyOp47
 70
     1
102
RTVSPropertyOp48
 70
     1
102
RTVSPropertyOp49
 70
     1
102
RTVSPropertyOp50
 70
     1
102
RTVSPropertyOp51
 70
     0
102
RTVSPropertyOp52
 70
     0
102
RTVSPropertyOp53
 70
     1
102
RTVSPropertyOp54
 70
     1
102
RTVSPropertyOp55
 70
     1
102
RTVSPropertyOp56
 70
     1
102
RTVSPropertyOp57
 70
     1
102
RTVSPropertyOp58
 70
     1
102
RTVSPropertyOp59
 70
     1
102
RTVSPropertyOp60
 70
     1
102
RTVSPropertyOp61
 70
     1
102
RTVSPropertyOp62
 70
     1
  0
XRECORD
  5
2D9
102
{ACAD_REACTORS
330
2D8
102
}
330
2D8
100
AcDbXrecord
280
     1
102
RTVSPost2010Prop28
280
     0
102
RTVSPost2010PropOp28
 70
     1
102
RTVSPost2010Prop29
280
     1
102
RTVSPost2010PropOp29
 70
     1
102
RTVSPost2010Prop30
280
     1
102
RTVSPost2010PropOp30
 70
     1
102
RTVSPost2010Prop31
280
     0
102
RTVSPost2010PropOp31
 70
     1
102
RTVSPost2010Prop32
280
     0
102
RTVSPost2010PropOp32
 70
     1
102
RTVSPost2010Prop33
280
     0
102
RTVSPost2010PropOp33
 70
     1
102
RTVSPost2010Prop34
280
     0
102
RTVSPost2010PropOp34
 70
     1
102
RTVSPost2010Prop35
280
     0
102
RTVSPost2010PropOp35
 70
     1
102
RTVSPost2010Prop36
280
     0
102
RTVSPost2010PropOp36
 70
     1
102
RTVSPost2010Prop37
 90
       50
102
RTVSPost2010PropOp37
 70
     1
102
RTVSPost2010Prop38
140
0.0
102
RTVSPost2010PropOp38
 70
     1
102
RTVSPost2010Prop39
140
1.0
102
RTVSPost2010PropOp39
 70
     1
102
RTVSPost2010Prop40
 90
        0
102
RTVSPost2010PropOp40
 70
     1
102
RTVSPost2010Prop41ColorIndex
 90
       18
102
RTVSPost2010Prop41ColorRGB
 90
        0
102
RTVSPost2010PropOp41
 70
     1
102
RTVSPost2010Prop42
 90
       50
102
RTVSPost2010PropOp42
 70
     1
102
RTVSPost2010Prop43
 90
        3
102
RTVSPost2010PropOp43
 70
     1
102
RTVSPost2010Prop44ColorIndex
 90
        5
102
RTVSPost2010Prop44ColorRGB
 90
      255
102
RTVSPost2010PropOp44
 70
     1
102
RTVSPost2010Prop45
280
     0
102
RTVSPost2010PropOp45
 70
     1
102
RTVSPost2010Prop46
 90
       50
102
RTVSPost2010PropOp46
 70
     1
102
RTVSPost2010Prop47
 90
       50
102
RTVSPost2010PropOp47
 70
     1
102
RTVSPost2010Prop48
 90
       50
102
RTVSPost2010PropOp48
 70
     1
102
RTVSPost2010Prop49
280
     0
102
RTVSPost2010PropOp49
 70
     1
102
RTVSPost2010Prop50
 90
       50
102
RTVSPost2010PropOp50
 70
     1
102
RTVSPost2010Prop51ColorIndex
 90
      256
102
RTVSPost2010Prop51ColorRGB
 90
-16777216
102
RTVSPost2010PropOp51
 70
     0
102
RTVSPost2010Prop52
140
1.0
102
RTVSPost2010PropOp52
 70
     0
102
RTVSPost2010Prop53
 90
        2
102
RTVSPost2010PropOp53
 70
     1
102
RTVSPost2010Prop54
  1
strokes_ogs.tif
102
RTVSPost2010PropOp54
 70
     1
102
RTVSPost2010Prop55
280
     0
102
RTVSPost2010PropOp55
 70
     1
102
RTVSPost2010Prop56
140
1.0
102
RTVSPost2010PropOp56
 70
     1
102
RTVSPost2010Prop57
140
1.0
102
RTVSPost2010PropOp57
 70
     1
102
RTVSPropertyOp0
 70
     1
102
RTVSPropertyOp1
 70
     1
102
RTVSPropertyOp2
 70
     1
102
RTVSPropertyOp3
 70
     1
102
RTVSPropertyOp4
 70
     1
102
RTVSPropertyOp5
 70
     1
102
RTVSPropertyOp6
 70
     1
102
RTVSPropertyOp7
 70
     1
102
RTVSPropertyOp8
 70
     1
102
RTVSPropertyOp9
 70
     1
102
RTVSPropertyOp10
 70
     1
102
RTVSPropertyOp11
 70
     1
102
RTVSPropertyOp12
 70
     1
102
RTVSPropertyOp13
 70
     1
102
RTVSPropertyOp14
 70
     1
102
RTVSPropertyOp15
 70
     1
102
RTVSPropertyOp16
 70
     1
102
RTVSPropertyOp17
 70
     1
102
RTVSPropertyOp18
 70
     1
102
RTVSPropertyOp19
 70
     1
102
RTVSPropertyOp20
 70
     1
102
RTVSPropertyOp21
 70
     1
102
RTVSPropertyOp22
 70
     1
102
RTVSPropertyOp23
 70
     1
102
RTVSPropertyOp24
 70
     1
102
RTVSPropertyOp25
 70
     1
102
RTVSPropertyOp26
 70
     1
102
RTVSPropertyOp27
 70
     1
102
RTVSPropertyOp28
 70
     1
102
RTVSPropertyOp29
 70
     1
102
RTVSPropertyOp30
 70
     1
102
RTVSPropertyOp31
 70
     1
102
RTVSPropertyOp32
 70
     1
102
RTVSPropertyOp33
 70
     1
102
RTVSPropertyOp34
 70
     1
102
RTVSPropertyOp35
 70
     1
102
RTVSPropertyOp36
 70
     1
102
RTVSPropertyOp37
 70
     1
102
RTVSPropertyOp38
 70
     1
102
RTVSPropertyOp39
 70
     1
102
RTVSPropertyOp40
 70
     1
102
RTVSPropertyOp41
 70
     1
102
RTVSPropertyOp42
 70
     1
102
RTVSPropertyOp43
 70
     1
102
RTVSPropertyOp44
 70
     1
102
RTVSPropertyOp45
 70
     1
102
RTVSPropertyOp46
 70
     1
102
RTVSPropertyOp47
 70
     1
102
RTVSPropertyOp48
 70
     1
102
RTVSPropertyOp49
 70
     1
102
RTVSPropertyOp50
 70
     1
102
RTVSPropertyOp51
 70
     0
102
RTVSPropertyOp52
 70
     0
102
RTVSPropertyOp53
 70
     1
102
RTVSPropertyOp54
 70
     1
102
RTVSPropertyOp55
 70
     1
102
RTVSPropertyOp56
 70
     1
102
RTVSPropertyOp57
 70
     1
102
RTVSPropertyOp58
 70
     1
102
RTVSPropertyOp59
 70
     1
102
RTVSPropertyOp60
 70
     1
102
RTVSPropertyOp61
 70
     1
102
RTVSPropertyOp62
 70
     1
  0
XRECORD
  5
2E1
102
{ACAD_REACTORS
330
2E0
102
}
330
2E0
100
AcDbXrecord
280
     1
102
RTVSPost2010Prop28
280
     0
102
RTVSPost2010PropOp28
 70
     1
102
RTVSPost2010Prop29
280
     1
102
RTVSPost2010PropOp29
 70
     1
102
RTVSPost2010Prop30
280
     1
102
RTVSPost2010PropOp30
 70
     1
102
RTVSPost2010Prop31
280
     0
102
RTVSPost2010PropOp31
 70
     1
102
RTVSPost2010Prop32
280
     0
102
RTVSPost2010PropOp32
 70
     1
102
RTVSPost2010Prop33
280
     0
102
RTVSPost2010PropOp33
 70
     1
102
RTVSPost2010Prop34
280
     0
102
RTVSPost2010PropOp34
 70
     1
102
RTVSPost2010Prop35
280
     0
102
RTVSPost2010PropOp35
 70
     1
102
RTVSPost2010Prop36
280
     0
102
RTVSPost2010PropOp36
 70
     1
102
RTVSPost2010Prop37
 90
       50
102
RTVSPost2010PropOp37
 70
     1
102
RTVSPost2010Prop38
140
0.0
102
RTVSPost2010PropOp38
 70
     1
102
RTVSPost2010Prop39
140
1.0
102
RTVSPost2010PropOp39
 70
     1
102
RTVSPost2010Prop40
 90
        0
102
RTVSPost2010PropOp40
 70
     1
102
RTVSPost2010Prop41ColorIndex
 90
       18
102
RTVSPost2010Prop41ColorRGB
 90
        0
102
RTVSPost2010PropOp41
 70
     1
102
RTVSPost2010Prop42
 90
       50
102
RTVSPost2010PropOp42
 70
     1
102
RTVSPost2010Prop43
 90
        3
102
RTVSPost2010PropOp43
 70
     1
102
RTVSPost2010Prop44ColorIndex
 90
        5
102
RTVSPost2010Prop44ColorRGB
 90
      255
102
RTVSPost2010PropOp44
 70
     1
102
RTVSPost2010Prop45
280
     0
102
RTVSPost2010PropOp45
 70
     1
102
RTVSPost2010Prop46
 90
       50
102
RTVSPost2010PropOp46
 70
     1
102
RTVSPost2010Prop47
 90
       50
102
RTVSPost2010PropOp47
 70
     1
102
RTVSPost2010Prop48
 90
       50
102
RTVSPost2010PropOp48
 70
     1
102
RTVSPost2010Prop49
280
     0
102
RTVSPost2010PropOp49
 70
     1
102
RTVSPost2010Prop50
 90
       50
102
RTVSPost2010PropOp50
 70
     1
102
RTVSPost2010Prop51ColorIndex
 90
      256
102
RTVSPost2010Prop51ColorRGB
 90
-16777216
102
RTVSPost2010PropOp51
 70
     0
102
RTVSPost2010Prop52
140
1.0
102
RTVSPost2010PropOp52
 70
     0
102
RTVSPost2010Prop53
 90
        2
102
RTVSPost2010PropOp53
 70
     1
102
RTVSPost2010Prop54
  1
strokes_ogs.tif
102
RTVSPost2010PropOp54
 70
     1
102
RTVSPost2010Prop55
280
     0
102
RTVSPost2010PropOp55
 70
     1
102
RTVSPost2010Prop56
140
1.0
102
RTVSPost2010PropOp56
 70
     1
102
RTVSPost2010Prop57
140
1.0
102
RTVSPost2010PropOp57
 70
     1
102
RTVSPropertyOp0
 70
     1
102
RTVSPropertyOp1
 70
     1
102
RTVSPropertyOp2
 70
     1
102
RTVSPropertyOp3
 70
     1
102
RTVSPropertyOp4
 70
     1
102
RTVSPropertyOp5
 70
     1
102
RTVSPropertyOp6
 70
     1
102
RTVSPropertyOp7
 70
     1
102
RTVSPropertyOp8
 70
     1
102
RTVSPropertyOp9
 70
     1
102
RTVSPropertyOp10
 70
     1
102
RTVSPropertyOp11
 70
     1
102
RTVSPropertyOp12
 70
     1
102
RTVSPropertyOp13
 70
     1
102
RTVSPropertyOp14
 70
     1
102
RTVSPropertyOp15
 70
     1
102
RTVSPropertyOp16
 70
     1
102
RTVSPropertyOp17
 70
     1
102
RTVSPropertyOp18
 70
     1
102
RTVSPropertyOp19
 70
     1
102
RTVSPropertyOp20
 70
     1
102
RTVSPropertyOp21
 70
     1
102
RTVSPropertyOp22
 70
     1
102
RTVSPropertyOp23
 70
     1
102
RTVSPropertyOp24
 70
     1
102
RTVSPropertyOp25
 70
     1
102
RTVSPropertyOp26
 70
     1
102
RTVSPropertyOp27
 70
     1
102
RTVSPropertyOp28
 70
     1
102
RTVSPropertyOp29
 70
     1
102
RTVSPropertyOp30
 70
     1
102
RTVSPropertyOp31
 70
     1
102
RTVSPropertyOp32
 70
     1
102
RTVSPropertyOp33
 70
     1
102
RTVSPropertyOp34
 70
     1
102
RTVSPropertyOp35
 70
     1
102
RTVSPropertyOp36
 70
     1
102
RTVSPropertyOp37
 70
     1
102
RTVSPropertyOp38
 70
     1
102
RTVSPropertyOp39
 70
     1
102
RTVSPropertyOp40
 70
     1
102
RTVSPropertyOp41
 70
     1
102
RTVSPropertyOp42
 70
     1
102
RTVSPropertyOp43
 70
     1
102
RTVSPropertyOp44
 70
     1
102
RTVSPropertyOp45
 70
     1
102
RTVSPropertyOp46
 70
     1
102
RTVSPropertyOp47
 70
     1
102
RTVSPropertyOp48
 70
     1
102
RTVSPropertyOp49
 70
     1
102
RTVSPropertyOp50
 70
     1
102
RTVSPropertyOp51
 70
     0
102
RTVSPropertyOp52
 70
     0
102
RTVSPropertyOp53
 70
     1
102
RTVSPropertyOp54
 70
     1
102
RTVSPropertyOp55
 70
     1
102
RTVSPropertyOp56
 70
     1
102
RTVSPropertyOp57
 70
     1
102
RTVSPropertyOp58
 70
     1
102
RTVSPropertyOp59
 70
     1
102
RTVSPropertyOp60
 70
     1
102
RTVSPropertyOp61
 70
     1
102
RTVSPropertyOp62
 70
     1
  0
XRECORD
  5
2FD
102
{ACAD_REACTORS
330
2FC
102
}
330
2FC
100
AcDbXrecord
280
     1
102
RTVSPost2010Prop28
280
     0
102
RTVSPost2010PropOp28
 70
     1
102
RTVSPost2010Prop29
280
     1
102
RTVSPost2010PropOp29
 70
     1
102
RTVSPost2010Prop30
280
     1
102
RTVSPost2010PropOp30
 70
     1
102
RTVSPost2010Prop31
280
     0
102
RTVSPost2010PropOp31
 70
     1
102
RTVSPost2010Prop32
280
     0
102
RTVSPost2010PropOp32
 70
     1
102
RTVSPost2010Prop33
280
     0
102
RTVSPost2010PropOp33
 70
     1
102
RTVSPost2010Prop34
280
     0
102
RTVSPost2010PropOp34
 70
     1
102
RTVSPost2010Prop35
280
     0
102
RTVSPost2010PropOp35
 70
     1
102
RTVSPost2010Prop36
280
     0
102
RTVSPost2010PropOp36
 70
     1
102
RTVSPost2010Prop37
 90
       50
102
RTVSPost2010PropOp37
 70
     0
102
RTVSPost2010Prop38
140
0.0
102
RTVSPost2010PropOp38
 70
     0
102
RTVSPost2010Prop39
140
1.0
102
RTVSPost2010PropOp39
 70
     0
102
RTVSPost2010Prop40
 90
        0
102
RTVSPost2010PropOp40
 70
     0
102
RTVSPost2010Prop41ColorIndex
 90
       18
102
RTVSPost2010Prop41ColorRGB
 90
        0
102
RTVSPost2010PropOp41
 70
     0
102
RTVSPost2010Prop42
 90
       50
102
RTVSPost2010PropOp42
 70
     0
102
RTVSPost2010Prop43
 90
        3
102
RTVSPost2010PropOp43
 70
     0
102
RTVSPost2010Prop44ColorIndex
 90
        5
102
RTVSPost2010Prop44ColorRGB
 90
      255
102
RTVSPost2010PropOp44
 70
     0
102
RTVSPost2010Prop45
280
     0
102
RTVSPost2010PropOp45
 70
     1
102
RTVSPost2010Prop46
 90
       50
102
RTVSPost2010PropOp46
 70
     0
102
RTVSPost2010Prop47
 90
       50
102
RTVSPost2010PropOp47
 70
     0
102
RTVSPost2010Prop48
 90
       50
102
RTVSPost2010PropOp48
 70
     0
102
RTVSPost2010Prop49
280
     0
102
RTVSPost2010PropOp49
 70
     1
102
RTVSPost2010Prop50
 90
       50
102
RTVSPost2010PropOp50
 70
     0
102
RTVSPost2010Prop51ColorIndex
 90
      256
102
RTVSPost2010Prop51ColorRGB
 90
-16777216
102
RTVSPost2010PropOp51
 70
     0
102
RTVSPost2010Prop52
140
1.0
102
RTVSPost2010PropOp52
 70
     0
102
RTVSPost2010Prop53
 90
        2
102
RTVSPost2010PropOp53
 70
     0
102
RTVSPost2010Prop54
  1
strokes_ogs.tif
102
RTVSPost2010PropOp54
 70
     0
102
RTVSPost2010Prop55
280
     0
102
RTVSPost2010PropOp55
 70
     1
102
RTVSPost2010Prop56
140
1.0
102
RTVSPost2010PropOp56
 70
     0
102
RTVSPost2010Prop57
140
1.0
102
RTVSPost2010PropOp57
 70
     0
102
RTVSPropertyOp0
 70
     0
102
RTVSPropertyOp1
 70
     0
102
RTVSPropertyOp2
 70
     0
102
RTVSPropertyOp3
 70
     0
102
RTVSPropertyOp4
 70
     0
102
RTVSPropertyOp5
 70
     0
102
RTVSPropertyOp6
 70
     0
102
RTVSPropertyOp7
 70
     0
102
RTVSPropertyOp8
 70
     0
102
RTVSPropertyOp9
 70
     0
102
RTVSPropertyOp10
 70
     0
102
RTVSPropertyOp11
 70
     0
102
RTVSPropertyOp12
 70
     0
102
RTVSPropertyOp13
 70
     0
102
RTVSPropertyOp14
 70
     2
102
RTVSPropertyOp15
 70
     0
102
RTVSPropertyOp16
 70
     0
102
RTVSPropertyOp17
 70
     0
102
RTVSPropertyOp18
 70
     0
102
RTVSPropertyOp19
 70
     0
102
RTVSPropertyOp20
 70
     0
102
RTVSPropertyOp21
 70
     0
102
RTVSPropertyOp22
 70
     0
102
RTVSPropertyOp23
 70
     0
102
RTVSPropertyOp24
 70
     0
102
RTVSPropertyOp25
 70
     0
102
RTVSPropertyOp26
 70
     0
102
RTVSPropertyOp27
 70
     0
102
RTVSPropertyOp28
 70
     1
102
RTVSPropertyOp29
 70
     1
102
RTVSPropertyOp30
 70
     1
102
RTVSPropertyOp31
 70
     1
102
RTVSPropertyOp32
 70
     1
102
RTVSPropertyOp33
 70
     1
102
RTVSPropertyOp34
 70
     1
102
RTVSPropertyOp35
 70
     1
102
RTVSPropertyOp36
 70
     1
102
RTVSPropertyOp37
 70
     0
102
RTVSPropertyOp38
 70
     0
102
RTVSPropertyOp39
 70
     0
102
RTVSPropertyOp40
 70
     0
102
RTVSPropertyOp41
 70
     0
102
RTVSPropertyOp42
 70
     0
102
RTVSPropertyOp43
 70
     0
102
RTVSPropertyOp44
 70
     0
102
RTVSPropertyOp45
 70
     1
102
RTVSPropertyOp46
 70
     0
102
RTVSPropertyOp47
 70
     0
102
RTVSPropertyOp48
 70
     0
102
RTVSPropertyOp49
 70
     1
102
RTVSPropertyOp50
 70
     0
102
RTVSPropertyOp51
 70
     0
102
RTVSPropertyOp52
 70
     0
102
RTVSPropertyOp53
 70
     0
102
RTVSPropertyOp54
 70
     0
102
RTVSPropertyOp55
 70
     1
102
RTVSPropertyOp56
 70
     0
102
RTVSPropertyOp57
 70
     0
102
RTVSPropertyOp58
 70
     0
102
RTVSPropertyOp59
 70
     0
102
RTVSPropertyOp60
 70
     0
102
RTVSPropertyOp61
 70
     0
102
RTVSPropertyOp62
 70
     0
  0
XRECORD
  5
2ED
102
{ACAD_REACTORS
330
2EC
102
}
330
2EC
100
AcDbXrecord
280
     1
102
RTVSPost2010Prop28
280
     0
102
RTVSPost2010PropOp28
 70
     1
102
RTVSPost2010Prop29
280
     1
102
RTVSPost2010PropOp29
 70
     1
102
RTVSPost2010Prop30
280
     1
102
RTVSPost2010PropOp30
 70
     1
102
RTVSPost2010Prop31
280
     0
102
RTVSPost2010PropOp31
 70
     1
102
RTVSPost2010Prop32
280
     0
102
RTVSPost2010PropOp32
 70
     1
102
RTVSPost2010Prop33
280
     0
102
RTVSPost2010PropOp33
 70
     1
102
RTVSPost2010Prop34
280
     0
102
RTVSPost2010PropOp34
 70
     1
102
RTVSPost2010Prop35
280
     0
102
RTVSPost2010PropOp35
 70
     1
102
RTVSPost2010Prop36
280
     0
102
RTVSPost2010PropOp36
 70
     1
102
RTVSPost2010Prop37
 90
       50
102
RTVSPost2010PropOp37
 70
     1
102
RTVSPost2010Prop38
140
0.0
102
RTVSPost2010PropOp38
 70
     1
102
RTVSPost2010Prop39
140
1.0
102
RTVSPost2010PropOp39
 70
     1
102
RTVSPost2010Prop40
 90
        0
102
RTVSPost2010PropOp40
 70
     1
102
RTVSPost2010Prop41ColorIndex
 90
       18
102
RTVSPost2010Prop41ColorRGB
 90
        0
102
RTVSPost2010PropOp41
 70
     1
102
RTVSPost2010Prop42
 90
       50
102
RTVSPost2010PropOp42
 70
     1
102
RTVSPost2010Prop43
 90
        3
102
RTVSPost2010PropOp43
 70
     1
102
RTVSPost2010Prop44ColorIndex
 90
        5
102
RTVSPost2010Prop44ColorRGB
 90
      255
102
RTVSPost2010PropOp44
 70
     1
102
RTVSPost2010Prop45
280
     0
102
RTVSPost2010PropOp45
 70
     1
102
RTVSPost2010Prop46
 90
       50
102
RTVSPost2010PropOp46
 70
     1
102
RTVSPost2010Prop47
 90
       50
102
RTVSPost2010PropOp47
 70
     1
102
RTVSPost2010Prop48
 90
       50
102
RTVSPost2010PropOp48
 70
     1
102
RTVSPost2010Prop49
280
     0
102
RTVSPost2010PropOp49
 70
     1
102
RTVSPost2010Prop50
 90
       50
102
RTVSPost2010PropOp50
 70
     1
102
RTVSPost2010Prop51ColorIndex
 90
      256
102
RTVSPost2010Prop51ColorRGB
 90
-16777216
102
RTVSPost2010PropOp51
 70
     0
102
RTVSPost2010Prop52
140
1.0
102
RTVSPost2010PropOp52
 70
     0
102
RTVSPost2010Prop53
 90
        2
102
RTVSPost2010PropOp53
 70
     1
102
RTVSPost2010Prop54
  1
strokes_ogs.tif
102
RTVSPost2010PropOp54
 70
     1
102
RTVSPost2010Prop55
280
     0
102
RTVSPost2010PropOp55
 70
     1
102
RTVSPost2010Prop56
140
1.0
102
RTVSPost2010PropOp56
 70
     1
102
RTVSPost2010Prop57
140
1.0
102
RTVSPost2010PropOp57
 70
     1
102
RTVSPropertyOp0
 70
     1
102
RTVSPropertyOp1
 70
     1
102
RTVSPropertyOp2
 70
     1
102
RTVSPropertyOp3
 70
     1
102
RTVSPropertyOp4
 70
     1
102
RTVSPropertyOp5
 70
     1
102
RTVSPropertyOp6
 70
     1
102
RTVSPropertyOp7
 70
     1
102
RTVSPropertyOp8
 70
     1
102
RTVSPropertyOp9
 70
     1
102
RTVSPropertyOp10
 70
     1
102
RTVSPropertyOp11
 70
     1
102
RTVSPropertyOp12
 70
     1
102
RTVSPropertyOp13
 70
     1
102
RTVSPropertyOp14
 70
     1
102
RTVSPropertyOp15
 70
     1
102
RTVSPropertyOp16
 70
     1
102
RTVSPropertyOp17
 70
     1
102
RTVSPropertyOp18
 70
     1
102
RTVSPropertyOp19
 70
     1
102
RTVSPropertyOp20
 70
     1
102
RTVSPropertyOp21
 70
     1
102
RTVSPropertyOp22
 70
     1
102
RTVSPropertyOp23
 70
     1
102
RTVSPropertyOp24
 70
     1
102
RTVSPropertyOp25
 70
     1
102
RTVSPropertyOp26
 70
     1
102
RTVSPropertyOp27
 70
     1
102
RTVSPropertyOp28
 70
     1
102
RTVSPropertyOp29
 70
     1
102
RTVSPropertyOp30
 70
     1
102
RTVSPropertyOp31
 70
     1
102
RTVSPropertyOp32
 70
     1
102
RTVSPropertyOp33
 70
     1
102
RTVSPropertyOp34
 70
     1
102
RTVSPropertyOp35
 70
     1
102
RTVSPropertyOp36
 70
     1
102
RTVSPropertyOp37
 70
     1
102
RTVSPropertyOp38
 70
     1
102
RTVSPropertyOp39
 70
     1
102
RTVSPropertyOp40
 70
     1
102
RTVSPropertyOp41
 70
     1
102
RTVSPropertyOp42
 70
     1
102
RTVSPropertyOp43
 70
     1
102
RTVSPropertyOp44
 70
     1
102
RTVSPropertyOp45
 70
     1
102
RTVSPropertyOp46
 70
     1
102
RTVSPropertyOp47
 70
     1
102
RTVSPropertyOp48
 70
     1
102
RTVSPropertyOp49
 70
     1
102
RTVSPropertyOp50
 70
     1
102
RTVSPropertyOp51
 70
     0
102
RTVSPropertyOp52
 70
     0
102
RTVSPropertyOp53
 70
     1
102
RTVSPropertyOp54
 70
     1
102
RTVSPropertyOp55
 70
     1
102
RTVSPropertyOp56
 70
     1
102
RTVSPropertyOp57
 70
     1
102
RTVSPropertyOp58
 70
     1
102
RTVSPropertyOp59
 70
     1
102
RTVSPropertyOp60
 70
     1
102
RTVSPropertyOp61
 70
     1
102
RTVSPropertyOp62
 70
     1
  0
XRECORD
  5
2FF
102
{ACAD_REACTORS
330
2FE
102
}
330
2FE
100
AcDbXrecord
280
     1
102
RTVSPost2010Prop28
280
     0
102
RTVSPost2010PropOp28
 70
     1
102
RTVSPost2010Prop29
280
     1
102
RTVSPost2010PropOp29
 70
     1
102
RTVSPost2010Prop30
280
     1
102
RTVSPost2010PropOp30
 70
     1
102
RTVSPost2010Prop31
280
     0
102
RTVSPost2010PropOp31
 70
     1
102
RTVSPost2010Prop32
280
     0
102
RTVSPost2010PropOp32
 70
     1
102
RTVSPost2010Prop33
280
     0
102
RTVSPost2010PropOp33
 70
     1
102
RTVSPost2010Prop34
280
     0
102
RTVSPost2010PropOp34
 70
     1
102
RTVSPost2010Prop35
280
     0
102
RTVSPost2010PropOp35
 70
     1
102
RTVSPost2010Prop36
280
     0
102
RTVSPost2010PropOp36
 70
     1
102
RTVSPost2010Prop37
 90
       50
102
RTVSPost2010PropOp37
 70
     0
102
RTVSPost2010Prop38
140
0.0
102
RTVSPost2010PropOp38
 70
     0
102
RTVSPost2010Prop39
140
1.0
102
RTVSPost2010PropOp39
 70
     0
102
RTVSPost2010Prop40
 90
        0
102
RTVSPost2010PropOp40
 70
     0
102
RTVSPost2010Prop41ColorIndex
 90
       18
102
RTVSPost2010Prop41ColorRGB
 90
        0
102
RTVSPost2010PropOp41
 70
     0
102
RTVSPost2010Prop42
 90
       50
102
RTVSPost2010PropOp42
 70
     0
102
RTVSPost2010Prop43
 90
        3
102
RTVSPost2010PropOp43
 70
     0
102
RTVSPost2010Prop44ColorIndex
 90
        5
102
RTVSPost2010Prop44ColorRGB
 90
      255
102
RTVSPost2010PropOp44
 70
     0
102
RTVSPost2010Prop45
280
     0
102
RTVSPost2010PropOp45
 70
     1
102
RTVSPost2010Prop46
 90
       50
102
RTVSPost2010PropOp46
 70
     0
102
RTVSPost2010Prop47
 90
       50
102
RTVSPost2010PropOp47
 70
     0
102
RTVSPost2010Prop48
 90
       50
102
RTVSPost2010PropOp48
 70
     0
102
RTVSPost2010Prop49
280
     0
102
RTVSPost2010PropOp49
 70
     1
102
RTVSPost2010Prop50
 90
       50
102
RTVSPost2010PropOp50
 70
     0
102
RTVSPost2010Prop51ColorIndex
 90
      256
102
RTVSPost2010Prop51ColorRGB
 90
-16777216
102
RTVSPost2010PropOp51
 70
     0
102
RTVSPost2010Prop52
140
1.0
102
RTVSPost2010PropOp52
 70
     0
102
RTVSPost2010Prop53
 90
        2
102
RTVSPost2010PropOp53
 70
     0
102
RTVSPost2010Prop54
  1
strokes_ogs.tif
102
RTVSPost2010PropOp54
 70
     0
102
RTVSPost2010Prop55
280
     0
102
RTVSPost2010PropOp55
 70
     1
102
RTVSPost2010Prop56
140
1.0
102
RTVSPost2010PropOp56
 70
     0
102
RTVSPost2010Prop57
140
1.0
102
RTVSPost2010PropOp57
 70
     0
102
RTVSPropertyOp0
 70
     0
102
RTVSPropertyOp1
 70
     0
102
RTVSPropertyOp2
 70
     0
102
RTVSPropertyOp3
 70
     0
102
RTVSPropertyOp4
 70
     0
102
RTVSPropertyOp5
 70
     0
102
RTVSPropertyOp6
 70
     0
102
RTVSPropertyOp7
 70
     0
102
RTVSPropertyOp8
 70
     0
102
RTVSPropertyOp9
 70
     0
102
RTVSPropertyOp10
 70
     0
102
RTVSPropertyOp11
 70
     0
102
RTVSPropertyOp12
 70
     0
102
RTVSPropertyOp13
 70
     0
102
RTVSPropertyOp14
 70
     2
102
RTVSPropertyOp15
 70
     0
102
RTVSPropertyOp16
 70
     0
102
RTVSPropertyOp17
 70
     0
102
RTVSPropertyOp18
 70
     0
102
RTVSPropertyOp19
 70
     0
102
RTVSPropertyOp20
 70
     0
102
RTVSPropertyOp21
 70
     0
102
RTVSPropertyOp22
 70
     0
102
RTVSPropertyOp23
 70
     0
102
RTVSPropertyOp24
 70
     0
102
RTVSPropertyOp25
 70
     0
102
RTVSPropertyOp26
 70
     0
102
RTVSPropertyOp27
 70
     0
102
RTVSPropertyOp28
 70
     1
102
RTVSPropertyOp29
 70
     1
102
RTVSPropertyOp30
 70
     1
102
RTVSPropertyOp31
 70
     1
102
RTVSPropertyOp32
 70
     1
102
RTVSPropertyOp33
 70
     1
102
RTVSPropertyOp34
 70
     1
102
RTVSPropertyOp35
 70
     1
102
RTVSPropertyOp36
 70
     1
102
RTVSPropertyOp37
 70
     0
102
RTVSPropertyOp38
 70
     0
102
RTVSPropertyOp39
 70
     0
102
RTVSPropertyOp40
 70
     0
102
RTVSPropertyOp41
 70
     0
102
RTVSPropertyOp42
 70
     0
102
RTVSPropertyOp43
 70
     0
102
RTVSPropertyOp44
 70
     0
102
RTVSPropertyOp45
 70
     1
102
RTVSPropertyOp46
 70
     0
102
RTVSPropertyOp47
 70
     0
102
RTVSPropertyOp48
 70
     0
102
RTVSPropertyOp49
 70
     1
102
RTVSPropertyOp50
 70
     0
102
RTVSPropertyOp51
 70
     0
102
RTVSPropertyOp52
 70
     0
102
RTVSPropertyOp53
 70
     0
102
RTVSPropertyOp54
 70
     0
102
RTVSPropertyOp55
 70
     1
102
RTVSPropertyOp56
 70
     0
102
RTVSPropertyOp57
 70
     0
102
RTVSPropertyOp58
 70
     0
102
RTVSPropertyOp59
 70
     0
102
RTVSPropertyOp60
 70
     0
102
RTVSPropertyOp61
 70
     0
102
RTVSPropertyOp62
 70
     0
  0
XRECORD
  5
2E5
102
{ACAD_REACTORS
330
2E4
102
}
330
2E4
100
AcDbXrecord
280
     1
102
RTVSPost2010Prop28
280
     0
102
RTVSPost2010PropOp28
 70
     1
102
RTVSPost2010Prop29
280
     1
102
RTVSPost2010PropOp29
 70
     1
102
RTVSPost2010Prop30
280
     1
102
RTVSPost2010PropOp30
 70
     1
102
RTVSPost2010Prop31
280
     0
102
RTVSPost2010PropOp31
 70
     1
102
RTVSPost2010Prop32
280
     0
102
RTVSPost2010PropOp32
 70
     1
102
RTVSPost2010Prop33
280
     0
102
RTVSPost2010PropOp33
 70
     1
102
RTVSPost2010Prop34
280
     0
102
RTVSPost2010PropOp34
 70
     1
102
RTVSPost2010Prop35
280
     0
102
RTVSPost2010PropOp35
 70
     1
102
RTVSPost2010Prop36
280
     0
102
RTVSPost2010PropOp36
 70
     1
102
RTVSPost2010Prop37
 90
       50
102
RTVSPost2010PropOp37
 70
     1
102
RTVSPost2010Prop38
140
0.0
102
RTVSPost2010PropOp38
 70
     1
102
RTVSPost2010Prop39
140
1.0
102
RTVSPost2010PropOp39
 70
     1
102
RTVSPost2010Prop40
 90
        0
102
RTVSPost2010PropOp40
 70
     1
102
RTVSPost2010Prop41ColorIndex
 90
       18
102
RTVSPost2010Prop41ColorRGB
 90
        0
102
RTVSPost2010PropOp41
 70
     1
102
RTVSPost2010Prop42
 90
       50
102
RTVSPost2010PropOp42
 70
     1
102
RTVSPost2010Prop43
 90
        3
102
RTVSPost2010PropOp43
 70
     1
102
RTVSPost2010Prop44ColorIndex
 90
        5
102
RTVSPost2010Prop44ColorRGB
 90
      255
102
RTVSPost2010PropOp44
 70
     1
102
RTVSPost2010Prop45
280
     0
102
RTVSPost2010PropOp45
 70
     1
102
RTVSPost2010Prop46
 90
       50
102
RTVSPost2010PropOp46
 70
     1
102
RTVSPost2010Prop47
 90
       50
102
RTVSPost2010PropOp47
 70
     1
102
RTVSPost2010Prop48
 90
       50
102
RTVSPost2010PropOp48
 70
     1
102
RTVSPost2010Prop49
280
     0
102
RTVSPost2010PropOp49
 70
     1
102
RTVSPost2010Prop50
 90
       50
102
RTVSPost2010PropOp50
 70
     1
102
RTVSPost2010Prop51ColorIndex
 90
      256
102
RTVSPost2010Prop51ColorRGB
 90
-16777216
102
RTVSPost2010PropOp51
 70
     0
102
RTVSPost2010Prop52
140
1.0
102
RTVSPost2010PropOp52
 70
     0
102
RTVSPost2010Prop53
 90
        2
102
RTVSPost2010PropOp53
 70
     1
102
RTVSPost2010Prop54
  1
strokes_ogs.tif
102
RTVSPost2010PropOp54
 70
     1
102
RTVSPost2010Prop55
280
     0
102
RTVSPost2010PropOp55
 70
     1
102
RTVSPost2010Prop56
140
1.0
102
RTVSPost2010PropOp56
 70
     1
102
RTVSPost2010Prop57
140
1.0
102
RTVSPost2010PropOp57
 70
     1
102
RTVSPropertyOp0
 70
     1
102
RTVSPropertyOp1
 70
     1
102
RTVSPropertyOp2
 70
     1
102
RTVSPropertyOp3
 70
     1
102
RTVSPropertyOp4
 70
     1
102
RTVSPropertyOp5
 70
     1
102
RTVSPropertyOp6
 70
     1
102
RTVSPropertyOp7
 70
     1
102
RTVSPropertyOp8
 70
     1
102
RTVSPropertyOp9
 70
     1
102
RTVSPropertyOp10
 70
     1
102
RTVSPropertyOp11
 70
     1
102
RTVSPropertyOp12
 70
     1
102
RTVSPropertyOp13
 70
     1
102
RTVSPropertyOp14
 70
     1
102
RTVSPropertyOp15
 70
     1
102
RTVSPropertyOp16
 70
     1
102
RTVSPropertyOp17
 70
     1
102
RTVSPropertyOp18
 70
     1
102
RTVSPropertyOp19
 70
     1
102
RTVSPropertyOp20
 70
     1
102
RTVSPropertyOp21
 70
     1
102
RTVSPropertyOp22
 70
     1
102
RTVSPropertyOp23
 70
     1
102
RTVSPropertyOp24
 70
     1
102
RTVSPropertyOp25
 70
     1
102
RTVSPropertyOp26
 70
     1
102
RTVSPropertyOp27
 70
     1
102
RTVSPropertyOp28
 70
     1
102
RTVSPropertyOp29
 70
     1
102
RTVSPropertyOp30
 70
     1
102
RTVSPropertyOp31
 70
     1
102
RTVSPropertyOp32
 70
     1
102
RTVSPropertyOp33
 70
     1
102
RTVSPropertyOp34
 70
     1
102
RTVSPropertyOp35
 70
     1
102
RTVSPropertyOp36
 70
     1
102
RTVSPropertyOp37
 70
     1
102
RTVSPropertyOp38
 70
     1
102
RTVSPropertyOp39
 70
     1
102
RTVSPropertyOp40
 70
     1
102
RTVSPropertyOp41
 70
     1
102
RTVSPropertyOp42
 70
     1
102
RTVSPropertyOp43
 70
     1
102
RTVSPropertyOp44
 70
     1
102
RTVSPropertyOp45
 70
     1
102
RTVSPropertyOp46
 70
     1
102
RTVSPropertyOp47
 70
     1
102
RTVSPropertyOp48
 70
     1
102
RTVSPropertyOp49
 70
     1
102
RTVSPropertyOp50
 70
     1
102
RTVSPropertyOp51
 70
     0
102
RTVSPropertyOp52
 70
     0
102
RTVSPropertyOp53
 70
     1
102
RTVSPropertyOp54
 70
     1
102
RTVSPropertyOp55
 70
     1
102
RTVSPropertyOp56
 70
     1
102
RTVSPropertyOp57
 70
     1
102
RTVSPropertyOp58
 70
     1
102
RTVSPropertyOp59
 70
     1
102
RTVSPropertyOp60
 70
     1
102
RTVSPropertyOp61
 70
     1
102
RTVSPropertyOp62
 70
     1
  0
XRECORD
  5
2FB
102
{ACAD_REACTORS
330
2FA
102
}
330
2FA
100
AcDbXrecord
280
     1
102
RTVSPost2010Prop28
280
     0
102
RTVSPost2010PropOp28
 70
     1
102
RTVSPost2010Prop29
280
     1
102
RTVSPost2010PropOp29
 70
     1
102
RTVSPost2010Prop30
280
     1
102
RTVSPost2010PropOp30
 70
     1
102
RTVSPost2010Prop31
280
     0
102
RTVSPost2010PropOp31
 70
     1
102
RTVSPost2010Prop32
280
     0
102
RTVSPost2010PropOp32
 70
     1
102
RTVSPost2010Prop33
280
     0
102
RTVSPost2010PropOp33
 70
     1
102
RTVSPost2010Prop34
280
     0
102
RTVSPost2010PropOp34
 70
     1
102
RTVSPost2010Prop35
280
     0
102
RTVSPost2010PropOp35
 70
     1
102
RTVSPost2010Prop36
280
     0
102
RTVSPost2010PropOp36
 70
     1
102
RTVSPost2010Prop37
 90
       50
102
RTVSPost2010PropOp37
 70
     1
102
RTVSPost2010Prop38
140
0.0
102
RTVSPost2010PropOp38
 70
     1
102
RTVSPost2010Prop39
140
1.0
102
RTVSPost2010PropOp39
 70
     1
102
RTVSPost2010Prop40
 90
        0
102
RTVSPost2010PropOp40
 70
     1
102
RTVSPost2010Prop41ColorIndex
 90
       18
102
RTVSPost2010Prop41ColorRGB
 90
        0
102
RTVSPost2010PropOp41
 70
     1
102
RTVSPost2010Prop42
 90
       50
102
RTVSPost2010PropOp42
 70
     1
102
RTVSPost2010Prop43
 90
        3
102
RTVSPost2010PropOp43
 70
     1
102
RTVSPost2010Prop44ColorIndex
 90
        5
102
RTVSPost2010Prop44ColorRGB
 90
      255
102
RTVSPost2010PropOp44
 70
     1
102
RTVSPost2010Prop45
280
     0
102
RTVSPost2010PropOp45
 70
     1
102
RTVSPost2010Prop46
 90
       50
102
RTVSPost2010PropOp46
 70
     1
102
RTVSPost2010Prop47
 90
       50
102
RTVSPost2010PropOp47
 70
     1
102
RTVSPost2010Prop48
 90
       50
102
RTVSPost2010PropOp48
 70
     1
102
RTVSPost2010Prop49
280
     0
102
RTVSPost2010PropOp49
 70
     1
102
RTVSPost2010Prop50
 90
       50
102
RTVSPost2010PropOp50
 70
     1
102
RTVSPost2010Prop51ColorIndex
 90
      256
102
RTVSPost2010Prop51ColorRGB
 90
-16777216
102
RTVSPost2010PropOp51
 70
     0
102
RTVSPost2010Prop52
140
1.0
102
RTVSPost2010PropOp52
 70
     0
102
RTVSPost2010Prop53
 90
        2
102
RTVSPost2010PropOp53
 70
     1
102
RTVSPost2010Prop54
  1
strokes_ogs.tif
102
RTVSPost2010PropOp54
 70
     1
102
RTVSPost2010Prop55
280
     0
102
RTVSPost2010PropOp55
 70
     1
102
RTVSPost2010Prop56
140
1.0
102
RTVSPost2010PropOp56
 70
     1
102
RTVSPost2010Prop57
140
1.0
102
RTVSPost2010PropOp57
 70
     1
102
RTVSPropertyOp0
 70
     1
102
RTVSPropertyOp1
 70
     1
102
RTVSPropertyOp2
 70
     1
102
RTVSPropertyOp3
 70
     1
102
RTVSPropertyOp4
 70
     1
102
RTVSPropertyOp5
 70
     1
102
RTVSPropertyOp6
 70
     1
102
RTVSPropertyOp7
 70
     1
102
RTVSPropertyOp8
 70
     1
102
RTVSPropertyOp9
 70
     1
102
RTVSPropertyOp10
 70
     1
102
RTVSPropertyOp11
 70
     1
102
RTVSPropertyOp12
 70
     1
102
RTVSPropertyOp13
 70
     1
102
RTVSPropertyOp14
 70
     1
102
RTVSPropertyOp15
 70
     1
102
RTVSPropertyOp16
 70
     1
102
RTVSPropertyOp17
 70
     1
102
RTVSPropertyOp18
 70
     1
102
RTVSPropertyOp19
 70
     1
102
RTVSPropertyOp20
 70
     1
102
RTVSPropertyOp21
 70
     1
102
RTVSPropertyOp22
 70
     1
102
RTVSPropertyOp23
 70
     1
102
RTVSPropertyOp24
 70
     1
102
RTVSPropertyOp25
 70
     1
102
RTVSPropertyOp26
 70
     1
102
RTVSPropertyOp27
 70
     1
102
RTVSPropertyOp28
 70
     1
102
RTVSPropertyOp29
 70
     1
102
RTVSPropertyOp30
 70
     1
102
RTVSPropertyOp31
 70
     1
102
RTVSPropertyOp32
 70
     1
102
RTVSPropertyOp33
 70
     1
102
RTVSPropertyOp34
 70
     1
102
RTVSPropertyOp35
 70
     1
102
RTVSPropertyOp36
 70
     1
102
RTVSPropertyOp37
 70
     1
102
RTVSPropertyOp38
 70
     1
102
RTVSPropertyOp39
 70
     1
102
RTVSPropertyOp40
 70
     1
102
RTVSPropertyOp41
 70
     1
102
RTVSPropertyOp42
 70
     1
102
RTVSPropertyOp43
 70
     1
102
RTVSPropertyOp44
 70
     1
102
RTVSPropertyOp45
 70
     1
102
RTVSPropertyOp46
 70
     1
102
RTVSPropertyOp47
 70
     1
102
RTVSPropertyOp48
 70
     1
102
RTVSPropertyOp49
 70
     1
102
RTVSPropertyOp50
 70
     1
102
RTVSPropertyOp51
 70
     0
102
RTVSPropertyOp52
 70
     0
102
RTVSPropertyOp53
 70
     1
102
RTVSPropertyOp54
 70
     1
102
RTVSPropertyOp55
 70
     1
102
RTVSPropertyOp56
 70
     1
102
RTVSPropertyOp57
 70
     1
102
RTVSPropertyOp58
 70
     1
102
RTVSPropertyOp59
 70
     1
102
RTVSPropertyOp60
 70
     1
102
RTVSPropertyOp61
 70
     1
102
RTVSPropertyOp62
 70
     1
  0
XRECORD
  5
2F9
102
{ACAD_REACTORS
330
2F8
102
}
330
2F8
100
AcDbXrecord
280
     1
102
RTVSPost2010Prop28
280
     0
102
RTVSPost2010PropOp28
 70
     1
102
RTVSPost2010Prop29
280
     1
102
RTVSPost2010PropOp29
 70
     1
102
RTVSPost2010Prop30
280
     1
102
RTVSPost2010PropOp30
 70
     1
102
RTVSPost2010Prop31
280
     0
102
RTVSPost2010PropOp31
 70
     1
102
RTVSPost2010Prop32
280
     0
102
RTVSPost2010PropOp32
 70
     1
102
RTVSPost2010Prop33
280
     0
102
RTVSPost2010PropOp33
 70
     1
102
RTVSPost2010Prop34
280
     0
102
RTVSPost2010PropOp34
 70
     1
102
RTVSPost2010Prop35
280
     0
102
RTVSPost2010PropOp35
 70
     1
102
RTVSPost2010Prop36
280
     0
102
RTVSPost2010PropOp36
 70
     1
102
RTVSPost2010Prop37
 90
       50
102
RTVSPost2010PropOp37
 70
     1
102
RTVSPost2010Prop38
140
0.0
102
RTVSPost2010PropOp38
 70
     1
102
RTVSPost2010Prop39
140
1.0
102
RTVSPost2010PropOp39
 70
     1
102
RTVSPost2010Prop40
 90
        0
102
RTVSPost2010PropOp40
 70
     1
102
RTVSPost2010Prop41ColorIndex
 90
       18
102
RTVSPost2010Prop41ColorRGB
 90
        0
102
RTVSPost2010PropOp41
 70
     1
102
RTVSPost2010Prop42
 90
       50
102
RTVSPost2010PropOp42
 70
     1
102
RTVSPost2010Prop43
 90
        3
102
RTVSPost2010PropOp43
 70
     1
102
RTVSPost2010Prop44ColorIndex
 90
        5
102
RTVSPost2010Prop44ColorRGB
 90
      255
102
RTVSPost2010PropOp44
 70
     1
102
RTVSPost2010Prop45
280
     0
102
RTVSPost2010PropOp45
 70
     1
102
RTVSPost2010Prop46
 90
       50
102
RTVSPost2010PropOp46
 70
     1
102
RTVSPost2010Prop47
 90
       50
102
RTVSPost2010PropOp47
 70
     1
102
RTVSPost2010Prop48
 90
       50
102
RTVSPost2010PropOp48
 70
     1
102
RTVSPost2010Prop49
280
     0
102
RTVSPost2010PropOp49
 70
     1
102
RTVSPost2010Prop50
 90
       50
102
RTVSPost2010PropOp50
 70
     1
102
RTVSPost2010Prop51ColorIndex
 90
      256
102
RTVSPost2010Prop51ColorRGB
 90
-16777216
102
RTVSPost2010PropOp51
 70
     0
102
RTVSPost2010Prop52
140
1.0
102
RTVSPost2010PropOp52
 70
     0
102
RTVSPost2010Prop53
 90
        2
102
RTVSPost2010PropOp53
 70
     1
102
RTVSPost2010Prop54
  1
strokes_ogs.tif
102
RTVSPost2010PropOp54
 70
     1
102
RTVSPost2010Prop55
280
     0
102
RTVSPost2010PropOp55
 70
     1
102
RTVSPost2010Prop56
140
1.0
102
RTVSPost2010PropOp56
 70
     1
102
RTVSPost2010Prop57
140
1.0
102
RTVSPost2010PropOp57
 70
     1
102
RTVSPropertyOp0
 70
     1
102
RTVSPropertyOp1
 70
     1
102
RTVSPropertyOp2
 70
     1
102
RTVSPropertyOp3
 70
     1
102
RTVSPropertyOp4
 70
     1
102
RTVSPropertyOp5
 70
     1
102
RTVSPropertyOp6
 70
     1
102
RTVSPropertyOp7
 70
     1
102
RTVSPropertyOp8
 70
     1
102
RTVSPropertyOp9
 70
     1
102
RTVSPropertyOp10
 70
     1
102
RTVSPropertyOp11
 70
     1
102
RTVSPropertyOp12
 70
     1
102
RTVSPropertyOp13
 70
     1
102
RTVSPropertyOp14
 70
     1
102
RTVSPropertyOp15
 70
     1
102
RTVSPropertyOp16
 70
     1
102
RTVSPropertyOp17
 70
     1
102
RTVSPropertyOp18
 70
     1
102
RTVSPropertyOp19
 70
     1
102
RTVSPropertyOp20
 70
     1
102
RTVSPropertyOp21
 70
     1
102
RTVSPropertyOp22
 70
     1
102
RTVSPropertyOp23
 70
     1
102
RTVSPropertyOp24
 70
     1
102
RTVSPropertyOp25
 70
     1
102
RTVSPropertyOp26
 70
     1
102
RTVSPropertyOp27
 70
     1
102
RTVSPropertyOp28
 70
     1
102
RTVSPropertyOp29
 70
     1
102
RTVSPropertyOp30
 70
     1
102
RTVSPropertyOp31
 70
     1
102
RTVSPropertyOp32
 70
     1
102
RTVSPropertyOp33
 70
     1
102
RTVSPropertyOp34
 70
     1
102
RTVSPropertyOp35
 70
     1
102
RTVSPropertyOp36
 70
     1
102
RTVSPropertyOp37
 70
     1
102
RTVSPropertyOp38
 70
     1
102
RTVSPropertyOp39
 70
     1
102
RTVSPropertyOp40
 70
     1
102
RTVSPropertyOp41
 70
     1
102
RTVSPropertyOp42
 70
     1
102
RTVSPropertyOp43
 70
     1
102
RTVSPropertyOp44
 70
     1
102
RTVSPropertyOp45
 70
     1
102
RTVSPropertyOp46
 70
     1
102
RTVSPropertyOp47
 70
     1
102
RTVSPropertyOp48
 70
     1
102
RTVSPropertyOp49
 70
     1
102
RTVSPropertyOp50
 70
     1
102
RTVSPropertyOp51
 70
     0
102
RTVSPropertyOp52
 70
     0
102
RTVSPropertyOp53
 70
     1
102
RTVSPropertyOp54
 70
     1
102
RTVSPropertyOp55
 70
     1
102
RTVSPropertyOp56
 70
     1
102
RTVSPropertyOp57
 70
     1
102
RTVSPropertyOp58
 70
     1
102
RTVSPropertyOp59
 70
     1
102
RTVSPropertyOp60
 70
     1
102
RTVSPropertyOp61
 70
     1
102
RTVSPropertyOp62
 70
     1
  0
XRECORD
  5
2F3
102
{ACAD_REACTORS
330
2F2
102
}
330
2F2
100
AcDbXrecord
280
     1
102
RTVSPost2010Prop28
280
     0
102
RTVSPost2010PropOp28
 70
     1
102
RTVSPost2010Prop29
280
     1
102
RTVSPost2010PropOp29
 70
     1
102
RTVSPost2010Prop30
280
     1
102
RTVSPost2010PropOp30
 70
     1
102
RTVSPost2010Prop31
280
     0
102
RTVSPost2010PropOp31
 70
     1
102
RTVSPost2010Prop32
280
     0
102
RTVSPost2010PropOp32
 70
     1
102
RTVSPost2010Prop33
280
     0
102
RTVSPost2010PropOp33
 70
     1
102
RTVSPost2010Prop34
280
     0
102
RTVSPost2010PropOp34
 70
     1
102
RTVSPost2010Prop35
280
     0
102
RTVSPost2010PropOp35
 70
     1
102
RTVSPost2010Prop36
280
     0
102
RTVSPost2010PropOp36
 70
     1
102
RTVSPost2010Prop37
 90
       50
102
RTVSPost2010PropOp37
 70
     1
102
RTVSPost2010Prop38
140
0.0
102
RTVSPost2010PropOp38
 70
     1
102
RTVSPost2010Prop39
140
1.0
102
RTVSPost2010PropOp39
 70
     1
102
RTVSPost2010Prop40
 90
        0
102
RTVSPost2010PropOp40
 70
     1
102
RTVSPost2010Prop41ColorIndex
 90
       18
102
RTVSPost2010Prop41ColorRGB
 90
        0
102
RTVSPost2010PropOp41
 70
     1
102
RTVSPost2010Prop42
 90
       50
102
RTVSPost2010PropOp42
 70
     1
102
RTVSPost2010Prop43
 90
        3
102
RTVSPost2010PropOp43
 70
     1
102
RTVSPost2010Prop44ColorIndex
 90
        5
102
RTVSPost2010Prop44ColorRGB
 90
      255
102
RTVSPost2010PropOp44
 70
     1
102
RTVSPost2010Prop45
280
     0
102
RTVSPost2010PropOp45
 70
     1
102
RTVSPost2010Prop46
 90
       50
102
RTVSPost2010PropOp46
 70
     1
102
RTVSPost2010Prop47
 90
       50
102
RTVSPost2010PropOp47
 70
     1
102
RTVSPost2010Prop48
 90
       50
102
RTVSPost2010PropOp48
 70
     1
102
RTVSPost2010Prop49
280
     0
102
RTVSPost2010PropOp49
 70
     1
102
RTVSPost2010Prop50
 90
       50
102
RTVSPost2010PropOp50
 70
     1
102
RTVSPost2010Prop51ColorIndex
 90
      256
102
RTVSPost2010Prop51ColorRGB
 90
-16777216
102
RTVSPost2010PropOp51
 70
     0
102
RTVSPost2010Prop52
140
1.0
102
RTVSPost2010PropOp52
 70
     0
102
RTVSPost2010Prop53
 90
        2
102
RTVSPost2010PropOp53
 70
     1
102
RTVSPost2010Prop54
  1
strokes_ogs.tif
102
RTVSPost2010PropOp54
 70
     1
102
RTVSPost2010Prop55
280
     0
102
RTVSPost2010PropOp55
 70
     1
102
RTVSPost2010Prop56
140
1.0
102
RTVSPost2010PropOp56
 70
     1
102
RTVSPost2010Prop57
140
1.0
102
RTVSPost2010PropOp57
 70
     1
102
RTVSPropertyOp0
 70
     1
102
RTVSPropertyOp1
 70
     1
102
RTVSPropertyOp2
 70
     1
102
RTVSPropertyOp3
 70
     1
102
RTVSPropertyOp4
 70
     1
102
RTVSPropertyOp5
 70
     1
102
RTVSPropertyOp6
 70
     1
102
RTVSPropertyOp7
 70
     1
102
RTVSPropertyOp8
 70
     1
102
RTVSPropertyOp9
 70
     1
102
RTVSPropertyOp10
 70
     1
102
RTVSPropertyOp11
 70
     1
102
RTVSPropertyOp12
 70
     1
102
RTVSPropertyOp13
 70
     1
102
RTVSPropertyOp14
 70
     1
102
RTVSPropertyOp15
 70
     1
102
RTVSPropertyOp16
 70
     1
102
RTVSPropertyOp17
 70
     1
102
RTVSPropertyOp18
 70
     1
102
RTVSPropertyOp19
 70
     1
102
RTVSPropertyOp20
 70
     1
102
RTVSPropertyOp21
 70
     1
102
RTVSPropertyOp22
 70
     1
102
RTVSPropertyOp23
 70
     1
102
RTVSPropertyOp24
 70
     1
102
RTVSPropertyOp25
 70
     1
102
RTVSPropertyOp26
 70
     1
102
RTVSPropertyOp27
 70
     1
102
RTVSPropertyOp28
 70
     1
102
RTVSPropertyOp29
 70
     1
102
RTVSPropertyOp30
 70
     1
102
RTVSPropertyOp31
 70
     1
102
RTVSPropertyOp32
 70
     1
102
RTVSPropertyOp33
 70
     1
102
RTVSPropertyOp34
 70
     1
102
RTVSPropertyOp35
 70
     1
102
RTVSPropertyOp36
 70
     1
102
RTVSPropertyOp37
 70
     1
102
RTVSPropertyOp38
 70
     1
102
RTVSPropertyOp39
 70
     1
102
RTVSPropertyOp40
 70
     1
102
RTVSPropertyOp41
 70
     1
102
RTVSPropertyOp42
 70
     1
102
RTVSPropertyOp43
 70
     1
102
RTVSPropertyOp44
 70
     1
102
RTVSPropertyOp45
 70
     1
102
RTVSPropertyOp46
 70
     1
102
RTVSPropertyOp47
 70
     1
102
RTVSPropertyOp48
 70
     1
102
RTVSPropertyOp49
 70
     1
102
RTVSPropertyOp50
 70
     1
102
RTVSPropertyOp51
 70
     0
102
RTVSPropertyOp52
 70
     0
102
RTVSPropertyOp53
 70
     1
102
RTVSPropertyOp54
 70
     1
102
RTVSPropertyOp55
 70
     1
102
RTVSPropertyOp56
 70
     1
102
RTVSPropertyOp57
 70
     1
102
RTVSPropertyOp58
 70
     1
102
RTVSPropertyOp59
 70
     1
102
RTVSPropertyOp60
 70
     1
102
RTVSPropertyOp61
 70
     1
102
RTVSPropertyOp62
 70
     1
  0
XRECORD
  5
2F5
102
{ACAD_REACTORS
330
2F4
102
}
330
2F4
100
AcDbXrecord
280
     1
102
RTVSPost2010Prop28
280
     0
102
RTVSPost2010PropOp28
 70
     1
102
RTVSPost2010Prop29
280
     1
102
RTVSPost2010PropOp29
 70
     1
102
RTVSPost2010Prop30
280
     1
102
RTVSPost2010PropOp30
 70
     1
102
RTVSPost2010Prop31
280
     0
102
RTVSPost2010PropOp31
 70
     1
102
RTVSPost2010Prop32
280
     0
102
RTVSPost2010PropOp32
 70
     1
102
RTVSPost2010Prop33
280
     0
102
RTVSPost2010PropOp33
 70
     1
102
RTVSPost2010Prop34
280
     0
102
RTVSPost2010PropOp34
 70
     1
102
RTVSPost2010Prop35
280
     0
102
RTVSPost2010PropOp35
 70
     1
102
RTVSPost2010Prop36
280
     0
102
RTVSPost2010PropOp36
 70
     1
102
RTVSPost2010Prop37
 90
       50
102
RTVSPost2010PropOp37
 70
     1
102
RTVSPost2010Prop38
140
0.0
102
RTVSPost2010PropOp38
 70
     1
102
RTVSPost2010Prop39
140
1.0
102
RTVSPost2010PropOp39
 70
     1
102
RTVSPost2010Prop40
 90
        0
102
RTVSPost2010PropOp40
 70
     1
102
RTVSPost2010Prop41ColorIndex
 90
       18
102
RTVSPost2010Prop41ColorRGB
 90
        0
102
RTVSPost2010PropOp41
 70
     1
102
RTVSPost2010Prop42
 90
       50
102
RTVSPost2010PropOp42
 70
     1
102
RTVSPost2010Prop43
 90
        3
102
RTVSPost2010PropOp43
 70
     1
102
RTVSPost2010Prop44ColorIndex
 90
        5
102
RTVSPost2010Prop44ColorRGB
 90
      255
102
RTVSPost2010PropOp44
 70
     1
102
RTVSPost2010Prop45
280
     0
102
RTVSPost2010PropOp45
 70
     1
102
RTVSPost2010Prop46
 90
       50
102
RTVSPost2010PropOp46
 70
     1
102
RTVSPost2010Prop47
 90
       50
102
RTVSPost2010PropOp47
 70
     1
102
RTVSPost2010Prop48
 90
       50
102
RTVSPost2010PropOp48
 70
     1
102
RTVSPost2010Prop49
280
     0
102
RTVSPost2010PropOp49
 70
     1
102
RTVSPost2010Prop50
 90
       50
102
RTVSPost2010PropOp50
 70
     1
102
RTVSPost2010Prop51ColorIndex
 90
      256
102
RTVSPost2010Prop51ColorRGB
 90
-16777216
102
RTVSPost2010PropOp51
 70
     0
102
RTVSPost2010Prop52
140
1.0
102
RTVSPost2010PropOp52
 70
     0
102
RTVSPost2010Prop53
 90
        2
102
RTVSPost2010PropOp53
 70
     1
102
RTVSPost2010Prop54
  1
strokes_ogs.tif
102
RTVSPost2010PropOp54
 70
     1
102
RTVSPost2010Prop55
280
     0
102
RTVSPost2010PropOp55
 70
     1
102
RTVSPost2010Prop56
140
1.0
102
RTVSPost2010PropOp56
 70
     1
102
RTVSPost2010Prop57
140
1.0
102
RTVSPost2010PropOp57
 70
     1
102
RTVSPropertyOp0
 70
     1
102
RTVSPropertyOp1
 70
     1
102
RTVSPropertyOp2
 70
     1
102
RTVSPropertyOp3
 70
     1
102
RTVSPropertyOp4
 70
     1
102
RTVSPropertyOp5
 70
     1
102
RTVSPropertyOp6
 70
     1
102
RTVSPropertyOp7
 70
     1
102
RTVSPropertyOp8
 70
     1
102
RTVSPropertyOp9
 70
     1
102
RTVSPropertyOp10
 70
     1
102
RTVSPropertyOp11
 70
     1
102
RTVSPropertyOp12
 70
     1
102
RTVSPropertyOp13
 70
     1
102
RTVSPropertyOp14
 70
     1
102
RTVSPropertyOp15
 70
     1
102
RTVSPropertyOp16
 70
     1
102
RTVSPropertyOp17
 70
     1
102
RTVSPropertyOp18
 70
     1
102
RTVSPropertyOp19
 70
     1
102
RTVSPropertyOp20
 70
     1
102
RTVSPropertyOp21
 70
     1
102
RTVSPropertyOp22
 70
     1
102
RTVSPropertyOp23
 70
     1
102
RTVSPropertyOp24
 70
     1
102
RTVSPropertyOp25
 70
     1
102
RTVSPropertyOp26
 70
     1
102
RTVSPropertyOp27
 70
     1
102
RTVSPropertyOp28
 70
     1
102
RTVSPropertyOp29
 70
     1
102
RTVSPropertyOp30
 70
     1
102
RTVSPropertyOp31
 70
     1
102
RTVSPropertyOp32
 70
     1
102
RTVSPropertyOp33
 70
     1
102
RTVSPropertyOp34
 70
     1
102
RTVSPropertyOp35
 70
     1
102
RTVSPropertyOp36
 70
     1
102
RTVSPropertyOp37
 70
     1
102
RTVSPropertyOp38
 70
     1
102
RTVSPropertyOp39
 70
     1
102
RTVSPropertyOp40
 70
     1
102
RTVSPropertyOp41
 70
     1
102
RTVSPropertyOp42
 70
     1
102
RTVSPropertyOp43
 70
     1
102
RTVSPropertyOp44
 70
     1
102
RTVSPropertyOp45
 70
     1
102
RTVSPropertyOp46
 70
     1
102
RTVSPropertyOp47
 70
     1
102
RTVSPropertyOp48
 70
     1
102
RTVSPropertyOp49
 70
     1
102
RTVSPropertyOp50
 70
     1
102
RTVSPropertyOp51
 70
     0
102
RTVSPropertyOp52
 70
     0
102
RTVSPropertyOp53
 70
     1
102
RTVSPropertyOp54
 70
     1
102
RTVSPropertyOp55
 70
     1
102
RTVSPropertyOp56
 70
     1
102
RTVSPropertyOp57
 70
     1
102
RTVSPropertyOp58
 70
     1
102
RTVSPropertyOp59
 70
     1
102
RTVSPropertyOp60
 70
     1
102
RTVSPropertyOp61
 70
     1
102
RTVSPropertyOp62
 70
     1
  0
XRECORD
  5
2EB
102
{ACAD_REACTORS
330
2EA
102
}
330
2EA
100
AcDbXrecord
280
     1
102
RTVSPost2010Prop28
280
     0
102
RTVSPost2010PropOp28
 70
     1
102
RTVSPost2010Prop29
280
     1
102
RTVSPost2010PropOp29
 70
     1
102
RTVSPost2010Prop30
280
     1
102
RTVSPost2010PropOp30
 70
     1
102
RTVSPost2010Prop31
280
     0
102
RTVSPost2010PropOp31
 70
     1
102
RTVSPost2010Prop32
280
     0
102
RTVSPost2010PropOp32
 70
     1
102
RTVSPost2010Prop33
280
     0
102
RTVSPost2010PropOp33
 70
     1
102
RTVSPost2010Prop34
280
     0
102
RTVSPost2010PropOp34
 70
     1
102
RTVSPost2010Prop35
280
     0
102
RTVSPost2010PropOp35
 70
     1
102
RTVSPost2010Prop36
280
     0
102
RTVSPost2010PropOp36
 70
     1
102
RTVSPost2010Prop37
 90
       50
102
RTVSPost2010PropOp37
 70
     1
102
RTVSPost2010Prop38
140
0.0
102
RTVSPost2010PropOp38
 70
     1
102
RTVSPost2010Prop39
140
1.0
102
RTVSPost2010PropOp39
 70
     1
102
RTVSPost2010Prop40
 90
        0
102
RTVSPost2010PropOp40
 70
     1
102
RTVSPost2010Prop41ColorIndex
 90
       18
102
RTVSPost2010Prop41ColorRGB
 90
        0
102
RTVSPost2010PropOp41
 70
     1
102
RTVSPost2010Prop42
 90
       50
102
RTVSPost2010PropOp42
 70
     1
102
RTVSPost2010Prop43
 90
        3
102
RTVSPost2010PropOp43
 70
     1
102
RTVSPost2010Prop44ColorIndex
 90
        5
102
RTVSPost2010Prop44ColorRGB
 90
      255
102
RTVSPost2010PropOp44
 70
     1
102
RTVSPost2010Prop45
280
     0
102
RTVSPost2010PropOp45
 70
     1
102
RTVSPost2010Prop46
 90
       50
102
RTVSPost2010PropOp46
 70
     1
102
RTVSPost2010Prop47
 90
       50
102
RTVSPost2010PropOp47
 70
     1
102
RTVSPost2010Prop48
 90
       50
102
RTVSPost2010PropOp48
 70
     1
102
RTVSPost2010Prop49
280
     0
102
RTVSPost2010PropOp49
 70
     1
102
RTVSPost2010Prop50
 90
       50
102
RTVSPost2010PropOp50
 70
     1
102
RTVSPost2010Prop51ColorIndex
 90
      256
102
RTVSPost2010Prop51ColorRGB
 90
-16777216
102
RTVSPost2010PropOp51
 70
     0
102
RTVSPost2010Prop52
140
1.0
102
RTVSPost2010PropOp52
 70
     0
102
RTVSPost2010Prop53
 90
        2
102
RTVSPost2010PropOp53
 70
     1
102
RTVSPost2010Prop54
  1
strokes_ogs.tif
102
RTVSPost2010PropOp54
 70
     1
102
RTVSPost2010Prop55
280
     0
102
RTVSPost2010PropOp55
 70
     1
102
RTVSPost2010Prop56
140
1.0
102
RTVSPost2010PropOp56
 70
     1
102
RTVSPost2010Prop57
140
1.0
102
RTVSPost2010PropOp57
 70
     1
102
RTVSPropertyOp0
 70
     1
102
RTVSPropertyOp1
 70
     1
102
RTVSPropertyOp2
 70
     1
102
RTVSPropertyOp3
 70
     1
102
RTVSPropertyOp4
 70
     1
102
RTVSPropertyOp5
 70
     1
102
RTVSPropertyOp6
 70
     1
102
RTVSPropertyOp7
 70
     1
102
RTVSPropertyOp8
 70
     1
102
RTVSPropertyOp9
 70
     1
102
RTVSPropertyOp10
 70
     1
102
RTVSPropertyOp11
 70
     1
102
RTVSPropertyOp12
 70
     1
102
RTVSPropertyOp13
 70
     1
102
RTVSPropertyOp14
 70
     1
102
RTVSPropertyOp15
 70
     1
102
RTVSPropertyOp16
 70
     1
102
RTVSPropertyOp17
 70
     1
102
RTVSPropertyOp18
 70
     1
102
RTVSPropertyOp19
 70
     1
102
RTVSPropertyOp20
 70
     1
102
RTVSPropertyOp21
 70
     1
102
RTVSPropertyOp22
 70
     1
102
RTVSPropertyOp23
 70
     1
102
RTVSPropertyOp24
 70
     1
102
RTVSPropertyOp25
 70
     1
102
RTVSPropertyOp26
 70
     1
102
RTVSPropertyOp27
 70
     1
102
RTVSPropertyOp28
 70
     1
102
RTVSPropertyOp29
 70
     1
102
RTVSPropertyOp30
 70
     1
102
RTVSPropertyOp31
 70
     1
102
RTVSPropertyOp32
 70
     1
102
RTVSPropertyOp33
 70
     1
102
RTVSPropertyOp34
 70
     1
102
RTVSPropertyOp35
 70
     1
102
RTVSPropertyOp36
 70
     1
102
RTVSPropertyOp37
 70
     1
102
RTVSPropertyOp38
 70
     1
102
RTVSPropertyOp39
 70
     1
102
RTVSPropertyOp40
 70
     1
102
RTVSPropertyOp41
 70
     1
102
RTVSPropertyOp42
 70
     1
102
RTVSPropertyOp43
 70
     1
102
RTVSPropertyOp44
 70
     1
102
RTVSPropertyOp45
 70
     1
102
RTVSPropertyOp46
 70
     1
102
RTVSPropertyOp47
 70
     1
102
RTVSPropertyOp48
 70
     1
102
RTVSPropertyOp49
 70
     1
102
RTVSPropertyOp50
 70
     1
102
RTVSPropertyOp51
 70
     0
102
RTVSPropertyOp52
 70
     0
102
RTVSPropertyOp53
 70
     1
102
RTVSPropertyOp54
 70
     1
102
RTVSPropertyOp55
 70
     1
102
RTVSPropertyOp56
 70
     1
102
RTVSPropertyOp57
 70
     1
102
RTVSPropertyOp58
 70
     1
102
RTVSPropertyOp59
 70
     1
102
RTVSPropertyOp60
 70
     1
102
RTVSPropertyOp61
 70
     1
102
RTVSPropertyOp62
 70
     1
  0
XRECORD
  5
2DF
102
{ACAD_REACTORS
330
2DE
102
}
330
2DE
100
AcDbXrecord
280
     1
102
RTVSPost2010Prop28
280
     0
102
RTVSPost2010PropOp28
 70
     1
102
RTVSPost2010Prop29
280
     1
102
RTVSPost2010PropOp29
 70
     1
102
RTVSPost2010Prop30
280
     1
102
RTVSPost2010PropOp30
 70
     1
102
RTVSPost2010Prop31
280
     0
102
RTVSPost2010PropOp31
 70
     1
102
RTVSPost2010Prop32
280
     0
102
RTVSPost2010PropOp32
 70
     1
102
RTVSPost2010Prop33
280
     0
102
RTVSPost2010PropOp33
 70
     1
102
RTVSPost2010Prop34
280
     0
102
RTVSPost2010PropOp34
 70
     1
102
RTVSPost2010Prop35
280
     0
102
RTVSPost2010PropOp35
 70
     1
102
RTVSPost2010Prop36
280
     0
102
RTVSPost2010PropOp36
 70
     1
102
RTVSPost2010Prop37
 90
       50
102
RTVSPost2010PropOp37
 70
     1
102
RTVSPost2010Prop38
140
0.0
102
RTVSPost2010PropOp38
 70
     1
102
RTVSPost2010Prop39
140
1.0
102
RTVSPost2010PropOp39
 70
     1
102
RTVSPost2010Prop40
 90
        0
102
RTVSPost2010PropOp40
 70
     1
102
RTVSPost2010Prop41ColorIndex
 90
       18
102
RTVSPost2010Prop41ColorRGB
 90
        0
102
RTVSPost2010PropOp41
 70
     1
102
RTVSPost2010Prop42
 90
       50
102
RTVSPost2010PropOp42
 70
     1
102
RTVSPost2010Prop43
 90
        3
102
RTVSPost2010PropOp43
 70
     1
102
RTVSPost2010Prop44ColorIndex
 90
        5
102
RTVSPost2010Prop44ColorRGB
 90
      255
102
RTVSPost2010PropOp44
 70
     1
102
RTVSPost2010Prop45
280
     0
102
RTVSPost2010PropOp45
 70
     1
102
RTVSPost2010Prop46
 90
       50
102
RTVSPost2010PropOp46
 70
     1
102
RTVSPost2010Prop47
 90
       50
102
RTVSPost2010PropOp47
 70
     1
102
RTVSPost2010Prop48
 90
       50
102
RTVSPost2010PropOp48
 70
     1
102
RTVSPost2010Prop49
280
     0
102
RTVSPost2010PropOp49
 70
     1
102
RTVSPost2010Prop50
 90
       50
102
RTVSPost2010PropOp50
 70
     1
102
RTVSPost2010Prop51ColorIndex
 90
      256
102
RTVSPost2010Prop51ColorRGB
 90
-16777216
102
RTVSPost2010PropOp51
 70
     0
102
RTVSPost2010Prop52
140
1.0
102
RTVSPost2010PropOp52
 70
     0
102
RTVSPost2010Prop53
 90
        2
102
RTVSPost2010PropOp53
 70
     1
102
RTVSPost2010Prop54
  1
strokes_ogs.tif
102
RTVSPost2010PropOp54
 70
     1
102
RTVSPost2010Prop55
280
     0
102
RTVSPost2010PropOp55
 70
     1
102
RTVSPost2010Prop56
140
1.0
102
RTVSPost2010PropOp56
 70
     1
102
RTVSPost2010Prop57
140
1.0
102
RTVSPost2010PropOp57
 70
     1
102
RTVSPropertyOp0
 70
     1
102
RTVSPropertyOp1
 70
     1
102
RTVSPropertyOp2
 70
     1
102
RTVSPropertyOp3
 70
     1
102
RTVSPropertyOp4
 70
     1
102
RTVSPropertyOp5
 70
     1
102
RTVSPropertyOp6
 70
     1
102
RTVSPropertyOp7
 70
     1
102
RTVSPropertyOp8
 70
     1
102
RTVSPropertyOp9
 70
     1
102
RTVSPropertyOp10
 70
     1
102
RTVSPropertyOp11
 70
     1
102
RTVSPropertyOp12
 70
     1
102
RTVSPropertyOp13
 70
     1
102
RTVSPropertyOp14
 70
     1
102
RTVSPropertyOp15
 70
     1
102
RTVSPropertyOp16
 70
     1
102
RTVSPropertyOp17
 70
     1
102
RTVSPropertyOp18
 70
     1
102
RTVSPropertyOp19
 70
     1
102
RTVSPropertyOp20
 70
     1
102
RTVSPropertyOp21
 70
     1
102
RTVSPropertyOp22
 70
     1
102
RTVSPropertyOp23
 70
     1
102
RTVSPropertyOp24
 70
     1
102
RTVSPropertyOp25
 70
     1
102
RTVSPropertyOp26
 70
     1
102
RTVSPropertyOp27
 70
     1
102
RTVSPropertyOp28
 70
     1
102
RTVSPropertyOp29
 70
     1
102
RTVSPropertyOp30
 70
     1
102
RTVSPropertyOp31
 70
     1
102
RTVSPropertyOp32
 70
     1
102
RTVSPropertyOp33
 70
     1
102
RTVSPropertyOp34
 70
     1
102
RTVSPropertyOp35
 70
     1
102
RTVSPropertyOp36
 70
     1
102
RTVSPropertyOp37
 70
     1
102
RTVSPropertyOp38
 70
     1
102
RTVSPropertyOp39
 70
     1
102
RTVSPropertyOp40
 70
     1
102
RTVSPropertyOp41
 70
     1
102
RTVSPropertyOp42
 70
     1
102
RTVSPropertyOp43
 70
     1
102
RTVSPropertyOp44
 70
     1
102
RTVSPropertyOp45
 70
     1
102
RTVSPropertyOp46
 70
     1
102
RTVSPropertyOp47
 70
     1
102
RTVSPropertyOp48
 70
     1
102
RTVSPropertyOp49
 70
     1
102
RTVSPropertyOp50
 70
     1
102
RTVSPropertyOp51
 70
     0
102
RTVSPropertyOp52
 70
     0
102
RTVSPropertyOp53
 70
     1
102
RTVSPropertyOp54
 70
     1
102
RTVSPropertyOp55
 70
     1
102
RTVSPropertyOp56
 70
     1
102
RTVSPropertyOp57
 70
     1
102
RTVSPropertyOp58
 70
     1
102
RTVSPropertyOp59
 70
     1
102
RTVSPropertyOp60
 70
     1
102
RTVSPropertyOp61
 70
     1
102
RTVSPropertyOp62
 70
     1
  0
XRECORD
  5
2F7
102
{ACAD_REACTORS
330
2F6
102
}
330
2F6
100
AcDbXrecord
280
     1
102
RTVSPost2010Prop28
280
     0
102
RTVSPost2010PropOp28
 70
     1
102
RTVSPost2010Prop29
280
     1
102
RTVSPost2010PropOp29
 70
     1
102
RTVSPost2010Prop30
280
     1
102
RTVSPost2010PropOp30
 70
     1
102
RTVSPost2010Prop31
280
     0
102
RTVSPost2010PropOp31
 70
     1
102
RTVSPost2010Prop32
280
     0
102
RTVSPost2010PropOp32
 70
     1
102
RTVSPost2010Prop33
280
     0
102
RTVSPost2010PropOp33
 70
     1
102
RTVSPost2010Prop34
280
     0
102
RTVSPost2010PropOp34
 70
     1
102
RTVSPost2010Prop35
280
     0
102
RTVSPost2010PropOp35
 70
     1
102
RTVSPost2010Prop36
280
     0
102
RTVSPost2010PropOp36
 70
     1
102
RTVSPost2010Prop37
 90
       50
102
RTVSPost2010PropOp37
 70
     1
102
RTVSPost2010Prop38
140
0.0
102
RTVSPost2010PropOp38
 70
     1
102
RTVSPost2010Prop39
140
1.0
102
RTVSPost2010PropOp39
 70
     1
102
RTVSPost2010Prop40
 90
        0
102
RTVSPost2010PropOp40
 70
     1
102
RTVSPost2010Prop41ColorIndex
 90
       18
102
RTVSPost2010Prop41ColorRGB
 90
        0
102
RTVSPost2010PropOp41
 70
     1
102
RTVSPost2010Prop42
 90
       50
102
RTVSPost2010PropOp42
 70
     1
102
RTVSPost2010Prop43
 90
        3
102
RTVSPost2010PropOp43
 70
     1
102
RTVSPost2010Prop44ColorIndex
 90
        5
102
RTVSPost2010Prop44ColorRGB
 90
      255
102
RTVSPost2010PropOp44
 70
     1
102
RTVSPost2010Prop45
280
     0
102
RTVSPost2010PropOp45
 70
     1
102
RTVSPost2010Prop46
 90
       50
102
RTVSPost2010PropOp46
 70
     1
102
RTVSPost2010Prop47
 90
       50
102
RTVSPost2010PropOp47
 70
     1
102
RTVSPost2010Prop48
 90
       50
102
RTVSPost2010PropOp48
 70
     1
102
RTVSPost2010Prop49
280
     0
102
RTVSPost2010PropOp49
 70
     1
102
RTVSPost2010Prop50
 90
       50
102
RTVSPost2010PropOp50
 70
     1
102
RTVSPost2010Prop51ColorIndex
 90
      256
102
RTVSPost2010Prop51ColorRGB
 90
-16777216
102
RTVSPost2010PropOp51
 70
     0
102
RTVSPost2010Prop52
140
1.0
102
RTVSPost2010PropOp52
 70
     0
102
RTVSPost2010Prop53
 90
        2
102
RTVSPost2010PropOp53
 70
     1
102
RTVSPost2010Prop54
  1
strokes_ogs.tif
102
RTVSPost2010PropOp54
 70
     1
102
RTVSPost2010Prop55
280
     0
102
RTVSPost2010PropOp55
 70
     1
102
RTVSPost2010Prop56
140
1.0
102
RTVSPost2010PropOp56
 70
     1
102
RTVSPost2010Prop57
140
1.0
102
RTVSPost2010PropOp57
 70
     1
102
RTVSPropertyOp0
 70
     1
102
RTVSPropertyOp1
 70
     1
102
RTVSPropertyOp2
 70
     1
102
RTVSPropertyOp3
 70
     1
102
RTVSPropertyOp4
 70
     1
102
RTVSPropertyOp5
 70
     1
102
RTVSPropertyOp6
 70
     1
102
RTVSPropertyOp7
 70
     1
102
RTVSPropertyOp8
 70
     1
102
RTVSPropertyOp9
 70
     1
102
RTVSPropertyOp10
 70
     1
102
RTVSPropertyOp11
 70
     1
102
RTVSPropertyOp12
 70
     1
102
RTVSPropertyOp13
 70
     1
102
RTVSPropertyOp14
 70
     1
102
RTVSPropertyOp15
 70
     1
102
RTVSPropertyOp16
 70
     1
102
RTVSPropertyOp17
 70
     1
102
RTVSPropertyOp18
 70
     1
102
RTVSPropertyOp19
 70
     1
102
RTVSPropertyOp20
 70
     1
102
RTVSPropertyOp21
 70
     1
102
RTVSPropertyOp22
 70
     1
102
RTVSPropertyOp23
 70
     1
102
RTVSPropertyOp24
 70
     1
102
RTVSPropertyOp25
 70
     1
102
RTVSPropertyOp26
 70
     1
102
RTVSPropertyOp27
 70
     1
102
RTVSPropertyOp28
 70
     1
102
RTVSPropertyOp29
 70
     1
102
RTVSPropertyOp30
 70
     1
102
RTVSPropertyOp31
 70
     1
102
RTVSPropertyOp32
 70
     1
102
RTVSPropertyOp33
 70
     1
102
RTVSPropertyOp34
 70
     1
102
RTVSPropertyOp35
 70
     1
102
RTVSPropertyOp36
 70
     1
102
RTVSPropertyOp37
 70
     1
102
RTVSPropertyOp38
 70
     1
102
RTVSPropertyOp39
 70
     1
102
RTVSPropertyOp40
 70
     1
102
RTVSPropertyOp41
 70
     1
102
RTVSPropertyOp42
 70
     1
102
RTVSPropertyOp43
 70
     1
102
RTVSPropertyOp44
 70
     1
102
RTVSPropertyOp45
 70
     1
102
RTVSPropertyOp46
 70
     1
102
RTVSPropertyOp47
 70
     1
102
RTVSPropertyOp48
 70
     1
102
RTVSPropertyOp49
 70
     1
102
RTVSPropertyOp50
 70
     1
102
RTVSPropertyOp51
 70
     0
102
RTVSPropertyOp52
 70
     0
102
RTVSPropertyOp53
 70
     1
102
RTVSPropertyOp54
 70
     1
102
RTVSPropertyOp55
 70
     1
102
RTVSPropertyOp56
 70
     1
102
RTVSPropertyOp57
 70
     1
102
RTVSPropertyOp58
 70
     1
102
RTVSPropertyOp59
 70
     1
102
RTVSPropertyOp60
 70
     1
102
RTVSPropertyOp61
 70
     1
102
RTVSPropertyOp62
 70
     1
  0
ENDSEC
  0
EOF
