  0
SECTION
  2
HEADER
  9
$ACADVER
  1
AC1015
  9
$ACADMAINTVER
 70
    20
  9
$DWGCODEPAGE
  3
ANSI_1252
  9
$INSBASE
 10
0.0
 20
0.0
 30
0.0
  9
$EXTMIN
 10
-426.0000000000001
 20
-321.0
 30
-0.0000000000000004
  9
$EXTMAX
 10
426.0000000000001
 20
195.0
 30
0.0000000000000735
  9
$LIMMIN
 10
0.0
 20
0.0
  9
$LIMMAX
 10
12.0
 20
9.0
  9
$ORTHOMODE
 70
     0
  9
$REGENMODE
 70
     1
  9
$FILLMODE
 70
     1
  9
$QTEXTMODE
 70
     0
  9
$MIRRTEXT
 70
     1
  9
$LTSCALE
 40
1.0
  9
$ATTMODE
 70
     1
  9
$TEXTSIZE
 40
0.2
  9
$TRACEWID
 40
0.05
  9
$TEXTSTYLE
  7
STANDARD
  9
$CLAYER
  8
0
  9
$CELTYPE
  6
BYLAYER
  9
$CECOLOR
 62
   256
  9
$CELTSCALE
 40
1.0
  9
$DISPSILH
 70
     0
  9
$DIMSCALE
 40
1.0
  9
$DIMASZ
 40
0.18
  9
$DIMEXO
 40
0.0625
  9
$DIMDLI
 40
0.38
  9
$DIMRND
 40
0.0
  9
$DIMDLE
 40
0.0
  9
$DIMEXE
 40
0.18
  9
$DIMTP
 40
0.0
  9
$DIMTM
 40
0.0
  9
$DIMTXT
 40
0.18
  9
$DIMCEN
 40
0.09
  9
$DIMTSZ
 40
0.0
  9
$DIMTOL
 70
     0
  9
$DIMLIM
 70
     0
  9
$DIMTIH
 70
     1
  9
$DIMTOH
 70
     1
  9
$DIMSE1
 70
     0
  9
$DIMSE2
 70
     0
  9
$DIMTAD
 70
     0
  9
$DIMZIN
 70
     0
  9
$DIMBLK
  1

  9
$DIMASO
 70
     1
  9
$DIMSHO
 70
     1
  9
$DIMPOST
  1

  9
$DIMAPOST
  1

  9
$DIMALT
 70
     0
  9
$DIMALTD
 70
     2
  9
$DIMALTF
 40
25.4
  9
$DIMLFAC
 40
1.0
  9
$DIMTOFL
 70
     0
  9
$DIMTVP
 40
0.0
  9
$DIMTIX
 70
     0
  9
$DIMSOXD
 70
     0
  9
$DIMSAH
 70
     0
  9
$DIMBLK1
  1

  9
$DIMBLK2
  1

  9
$DIMSTYLE
  2
STANDARD
  9
$DIMCLRD
 70
     0
  9
$DIMCLRE
 70
     0
  9
$DIMCLRT
 70
     0
  9
$DIMTFAC
 40
1.0
  9
$DIMGAP
 40
0.09
  9
$DIMJUST
 70
     0
  9
$DIMSD1
 70
     0
  9
$DIMSD2
 70
     0
  9
$DIMTOLJ
 70
     1
  9
$DIMTZIN
 70
     0
  9
$DIMALTZ
 70
     0
  9
$DIMALTTZ
 70
     0
  9
$DIMUPT
 70
     0
  9
$DIMDEC
 70
     4
  9
$DIMTDEC
 70
     4
  9
$DIMALTU
 70
     2
  9
$DIMALTTD
 70
     2
  9
$DIMTXSTY
  7
STANDARD
  9
$DIMAUNIT
 70
     0
  9
$DIMADEC
 70
     0
  9
$DIMALTRND
 40
0.0
  9
$DIMAZIN
 70
     0
  9
$DIMDSEP
 70
    46
  9
$DIMATFIT
 70
     3
  9
$DIMFRAC
 70
     0
  9
$DIMLDRBLK
  1

  9
$DIMLUNIT
 70
     2
  9
$DIMLWD
 70
    -2
  9
$DIMLWE
 70
    -2
  9
$DIMTMOVE
 70
     0
  9
$LUNITS
 70
     2
  9
$LUPREC
 70
     4
  9
$SKETCHINC
 40
0.1
  9
$FILLETRAD
 40
0.5
  9
$AUNITS
 70
     0
  9
$AUPREC
 70
     0
  9
$MENU
  1
.
  9
$ELEVATION
 40
0.0
  9
$PELEVATION
 40
0.0
  9
$THICKNESS
 40
0.0
  9
$LIMCHECK
 70
     0
  9
$CHAMFERA
 40
0.5
  9
$CHAMFERB
 40
0.5
  9
$CHAMFERC
 40
1.0
  9
$CHAMFERD
 40
0.0
  9
$SKPOLY
 70
     0
  9
$TDCREATE
 40
2451762.561710995
  9
$TDUCREATE
 40
2451762.478377662
  9
$TDUPDATE
 40
2455344.412293275
  9
$TDUUPDATE
 40
2455344.328959943
  9
$TDINDWG
 40
0.0022150694
  9
$TDUSRTIMER
 40
0.0022145255
  9
$USRTIMER
 70
     1
  9
$ANGBASE
 50
0.0
  9
$ANGDIR
 70
     0
  9
$PDMODE
 70
     0
  9
$PDSIZE
 40
0.0
  9
$PLINEWID
 40
0.0
  9
$SPLFRAME
 70
     0
  9
$SPLINETYPE
 70
     6
  9
$SPLINESEGS
 70
     8
  9
$HANDSEED
  5
1A2
  9
$SURFTAB1
 70
     6
  9
$SURFTAB2
 70
     6
  9
$SURFTYPE
 70
     6
  9
$SURFU
 70
     6
  9
$SURFV
 70
     6
  9
$UCSBASE
  2

  9
$UCSNAME
  2

  9
$UCSORG
 10
0.0
 20
0.0
 30
0.0
  9
$UCSXDIR
 10
1.0
 20
0.0
 30
0.0
  9
$UCSYDIR
 10
0.0
 20
1.0
 30
0.0
  9
$UCSORTHOREF
  2

  9
$UCSORTHOVIEW
 70
     0
  9
$UCSORGTOP
 10
0.0
 20
0.0
 30
0.0
  9
$UCSORGBOTTOM
 10
0.0
 20
0.0
 30
0.0
  9
$UCSORGLEFT
 10
0.0
 20
0.0
 30
0.0
  9
$UCSORGRIGHT
 10
0.0
 20
0.0
 30
0.0
  9
$UCSORGFRONT
 10
0.0
 20
0.0
 30
0.0
  9
$UCSORGBACK
 10
0.0
 20
0.0
 30
0.0
  9
$PUCSBASE
  2

  9
$PUCSNAME
  2

  9
$PUCSORG
 10
0.0
 20
0.0
 30
0.0
  9
$PUCSXDIR
 10
1.0
 20
0.0
 30
0.0
  9
$PUCSYDIR
 10
0.0
 20
1.0
 30
0.0
  9
$PUCSORTHOREF
  2

  9
$PUCSORTHOVIEW
 70
     0
  9
$PUCSORGTOP
 10
0.0
 20
0.0
 30
0.0
  9
$PUCSORGBOTTOM
 10
0.0
 20
0.0
 30
0.0
  9
$PUCSORGLEFT
 10
0.0
 20
0.0
 30
0.0
  9
$PUCSORGRIGHT
 10
0.0
 20
0.0
 30
0.0
  9
$PUCSORGFRONT
 10
0.0
 20
0.0
 30
0.0
  9
$PUCSORGBACK
 10
0.0
 20
0.0
 30
0.0
  9
$USERI1
 70
     0
  9
$USERI2
 70
     0
  9
$USERI3
 70
     0
  9
$USERI4
 70
     0
  9
$USERI5
 70
     0
  9
$USERR1
 40
0.0
  9
$USERR2
 40
0.0
  9
$USERR3
 40
0.0
  9
$USERR4
 40
0.0
  9
$USERR5
 40
0.0
  9
$WORLDVIEW
 70
     1
  9
$SHADEDGE
 70
     3
  9
$SHADEDIF
 70
    70
  9
$TILEMODE
 70
     1
  9
$MAXACTVP
 70
    64
  9
$PINSBASE
 10
0.0
 20
0.0
 30
0.0
  9
$PLIMCHECK
 70
     0
  9
$PEXTMIN
 10
1.000000000000000E+20
 20
1.000000000000000E+20
 30
1.000000000000000E+20
  9
$PEXTMAX
 10
-1.000000000000000E+20
 20
-1.000000000000000E+20
 30
-1.000000000000000E+20
  9
$PLIMMIN
 10
0.0
 20
0.0
  9
$PLIMMAX
 10
12.0
 20
9.0
  9
$UNITMODE
 70
     0
  9
$VISRETAIN
 70
     1
  9
$PLINEGEN
 70
     0
  9
$PSLTSCALE
 70
     1
  9
$TREEDEPTH
 70
  3020
  9
$CMLSTYLE
  2
STANDARD
  9
$CMLJUST
 70
     0
  9
$CMLSCALE
 40
1.0
  9
$PROXYGRAPHICS
 70
     1
  9
$MEASUREMENT
 70
     0
  9
$CELWEIGHT
370
    -1
  9
$ENDCAPS
280
     0
  9
$JOINSTYLE
280
     0
  9
$LWDISPLAY
290
     0
  9
$INSUNITS
 70
     0
  9
$HYPERLINKBASE
  1

  9
$STYLESHEET
  1

  9
$XEDIT
290
     1
  9
$CEPSNTYPE
380
     0
  9
$PSTYLEMODE
290
     1
  9
$FINGERPRINTGUID
  2
{18CEBB96-4FD7-4EB2-9E7F-4CC0F5FE4181}
  9
$VERSIONGUID
  2
{6D31E0BD-3659-468C-B103-C43B2EA1B4E9}
  9
$EXTNAMES
290
     1
  9
$PSVPSCALE
 40
0.0
  9
$OLESTARTUP
290
     0
  0
ENDSEC
  0
SECTION
  2
CLASSES
  0
CLASS
  1
ACDBDICTIONARYWDFLT
  2
AcDbDictionaryWithDefault
  3
ObjectDBX Classes
 90
        0
280
     0
281
     0
  0
CLASS
  1
ACDBPLACEHOLDER
  2
AcDbPlaceHolder
  3
ObjectDBX Classes
 90
        0
280
     0
281
     0
  0
CLASS
  1
LAYOUT
  2
AcDbLayout
  3
ObjectDBX Classes
 90
        0
280
     0
281
     0
  0
CLASS
  1
MATERIAL
  2
AcDbMaterial
  3
ObjectDBX Classes
 90
     1024
280
     0
281
     0
  0
CLASS
  1
VISUALSTYLE
  2
AcDbVisualStyle
  3
ObjectDBX Classes
 90
     4095
280
     0
281
     0
  0
CLASS
  1
TABLESTYLE
  2
AcDbTableStyle
  3
ObjectDBX Classes
 90
     4095
280
     0
281
     0
  0
CLASS
  1
DICTIONARYVAR
  2
AcDbDictionaryVar
  3
ObjectDBX Classes
 90
        0
280
     0
281
     0
  0
ENDSEC
  0
SECTION
  2
TABLES
  0
TABLE
  2
VPORT
  5
8
330
0
100
AcDbSymbolTable
 70
     1
  0
VPORT
  5
11C
330
8
100
AcDbSymbolTableRecord
100
AcDbViewportTableRecord
  2
*ACTIVE
 70
     0
 10
0.0
 20
0.0
 11
1.0
 21
1.0
 12
-41.31947402508649
 22
-125.1231756255223
 13
0.0
 23
0.0
 14
0.5
 24
0.5
 15
0.5
 25
0.5
 16
0.0
 26
0.0
 36
1.0
 17
0.0
 27
0.0
 37
0.0
 40
815.0252023433008
 41
1.830838323353293
 42
50.0
 43
0.0
 44
0.0
 50
0.0
 51
0.0
 71
     0
 72
   100
 73
     1
 74
     3
 75
     0
 76
     0
 77
     0
 78
     0
281
     0
 65
     1
110
0.0
120
0.0
130
0.0
111
1.0
121
0.0
131
0.0
112
0.0
122
1.0
132
0.0
 79
     0
146
0.0
  0
ENDTAB
  0
TABLE
  2
LTYPE
  5
5
330
0
100
AcDbSymbolTable
 70
     2
  0
LTYPE
  5
14
330
5
100
AcDbSymbolTableRecord
100
AcDbLinetypeTableRecord
  2
BYBLOCK
 70
     0
  3

 72
    65
 73
     0
 40
0.0
  0
LTYPE
  5
15
330
5
100
AcDbSymbolTableRecord
100
AcDbLinetypeTableRecord
  2
BYLAYER
 70
     0
  3

 72
    65
 73
     0
 40
0.0
  0
LTYPE
  5
16
330
5
100
AcDbSymbolTableRecord
100
AcDbLinetypeTableRecord
  2
CONTINUOUS
 70
     0
  3
Solid line
 72
    65
 73
     0
 40
0.0
  0
ENDTAB
  0
TABLE
  2
LAYER
  5
2
330
0
100
AcDbSymbolTable
 70
     3
  0
LAYER
  5
10
330
2
100
AcDbSymbolTableRecord
100
AcDbLayerTableRecord
  2
0
 70
     0
 62
     7
  6
CONTINUOUS
370
    -3
390
C3
  0
LAYER
  5
5F
330
2
100
AcDbSymbolTableRecord
100
AcDbLayerTableRecord
  2
PV-80
 70
     2
 62
     7
  6
CONTINUOUS
370
    -3
390
C3
  0
LAYER
  5
15F
330
2
100
AcDbSymbolTableRecord
100
AcDbLayerTableRecord
  2
Defpoints
 70
     0
 62
     7
  6
CONTINUOUS
290
     0
370
    -3
390
C3
  0
ENDTAB
  0
TABLE
  2
STYLE
  5
3
330
0
100
AcDbSymbolTable
 70
     1
  0
STYLE
  5
11
330
3
100
AcDbSymbolTableRecord
100
AcDbTextStyleTableRecord
  2
STANDARD
 70
     0
 40
0.0
 41
1.0
 50
0.0
 71
     0
 42
0.2
  3
txt
  4

  0
ENDTAB
  0
TABLE
  2
VIEW
  5
6
330
0
100
AcDbSymbolTable
 70
     0
  0
ENDTAB
  0
TABLE
  2
UCS
  5
7
330
0
100
AcDbSymbolTable
 70
     0
  0
ENDTAB
  0
TABLE
  2
APPID
  5
9
330
0
100
AcDbSymbolTable
 70
     2
  0
APPID
  5
12
330
9
100
AcDbSymbolTableRecord
100
AcDbRegAppTableRecord
  2
ACAD
 70
     0
  0
APPID
  5
17C
330
9
100
AcDbSymbolTableRecord
100
AcDbRegAppTableRecord
  2
ACAD_EXEMPT_FROM_CAD_STANDARDS
 70
     0
  0
ENDTAB
  0
TABLE
  2
DIMSTYLE
  5
A
330
0
100
AcDbSymbolTable
 70
     2
100
AcDbDimStyleTable
 71
     1
340
27
  0
DIMSTYLE
105
27
330
A
100
AcDbSymbolTableRecord
100
AcDbDimStyleTableRecord
  2
STANDARD
 70
     0
340
11
  0
ENDTAB
  0
TABLE
  2
BLOCK_RECORD
  5
1
330
0
100
AcDbSymbolTable
 70
    12
  0
BLOCK_RECORD
  5
1F
102
{ACAD_XDICTIONARY
360
BC
102
}
330
1
100
AcDbSymbolTableRecord
100
AcDbBlockTableRecord
  2
*MODEL_SPACE
340
15A
  0
BLOCK_RECORD
  5
1B
102
{ACAD_XDICTIONARY
360
BA
102
}
330
1
100
AcDbSymbolTableRecord
100
AcDbBlockTableRecord
  2
*PAPER_SPACE
340
15B
  0
BLOCK_RECORD
  5
48
330
1
100
AcDbSymbolTableRecord
100
AcDbBlockTableRecord
  2
*U0
340
0
102
{BLKREFS
331
61
102
}
  0
BLOCK_RECORD
  5
60
330
1
100
AcDbSymbolTableRecord
100
AcDbBlockTableRecord
  2
FRONT
340
0
  0
BLOCK_RECORD
  5
65
330
1
100
AcDbSymbolTableRecord
100
AcDbBlockTableRecord
  2
*U2
340
0
102
{BLKREFS
331
7D
102
}
  0
BLOCK_RECORD
  5
7C
330
1
100
AcDbSymbolTableRecord
100
AcDbBlockTableRecord
  2
LEFT
340
0
  0
BLOCK_RECORD
  5
81
330
1
100
AcDbSymbolTableRecord
100
AcDbBlockTableRecord
  2
*U4
340
0
102
{BLKREFS
331
99
102
}
  0
BLOCK_RECORD
  5
98
330
1
100
AcDbSymbolTableRecord
100
AcDbBlockTableRecord
  2
RIGHT
340
0
  0
BLOCK_RECORD
  5
9D
330
1
100
AcDbSymbolTableRecord
100
AcDbBlockTableRecord
  2
*U6
340
0
102
{BLKREFS
331
B5
102
}
  0
BLOCK_RECORD
  5
B4
330
1
100
AcDbSymbolTableRecord
100
AcDbBlockTableRecord
  2
TOP
340
0
  0
BLOCK_RECORD
  5
160
330
1
100
AcDbSymbolTableRecord
100
AcDbBlockTableRecord
  2
*D8
340
0
  0
BLOCK_RECORD
  5
16E
330
1
100
AcDbSymbolTableRecord
100
AcDbBlockTableRecord
  2
*D9
340
0
  0
BLOCK_RECORD
  5
183
330
1
100
AcDbSymbolTableRecord
100
AcDbBlockTableRecord
  2
*D11
340
0
  0
ENDTAB
  0
ENDSEC
  0
SECTION
  2
BLOCKS
  0
BLOCK
  5
20
330
1F
100
AcDbEntity
  8
0
100
AcDbBlockBegin
  2
*MODEL_SPACE
 70
     0
 10
0.0
 20
0.0
 30
0.0
  3
*MODEL_SPACE
  1

  0
ENDBLK
  5
21
330
1F
100
AcDbEntity
  8
0
100
AcDbBlockEnd
  0
BLOCK
  5
1C
330
1B
100
AcDbEntity
 67
     1
  8
0
100
AcDbBlockBegin
  2
*PAPER_SPACE
 70
     0
 10
0.0
 20
0.0
 30
0.0
  3
*PAPER_SPACE
  1

  0
ENDBLK
  5
1D
330
1B
100
AcDbEntity
 67
     1
  8
0
100
AcDbBlockEnd
  0
BLOCK
  5
5D
330
48
100
AcDbEntity
  8
0
100
AcDbBlockBegin
  2
*U0
 70
     1
 10
0.0
 20
0.0
 30
0.0
  3
*U0
  1
*ANON
  0
LINE
  5
49
330
48
100
AcDbEntity
  8
PV-80
100
AcDbLine
 10
599.5
 20
0.0
 30
389.4999999999998
 11
0.5
 21
0.0
 31
389.4999999999998
  0
LINE
  5
4A
330
48
100
AcDbEntity
  8
PV-80
100
AcDbLine
 10
0.5
 20
0.0
 30
389.4999999999998
 11
0.2500000000000142
 21
0.0
 31
389.7499999999998
  0
LINE
  5
4B
330
48
100
AcDbEntity
  8
PV-80
100
AcDbLine
 10
0.5000000000000239
 20
0.0
 30
389.4999999999998
 11
0.5000000000000001
 21
0.0
 31
0.5
  0
LINE
  5
4C
330
48
100
AcDbEntity
  8
PV-80
100
AcDbLine
 10
0.0
 20
0.0
 30
0.5
 11
0.0000000000000238
 21
0.0
 31
389.4999999999998
  0
LINE
  5
4D
330
48
100
AcDbEntity
  8
PV-80
100
AcDbLine
 10
0.0
 20
0.0
 30
0.5000000000000214
 11
0.2499999999999929
 21
0.0
 31
0.2500000000000284
  0
LINE
  5
4E
330
48
100
AcDbEntity
  8
PV-80
100
AcDbLine
 10
0.5000000000000357
 20
0.0
 30
390.0
 11
0.2500000000000426
 21
0.0
 31
389.7499999999998
  0
LINE
  5
4F
330
48
100
AcDbEntity
  8
PV-80
100
AcDbLine
 10
0.2500000000000284
 20
0.0
 30
389.7499999999998
 11
0.0000000000000284
 21
0.0
 31
389.4999999999998
  0
LINE
  5
50
330
48
100
AcDbEntity
  8
PV-80
100
AcDbLine
 10
0.5
 20
0.0
 30
390.0
 11
599.5
 21
0.0
 31
390.0
  0
LINE
  5
51
330
48
100
AcDbEntity
  8
PV-80
100
AcDbLine
 10
599.75
 20
0.0
 30
389.7499999999998
 11
599.5
 21
0.0
 31
389.9999999999998
  0
LINE
  5
52
330
48
100
AcDbEntity
  8
PV-80
100
AcDbLine
 10
599.5
 20
0.0
 30
-0.0000000000000387
 11
0.5
 21
0.0
 31
-0.0000000000000021
  0
LINE
  5
53
330
48
100
AcDbEntity
  8
PV-80
100
AcDbLine
 10
0.2500000000000142
 20
0.0
 30
0.2500000000000071
 11
0.5000000000000214
 21
0.0
 31
0.0
  0
LINE
  5
54
330
48
100
AcDbEntity
  8
PV-80
100
AcDbLine
 10
0.2500000000000142
 20
0.0
 30
0.2500000000000426
 11
0.5000000000000142
 21
0.0
 31
0.5000000000000428
  0
LINE
  5
55
330
48
100
AcDbEntity
  8
PV-80
100
AcDbLine
 10
0.5
 20
0.0
 30
0.4999999999999977
 11
599.5
 21
0.0
 31
0.4999999999999611
  0
LINE
  5
56
330
48
100
AcDbEntity
  8
PV-80
100
AcDbLine
 10
599.75
 20
0.0
 30
0.25
 11
599.5
 21
0.0
 31
0.4999999999999858
  0
LINE
  5
57
330
48
100
AcDbEntity
  8
PV-80
100
AcDbLine
 10
599.5
 20
0.0
 30
0.4999999999999716
 11
599.5
 21
0.0
 31
389.4999999999998
  0
LINE
  5
58
330
48
100
AcDbEntity
  8
PV-80
100
AcDbLine
 10
599.75
 20
0.0
 30
389.7499999999998
 11
599.5
 21
0.0
 31
389.4999999999998
  0
LINE
  5
59
330
48
100
AcDbEntity
  8
PV-80
100
AcDbLine
 10
600.0
 20
0.0
 30
389.4999999999998
 11
599.75
 21
0.0
 31
389.7499999999998
  0
LINE
  5
5A
330
48
100
AcDbEntity
  8
PV-80
100
AcDbLine
 10
600.0
 20
0.0
 30
389.4999999999998
 11
600.0
 21
0.0
 31
0.4999999999999716
  0
LINE
  5
5B
330
48
100
AcDbEntity
  8
PV-80
100
AcDbLine
 10
599.5
 20
0.0
 30
-0.0000000000000497
 11
599.75
 21
0.0
 31
0.2499999999999574
  0
LINE
  5
5C
330
48
100
AcDbEntity
  8
PV-80
100
AcDbLine
 10
599.75
 20
0.0
 30
0.2499999999999858
 11
600.0
 21
0.0
 31
0.4999999999999858
  0
ENDBLK
  5
5E
330
48
100
AcDbEntity
  8
0
100
AcDbBlockEnd
  0
BLOCK
  5
62
330
60
100
AcDbEntity
  8
0
100
AcDbBlockBegin
  2
FRONT
 70
     0
 10
0.0
 20
0.0
 30
0.0
  3
FRONT
  1

  0
INSERT
  5
61
330
60
100
AcDbEntity
  8
PV-80
100
AcDbBlockReference
  2
*U0
 10
0.0
 20
0.0
 30
0.0
 50
180.0
210
0.0
220
1.0
230
0.0
  0
ENDBLK
  5
63
330
60
100
AcDbEntity
  8
0
100
AcDbBlockEnd
  0
BLOCK
  5
7A
330
65
100
AcDbEntity
  8
0
100
AcDbBlockBegin
  2
*U2
 70
     1
 10
0.0
 20
0.0
 30
0.0
  3
*U2
  1
*ANON
  0
LINE
  5
66
330
65
100
AcDbEntity
  8
PV-80
100
AcDbLine
 10
0.0
 20
-6.000000000000142
 30
389.4999999999998
 11
0.0
 21
-5.750000000000142
 31
389.7499999999998
  0
LINE
  5
67
330
65
100
AcDbEntity
  8
PV-80
100
AcDbLine
 10
0.0
 20
-6.000000000000142
 30
389.4999999999998
 11
0.0
 21
-6.0
 31
0.5
  0
LINE
  5
68
330
65
100
AcDbEntity
  8
PV-80
100
AcDbLine
 10
0.0
 20
-5.5
 30
0.5
 11
0.0
 21
-5.500000000000142
 31
389.4999999999998
  0
LINE
  5
69
330
65
100
AcDbEntity
  8
PV-80
100
AcDbLine
 10
0.0
 20
-5.500000000000002
 30
0.5000000000000214
 11
0.0
 21
-5.749999999999986
 31
0.2500000000000284
  0
LINE
  5
6A
330
65
100
AcDbEntity
  8
PV-80
100
AcDbLine
 10
0.0
 20
-0.4999999999999929
 30
0.0
 11
0.0
 21
-0.2499999999999858
 31
0.2500000000000142
  0
LINE
  5
6B
330
65
100
AcDbEntity
  8
PV-80
100
AcDbLine
 10
0.0
 20
-0.5
 30
0.5
 11
0.0
 21
-5.5
 31
0.4999999999999982
  0
LINE
  5
6C
330
65
100
AcDbEntity
  8
PV-80
100
AcDbLine
 10
0.0
 20
-0.5000000000001431
 30
389.4999999999998
 11
0.0
 21
-0.5000000000000001
 31
0.5
  0
LINE
  5
6D
330
65
100
AcDbEntity
  8
PV-80
100
AcDbLine
 10
0.0
 20
-0.2500000000000071
 30
0.2500000000000284
 11
0.0
 21
-0.4999999999999929
 31
0.5000000000000214
  0
LINE
  5
6E
330
65
100
AcDbEntity
  8
PV-80
100
AcDbLine
 10
0.0
 20
0.0000000000000142
 30
0.5000000000000285
 11
0.0
 21
-0.2499999999999858
 31
0.2500000000000426
  0
LINE
  5
6F
330
65
100
AcDbEntity
  8
PV-80
100
AcDbLine
 10
0.0
 20
-0.0000000000000002
 30
0.5
 11
0.0
 21
-0.0000000000001431
 31
389.4999999999998
  0
LINE
  5
70
330
65
100
AcDbEntity
  8
PV-80
100
AcDbLine
 10
0.0
 20
-5.500000000000142
 30
390.0
 11
0.0
 21
-5.750000000000135
 31
389.7499999999998
  0
LINE
  5
71
330
65
100
AcDbEntity
  8
PV-80
100
AcDbLine
 10
0.0
 20
-5.750000000000152
 30
389.7499999999998
 11
0.0
 21
-5.500000000000152
 31
389.4999999999998
  0
LINE
  5
72
330
65
100
AcDbEntity
  8
PV-80
100
AcDbLine
 10
0.0
 20
-5.500000000000142
 30
389.4999999999998
 11
0.0
 21
-0.500000000000143
 31
389.4999999999998
  0
LINE
  5
73
330
65
100
AcDbEntity
  8
PV-80
100
AcDbLine
 10
0.0
 20
-0.500000000000135
 30
389.4999999999998
 11
0.0
 21
-0.2500000000001421
 31
389.7499999999998
  0
LINE
  5
74
330
65
100
AcDbEntity
  8
PV-80
100
AcDbLine
 10
0.0
 20
-0.5000000000001436
 30
390.0
 11
0.0
 21
-5.500000000000142
 31
390.0
  0
LINE
  5
75
330
65
100
AcDbEntity
  8
PV-80
100
AcDbLine
 10
0.0
 20
-0.2500000000001421
 30
389.7499999999998
 11
0.0
 21
-0.5000000000001279
 31
390.0
  0
LINE
  5
76
330
65
100
AcDbEntity
  8
PV-80
100
AcDbLine
 10
0.0
 20
-0.0000000000001421
 30
389.4999999999998
 11
0.0
 21
-0.2500000000001421
 31
389.7499999999998
  0
LINE
  5
77
330
65
100
AcDbEntity
  8
PV-80
100
AcDbLine
 10
0.0
 20
-5.5
 30
-0.0000000000000021
 11
0.0
 21
-0.5
 31
-0.0000000000000002
  0
LINE
  5
78
330
65
100
AcDbEntity
  8
PV-80
100
AcDbLine
 10
0.0
 20
-5.750000000000013
 30
0.2500000000000071
 11
0.0
 21
-5.5
 31
0.0
  0
LINE
  5
79
330
65
100
AcDbEntity
  8
PV-80
100
AcDbLine
 10
0.0
 20
-5.750000000000013
 30
0.2500000000000426
 11
0.0
 21
-6.0
 31
0.5000000000000428
  0
ENDBLK
  5
7B
330
65
100
AcDbEntity
  8
0
100
AcDbBlockEnd
  0
BLOCK
  5
7E
330
7C
100
AcDbEntity
  8
0
100
AcDbBlockBegin
  2
LEFT
 70
     0
 10
0.0
 20
0.0
 30
0.0
  3
LEFT
  1

  0
INSERT
  5
7D
330
7C
100
AcDbEntity
  8
PV-80
100
AcDbBlockReference
  2
*U2
 10
0.0
 20
0.0
 30
0.0
 50
270.0
210
0.0
220
1.0
230
0.0
  0
ENDBLK
  5
7F
330
7C
100
AcDbEntity
  8
0
100
AcDbBlockEnd
  0
BLOCK
  5
96
330
81
100
AcDbEntity
  8
0
100
AcDbBlockBegin
  2
*U4
 70
     1
 10
0.0
 20
0.0
 30
0.0
  3
*U4
  1
*ANON
  0
LINE
  5
82
330
81
100
AcDbEntity
  8
PV-80
100
AcDbLine
 10
0.0
 20
-0.5000000000000001
 30
0.4999999999999716
 11
0.0
 21
-0.5000000000001431
 31
389.4999999999998
  0
LINE
  5
83
330
81
100
AcDbEntity
  8
PV-80
100
AcDbLine
 10
0.0
 20
-0.0000000000001279
 30
389.4999999999998
 11
0.0
 21
-0.2500000000001279
 31
389.7499999999998
  0
LINE
  5
84
330
81
100
AcDbEntity
  8
PV-80
100
AcDbLine
 10
0.0
 20
-0.0000000000001431
 30
389.4999999999998
 11
0.0
 21
-0.0000000000000002
 31
0.4999999999999716
  0
LINE
  5
85
330
81
100
AcDbEntity
  8
PV-80
100
AcDbLine
 10
0.0
 20
0.0000000000000142
 30
0.4999999999999716
 11
0.0
 21
-0.2499999999999716
 31
0.25
  0
LINE
  5
86
330
81
100
AcDbEntity
  8
PV-80
100
AcDbLine
 10
0.0
 20
-5.75000000000012
 30
389.7499999999998
 11
0.0
 21
-5.50000000000012
 31
389.9999999999998
  0
LINE
  5
87
330
81
100
AcDbEntity
  8
PV-80
100
AcDbLine
 10
0.0
 20
-5.500000000000142
 30
389.9999999999998
 11
0.0
 21
-0.5000000000001436
 31
389.9999999999998
  0
LINE
  5
88
330
81
100
AcDbEntity
  8
PV-80
100
AcDbLine
 10
0.0
 20
-0.5000000000001564
 30
390.0
 11
0.0
 21
-0.2500000000001492
 31
389.7499999999998
  0
LINE
  5
89
330
81
100
AcDbEntity
  8
PV-80
100
AcDbLine
 10
0.0
 20
-0.2500000000001563
 30
389.7499999999998
 11
0.0
 21
-0.5000000000001564
 31
389.4999999999998
  0
LINE
  5
8A
330
81
100
AcDbEntity
  8
PV-80
100
AcDbLine
 10
0.0
 20
-0.500000000000143
 30
389.4999999999998
 11
0.0
 21
-5.500000000000142
 31
389.4999999999998
  0
LINE
  5
8B
330
81
100
AcDbEntity
  8
PV-80
100
AcDbLine
 10
0.0
 20
-5.750000000000027
 30
0.25
 11
0.0
 21
-6.0
 31
0.4999999999999858
  0
LINE
  5
8C
330
81
100
AcDbEntity
  8
PV-80
100
AcDbLine
 10
0.0
 20
-6.0
 30
0.4999999999999716
 11
0.0
 21
-6.000000000000142
 31
389.4999999999998
  0
LINE
  5
8D
330
81
100
AcDbEntity
  8
PV-80
100
AcDbLine
 10
0.0
 20
-5.750000000000142
 30
389.7499999999998
 11
0.0
 21
-6.000000000000156
 31
389.4999999999998
  0
LINE
  5
8E
330
81
100
AcDbEntity
  8
PV-80
100
AcDbLine
 10
0.0
 20
-5.500000000000135
 30
389.4999999999998
 11
0.0
 21
-5.750000000000135
 31
389.7499999999998
  0
LINE
  5
8F
330
81
100
AcDbEntity
  8
PV-80
100
AcDbLine
 10
0.0
 20
-5.500000000000142
 30
389.4999999999998
 11
0.0
 21
-5.5
 31
0.4999999999999716
  0
LINE
  5
90
330
81
100
AcDbEntity
  8
PV-80
100
AcDbLine
 10
0.0
 20
-5.499999999999985
 30
-0.0000000000000497
 11
0.0
 21
-5.75
 31
0.2499999999999574
  0
LINE
  5
91
330
81
100
AcDbEntity
  8
PV-80
100
AcDbLine
 10
0.0
 20
-5.749999999999985
 30
0.2499999999999858
 11
0.0
 21
-5.499999999999985
 31
0.4999999999999858
  0
LINE
  5
92
330
81
100
AcDbEntity
  8
PV-80
100
AcDbLine
 10
0.0
 20
-5.5
 30
0.4999999999999612
 11
0.0
 21
-0.5
 31
0.4999999999999631
  0
LINE
  5
93
330
81
100
AcDbEntity
  8
PV-80
100
AcDbLine
 10
0.0
 20
-0.5000000000000214
 30
0.4999999999999858
 11
0.0
 21
-0.2500000000000213
 31
0.2499999999999858
  0
LINE
  5
94
330
81
100
AcDbEntity
  8
PV-80
100
AcDbLine
 10
0.0
 20
-0.2500000000000071
 30
0.2499999999999503
 11
0.0
 21
-0.5000000000000071
 31
-0.0000000000000497
  0
LINE
  5
95
330
81
100
AcDbEntity
  8
PV-80
100
AcDbLine
 10
0.0
 20
-0.5
 30
-0.0000000000000369
 11
0.0
 21
-5.5
 31
-0.0000000000000387
  0
ENDBLK
  5
97
330
81
100
AcDbEntity
  8
0
100
AcDbBlockEnd
  0
BLOCK
  5
9A
330
98
100
AcDbEntity
  8
0
100
AcDbBlockBegin
  2
RIGHT
 70
     0
 10
0.0
 20
0.0
 30
0.0
  3
RIGHT
  1

  0
INSERT
  5
99
330
98
100
AcDbEntity
  8
PV-80
100
AcDbBlockReference
  2
*U4
 10
0.0
 20
0.0
 30
0.0
 50
90.0
210
0.0
220
1.0
230
0.0
  0
ENDBLK
  5
9B
330
98
100
AcDbEntity
  8
0
100
AcDbBlockEnd
  0
BLOCK
  5
B2
330
9D
100
AcDbEntity
  8
0
100
AcDbBlockBegin
  2
*U6
 70
     1
 10
0.0
 20
0.0
 30
0.0
  3
*U6
  1
*ANON
  0
LINE
  5
9E
330
9D
100
AcDbEntity
  8
PV-80
100
AcDbLine
 10
599.5
 20
-6.000000000000142
 30
0.0
 11
0.5
 21
-6.000000000000142
 31
0.0
  0
LINE
  5
9F
330
9D
100
AcDbEntity
  8
PV-80
100
AcDbLine
 10
0.5
 20
-6.000000000000142
 30
0.0
 11
0.2500000000000142
 21
-5.750000000000142
 31
0.0
  0
LINE
  5
A0
330
9D
100
AcDbEntity
  8
PV-80
100
AcDbLine
 10
0.5000000000000357
 20
-5.500000000000142
 30
0.0
 11
0.2500000000000426
 21
-5.750000000000135
 31
0.0
  0
LINE
  5
A1
330
9D
100
AcDbEntity
  8
PV-80
100
AcDbLine
 10
0.2500000000000284
 20
-5.750000000000152
 30
0.0
 11
0.0000000000000284
 21
-5.500000000000152
 31
0.0
  0
LINE
  5
A2
330
9D
100
AcDbEntity
  8
PV-80
100
AcDbLine
 10
0.0000000000000238
 20
-5.500000000000142
 30
0.0
 11
0.0000000000000238
 21
-0.500000000000143
 31
0.0
  0
LINE
  5
A3
330
9D
100
AcDbEntity
  8
PV-80
100
AcDbLine
 10
0.0000000000000213
 20
-0.500000000000135
 30
0.0
 11
0.2500000000000213
 21
-0.2500000000001421
 31
0.0
  0
LINE
  5
A4
330
9D
100
AcDbEntity
  8
PV-80
100
AcDbLine
 10
0.5
 20
-5.500000000000142
 30
0.0
 11
599.5
 21
-5.500000000000142
 31
0.0
  0
LINE
  5
A5
330
9D
100
AcDbEntity
  8
PV-80
100
AcDbLine
 10
0.5000000000000239
 20
-0.5000000000001436
 30
0.0
 11
0.5000000000000239
 21
-5.500000000000142
 31
0.0
  0
LINE
  5
A6
330
9D
100
AcDbEntity
  8
PV-80
100
AcDbLine
 10
599.5
 20
-0.5000000000001436
 30
0.0
 11
0.5
 21
-0.5000000000001436
 31
0.0
  0
LINE
  5
A7
330
9D
100
AcDbEntity
  8
PV-80
100
AcDbLine
 10
0.2500000000000355
 20
-0.2500000000001421
 30
0.0
 11
0.5000000000000214
 21
-0.5000000000001279
 31
0.0
  0
LINE
  5
A8
330
9D
100
AcDbEntity
  8
PV-80
100
AcDbLine
 10
0.500000000000057
 20
-0.0000000000001421
 30
0.0
 11
0.2500000000000426
 21
-0.2500000000001421
 31
0.0
  0
LINE
  5
A9
330
9D
100
AcDbEntity
  8
PV-80
100
AcDbLine
 10
0.5
 20
-0.0000000000001431
 30
0.0
 11
599.5
 21
-0.0000000000001431
 31
0.0
  0
LINE
  5
AA
330
9D
100
AcDbEntity
  8
PV-80
100
AcDbLine
 10
599.5
 20
-0.0000000000001279
 30
0.0
 11
599.75
 21
-0.2500000000001279
 31
0.0
  0
LINE
  5
AB
330
9D
100
AcDbEntity
  8
PV-80
100
AcDbLine
 10
599.75
 20
-5.75000000000012
 30
0.0
 11
599.5
 21
-5.50000000000012
 31
0.0
  0
LINE
  5
AC
330
9D
100
AcDbEntity
  8
PV-80
100
AcDbLine
 10
599.5
 20
-5.500000000000142
 30
0.0
 11
599.5
 21
-0.5000000000001436
 31
0.0
  0
LINE
  5
AD
330
9D
100
AcDbEntity
  8
PV-80
100
AcDbLine
 10
599.5
 20
-0.5000000000001564
 30
0.0
 11
599.75
 21
-0.2500000000001492
 31
0.0
  0
LINE
  5
AE
330
9D
100
AcDbEntity
  8
PV-80
100
AcDbLine
 10
599.75
 20
-0.2500000000001563
 30
0.0
 11
600.0
 21
-0.5000000000001564
 31
0.0
  0
LINE
  5
AF
330
9D
100
AcDbEntity
  8
PV-80
100
AcDbLine
 10
600.0
 20
-0.500000000000143
 30
0.0
 11
600.0
 21
-5.500000000000142
 31
0.0
  0
LINE
  5
B0
330
9D
100
AcDbEntity
  8
PV-80
100
AcDbLine
 10
599.75
 20
-5.750000000000142
 30
0.0
 11
599.5
 21
-6.000000000000156
 31
0.0
  0
LINE
  5
B1
330
9D
100
AcDbEntity
  8
PV-80
100
AcDbLine
 10
600.0
 20
-5.500000000000135
 30
0.0
 11
599.75
 21
-5.750000000000135
 31
0.0
  0
ENDBLK
  5
B3
330
9D
100
AcDbEntity
  8
0
100
AcDbBlockEnd
  0
BLOCK
  5
B6
330
B4
100
AcDbEntity
  8
0
100
AcDbBlockBegin
  2
TOP
 70
     0
 10
0.0
 20
0.0
 30
0.0
  3
TOP
  1

  0
INSERT
  5
B5
330
B4
100
AcDbEntity
  8
PV-80
100
AcDbBlockReference
  2
*U6
 10
0.0
 20
0.0
 30
0.0
  0
ENDBLK
  5
B7
330
B4
100
AcDbEntity
  8
0
100
AcDbBlockEnd
  0
BLOCK
  5
16B
330
160
100
AcDbEntity
  8
0
100
AcDbBlockBegin
  2
*D8
 70
     1
 10
0.0
 20
0.0
 30
0.0
  3
*D8
  1

  0
LINE
  5
161
330
160
100
AcDbEntity
  8
0
 62
     0
370
    -2
100
AcDbLine
 10
-299.5
 20
94.58514214500949
 30
0.0
 11
-299.5
 21
134.8625527718649
 31
0.0
  0
LINE
  5
162
330
160
100
AcDbEntity
  8
0
 62
     0
370
    -2
100
AcDbLine
 10
299.5
 20
94.58514214500949
 30
0.0
 11
299.5
 21
134.8625527718649
 31
0.0
  0
LINE
  5
163
330
160
100
AcDbEntity
  8
0
 62
     0
370
    -2
100
AcDbLine
 10
-299.32
 20
134.6825527718649
 30
0.0
 11
-0.6600000000000001
 21
134.6825527718649
 31
0.0
  0
LINE
  5
164
330
160
100
AcDbEntity
  8
0
 62
     0
370
    -2
100
AcDbLine
 10
299.32
 20
134.6825527718649
 30
0.0
 11
0.6600000000000001
 21
134.6825527718649
 31
0.0
  0
SOLID
  5
165
330
160
100
AcDbEntity
  8
0
 62
     0
100
AcDbTrace
 10
-299.32
 20
134.7125527718649
 30
0.0
 11
-299.32
 21
134.6525527718649
 31
0.0
 12
-299.5
 22
134.6825527718649
 32
0.0
 13
-299.5
 23
134.6825527718649
 33
0.0
  0
SOLID
  5
166
330
160
100
AcDbEntity
  8
0
 62
     0
100
AcDbTrace
 10
299.32
 20
134.7125527718649
 30
0.0
 11
299.32
 21
134.6525527718649
 31
0.0
 12
299.5
 22
134.6825527718649
 32
0.0
 13
299.5
 23
134.6825527718649
 33
0.0
  0
MTEXT
  5
167
330
160
100
AcDbEntity
  8
0
 62
     0
100
AcDbMText
 10
0.0
 20
134.6825527718649
 30
0.0
 40
0.18
 41
0.0
 71
     5
 72
     1
  1
\A1;599.0000
 73
     1
 44
1.0
1001
ACAD
1000
MTEXTBEGIN
1070
    73
1070
     1
1070
    44
1040
1.0
1070
    74
1070
     0
1000
MTEXTEND
  0
POINT
  5
168
330
160
100
AcDbEntity
  8
Defpoints
 62
     0
100
AcDbPoint
 10
-299.5
 20
94.52264214500948
 30
0.0000000000000001
  0
POINT
  5
169
330
160
100
AcDbEntity
  8
Defpoints
 62
     0
100
AcDbPoint
 10
299.5
 20
94.52264214500948
 30
0.0000000000000734
  0
POINT
  5
16A
330
160
100
AcDbEntity
  8
Defpoints
 62
     0
100
AcDbPoint
 10
299.5
 20
134.6825527718649
 30
0.0
  0
ENDBLK
  5
16C
330
160
100
AcDbEntity
  8
0
100
AcDbBlockEnd
  0
BLOCK
  5
179
330
16E
100
AcDbEntity
  8
0
100
AcDbBlockBegin
  2
*D9
 70
     1
 10
0.0
 20
0.0
 30
0.0
  3
*D9
  1

  0
LINE
  5
16F
330
16E
100
AcDbEntity
  8
0
 62
     0
370
    -2
100
AcDbLine
 10
97.00459777702507
 20
195.0
 30
0.0
 11
142.6675586973231
 21
195.0
 31
0.0
  0
LINE
  5
170
330
16E
100
AcDbEntity
  8
0
 62
     0
370
    -2
100
AcDbLine
 10
97.00459777702507
 20
-194.9999999999999
 30
0.0
 11
142.667558697323
 21
-194.9999999999999
 31
0.0
  0
LINE
  5
171
330
16E
100
AcDbEntity
  8
0
 62
     0
370
    -2
100
AcDbLine
 10
142.4875586973231
 20
194.82
 30
0.0
 11
142.4875586973231
 21
0.1800000000000394
 31
0.0
  0
LINE
  5
172
330
16E
100
AcDbEntity
  8
0
 62
     0
370
    -2
100
AcDbLine
 10
142.487558697323
 20
-194.8199999999999
 30
0.0
 11
142.4875586973231
 21
-0.1799999999999606
 31
0.0
  0
SOLID
  5
173
330
16E
100
AcDbEntity
  8
0
 62
     0
100
AcDbTrace
 10
142.4575586973231
 20
194.82
 30
0.0
 11
142.5175586973231
 21
194.82
 31
0.0
 12
142.4875586973231
 22
195.0
 32
0.0
 13
142.4875586973231
 23
195.0
 33
0.0
  0
SOLID
  5
174
330
16E
100
AcDbEntity
  8
0
 62
     0
100
AcDbTrace
 10
142.457558697323
 20
-194.8199999999999
 30
0.0
 11
142.517558697323
 21
-194.8199999999999
 31
0.0
 12
142.487558697323
 22
-194.9999999999999
 32
0.0
 13
142.487558697323
 23
-194.9999999999999
 33
0.0
  0
MTEXT
  5
175
330
16E
100
AcDbEntity
  8
0
 62
     0
100
AcDbMText
 10
142.4875586973231
 20
0.0000000000000623
 30
0.0
 40
0.18
 41
0.0
 71
     5
 72
     1
  1
\A1;390.0000
 73
     1
 44
1.0
1001
ACAD
1000
MTEXTBEGIN
1070
    73
1070
     1
1070
    44
1040
1.0
1070
    74
1070
     0
1000
MTEXTEND
  0
POINT
  5
176
330
16E
100
AcDbEntity
  8
Defpoints
 62
     0
100
AcDbPoint
 10
96.94209777702507
 20
195.0
 30
0.0000000000000486
  0
POINT
  5
177
330
16E
100
AcDbEntity
  8
Defpoints
 62
     0
100
AcDbPoint
 10
96.94209777702507
 20
-194.9999999999999
 30
0.0000000000000486
  0
POINT
  5
178
330
16E
100
AcDbEntity
  8
Defpoints
 62
     0
100
AcDbPoint
 10
142.487558697323
 20
-194.9999999999999
 30
0.0
  0
ENDBLK
  5
17A
330
16E
100
AcDbEntity
  8
0
100
AcDbBlockEnd
  0
BLOCK
  5
18E
330
183
100
AcDbEntity
  8
0
100
AcDbBlockBegin
  2
*D11
 70
     1
 10
0.0
 20
0.0
 30
0.0
  3
*D11
  1

  0
LINE
  5
184
330
183
100
AcDbEntity
  8
0
 62
     0
370
    -2
100
AcDbLine
 10
-299.5
 20
-7.949631709705045
 30
0.0
 11
-299.5
 21
-37.78480117506358
 31
0.0
  0
LINE
  5
185
330
183
100
AcDbEntity
  8
0
 62
     0
370
    -2
100
AcDbLine
 10
300.5
 20
-7.949631709705045
 30
0.0
 11
300.5
 21
-37.78480117506358
 31
0.0
  0
LINE
  5
186
330
183
100
AcDbEntity
  8
0
 62
     0
370
    -2
100
AcDbLine
 10
-299.32
 20
-37.60480117506359
 30
0.0
 11
-0.13
 21
-37.60480117506359
 31
0.0
  0
LINE
  5
187
330
183
100
AcDbEntity
  8
0
 62
     0
370
    -2
100
AcDbLine
 10
300.32
 20
-37.60480117506359
 30
0.0
 11
1.129999999999999
 21
-37.60480117506359
 31
0.0
  0
SOLID
  5
188
330
183
100
AcDbEntity
  8
0
 62
     0
100
AcDbTrace
 10
-299.32
 20
-37.57480117506359
 30
0.0
 11
-299.32
 21
-37.63480117506359
 31
0.0
 12
-299.5
 22
-37.60480117506359
 32
0.0
 13
-299.5
 23
-37.60480117506359
 33
0.0
  0
SOLID
  5
189
330
183
100
AcDbEntity
  8
0
 62
     0
100
AcDbTrace
 10
300.32
 20
-37.57480117506359
 30
0.0
 11
300.32
 21
-37.63480117506359
 31
0.0
 12
300.5
 22
-37.60480117506359
 32
0.0
 13
300.5
 23
-37.60480117506359
 33
0.0
  0
MTEXT
  5
18A
330
183
100
AcDbEntity
  8
0
 62
     0
100
AcDbMText
 10
0.5
 20
-37.60480117506359
 30
0.0
 40
0.18
 41
0.0
 71
     5
 72
     1
  1
\A1;600.0000
 73
     1
 44
1.0
1001
ACAD
1000
MTEXTBEGIN
1070
    73
1070
     1
1070
    44
1040
1.0
1070
    74
1070
     0
1000
MTEXTEND
  0
POINT
  5
18B
330
183
100
AcDbEntity
  8
Defpoints
 62
     0
100
AcDbPoint
 10
-299.5
 20
-7.887131709705045
 30
0.0000000000000001
  0
POINT
  5
18C
330
183
100
AcDbEntity
  8
Defpoints
 62
     0
100
AcDbPoint
 10
300.5
 20
-7.887131709705045
 30
0.0000000000000734
  0
POINT
  5
18D
330
183
100
AcDbEntity
  8
Defpoints
 62
     0
100
AcDbPoint
 10
300.5
 20
-37.60480117506359
 30
0.0
  0
ENDBLK
  5
18F
330
183
100
AcDbEntity
  8
0
100
AcDbBlockEnd
  0
ENDSEC
  0
SECTION
  2
ENTITIES
  0
LINE
  5
C9
330
1F
100
AcDbEntity
  8
PV-80
100
AcDbLine
 10
-420.5
 20
-194.4999999999999
 30
0.0
 11
-420.5000000000001
 21
194.4999999999999
 31
0.0
210
0.0
220
1.0
230
0.0
  0
LINE
  5
CA
330
1F
100
AcDbEntity
  8
PV-80
100
AcDbLine
 10
-420.0000000000001
 20
194.4999999999999
 30
0.0
 11
-420.2500000000001
 21
194.7499999999999
 31
0.0
210
0.0
220
1.0
230
0.0
  0
LINE
  5
CB
330
1F
100
AcDbEntity
  8
PV-80
100
AcDbLine
 10
-420.0000000000001
 20
194.4999999999999
 30
0.0
 11
-420.0
 21
-194.4999999999999
 31
0.0
210
0.0
220
1.0
230
0.0
  0
LINE
  5
CC
330
1F
100
AcDbEntity
  8
PV-80
100
AcDbLine
 10
-420.0
 20
-194.4999999999999
 30
0.0
 11
-420.2499999999998
 21
-194.7499999999999
 31
0.0
210
0.0
220
1.0
230
0.0
  0
LINE
  5
CD
330
1F
100
AcDbEntity
  8
PV-80
100
AcDbLine
 10
-425.7500000000002
 20
194.7499999999999
 30
-0.0000000000000004
 11
-425.4999999999999
 21
194.9999999999999
 31
-0.0000000000000003
210
0.0
220
1.0
230
0.0
  0
LINE
  5
CE
330
1F
100
AcDbEntity
  8
PV-80
100
AcDbLine
 10
-425.4999999999999
 20
194.9999999999999
 30
-0.0000000000000003
 11
-420.5000000000001
 21
194.9999999999999
 31
0.0
210
0.0
220
1.0
230
0.0
  0
LINE
  5
CF
330
1F
100
AcDbEntity
  8
PV-80
100
AcDbLine
 10
-420.5000000000001
 20
195.0
 30
0.0
 11
-420.2500000000001
 21
194.7499999999999
 31
0.0
210
0.0
220
1.0
230
0.0
  0
LINE
  5
D0
330
1F
100
AcDbEntity
  8
PV-80
100
AcDbLine
 10
-420.2500000000001
 20
194.7499999999999
 30
0.0
 11
-420.5000000000001
 21
194.4999999999999
 31
0.0
210
0.0
220
1.0
230
0.0
  0
LINE
  5
D1
330
1F
100
AcDbEntity
  8
PV-80
100
AcDbLine
 10
-420.5000000000001
 20
194.4999999999999
 30
0.0
 11
-425.4999999999999
 21
194.4999999999999
 31
-0.0000000000000003
210
0.0
220
1.0
230
0.0
  0
LINE
  5
D2
330
1F
100
AcDbEntity
  8
PV-80
100
AcDbLine
 10
-425.75
 20
-194.7499999999999
 30
-0.0000000000000004
 11
-426.0
 21
-194.4999999999999
 31
-0.0000000000000004
210
0.0
220
1.0
230
0.0
  0
LINE
  5
D3
330
1F
100
AcDbEntity
  8
PV-80
100
AcDbLine
 10
-426.0
 20
-194.4999999999999
 30
-0.0000000000000004
 11
-426.0000000000001
 21
194.4999999999999
 31
-0.0000000000000004
210
0.0
220
1.0
230
0.0
  0
LINE
  5
D4
330
1F
100
AcDbEntity
  8
PV-80
100
AcDbLine
 10
-425.7500000000002
 20
194.7499999999999
 30
-0.0000000000000004
 11
-426.0000000000001
 21
194.4999999999999
 31
-0.0000000000000004
210
0.0
220
1.0
230
0.0
  0
LINE
  5
D5
330
1F
100
AcDbEntity
  8
PV-80
100
AcDbLine
 10
-425.4999999999999
 20
194.4999999999999
 30
-0.0000000000000003
 11
-425.7500000000002
 21
194.7499999999999
 31
-0.0000000000000004
210
0.0
220
1.0
230
0.0
  0
LINE
  5
D6
330
1F
100
AcDbEntity
  8
PV-80
100
AcDbLine
 10
-425.4999999999999
 20
194.4999999999999
 30
-0.0000000000000003
 11
-425.4999999999998
 21
-194.4999999999999
 31
-0.0000000000000003
210
0.0
220
1.0
230
0.0
  0
LINE
  5
D7
330
1F
100
AcDbEntity
  8
PV-80
100
AcDbLine
 10
-425.4999999999998
 20
-194.9999999999999
 30
-0.0000000000000003
 11
-425.75
 21
-194.7499999999999
 31
-0.0000000000000004
210
0.0
220
1.0
230
0.0
  0
LINE
  5
D8
330
1F
100
AcDbEntity
  8
PV-80
100
AcDbLine
 10
-425.75
 20
-194.7499999999999
 30
-0.0000000000000004
 11
-425.4999999999998
 21
-194.4999999999999
 31
-0.0000000000000003
210
0.0
220
1.0
230
0.0
  0
LINE
  5
D9
330
1F
100
AcDbEntity
  8
PV-80
100
AcDbLine
 10
-425.4999999999998
 20
-194.4999999999999
 30
-0.0000000000000003
 11
-420.5
 21
-194.4999999999999
 31
0.0
210
0.0
220
1.0
230
0.0
  0
LINE
  5
DA
330
1F
100
AcDbEntity
  8
PV-80
100
AcDbLine
 10
-420.5
 20
-194.4999999999999
 30
0.0
 11
-420.2499999999998
 21
-194.7499999999999
 31
0.0
210
0.0
220
1.0
230
0.0
  0
LINE
  5
DB
330
1F
100
AcDbEntity
  8
PV-80
100
AcDbLine
 10
-420.2499999999998
 20
-194.7499999999999
 30
0.0
 11
-420.5
 21
-194.9999999999999
 31
0.0
210
0.0
220
1.0
230
0.0
  0
LINE
  5
DC
330
1F
100
AcDbEntity
  8
PV-80
100
AcDbLine
 10
-420.5
 20
-194.9999999999999
 30
0.0
 11
-425.4999999999998
 21
-194.9999999999999
 31
-0.0000000000000003
210
0.0
220
1.0
230
0.0
  0
LINE
  5
DE
330
1F
100
AcDbEntity
  8
PV-80
100
AcDbLine
 10
300.5
 20
194.5
 30
0.0000000000000734
 11
-299.5
 21
194.5
 31
0.0000000000000001
210
0.0
220
1.0
230
0.0
  0
LINE
  5
DF
330
1F
100
AcDbEntity
  8
PV-80
100
AcDbLine
 10
-299.5
 20
194.4999999999999
 30
0.0000000000000001
 11
-299.75
 21
194.7499999999999
 31
0.0
210
0.0
220
1.0
230
0.0
  0
LINE
  5
E0
330
1F
100
AcDbEntity
  8
PV-80
100
AcDbLine
 10
-299.5
 20
194.5
 30
0.0000000000000001
 11
-299.5
 21
-194.4999999999999
 31
0.0000000000000001
210
0.0
220
1.0
230
0.0
  0
LINE
  5
E1
330
1F
100
AcDbEntity
  8
PV-80
100
AcDbLine
 10
-300.0
 20
-194.4999999999999
 30
0.0
 11
-300.0
 21
194.5
 31
0.0
210
0.0
220
1.0
230
0.0
  0
LINE
  5
E2
330
1F
100
AcDbEntity
  8
PV-80
100
AcDbLine
 10
-300.0
 20
-194.4999999999998
 30
0.0
 11
-299.75
 21
-194.7499999999998
 31
0.0
210
0.0
220
1.0
230
0.0
  0
LINE
  5
E3
330
1F
100
AcDbEntity
  8
PV-80
100
AcDbLine
 10
-299.4999999999999
 20
195.0
 30
0.0000000000000001
 11
-299.7499999999999
 21
194.7499999999999
 31
0.0
210
0.0
220
1.0
230
0.0
  0
LINE
  5
E4
330
1F
100
AcDbEntity
  8
PV-80
100
AcDbLine
 10
-299.75
 20
194.7499999999999
 30
0.0
 11
-300.0
 21
194.5
 31
0.0
210
0.0
220
1.0
230
0.0
  0
LINE
  5
E5
330
1F
100
AcDbEntity
  8
PV-80
100
AcDbLine
 10
-299.5
 20
195.0
 30
0.0000000000000001
 11
300.5
 21
194.9999999999999
 31
0.0000000000000734
210
0.0
220
1.0
230
0.0
  0
LINE
  5
E6
330
1F
100
AcDbEntity
  8
PV-80
100
AcDbLine
 10
300.75
 20
194.7499999999999
 30
0.0000000000000734
 11
300.5
 21
194.9999999999999
 31
0.0000000000000734
210
0.0
220
1.0
230
0.0
  0
LINE
  5
E7
330
1F
100
AcDbEntity
  8
PV-80
100
AcDbLine
 10
300.5
 20
-194.9999999999999
 30
0.0000000000000734
 11
-299.5
 21
-194.9999999999999
 31
0.0000000000000001
210
0.0
220
1.0
230
0.0
  0
LINE
  5
E8
330
1F
100
AcDbEntity
  8
PV-80
100
AcDbLine
 10
-299.75
 20
-194.7499999999999
 30
0.0
 11
-299.5
 21
-194.9999999999999
 31
0.0000000000000001
210
0.0
220
1.0
230
0.0
  0
LINE
  5
E9
330
1F
100
AcDbEntity
  8
PV-80
100
AcDbLine
 10
-299.75
 20
-194.7499999999998
 30
0.0
 11
-299.5
 21
-194.4999999999998
 31
0.0000000000000001
210
0.0
220
1.0
230
0.0
  0
LINE
  5
EA
330
1F
100
AcDbEntity
  8
PV-80
100
AcDbLine
 10
-299.5
 20
-194.4999999999999
 30
0.0000000000000001
 11
300.5
 21
-194.4999999999999
 31
0.0000000000000734
210
0.0
220
1.0
230
0.0
  0
LINE
  5
EB
330
1F
100
AcDbEntity
  8
PV-80
100
AcDbLine
 10
300.75
 20
-194.7499999999999
 30
0.0000000000000734
 11
300.5
 21
-194.4999999999999
 31
0.0000000000000734
210
0.0
220
1.0
230
0.0
  0
LINE
  5
EC
330
1F
100
AcDbEntity
  8
PV-80
100
AcDbLine
 10
300.5
 20
-194.4999999999999
 30
0.0000000000000734
 11
300.5
 21
194.4999999999999
 31
0.0000000000000734
210
0.0
220
1.0
230
0.0
  0
LINE
  5
ED
330
1F
100
AcDbEntity
  8
PV-80
100
AcDbLine
 10
300.75
 20
194.7499999999999
 30
0.0000000000000734
 11
300.5
 21
194.4999999999999
 31
0.0000000000000734
210
0.0
220
1.0
230
0.0
  0
LINE
  5
EE
330
1F
100
AcDbEntity
  8
PV-80
100
AcDbLine
 10
301.0
 20
194.4999999999999
 30
0.0000000000000735
 11
300.75
 21
194.7499999999999
 31
0.0000000000000734
210
0.0
220
1.0
230
0.0
  0
LINE
  5
EF
330
1F
100
AcDbEntity
  8
PV-80
100
AcDbLine
 10
301.0
 20
194.4999999999999
 30
0.0000000000000735
 11
301.0
 21
-194.4999999999999
 31
0.0000000000000735
210
0.0
220
1.0
230
0.0
  0
LINE
  5
F0
330
1F
100
AcDbEntity
  8
PV-80
100
AcDbLine
 10
300.5
 20
-194.9999999999999
 30
0.0000000000000734
 11
300.75
 21
-194.7499999999999
 31
0.0000000000000734
210
0.0
220
1.0
230
0.0
  0
LINE
  5
F1
330
1F
100
AcDbEntity
  8
PV-80
100
AcDbLine
 10
300.75
 20
-194.7499999999999
 30
0.0000000000000734
 11
301.0
 21
-194.4999999999999
 31
0.0000000000000735
210
0.0
220
1.0
230
0.0
  0
LINE
  5
F3
330
1F
100
AcDbEntity
  8
PV-80
100
AcDbLine
 10
426.0000000000001
 20
194.4999999999998
 30
0.0000000000000011
 11
425.7500000000002
 21
194.7499999999998
 31
0.0000000000000011
210
0.0
220
1.0
230
0.0
  0
LINE
  5
F4
330
1F
100
AcDbEntity
  8
PV-80
100
AcDbLine
 10
426.0000000000001
 20
194.5
 30
0.0000000000000011
 11
426.0
 21
-194.5
 31
0.0000000000000011
210
0.0
220
1.0
230
0.0
  0
LINE
  5
F5
330
1F
100
AcDbEntity
  8
PV-80
100
AcDbLine
 10
425.4999999999998
 20
-194.5
 30
0.000000000000001
 11
425.4999999999999
 21
194.5
 31
0.000000000000001
210
0.0
220
1.0
230
0.0
  0
LINE
  5
F6
330
1F
100
AcDbEntity
  8
PV-80
100
AcDbLine
 10
425.4999999999998
 20
-194.4999999999999
 30
0.000000000000001
 11
425.75
 21
-194.7499999999999
 31
0.0000000000000011
210
0.0
220
1.0
230
0.0
  0
LINE
  5
F7
330
1F
100
AcDbEntity
  8
PV-80
100
AcDbLine
 10
420.5
 20
-195.0
 30
0.0000000000000001
 11
420.2499999999998
 21
-194.7499999999999
 31
0.0
210
0.0
220
1.0
230
0.0
  0
LINE
  5
F8
330
1F
100
AcDbEntity
  8
PV-80
100
AcDbLine
 10
420.5
 20
-194.5
 30
0.0000000000000001
 11
425.4999999999998
 21
-194.5
 31
0.000000000000001
210
0.0
220
1.0
230
0.0
  0
LINE
  5
F9
330
1F
100
AcDbEntity
  8
PV-80
100
AcDbLine
 10
420.5000000000001
 20
194.5
 30
0.0000000000000001
 11
420.5
 21
-194.5
 31
0.0000000000000001
210
0.0
220
1.0
230
0.0
  0
LINE
  5
FA
330
1F
100
AcDbEntity
  8
PV-80
100
AcDbLine
 10
420.2499999999998
 20
-194.7499999999999
 30
0.0
 11
420.5
 21
-194.4999999999999
 31
0.0000000000000001
210
0.0
220
1.0
230
0.0
  0
LINE
  5
FB
330
1F
100
AcDbEntity
  8
PV-80
100
AcDbLine
 10
420.0
 20
-194.4999999999999
 30
0.0
 11
420.2499999999998
 21
-194.7499999999999
 31
0.0
210
0.0
220
1.0
230
0.0
  0
LINE
  5
FC
330
1F
100
AcDbEntity
  8
PV-80
100
AcDbLine
 10
420.0
 20
-194.5
 30
0.0
 11
420.0000000000001
 21
194.5
 31
0.0
210
0.0
220
1.0
230
0.0
  0
LINE
  5
FD
330
1F
100
AcDbEntity
  8
PV-80
100
AcDbLine
 10
425.4999999999999
 20
195.0
 30
0.000000000000001
 11
425.7500000000002
 21
194.7499999999998
 31
0.0000000000000011
210
0.0
220
1.0
230
0.0
  0
LINE
  5
FE
330
1F
100
AcDbEntity
  8
PV-80
100
AcDbLine
 10
425.7500000000002
 20
194.7499999999998
 30
0.0000000000000011
 11
425.5000000000001
 21
194.5
 31
0.000000000000001
210
0.0
220
1.0
230
0.0
  0
LINE
  5
FF
330
1F
100
AcDbEntity
  8
PV-80
100
AcDbLine
 10
425.4999999999999
 20
194.5
 30
0.000000000000001
 11
420.5000000000001
 21
194.5
 31
0.0000000000000001
210
0.0
220
1.0
230
0.0
  0
LINE
  5
100
330
1F
100
AcDbEntity
  8
PV-80
100
AcDbLine
 10
420.5
 20
194.5
 30
0.0000000000000001
 11
420.2500000000001
 21
194.7499999999998
 31
0.0
210
0.0
220
1.0
230
0.0
  0
LINE
  5
101
330
1F
100
AcDbEntity
  8
PV-80
100
AcDbLine
 10
420.5000000000001
 20
195.0
 30
0.0000000000000001
 11
425.4999999999999
 21
195.0
 31
0.000000000000001
210
0.0
220
1.0
230
0.0
  0
LINE
  5
102
330
1F
100
AcDbEntity
  8
PV-80
100
AcDbLine
 10
420.2500000000001
 20
194.7499999999999
 30
0.0
 11
420.5
 21
195.0
 31
0.0000000000000001
210
0.0
220
1.0
230
0.0
  0
LINE
  5
103
330
1F
100
AcDbEntity
  8
PV-80
100
AcDbLine
 10
420.0000000000001
 20
194.5
 30
0.0
 11
420.2500000000001
 21
194.7499999999998
 31
0.0
210
0.0
220
1.0
230
0.0
  0
LINE
  5
104
330
1F
100
AcDbEntity
  8
PV-80
100
AcDbLine
 10
425.4999999999998
 20
-195.0
 30
0.000000000000001
 11
420.5
 21
-195.0
 31
0.0000000000000001
210
0.0
220
1.0
230
0.0
  0
LINE
  5
105
330
1F
100
AcDbEntity
  8
PV-80
100
AcDbLine
 10
425.75
 20
-194.7499999999999
 30
0.0000000000000011
 11
425.4999999999998
 21
-195.0
 31
0.000000000000001
210
0.0
220
1.0
230
0.0
  0
LINE
  5
106
330
1F
100
AcDbEntity
  8
PV-80
100
AcDbLine
 10
425.75
 20
-194.7499999999999
 30
0.0000000000000011
 11
426.0
 21
-194.4999999999999
 31
0.0000000000000011
210
0.0
220
1.0
230
0.0
  0
LINE
  5
108
330
1F
100
AcDbEntity
  8
PV-80
100
AcDbLine
 10
300.5
 20
-321.0
 30
0.0
 11
-299.5
 21
-321.0
 31
0.0
  0
LINE
  5
109
330
1F
100
AcDbEntity
  8
PV-80
100
AcDbLine
 10
-299.5
 20
-321.0
 30
0.0
 11
-299.75
 21
-320.75
 31
0.0
  0
LINE
  5
10A
330
1F
100
AcDbEntity
  8
PV-80
100
AcDbLine
 10
-299.4999999999999
 20
-320.5
 30
0.0
 11
-299.7499999999999
 21
-320.75
 31
0.0
  0
LINE
  5
10B
330
1F
100
AcDbEntity
  8
PV-80
100
AcDbLine
 10
-299.75
 20
-320.75
 30
0.0
 11
-300.0
 21
-320.5
 31
0.0
  0
LINE
  5
10C
330
1F
100
AcDbEntity
  8
PV-80
100
AcDbLine
 10
-300.0
 20
-320.5
 30
0.0
 11
-300.0
 21
-315.5
 31
0.0
  0
LINE
  5
10D
330
1F
100
AcDbEntity
  8
PV-80
100
AcDbLine
 10
-300.0
 20
-315.5
 30
0.0
 11
-299.75
 21
-315.2499999999999
 31
0.0
  0
LINE
  5
10E
330
1F
100
AcDbEntity
  8
PV-80
100
AcDbLine
 10
-299.5
 20
-320.5
 30
0.0
 11
300.5
 21
-320.5
 31
0.0
  0
LINE
  5
10F
330
1F
100
AcDbEntity
  8
PV-80
100
AcDbLine
 10
-299.5
 20
-315.5
 30
0.0
 11
-299.5
 21
-320.5
 31
0.0
  0
LINE
  5
110
330
1F
100
AcDbEntity
  8
PV-80
100
AcDbLine
 10
300.5
 20
-315.5
 30
0.0
 11
-299.5
 21
-315.5
 31
0.0
  0
LINE
  5
111
330
1F
100
AcDbEntity
  8
PV-80
100
AcDbLine
 10
-299.7499999999999
 20
-315.2499999999999
 30
0.0
 11
-299.5
 21
-315.5
 31
0.0
  0
LINE
  5
112
330
1F
100
AcDbEntity
  8
PV-80
100
AcDbLine
 10
-299.4999999999999
 20
-315.0
 30
0.0
 11
-299.7499999999999
 21
-315.2499999999999
 31
0.0
  0
LINE
  5
113
330
1F
100
AcDbEntity
  8
PV-80
100
AcDbLine
 10
-299.5
 20
-315.0
 30
0.0
 11
300.5
 21
-315.0
 31
0.0
  0
LINE
  5
114
330
1F
100
AcDbEntity
  8
PV-80
100
AcDbLine
 10
300.5
 20
-315.0
 30
0.0
 11
300.75
 21
-315.2499999999999
 31
0.0
  0
LINE
  5
115
330
1F
100
AcDbEntity
  8
PV-80
100
AcDbLine
 10
300.75
 20
-320.75
 30
0.0
 11
300.5
 21
-320.5
 31
0.0
  0
LINE
  5
116
330
1F
100
AcDbEntity
  8
PV-80
100
AcDbLine
 10
300.5
 20
-320.5
 30
0.0
 11
300.5
 21
-315.5
 31
0.0
  0
LINE
  5
117
330
1F
100
AcDbEntity
  8
PV-80
100
AcDbLine
 10
300.5
 20
-315.5
 30
0.0
 11
300.75
 21
-315.25
 31
0.0
  0
LINE
  5
118
330
1F
100
AcDbEntity
  8
PV-80
100
AcDbLine
 10
300.75
 20
-315.25
 30
0.0
 11
301.0
 21
-315.5
 31
0.0
  0
LINE
  5
119
330
1F
100
AcDbEntity
  8
PV-80
100
AcDbLine
 10
301.0
 20
-315.5
 30
0.0
 11
301.0
 21
-320.5
 31
0.0
  0
LINE
  5
11A
330
1F
100
AcDbEntity
  8
PV-80
100
AcDbLine
 10
300.75
 20
-320.75
 30
0.0
 11
300.5
 21
-321.0
 31
0.0
  0
LINE
  5
11B
330
1F
100
AcDbEntity
  8
PV-80
100
AcDbLine
 10
301.0
 20
-320.5
 30
0.0
 11
300.75
 21
-320.75
 31
0.0
  0
ENDSEC
  0
SECTION
  2
OBJECTS
  0
DICTIONARY
  5
C
330
0
100
AcDbDictionary
281
     1
  3
ACAD_COLOR
350
156
  3
ACAD_GROUP
350
D
  3
ACAD_LAYOUT
350
159
  3
ACAD_MATERIAL
350
141
  3
ACAD_MLINESTYLE
350
17
  3
ACAD_PLOTSETTINGS
350
19
  3
ACAD_PLOTSTYLENAME
350
C2
  3
ACAD_TABLESTYLE
350
157
  3
ACAD_VISUALSTYLE
350
145
  3
AcDbVariableDictionary
350
190
  3
DWGPROPS
350
195
1001
ACAD
1000
TREAT_AS_HARD
1070
     0
  0
DICTIONARY
  5
BC
330
1F
100
AcDbDictionary
281
     1
  3
ACAD_LAYOUTSELFREF
350
13E
  0
DICTIONARY
  5
BA
330
1B
100
AcDbDictionary
281
     1
  3
ACAD_LAYOUTSELFREF
350
13D
  0
DICTIONARY
  5
156
102
{ACAD_REACTORS
330
C
102
}
330
C
100
AcDbDictionary
281
     1
  0
DICTIONARY
  5
D
102
{ACAD_REACTORS
330
C
102
}
330
C
100
AcDbDictionary
281
     1
1001
ACAD
1000
TREAT_AS_HARD
1070
     0
  0
DICTIONARY
  5
159
102
{ACAD_REACTORS
330
C
102
}
330
C
100
AcDbDictionary
281
     1
  3
Layout1
350
15B
  3
Model
350
15A
  0
DICTIONARY
  5
141
102
{ACAD_REACTORS
330
C
102
}
330
C
100
AcDbDictionary
281
     1
  3
ByBlock
350
143
  3
ByLayer
350
142
  3
Global
350
144
  0
DICTIONARY
  5
17
102
{ACAD_REACTORS
330
C
102
}
330
C
100
AcDbDictionary
281
     1
  3
STANDARD
350
18
1001
ACAD
1000
TREAT_AS_HARD
1070
     0
  0
DICTIONARY
  5
19
102
{ACAD_REACTORS
330
C
102
}
330
C
100
AcDbDictionary
281
     1
1001
ACAD
1000
TREAT_AS_HARD
1070
     0
  0
ACDBDICTIONARYWDFLT
  5
C2
102
{ACAD_REACTORS
330
C
102
}
330
C
100
AcDbDictionary
281
     1
  3
Normal
350
C3
100
AcDbDictionaryWithDefault
340
C3
  0
DICTIONARY
  5
157
102
{ACAD_REACTORS
330
C
102
}
330
C
100
AcDbDictionary
281
     1
  3
Standard
350
158
  0
DICTIONARY
  5
145
102
{ACAD_REACTORS
330
C
102
}
330
C
100
AcDbDictionary
281
     1
  3
2dWireframe
350
14B
  3
3D Hidden
350
14D
  3
3dWireframe
350
14C
  3
Basic
350
14A
  3
Brighten
350
151
  3
ColorChange
350
155
  3
Conceptual
350
14E
  3
Dim
350
150
  3
Facepattern
350
154
  3
Flat
350
146
  3
FlatWithEdges
350
147
  3
Gouraud
350
148
  3
GouraudWithEdges
350
149
  3
Linepattern
350
153
  3
Realistic
350
14F
  3
Thicken
350
152
  0
DICTIONARY
  5
190
102
{ACAD_REACTORS
330
C
102
}
330
C
100
AcDbDictionary
281
     1
  3
CTABLESTYLE
350
191
  3
DIMASSOC
350
194
  3
INDEXCTL
350
193
  3
SORTENTS
350
192
  0
XRECORD
  5
195
102
{ACAD_REACTORS
330
C
102
}
330
C
100
AcDbXrecord
280
     1
  1
DWGPROPS COOKIE
  2

  3

  4

  6

  7

  8
kaschu
  9

300
=
301
=
302
=
303
=
304
=
305
=
306
=
307
=
308
=
309
=
 40
0.0022150694444444
 41
2451762.561710995
 42
2455344.412293275
  1

 90
        0
  0
XRECORD
  5
13E
102
{ACAD_REACTORS
330
BC
102
}
330
BC
100
AcDbXrecord
280
     1
340
1F
  0
XRECORD
  5
13D
102
{ACAD_REACTORS
330
BA
102
}
330
BA
100
AcDbXrecord
280
     1
340
1B
  0
LAYOUT
  5
15B
102
{ACAD_XDICTIONARY
360
1A0
102
}
102
{ACAD_REACTORS
330
159
102
}
330
159
100
AcDbPlotSettings
  1

  2
\\druckserv1\AROBBE04
  4

  6

 40
0.0
 41
0.0
 42
0.0
 43
0.0
 44
0.0
 45
0.0
 46
0.0
 47
0.0
 48
0.0
 49
0.0
140
0.0
141
0.0
142
1.0
143
1.0
 70
   688
 72
     0
 73
     0
 74
     5
  7

 75
    16
147
1.0
148
0.0
149
0.0
100
AcDbLayout
  1
Layout1
 70
     1
 71
     1
 10
0.0
 20
0.0
 11
12.0
 21
9.0
 12
0.0
 22
0.0
 32
0.0
 14
1.000000000000000E+20
 24
1.000000000000000E+20
 34
1.000000000000000E+20
 15
-1.000000000000000E+20
 25
-1.000000000000000E+20
 35
-1.000000000000000E+20
146
0.0
 13
0.0
 23
0.0
 33
0.0
 16
1.0
 26
0.0
 36
0.0
 17
0.0
 27
1.0
 37
0.0
 76
     0
330
1B
  0
LAYOUT
  5
15A
102
{ACAD_XDICTIONARY
360
19E
102
}
102
{ACAD_REACTORS
330
159
102
}
330
159
100
AcDbPlotSettings
  1

  2
\\druckserv1\AROBBE04
  4

  6

 40
0.0
 41
0.0
 42
0.0
 43
0.0
 44
0.0
 45
0.0
 46
0.0
 47
0.0
 48
0.0
 49
0.0
140
0.0
141
0.0
142
1.0
143
1.0
 70
  1712
 72
     0
 73
     0
 74
     0
  7

 75
     0
147
1.0
148
0.0
149
0.0
100
AcDbLayout
  1
Model
 70
     1
 71
     0
 10
0.0
 20
0.0
 11
12.0
 21
9.0
 12
0.0
 22
0.0
 32
0.0
 14
0.0
 24
0.0
 34
0.0
 15
0.0
 25
0.0
 35
0.0
146
0.0
 13
0.0
 23
0.0
 33
0.0
 16
1.0
 26
0.0
 36
0.0
 17
0.0
 27
1.0
 37
0.0
 76
     0
330
1F
331
11C
  0
MATERIAL
  5
143
102
{ACAD_XDICTIONARY
360
198
102
}
102
{ACAD_REACTORS
330
141
102
}
330
141
100
AcDbMaterial
  1
ByBlock
  0
MATERIAL
  5
142
102
{ACAD_XDICTIONARY
360
196
102
}
102
{ACAD_REACTORS
330
141
102
}
330
141
100
AcDbMaterial
  1
ByLayer
  0
MATERIAL
  5
144
102
{ACAD_XDICTIONARY
360
19A
102
}
102
{ACAD_REACTORS
330
141
102
}
330
141
100
AcDbMaterial
  1
Global
  0
MLINESTYLE
  5
18
102
{ACAD_REACTORS
330
17
102
}
330
17
100
AcDbMlineStyle
  2
STANDARD
 70
     0
  3

 62
   256
 51
90.0
 52
90.0
 71
     2
 49
0.5
 62
   256
  6
BYLAYER
 49
-0.5
 62
   256
  6
BYLAYER
  0
ACDBPLACEHOLDER
  5
C3
102
{ACAD_REACTORS
330
C2
102
}
330
C2
  0
TABLESTYLE
  5
158
102
{ACAD_XDICTIONARY
360
19C
102
}
102
{ACAD_REACTORS
330
157
102
}
330
157
100
AcDbTableStyle
  3
Standard
 70
     0
 71
     0
 40
0.06
 41
0.06
280
     0
281
     0
  7
STANDARD
140
0.18
170
     2
 62
     0
 63
     7
283
     0
274
    -2
284
     1
 64
     0
275
    -2
285
     1
 65
     0
276
    -2
286
     1
 66
     0
277
    -2
287
     1
 67
     0
278
    -2
288
     1
 68
     0
279
    -2
289
     1
 69
     0
  7
STANDARD
140
0.25
170
     5
 62
     0
 63
     7
283
     0
274
    -2
284
     1
 64
     0
275
    -2
285
     1
 65
     0
276
    -2
286
     1
 66
     0
277
    -2
287
     1
 67
     0
278
    -2
288
     1
 68
     0
279
    -2
289
     1
 69
     0
  7
STANDARD
140
0.18
170
     5
 62
     0
 63
     7
283
     0
274
    -2
284
     1
 64
     0
275
    -2
285
     1
 65
     0
276
    -2
286
     1
 66
     0
277
    -2
287
     1
 67
     0
278
    -2
288
     1
 68
     0
279
    -2
289
     1
 69
     0
  0
VISUALSTYLE
  5
14B
102
{ACAD_REACTORS
330
145
102
}
330
145
100
AcDbVisualStyle
  2
2dWireframe
 70
     4
 71
     0
 72
     2
 73
     0
 90
        0
 40
-0.6
 41
-30.0
 62
     5
 63
     7
 74
     1
 91
        4
 64
     7
 65
   257
 75
     1
175
     1
 42
1.0
 92
        0
 66
   257
 43
1.0
 76
     1
 77
     6
 78
     2
 67
     7
 79
     5
170
     0
171
     0
290
     0
174
     0
 93
        1
 44
0.0
173
     0
291
     0
 45
0.0
1001
ACAD
1000
AcDbSavedByObjectVersion
1070
     0
  0
VISUALSTYLE
  5
14D
102
{ACAD_REACTORS
330
145
102
}
330
145
100
AcDbVisualStyle
  2
3D Hidden
 70
     6
 71
     1
 72
     2
 73
     2
 90
        0
 40
-0.6
 41
-30.0
 62
     5
 63
     7
 74
     2
 91
        2
 64
     7
 65
   257
 75
     2
175
     1
 42
40.0
 92
        0
 66
   257
 43
1.0
 76
     1
 77
     6
 78
     2
 67
     7
 79
     3
170
     0
171
     0
290
     0
174
     0
 93
        1
 44
0.0
173
     0
291
     0
 45
0.0
1001
ACAD
1000
AcDbSavedByObjectVersion
1070
     0
  0
VISUALSTYLE
  5
14C
102
{ACAD_REACTORS
330
145
102
}
330
145
100
AcDbVisualStyle
  2
3dWireframe
 70
     5
 71
     0
 72
     2
 73
     0
 90
        0
 40
-0.6
 41
-30.0
 62
     5
 63
     7
 74
     1
 91
        4
 64
     7
 65
   257
 75
     1
175
     1
 42
1.0
 92
        0
 66
   257
 43
1.0
 76
     1
 77
     6
 78
     2
 67
     7
 79
     5
170
     0
171
     0
290
     0
174
     0
 93
        1
 44
0.0
173
     0
291
     0
 45
0.0
1001
ACAD
1000
AcDbSavedByObjectVersion
1070
     0
  0
VISUALSTYLE
  5
14A
102
{ACAD_REACTORS
330
145
102
}
330
145
100
AcDbVisualStyle
  2
Basic
 70
     7
 71
     1
 72
     0
 73
     1
 90
        0
 40
-0.6
 41
-30.0
 62
     5
 63
     7
 74
     0
 91
        4
 64
     7
 65
   257
 75
     1
175
     1
 42
1.0
 92
        8
 66
     7
 43
1.0
 76
     1
 77
     6
 78
     2
 67
     7
 79
     5
170
     0
171
     0
290
     0
174
     0
 93
        1
 44
0.0
173
     0
291
     1
 45
0.0
1001
ACAD
1000
AcDbSavedByObjectVersion
1070
     0
  0
VISUALSTYLE
  5
151
102
{ACAD_REACTORS
330
145
102
}
330
145
100
AcDbVisualStyle
  2
Brighten
 70
    12
 71
     2
 72
     2
 73
     0
 90
        0
 40
-0.6
 41
-30.0
 62
     5
 63
     7
 74
     1
 91
        4
 64
     7
 65
   257
 75
     1
175
     1
 42
1.0
 92
        8
 66
     7
 43
1.0
 76
     1
 77
     6
 78
     2
 67
     7
 79
     5
170
     0
171
     0
290
     0
174
     0
 93
        1
 44
50.0
173
     0
291
     1
 45
0.0
1001
ACAD
1000
AcDbSavedByObjectVersion
1070
     0
  0
VISUALSTYLE
  5
155
102
{ACAD_REACTORS
330
145
102
}
330
145
100
AcDbVisualStyle
  2
ColorChange
 70
    16
 71
     2
 72
     2
 73
     3
 90
        0
 40
-0.6
 41
-30.0
 62
     5
 63
     8
 74
     1
 91
        4
 64
     7
 65
   257
 75
     1
175
     1
 42
1.0
 92
        8
 66
     8
 43
1.0
 76
     1
 77
     6
 78
     2
 67
     7
 79
     5
170
     0
171
     0
290
     0
174
     0
 93
        1
 44
0.0
173
     0
291
     1
 45
0.0
1001
ACAD
1000
AcDbSavedByObjectVersion
1070
     0
  0
VISUALSTYLE
  5
14E
102
{ACAD_REACTORS
330
145
102
}
330
145
100
AcDbVisualStyle
  2
Conceptual
 70
     9
 71
     3
 72
     2
 73
     0
 90
        0
 40
-0.6
 41
-30.0
 62
     5
 63
     7
 74
     2
 91
        2
 64
     7
 65
   257
 75
     1
175
     1
 42
40.0
 92
        8
 66
     7
 43
1.0
 76
     1
 77
     6
 78
     2
 67
     7
 79
     3
170
     0
171
     0
290
     0
174
     0
 93
        1
 44
0.0
173
     0
291
     0
 45
0.0
1001
ACAD
1000
AcDbSavedByObjectVersion
1070
     0
  0
VISUALSTYLE
  5
150
102
{ACAD_REACTORS
330
145
102
}
330
145
100
AcDbVisualStyle
  2
Dim
 70
    11
 71
     2
 72
     2
 73
     0
 90
        0
 40
-0.6
 41
-30.0
 62
     5
 63
     7
 74
     1
 91
        4
 64
     7
 65
   257
 75
     1
175
     1
 42
1.0
 92
        8
 66
     7
 43
1.0
 76
     1
 77
     6
 78
     2
 67
     7
 79
     5
170
     0
171
     0
290
     0
174
     0
 93
        1
 44
-50.0
173
     0
291
     1
 45
0.0
1001
ACAD
1000
AcDbSavedByObjectVersion
1070
     0
  0
VISUALSTYLE
  5
154
102
{ACAD_REACTORS
330
145
102
}
330
145
100
AcDbVisualStyle
  2
Facepattern
 70
    15
 71
     2
 72
     2
 73
     0
 90
        0
 40
-0.6
 41
-30.0
 62
     5
 63
     7
 74
     1
 91
        4
 64
     7
 65
   257
 75
     1
175
     1
 42
1.0
 92
        8
 66
     7
 43
1.0
 76
     1
 77
     6
 78
     2
 67
     7
 79
     5
170
     0
171
     0
290
     0
174
     0
 93
        1
 44
0.0
173
     0
291
     1
 45
0.0
1001
ACAD
1000
AcDbSavedByObjectVersion
1070
     0
  0
VISUALSTYLE
  5
146
102
{ACAD_REACTORS
330
145
102
}
330
145
100
AcDbVisualStyle
  2
Flat
 70
     0
 71
     2
 72
     1
 73
     1
 90
        2
 40
-0.6
 41
30.0
 62
     5
 63
     7
 74
     0
 91
        4
 64
     7
 65
   257
 75
     1
175
     1
 42
1.0
 92
        8
 66
     7
 43
1.0
 76
     1
 77
     6
 78
     2
 67
     7
 79
     5
170
     0
171
     0
290
     0
174
     0
 93
       13
 44
0.0
173
     0
291
     1
 45
0.0
1001
ACAD
1000
AcDbSavedByObjectVersion
1070
     0
  0
VISUALSTYLE
  5
147
102
{ACAD_REACTORS
330
145
102
}
330
145
100
AcDbVisualStyle
  2
FlatWithEdges
 70
     1
 71
     2
 72
     1
 73
     1
 90
        2
 40
-0.6
 41
30.0
 62
     5
 63
     7
 74
     1
 91
        4
 64
     7
 65
   257
 75
     1
175
     1
 42
1.0
 92
        0
 66
   257
 43
1.0
 76
     1
 77
     6
 78
     2
 67
     7
 79
     5
170
     0
171
     0
290
     0
174
     0
 93
       13
 44
0.0
173
     0
291
     1
 45
0.0
1001
ACAD
1000
AcDbSavedByObjectVersion
1070
     0
  0
VISUALSTYLE
  5
148
102
{ACAD_REACTORS
330
145
102
}
330
145
100
AcDbVisualStyle
  2
Gouraud
 70
     2
 71
     2
 72
     2
 73
     1
 90
        2
 40
-0.6
 41
30.0
 62
     5
 63
     7
 74
     0
 91
        4
 64
     7
 65
   257
 75
     1
175
     1
 42
1.0
 92
        0
 66
     7
 43
1.0
 76
     1
 77
     6
 78
     2
 67
     7
 79
     5
170
     0
171
     0
290
     0
174
     0
 93
       13
 44
0.0
173
     0
291
     1
 45
0.0
1001
ACAD
1000
AcDbSavedByObjectVersion
1070
     0
  0
VISUALSTYLE
  5
149
102
{ACAD_REACTORS
330
145
102
}
330
145
100
AcDbVisualStyle
  2
GouraudWithEdges
 70
     3
 71
     2
 72
     2
 73
     1
 90
        2
 40
-0.6
 41
30.0
 62
     5
 63
     7
 74
     1
 91
        4
 64
     7
 65
   257
 75
     1
175
     1
 42
1.0
 92
        0
 66
   257
 43
1.0
 76
     1
 77
     6
 78
     2
 67
     7
 79
     5
170
     0
171
     0
290
     0
174
     0
 93
       13
 44
0.0
173
     0
291
     1
 45
0.0
1001
ACAD
1000
AcDbSavedByObjectVersion
1070
     0
  0
VISUALSTYLE
  5
153
102
{ACAD_REACTORS
330
145
102
}
330
145
100
AcDbVisualStyle
  2
Linepattern
 70
    14
 71
     2
 72
     2
 73
     0
 90
        0
 40
-0.6
 41
-30.0
 62
     5
 63
     7
 74
     1
 91
        4
 64
     7
 65
   257
 75
     7
175
     7
 42
1.0
 92
        8
 66
     7
 43
1.0
 76
     1
 77
     6
 78
     2
 67
     7
 79
     5
170
     0
171
     0
290
     0
174
     0
 93
        1
 44
0.0
173
     0
291
     1
 45
0.0
1001
ACAD
1000
AcDbSavedByObjectVersion
1070
     0
  0
VISUALSTYLE
  5
14F
102
{ACAD_REACTORS
330
145
102
}
330
145
100
AcDbVisualStyle
  2
Realistic
 70
     8
 71
     2
 72
     2
 73
     0
 90
        0
 40
-0.6
 41
-30.0
 62
     5
 63
     7
 74
     1
 91
        0
 64
     7
 65
   257
 75
     1
175
     1
 42
1.0
 92
        8
 66
     8
 43
1.0
 76
     1
 77
     6
 78
     2
 67
     7
 79
     5
170
     0
171
     0
290
     0
174
     0
 93
       13
 44
0.0
173
     0
291
     0
 45
0.0
1001
ACAD
1000
AcDbSavedByObjectVersion
1070
     0
  0
VISUALSTYLE
  5
152
102
{ACAD_REACTORS
330
145
102
}
330
145
100
AcDbVisualStyle
  2
Thicken
 70
    13
 71
     2
 72
     2
 73
     0
 90
        0
 40
-0.6
 41
-30.0
 62
     5
 63
     7
 74
     1
 91
        4
 64
     7
 65
   257
 75
     1
175
     1
 42
1.0
 92
       12
 66
     7
 43
1.0
 76
     1
 77
     6
 78
     2
 67
     7
 79
     5
170
     0
171
     0
290
     0
174
     0
 93
        1
 44
0.0
173
     0
291
     1
 45
0.0
1001
ACAD
1000
AcDbSavedByObjectVersion
1070
     0
  0
DICTIONARYVAR
  5
191
102
{ACAD_REACTORS
330
190
102
}
330
190
100
DictionaryVariables
280
     0
  1
STANDARD
  0
DICTIONARYVAR
  5
194
102
{ACAD_REACTORS
330
190
102
}
330
190
100
DictionaryVariables
280
     0
  1
1
  0
DICTIONARYVAR
  5
193
102
{ACAD_REACTORS
330
190
102
}
330
190
100
DictionaryVariables
280
     0
  1
0
  0
DICTIONARYVAR
  5
192
102
{ACAD_REACTORS
330
190
102
}
330
190
100
DictionaryVariables
280
     0
  1
127
  0
DICTIONARY
  5
1A0
330
15B
100
AcDbDictionary
280
     1
281
     1
  3
ACAD_XREC_ROUNDTRIP
360
1A1
  0
DICTIONARY
  5
19E
330
15A
100
AcDbDictionary
280
     1
281
     1
  3
ACAD_XREC_ROUNDTRIP
360
19F
  0
DICTIONARY
  5
198
330
143
100
AcDbDictionary
280
     1
281
     1
  3
ACAD_XREC_ROUNDTRIP
360
199
  0
DICTIONARY
  5
196
330
142
100
AcDbDictionary
280
     1
281
     1
  3
ACAD_XREC_ROUNDTRIP
360
197
  0
DICTIONARY
  5
19A
330
144
100
AcDbDictionary
280
     1
281
     1
  3
ACAD_XREC_ROUNDTRIP
360
19B
  0
DICTIONARY
  5
19C
330
158
100
AcDbDictionary
280
     1
281
     1
  3
ACAD_XREC_ROUNDTRIP
360
19D
  0
XRECORD
  5
1A1
102
{ACAD_REACTORS
330
1A0
102
}
330
1A0
100
AcDbXrecord
280
     1
102
SHADEPLOT
 70
     0
102
SHADEPLOTRESLEVEL
 70
     2
102
SHADEPLOTCUSTOMDPI
 70
   300
  0
XRECORD
  5
19F
102
{ACAD_REACTORS
330
19E
102
}
330
19E
100
AcDbXrecord
280
     1
102
SHADEPLOT
 70
     0
102
SHADEPLOTRESLEVEL
 70
     2
102
SHADEPLOTCUSTOMDPI
 70
   300
  0
XRECORD
  5
199
102
{ACAD_REACTORS
330
198
102
}
330
198
100
AcDbXrecord
280
     1
102
MATERIAL
148
0.0
149
0.0
149
0.0
 93
        0
 94
       63
282
     0
 72
     1
 77
     1
171
     1
175
     1
179
     1
273
     0
  0
XRECORD
  5
197
102
{ACAD_REACTORS
330
196
102
}
330
196
100
AcDbXrecord
280
     1
102
MATERIAL
148
0.0
149
0.0
149
0.0
 93
        0
 94
       63
282
     0
 72
     1
 77
     1
171
     1
175
     1
179
     1
273
     0
  0
XRECORD
  5
19B
102
{ACAD_REACTORS
330
19A
102
}
330
19A
100
AcDbXrecord
280
     1
102
MATERIAL
148
0.0
149
0.0
149
0.0
 93
        0
 94
       63
282
     0
 72
     1
 77
     1
171
     1
175
     1
179
     1
273
     0
  0
XRECORD
  5
19D
102
{ACAD_REACTORS
330
19C
102
}
330
19C
100
AcDbXrecord
280
     1
102
ACAD_ROUNDTRIP_PRE2007_TABLESTYLE
 90
      512
 91
        0
  1

 92
      512
 93
        0
  2

 94
      512
 95
        0
  3

  0
ENDSEC
  0
EOF
