  0
SECTION
  2
HEADER
  9
$ACADVER
  1
AC1014
  9
$ACADMAINTVER
 70
     9
  9
$DWGCODEPAGE
  3
ANSI_1252
  9
$INSBASE
 10
0.0
 20
0.0
 30
0.0
  9
$EXTMIN
 10
-183.4800000119999
 20
-183.4800000119999
 30
-0.0000000000000085
  9
$EXTMAX
 10
183.4800000119999
 20
15.18474449670613
 30
0.0000000000000254
  9
$LIMMIN
 10
0.0
 20
0.0
  9
$LIMMAX
 10
12.0
 20
9.0
  9
$ORTHOMODE
 70
     0
  9
$REGENMODE
 70
     1
  9
$FILLMODE
 70
     1
  9
$QTEXTMODE
 70
     0
  9
$MIRRTEXT
 70
     1
  9
$DRAGMODE
 70
     2
  9
$LTSCALE
 40
1.0
  9
$OSMODE
 70
  2223
  9
$ATTMODE
 70
     1
  9
$TEXTSIZE
 40
0.2
  9
$TRACEWID
 40
0.05
  9
$TEXTSTYLE
  7
STANDARD
  9
$CLAYER
  8
0
  9
$CELTYPE
  6
BYLAYER
  9
$CECOLOR
 62
   256
  9
$CELTSCALE
 40
1.0
  9
$DELOBJ
 70
     1
  9
$DISPSILH
 70
     0
  9
$DIMSCALE
 40
1.0
  9
$DIMASZ
 40
0.18
  9
$DIMEXO
 40
0.0625
  9
$DIMDLI
 40
0.38
  9
$DIMRND
 40
0.0
  9
$DIMDLE
 40
0.0
  9
$DIMEXE
 40
0.18
  9
$DIMTP
 40
0.0
  9
$DIMTM
 40
0.0
  9
$DIMTXT
 40
0.18
  9
$DIMCEN
 40
0.09
  9
$DIMTSZ
 40
0.0
  9
$DIMTOL
 70
     0
  9
$DIMLIM
 70
     0
  9
$DIMTIH
 70
     1
  9
$DIMTOH
 70
     1
  9
$DIMSE1
 70
     0
  9
$DIMSE2
 70
     0
  9
$DIMTAD
 70
     0
  9
$DIMZIN
 70
     0
  9
$DIMBLK
  1

  9
$DIMASO
 70
     1
  9
$DIMSHO
 70
     1
  9
$DIMPOST
  1

  9
$DIMAPOST
  1

  9
$DIMALT
 70
     0
  9
$DIMALTD
 70
     2
  9
$DIMALTF
 40
25.4
  9
$DIMLFAC
 40
1.0
  9
$DIMTOFL
 70
     0
  9
$DIMTVP
 40
0.0
  9
$DIMTIX
 70
     0
  9
$DIMSOXD
 70
     0
  9
$DIMSAH
 70
     0
  9
$DIMBLK1
  1

  9
$DIMBLK2
  1

  9
$DIMSTYLE
  2
STANDARD
  9
$DIMCLRD
 70
     0
  9
$DIMCLRE
 70
     0
  9
$DIMCLRT
 70
     0
  9
$DIMTFAC
 40
1.0
  9
$DIMGAP
 40
0.09
  9
$DIMJUST
 70
     0
  9
$DIMSD1
 70
     0
  9
$DIMSD2
 70
     0
  9
$DIMTOLJ
 70
     1
  9
$DIMTZIN
 70
     0
  9
$DIMALTZ
 70
     0
  9
$DIMALTTZ
 70
     0
  9
$DIMFIT
 70
     3
  9
$DIMUPT
 70
     0
  9
$DIMUNIT
 70
     2
  9
$DIMDEC
 70
     4
  9
$DIMTDEC
 70
     4
  9
$DIMALTU
 70
     2
  9
$DIMALTTD
 70
     2
  9
$DIMTXSTY
  7
STANDARD
  9
$DIMAUNIT
 70
     0
  9
$LUNITS
 70
     2
  9
$LUPREC
 70
     4
  9
$SKETCHINC
 40
0.1
  9
$FILLETRAD
 40
0.5
  9
$AUNITS
 70
     0
  9
$AUPREC
 70
     0
  9
$MENU
  1
.
  9
$ELEVATION
 40
0.0
  9
$PELEVATION
 40
0.0
  9
$THICKNESS
 40
0.0
  9
$LIMCHECK
 70
     0
  9
$BLIPMODE
 70
     0
  9
$CHAMFERA
 40
0.5
  9
$CHAMFERB
 40
0.5
  9
$CHAMFERC
 40
1.0
  9
$CHAMFERD
 40
0.0
  9
$SKPOLY
 70
     0
  9
$TDCREATE
 40
2451762.562083565
  9
$TDUPDATE
 40
2453620.394633854
  9
$TDINDWG
 40
0.0008805440
  9
$TDUSRTIMER
 40
0.0008804282
  9
$USRTIMER
 70
     1
  9
$ANGBASE
 50
0.0
  9
$ANGDIR
 70
     0
  9
$PDMODE
 70
     0
  9
$PDSIZE
 40
0.0
  9
$PLINEWID
 40
0.0
  9
$COORDS
 70
     1
  9
$SPLFRAME
 70
     0
  9
$SPLINETYPE
 70
     6
  9
$SPLINESEGS
 70
     8
  9
$ATTDIA
 70
     0
  9
$ATTREQ
 70
     1
  9
$HANDLING
 70
 10241
  9
$HANDSEED
  5
155
  9
$SURFTAB1
 70
     6
  9
$SURFTAB2
 70
     6
  9
$SURFTYPE
 70
     6
  9
$SURFU
 70
     6
  9
$SURFV
 70
     6
  9
$UCSNAME
  2

  9
$UCSORG
 10
0.0
 20
0.0
 30
0.0
  9
$UCSXDIR
 10
1.0
 20
0.0
 30
0.0
  9
$UCSYDIR
 10
0.0
 20
1.0
 30
0.0
  9
$PUCSNAME
  2

  9
$PUCSORG
 10
0.0
 20
0.0
 30
0.0
  9
$PUCSXDIR
 10
1.0
 20
0.0
 30
0.0
  9
$PUCSYDIR
 10
0.0
 20
1.0
 30
0.0
  9
$USERI1
 70
     0
  9
$USERI2
 70
     0
  9
$USERI3
 70
     0
  9
$USERI4
 70
     0
  9
$USERI5
 70
     0
  9
$USERR1
 40
0.0
  9
$USERR2
 40
0.0
  9
$USERR3
 40
0.0
  9
$USERR4
 40
0.0
  9
$USERR5
 40
0.0
  9
$WORLDVIEW
 70
     1
  9
$SHADEDGE
 70
     3
  9
$SHADEDIF
 70
    70
  9
$TILEMODE
 70
     1
  9
$MAXACTVP
 70
    64
  9
$PINSBASE
 10
0.0
 20
0.0
 30
0.0
  9
$PLIMCHECK
 70
     0
  9
$PEXTMIN
 10
1.000000000000000E+20
 20
1.000000000000000E+20
 30
1.000000000000000E+20
  9
$PEXTMAX
 10
-1.000000000000000E+20
 20
-1.000000000000000E+20
 30
-1.000000000000000E+20
  9
$PLIMMIN
 10
0.0
 20
0.0
  9
$PLIMMAX
 10
12.0
 20
9.0
  9
$UNITMODE
 70
     0
  9
$VISRETAIN
 70
     1
  9
$PLINEGEN
 70
     0
  9
$PSLTSCALE
 70
     1
  9
$TREEDEPTH
 70
  3020
  9
$PICKSTYLE
 70
     1
  9
$CMLSTYLE
  2
STANDARD
  9
$CMLJUST
 70
     0
  9
$CMLSCALE
 40
1.0
  9
$PROXYGRAPHICS
 70
     1
  9
$MEASUREMENT
 70
     0
  0
ENDSEC
  0
SECTION
  2
CLASSES
  0
CLASS
  1
ACDBDICTIONARYWDFLT
  2
AcDbDictionaryWithDefault
  3
AutoCAD 2000
 90
        0
280
     0
281
     0
  0
CLASS
  1
ACDBPLACEHOLDER
  2
AcDbPlaceHolder
  3
AutoCAD 2000
 90
        0
280
     0
281
     0
  0
CLASS
  1
LAYOUT
  2
AcDbLayout
  3
AutoCAD 2000
 90
        0
280
     0
281
     0
  0
CLASS
  1
LONG_TRANSACTION
  2
AcDbLongTransaction
  3
AutoCAD 2000
 90
        0
280
     0
281
     0
  0
CLASS
  1
LWPOLYLINE
  2
AcDbPolyline
  3
AutoCAD 2000
 90
        0
280
     0
281
     1
  0
CLASS
  1
HATCH
  2
AcDbHatch
  3
AutoCAD 2000
 90
        0
280
     0
281
     1
  0
CLASS
  1
XRECORD
  2
AcDbXrecord
  3
AutoCAD 2000
 90
        0
280
     0
281
     0
  0
CLASS
  1
LONG_TRANSACTION
  2
AcDbLongTransaction
  3
AutoCAD 2000
 90
        0
280
     0
281
     0
  0
CLASS
  1
LWPOLYLINE
  2
AcDbPolyline
  3
AutoCAD 2000
 90
        0
280
     0
281
     1
  0
CLASS
  1
HATCH
  2
AcDbHatch
  3
AutoCAD 2000
 90
        0
280
     0
281
     1
  0
CLASS
  1
XRECORD
  2
AcDbXrecord
  3
AutoCAD 2000
 90
        0
280
     0
281
     0
  0
CLASS
  1
LONG_TRANSACTION
  2
AcDbLongTransaction
  3
AutoCAD 2000
 90
        0
280
     0
281
     0
  0
CLASS
  1
LWPOLYLINE
  2
AcDbPolyline
  3
AutoCAD 2000
 90
        0
280
     0
281
     1
  0
CLASS
  1
HATCH
  2
AcDbHatch
  3
AutoCAD 2000
 90
        0
280
     0
281
     1
  0
CLASS
  1
XRECORD
  2
AcDbXrecord
  3
AutoCAD 2000
 90
        0
280
     0
281
     0
  0
ENDSEC
  0
SECTION
  2
TABLES
  0
TABLE
  2
VPORT
  5
8
330
0
100
AcDbSymbolTable
 70
     2
  0
VPORT
  5
132
330
8
100
AcDbSymbolTableRecord
100
AcDbViewportTableRecord
  2
*ACTIVE
 70
     0
 10
0.0
 20
0.0
 11
1.0
 21
1.0
 12
-16.28658618848726
 22
-55.45618471578515
 13
0.0
 23
0.0
 14
0.5
 24
0.5
 15
0.5
 25
0.5
 16
0.0
 26
0.0
 36
1.0
 17
0.0
 27
0.0
 37
0.0
 40
301.0150023904669
 41
1.525316455696202
 42
50.0
 43
0.0
 44
0.0
 50
0.0
 51
0.0
 71
     0
 72
   100
 73
     1
 74
     3
 75
     0
 76
     0
 77
     0
 78
     0
  0
ENDTAB
  0
TABLE
  2
LTYPE
  5
5
330
0
100
AcDbSymbolTable
 70
     1
  0
LTYPE
  5
14
330
5
100
AcDbSymbolTableRecord
100
AcDbLinetypeTableRecord
  2
BYBLOCK
 70
     0
  3

 72
    65
 73
     0
 40
0.0
  0
LTYPE
  5
15
330
5
100
AcDbSymbolTableRecord
100
AcDbLinetypeTableRecord
  2
BYLAYER
 70
     0
  3

 72
    65
 73
     0
 40
0.0
  0
LTYPE
  5
16
330
5
100
AcDbSymbolTableRecord
100
AcDbLinetypeTableRecord
  2
CONTINUOUS
 70
     0
  3
Solid line
 72
    65
 73
     0
 40
0.0
  0
ENDTAB
  0
TABLE
  2
LAYER
  5
2
330
0
100
AcDbSymbolTable
 70
     2
  0
LAYER
  5
10
330
2
100
AcDbSymbolTableRecord
100
AcDbLayerTableRecord
  2
0
 70
     0
 62
     7
  6
CONTINUOUS
  0
LAYER
  5
4D
330
2
100
AcDbSymbolTableRecord
100
AcDbLayerTableRecord
  2
PV-AF
 70
     2
 62
     7
  6
CONTINUOUS
  0
ENDTAB
  0
TABLE
  2
STYLE
  5
3
330
0
100
AcDbSymbolTable
 70
     1
  0
STYLE
  5
11
330
3
100
AcDbSymbolTableRecord
100
AcDbTextStyleTableRecord
  2
STANDARD
 70
     0
 40
0.0
 41
1.0
 50
0.0
 71
     0
 42
0.2
  3
txt
  4

  0
ENDTAB
  0
TABLE
  2
VIEW
  5
6
330
0
100
AcDbSymbolTable
 70
     0
  0
ENDTAB
  0
TABLE
  2
UCS
  5
7
330
0
100
AcDbSymbolTable
 70
     0
  0
ENDTAB
  0
TABLE
  2
APPID
  5
9
330
0
100
AcDbSymbolTable
 70
     1
  0
APPID
  5
12
330
9
100
AcDbSymbolTableRecord
100
AcDbRegAppTableRecord
  2
ACAD
 70
     0
  0
ENDTAB
  0
TABLE
  2
DIMSTYLE
  5
A
330
0
100
AcDbSymbolTable
 70
     1
  0
DIMSTYLE
105
27
330
A
100
AcDbSymbolTableRecord
100
AcDbDimStyleTableRecord
  2
STANDARD
 70
     0
  3

  4

  5

  6

  7

 40
1.0
 41
0.18
 42
0.0625
 43
0.38
 44
0.18
 45
0.0
 46
0.0
 47
0.0
 48
0.0
140
0.18
141
0.09
142
0.0
143
25.4
144
1.0
145
0.0
146
1.0
147
0.09
 71
     0
 72
     0
 73
     1
 74
     1
 75
     0
 76
     0
 77
     0
 78
     0
170
     0
171
     2
172
     0
173
     0
174
     0
175
     0
176
     0
177
     0
178
     0
270
     2
271
     4
272
     4
273
     2
274
     2
340
11
275
     0
280
     0
281
     0
282
     0
283
     1
284
     0
285
     0
286
     0
287
     3
288
     0
  0
ENDTAB
  0
TABLE
  2
BLOCK_RECORD
  5
1
330
0
100
AcDbSymbolTable
 70
     8
  0
BLOCK_RECORD
  5
1F
102
{ACAD_XDICTIONARY
360
B3
102
}
330
1
100
AcDbSymbolTableRecord
100
AcDbBlockTableRecord
  2
*MODEL_SPACE
  0
BLOCK_RECORD
  5
1B
102
{ACAD_XDICTIONARY
360
B1
102
}
330
1
100
AcDbSymbolTableRecord
100
AcDbBlockTableRecord
  2
*PAPER_SPACE
  0
BLOCK_RECORD
  5
48
330
1
100
AcDbSymbolTableRecord
100
AcDbBlockTableRecord
  2
*U0
  0
BLOCK_RECORD
  5
4E
330
1
100
AcDbSymbolTableRecord
100
AcDbBlockTableRecord
  2
FRONT
  0
BLOCK_RECORD
  5
53
330
1
100
AcDbSymbolTableRecord
100
AcDbBlockTableRecord
  2
*U2
  0
BLOCK_RECORD
  5
6E
330
1
100
AcDbSymbolTableRecord
100
AcDbBlockTableRecord
  2
LEFT
  0
BLOCK_RECORD
  5
73
330
1
100
AcDbSymbolTableRecord
100
AcDbBlockTableRecord
  2
*U4
  0
BLOCK_RECORD
  5
8D
330
1
100
AcDbSymbolTableRecord
100
AcDbBlockTableRecord
  2
RIGHT
  0
BLOCK_RECORD
  5
92
330
1
100
AcDbSymbolTableRecord
100
AcDbBlockTableRecord
  2
*U6
  0
BLOCK_RECORD
  5
AB
330
1
100
AcDbSymbolTableRecord
100
AcDbBlockTableRecord
  2
TOP
  0
ENDTAB
  0
ENDSEC
  0
SECTION
  2
BLOCKS
  0
BLOCK
  5
20
330
1F
100
AcDbEntity
  8
0
100
AcDbBlockBegin
  2
*MODEL_SPACE
 70
     0
 10
0.0
 20
0.0
 30
0.0
  3
*MODEL_SPACE
  1

  0
ENDBLK
  5
21
330
1F
100
AcDbEntity
  8
0
100
AcDbBlockEnd
  0
BLOCK
  5
1C
330
1B
100
AcDbEntity
 67
     1
  8
0
100
AcDbBlockBegin
  2
*PAPER_SPACE
 70
     0
 10
0.0
 20
0.0
 30
0.0
  3
*PAPER_SPACE
  1

  0
ENDBLK
  5
1D
330
1B
100
AcDbEntity
 67
     1
  8
0
100
AcDbBlockEnd
  0
BLOCK
  5
4A
330
48
100
AcDbEntity
  8
0
100
AcDbBlockBegin
  2
*U0
 70
     1
 10
0.0
 20
0.0
 30
0.0
  3
*U0
  1
*ANON
  0
CIRCLE
  5
49
330
48
100
AcDbEntity
  8
PV-AF
100
AcDbCircle
 10
0.0
 20
0.0
 30
0.0
 40
15.0
210
0.0
220
-1.0
230
0.0
  0
ENDBLK
  5
4B
330
48
100
AcDbEntity
  8
0
100
AcDbBlockEnd
  0
BLOCK
  5
50
330
4E
100
AcDbEntity
  8
0
100
AcDbBlockBegin
  2
FRONT
 70
     0
 10
0.0
 20
0.0
 30
0.0
  3
FRONT
  1

  0
INSERT
  5
4F
330
4E
100
AcDbEntity
  8
PV-AF
100
AcDbBlockReference
  2
*U0
 10
0.0
 20
0.0
 30
0.0
 50
180.0
210
0.0
220
1.0
230
0.0
  0
ENDBLK
  5
51
330
4E
100
AcDbEntity
  8
0
100
AcDbBlockEnd
  0
BLOCK
  5
6C
330
53
100
AcDbEntity
  8
0
100
AcDbBlockBegin
  2
*U2
 70
     1
 10
0.0
 20
0.0
 30
0.0
  3
*U2
  1
*ANON
  0
LINE
  5
54
330
53
100
AcDbEntity
  8
PV-AF
100
AcDbLine
 10
0.0
 20
-134.4
 30
14.42879066311518
 11
0.0
 21
-18.0
 31
14.42879066311518
  0
LINE
  5
55
330
53
100
AcDbEntity
  8
PV-AF
100
AcDbLine
 10
0.0
 20
-134.4
 30
15.0
 11
0.0
 21
-134.4
 31
14.42879066311518
  0
LINE
  5
56
330
53
100
AcDbEntity
  8
PV-AF
100
AcDbLine
 10
0.0
 20
-18.0
 30
14.42879066311518
 11
0.0
 21
-18.0
 31
15.0
  0
LINE
  5
57
330
53
100
AcDbEntity
  8
PV-AF
100
AcDbLine
 10
0.0
 20
-134.4
 30
-4.099999999999997
 11
0.0
 21
-18.0
 31
-4.099999999999997
  0
LINE
  5
58
330
53
100
AcDbEntity
  8
PV-AF
100
AcDbLine
 10
0.0
 20
-134.4
 30
4.100000000000003
 11
0.0
 21
-134.4
 31
-4.100000000000203
  0
LINE
  5
59
330
53
100
AcDbEntity
  8
PV-AF
100
AcDbLine
 10
0.0
 20
-18.0
 30
4.099999999999997
 11
0.0
 21
-134.4
 31
4.099999999999997
  0
LINE
  5
5A
330
53
100
AcDbEntity
  8
PV-AF
100
AcDbLine
 10
0.0
 20
-18.0
 30
-4.100000000000003
 11
0.0
 21
-18.0
 31
4.100000000000203
  0
LINE
  5
5B
330
53
100
AcDbEntity
  8
PV-AF
100
AcDbLine
 10
0.0
 20
-134.4
 30
-14.42879066311518
 11
0.0
 21
-134.4
 31
-15.0
  0
LINE
  5
5C
330
53
100
AcDbEntity
  8
PV-AF
100
AcDbLine
 10
0.0
 20
-18.0
 30
-14.42879066311518
 11
0.0
 21
-134.4
 31
-14.42879066311518
  0
LINE
  5
5D
330
53
100
AcDbEntity
  8
PV-AF
100
AcDbLine
 10
0.0
 20
-18.0
 30
-15.0
 11
0.0
 21
-18.0
 31
-14.42879066311518
  0
LINE
  5
5E
330
53
100
AcDbEntity
  8
PV-AF
100
AcDbLine
 10
0.0
 20
-8.0
 30
-15.0
 11
0.0
 21
-8.0
 31
15.0
  0
LINE
  5
5F
330
53
100
AcDbEntity
  8
PV-AF
100
AcDbLine
 10
0.0
 20
0.0
 30
0.0
 11
0.0
 21
0.0
 31
15.0
  0
LINE
  5
60
330
53
100
AcDbEntity
  8
PV-AF
100
AcDbLine
 10
0.0
 20
0.0
 30
-15.0
 11
0.0
 21
0.0
 31
0.0000000000002095
  0
LINE
  5
61
330
53
100
AcDbEntity
  8
PV-AF
100
AcDbLine
 10
0.0
 20
-8.0
 30
0.0
 11
0.0
 21
-8.0
 31
-15.0
  0
LINE
  5
62
330
53
100
AcDbEntity
  8
PV-AF
100
AcDbLine
 10
0.0
 20
-8.0
 30
15.0
 11
0.0
 21
-8.0
 31
-0.0000000000002095
  0
LINE
  5
63
330
53
100
AcDbEntity
  8
PV-AF
100
AcDbLine
 10
0.0
 20
-8.0
 30
15.0
 11
0.0
 21
0.0
 31
15.0
  0
LINE
  5
64
330
53
100
AcDbEntity
  8
PV-AF
100
AcDbLine
 10
0.0
 20
-8.0
 30
-15.0
 11
0.0
 21
0.0
 31
-15.0
  0
ARC
  5
65
330
53
100
AcDbEntity
  8
PV-AF
100
AcDbCircle
 10
40.4
 20
0.0
 30
0.0
 40
100.0
210
-1.0
220
0.0
230
0.0
100
AcDbArc
 50
351.870315221392
 51
8.12968477860803
  0
LINE
  5
66
330
53
100
AcDbEntity
  8
PV-AF
100
AcDbLine
 10
0.0
 20
-134.4
 30
-15.0
 11
0.0
 21
-138.4051019080129
 31
-15.0
  0
LINE
  5
67
330
53
100
AcDbEntity
  8
PV-AF
100
AcDbLine
 10
0.0
 20
-8.0
 30
-15.0
 11
0.0
 21
-18.0
 31
-15.0
  0
LINE
  5
68
330
53
100
AcDbEntity
  8
PV-AF
100
AcDbLine
 10
0.0
 20
-134.4
 30
15.0
 11
0.0
 21
-138.4051019080129
 31
15.0
  0
LINE
  5
69
330
53
100
AcDbEntity
  8
PV-AF
100
AcDbLine
 10
0.0
 20
-8.0
 30
15.0
 11
0.0
 21
-18.0
 31
15.0
  0
ARC
  5
6A
330
53
100
AcDbEntity
  8
PV-AF
100
AcDbCircle
 10
138.4051019080129
 20
-14.0
 30
0.0
 40
1.0
210
-1.0
220
0.0
230
0.0
100
AcDbArc
 50
270.0000000000001
 51
351.8703152213922
  0
ARC
  5
6B
330
53
100
AcDbEntity
  8
PV-AF
100
AcDbCircle
 10
138.4051019080129
 20
14.0
 30
0.0
 40
1.0
210
-1.0
220
0.0
230
0.0
100
AcDbArc
 50
8.129684778607755
 51
89.99999999999982
  0
ENDBLK
  5
6D
330
53
100
AcDbEntity
  8
0
100
AcDbBlockEnd
  0
BLOCK
  5
70
330
6E
100
AcDbEntity
  8
0
100
AcDbBlockBegin
  2
LEFT
 70
     0
 10
0.0
 20
0.0
 30
0.0
  3
LEFT
  1

  0
INSERT
  5
6F
330
6E
100
AcDbEntity
  8
PV-AF
100
AcDbBlockReference
  2
*U2
 10
0.0
 20
0.0
 30
0.0
 50
270.0
210
0.0
220
1.0
230
0.0
  0
ENDBLK
  5
71
330
6E
100
AcDbEntity
  8
0
100
AcDbBlockEnd
  0
BLOCK
  5
8B
330
73
100
AcDbEntity
  8
0
100
AcDbBlockBegin
  2
*U4
 70
     1
 10
0.0
 20
0.0
 30
0.0
  3
*U4
  1
*ANON
  0
LINE
  5
74
330
73
100
AcDbEntity
  8
PV-AF
100
AcDbLine
 10
0.0
 20
-134.4
 30
4.099999999999997
 11
0.0
 21
-18.0
 31
4.099999999999997
  0
LINE
  5
75
330
73
100
AcDbEntity
  8
PV-AF
100
AcDbLine
 10
0.0
 20
-134.4
 30
-4.099999999999997
 11
0.0
 21
-134.4
 31
4.099999999999997
  0
LINE
  5
76
330
73
100
AcDbEntity
  8
PV-AF
100
AcDbLine
 10
0.0
 20
-18.0
 30
-4.099999999999997
 11
0.0
 21
-134.4
 31
-4.099999999999997
  0
LINE
  5
77
330
73
100
AcDbEntity
  8
PV-AF
100
AcDbLine
 10
0.0
 20
-18.0
 30
4.099999999999997
 11
0.0
 21
-18.0
 31
-4.099999999999997
  0
LINE
  5
78
330
73
100
AcDbEntity
  8
PV-AF
100
AcDbLine
 10
0.0
 20
-134.4
 30
14.42879066311518
 11
0.0
 21
-134.4
 31
15.0
  0
LINE
  5
79
330
73
100
AcDbEntity
  8
PV-AF
100
AcDbLine
 10
0.0
 20
-18.0
 30
14.42879066311518
 11
0.0
 21
-134.4
 31
14.42879066311518
  0
LINE
  5
7A
330
73
100
AcDbEntity
  8
PV-AF
100
AcDbLine
 10
0.0
 20
-18.0
 30
15.0
 11
0.0
 21
-18.0
 31
14.42879066311518
  0
LINE
  5
7B
330
73
100
AcDbEntity
  8
PV-AF
100
AcDbLine
 10
0.0
 20
-134.4
 30
-14.42879066311518
 11
0.0
 21
-18.0
 31
-14.42879066311518
  0
LINE
  5
7C
330
73
100
AcDbEntity
  8
PV-AF
100
AcDbLine
 10
0.0
 20
-134.4
 30
-15.0
 11
0.0
 21
-134.4
 31
-14.42879066311518
  0
LINE
  5
7D
330
73
100
AcDbEntity
  8
PV-AF
100
AcDbLine
 10
0.0
 20
-18.0
 30
-14.42879066311518
 11
0.0
 21
-18.0
 31
-15.0
  0
LINE
  5
7E
330
73
100
AcDbEntity
  8
PV-AF
100
AcDbLine
 10
0.0
 20
-8.0
 30
0.0
 11
0.0
 21
-8.0
 31
-15.0
  0
LINE
  5
7F
330
73
100
AcDbEntity
  8
PV-AF
100
AcDbLine
 10
0.0
 20
-8.0
 30
15.0
 11
0.0
 21
-8.0
 31
-0.0000000000002095
  0
LINE
  5
80
330
73
100
AcDbEntity
  8
PV-AF
100
AcDbLine
 10
0.0
 20
0.0
 30
15.0
 11
0.0
 21
0.0
 31
-15.0
  0
LINE
  5
81
330
73
100
AcDbEntity
  8
PV-AF
100
AcDbLine
 10
0.0
 20
-8.0
 30
-15.0
 11
0.0
 21
-8.0
 31
15.0
  0
LINE
  5
82
330
73
100
AcDbEntity
  8
PV-AF
100
AcDbLine
 10
0.0
 20
-8.0
 30
-15.0
 11
0.0
 21
0.0
 31
-15.0
  0
LINE
  5
83
330
73
100
AcDbEntity
  8
PV-AF
100
AcDbLine
 10
0.0
 20
-8.0
 30
15.0
 11
0.0
 21
0.0
 31
15.0
  0
ARC
  5
84
330
73
100
AcDbEntity
  8
PV-AF
100
AcDbCircle
 10
-40.4
 20
0.0
 30
0.0
 40
100.0
210
1.0
220
0.0
230
0.0
100
AcDbArc
 50
171.870315221392
 51
188.129684778608
  0
LINE
  5
85
330
73
100
AcDbEntity
  8
PV-AF
100
AcDbLine
 10
0.0
 20
-134.4
 30
15.0
 11
0.0
 21
-138.4051019080129
 31
15.0
  0
LINE
  5
86
330
73
100
AcDbEntity
  8
PV-AF
100
AcDbLine
 10
0.0
 20
-8.0
 30
15.0
 11
0.0
 21
-18.0
 31
15.0
  0
LINE
  5
87
330
73
100
AcDbEntity
  8
PV-AF
100
AcDbLine
 10
0.0
 20
-134.4
 30
-15.0
 11
0.0
 21
-138.4051019080129
 31
-15.0
  0
LINE
  5
88
330
73
100
AcDbEntity
  8
PV-AF
100
AcDbLine
 10
0.0
 20
-8.0
 30
-15.0
 11
0.0
 21
-18.0
 31
-15.0
  0
ARC
  5
89
330
73
100
AcDbEntity
  8
PV-AF
100
AcDbCircle
 10
-138.4051019080129
 20
14.0
 30
0.0
 40
1.0
210
1.0
220
0.0
230
0.0
100
AcDbArc
 50
90.00000000000019
 51
171.8703152213921
  0
ARC
  5
8A
330
73
100
AcDbEntity
  8
PV-AF
100
AcDbCircle
 10
-138.4051019080129
 20
-14.0
 30
0.0
 40
1.0
210
1.0
220
0.0
230
0.0
100
AcDbArc
 50
188.1296847786076
 51
269.9999999999997
  0
ENDBLK
  5
8C
330
73
100
AcDbEntity
  8
0
100
AcDbBlockEnd
  0
BLOCK
  5
8F
330
8D
100
AcDbEntity
  8
0
100
AcDbBlockBegin
  2
RIGHT
 70
     0
 10
0.0
 20
0.0
 30
0.0
  3
RIGHT
  1

  0
INSERT
  5
8E
330
8D
100
AcDbEntity
  8
PV-AF
100
AcDbBlockReference
  2
*U4
 10
0.0
 20
0.0
 30
0.0
 50
90.0
210
0.0
220
1.0
230
0.0
  0
ENDBLK
  5
90
330
8D
100
AcDbEntity
  8
0
100
AcDbBlockEnd
  0
BLOCK
  5
A9
330
92
100
AcDbEntity
  8
0
100
AcDbBlockBegin
  2
*U6
 70
     1
 10
0.0
 20
0.0
 30
0.0
  3
*U6
  1
*ANON
  0
LINE
  5
93
330
92
100
AcDbEntity
  8
PV-AF
100
AcDbLine
 10
14.42879066311518
 20
-134.4
 30
0.0
 11
14.42879066311518
 21
-18.0
 31
0.0
  0
LINE
  5
94
330
92
100
AcDbEntity
  8
PV-AF
100
AcDbLine
 10
15.0
 20
-134.4
 30
0.0
 11
14.42879066311518
 21
-134.4
 31
0.0
  0
LINE
  5
95
330
92
100
AcDbEntity
  8
PV-AF
100
AcDbLine
 10
14.42879066311518
 20
-18.0
 30
0.0
 11
15.0
 21
-18.0
 31
0.0
  0
LINE
  5
96
330
92
100
AcDbEntity
  8
PV-AF
100
AcDbLine
 10
-4.099999999999997
 20
-134.4
 30
0.0
 11
-4.099999999999997
 21
-18.0
 31
0.0
  0
LINE
  5
97
330
92
100
AcDbEntity
  8
PV-AF
100
AcDbLine
 10
4.099999999999996
 20
-134.4
 30
0.0
 11
-4.099999999999998
 21
-134.4
 31
0.0
  0
LINE
  5
98
330
92
100
AcDbEntity
  8
PV-AF
100
AcDbLine
 10
4.099999999999997
 20
-18.0
 30
0.0
 11
4.099999999999997
 21
-134.4
 31
0.0
  0
LINE
  5
99
330
92
100
AcDbEntity
  8
PV-AF
100
AcDbLine
 10
-4.099999999999998
 20
-18.0
 30
0.0
 11
4.099999999999996
 21
-18.0
 31
0.0
  0
LINE
  5
9A
330
92
100
AcDbEntity
  8
PV-AF
100
AcDbLine
 10
-14.42879066311518
 20
-134.4
 30
0.0
 11
-15.0
 21
-134.4
 31
0.0
  0
LINE
  5
9B
330
92
100
AcDbEntity
  8
PV-AF
100
AcDbLine
 10
-14.42879066311518
 20
-18.0
 30
0.0
 11
-14.42879066311518
 21
-134.4
 31
0.0
  0
LINE
  5
9C
330
92
100
AcDbEntity
  8
PV-AF
100
AcDbLine
 10
-15.0
 20
-18.0
 30
0.0
 11
-14.42879066311513
 21
-18.0
 31
0.0
  0
LINE
  5
9D
330
92
100
AcDbEntity
  8
PV-AF
100
AcDbLine
 10
-15.0
 20
-8.0
 30
0.0
 11
15.0
 21
-8.0
 31
0.0
  0
LINE
  5
9E
330
92
100
AcDbEntity
  8
PV-AF
100
AcDbLine
 10
-15.0
 20
0.0
 30
0.0
 11
15.0
 21
0.0
 31
0.0
  0
LINE
  5
9F
330
92
100
AcDbEntity
  8
PV-AF
100
AcDbLine
 10
15.0
 20
-8.0
 30
0.0
 11
-15.0
 21
-8.0
 31
0.0
  0
LINE
  5
A0
330
92
100
AcDbEntity
  8
PV-AF
100
AcDbLine
 10
15.0
 20
-8.0
 30
0.0
 11
15.0
 21
0.0
 31
0.0
  0
LINE
  5
A1
330
92
100
AcDbEntity
  8
PV-AF
100
AcDbLine
 10
-15.0
 20
-8.0
 30
0.0
 11
-15.0
 21
0.0
 31
0.0
  0
ARC
  5
A2
330
92
100
AcDbEntity
  8
PV-AF
100
AcDbCircle
 10
0.0
 20
-40.4
 30
0.0
 40
100.0
100
AcDbArc
 50
261.870315221392
 51
278.129684778608
  0
LINE
  5
A3
330
92
100
AcDbEntity
  8
PV-AF
100
AcDbLine
 10
-15.0
 20
-134.4
 30
0.0
 11
-15.0
 21
-138.4051019080129
 31
0.0
  0
LINE
  5
A4
330
92
100
AcDbEntity
  8
PV-AF
100
AcDbLine
 10
-15.0
 20
-8.0
 30
0.0
 11
-15.0
 21
-18.0
 31
0.0
  0
LINE
  5
A5
330
92
100
AcDbEntity
  8
PV-AF
100
AcDbLine
 10
15.0
 20
-134.4
 30
0.0
 11
15.0
 21
-138.4051019080129
 31
0.0
  0
LINE
  5
A6
330
92
100
AcDbEntity
  8
PV-AF
100
AcDbLine
 10
15.0
 20
-8.0
 30
0.0
 11
15.0
 21
-18.0
 31
0.0
  0
ARC
  5
A7
330
92
100
AcDbEntity
  8
PV-AF
100
AcDbCircle
 10
-14.0
 20
-138.4051019080129
 30
0.0
 40
1.0
100
AcDbArc
 50
180.0000000000002
 51
261.8703152213921
  0
ARC
  5
A8
330
92
100
AcDbEntity
  8
PV-AF
100
AcDbCircle
 10
14.0
 20
-138.4051019080129
 30
0.0
 40
1.0
100
AcDbArc
 50
278.1296847786077
 51
359.9999999999997
  0
ENDBLK
  5
AA
330
92
100
AcDbEntity
  8
0
100
AcDbBlockEnd
  0
BLOCK
  5
AD
330
AB
100
AcDbEntity
  8
0
100
AcDbBlockBegin
  2
TOP
 70
     0
 10
0.0
 20
0.0
 30
0.0
  3
TOP
  1

  0
INSERT
  5
AC
330
AB
100
AcDbEntity
  8
PV-AF
100
AcDbBlockReference
  2
*U6
 10
0.0
 20
0.0
 30
0.0
  0
ENDBLK
  5
AE
330
AB
100
AcDbEntity
  8
0
100
AcDbBlockEnd
  0
ENDSEC
  0
SECTION
  2
ENTITIES
  0
LINE
  5
C0
330
1F
100
AcDbEntity
  8
0
100
AcDbLine
 10
-177.480000012
 20
4.099999999999997
 30
-0.0000000000000082
 11
-61.08000001199998
 21
4.099999999999997
 31
-0.0000000000000011
210
0.0
220
1.0
230
0.0
  0
LINE
  5
C1
330
1F
100
AcDbEntity
  8
0
100
AcDbLine
 10
-177.480000012
 20
-4.099999999999997
 30
-0.0000000000000082
 11
-177.480000012
 21
4.099999999999997
 31
-0.0000000000000082
210
0.0
220
1.0
230
0.0
  0
LINE
  5
C2
330
1F
100
AcDbEntity
  8
0
100
AcDbLine
 10
-61.08000001199998
 20
-4.099999999999997
 30
-0.0000000000000011
 11
-177.480000012
 21
-4.099999999999997
 31
-0.0000000000000082
210
0.0
220
1.0
230
0.0
  0
LINE
  5
C3
330
1F
100
AcDbEntity
  8
0
100
AcDbLine
 10
-61.08000001199998
 20
4.099999999999997
 30
-0.0000000000000011
 11
-61.08000001199998
 21
-4.099999999999997
 31
-0.0000000000000011
210
0.0
220
1.0
230
0.0
  0
LINE
  5
C4
330
1F
100
AcDbEntity
  8
0
100
AcDbLine
 10
-177.480000012
 20
14.42879066311518
 30
-0.0000000000000082
 11
-177.480000012
 21
15.0
 31
-0.0000000000000082
210
0.0
220
1.0
230
0.0
  0
LINE
  5
C5
330
1F
100
AcDbEntity
  8
0
100
AcDbLine
 10
-61.08000001199998
 20
14.42879066311518
 30
-0.0000000000000011
 11
-177.480000012
 21
14.42879066311518
 31
-0.0000000000000082
210
0.0
220
1.0
230
0.0
  0
LINE
  5
C6
330
1F
100
AcDbEntity
  8
0
100
AcDbLine
 10
-61.08000001199998
 20
15.0
 30
-0.0000000000000011
 11
-61.08000001199998
 21
14.42879066311518
 31
-0.0000000000000011
210
0.0
220
1.0
230
0.0
  0
LINE
  5
C7
330
1F
100
AcDbEntity
  8
0
100
AcDbLine
 10
-177.480000012
 20
-14.42879066311518
 30
-0.0000000000000082
 11
-61.08000001199998
 21
-14.42879066311518
 31
-0.0000000000000011
210
0.0
220
1.0
230
0.0
  0
LINE
  5
C8
330
1F
100
AcDbEntity
  8
0
100
AcDbLine
 10
-177.480000012
 20
-15.0
 30
-0.0000000000000082
 11
-177.480000012
 21
-14.42879066311518
 31
-0.0000000000000082
210
0.0
220
1.0
230
0.0
  0
LINE
  5
C9
330
1F
100
AcDbEntity
  8
0
100
AcDbLine
 10
-61.08000001199998
 20
-14.42879066311518
 30
-0.0000000000000011
 11
-61.08000001199998
 21
-15.0
 31
-0.0000000000000011
210
0.0
220
1.0
230
0.0
  0
LINE
  5
CA
330
1F
100
AcDbEntity
  8
0
100
AcDbLine
 10
-51.08000001199998
 20
0.0
 30
-0.0000000000000005
 11
-51.08000001199998
 21
-15.0
 31
-0.0000000000000005
210
0.0
220
1.0
230
0.0
  0
LINE
  5
CB
330
1F
100
AcDbEntity
  8
0
100
AcDbLine
 10
-51.08000001199998
 20
15.0
 30
-0.0000000000000005
 11
-51.08000001199998
 21
-0.0000000000002095
 31
-0.0000000000000005
210
0.0
220
1.0
230
0.0
  0
LINE
  5
CC
330
1F
100
AcDbEntity
  8
0
100
AcDbLine
 10
-43.08000001199999
 20
15.0
 30
0.0
 11
-43.08000001199999
 21
-15.0
 31
0.0
210
0.0
220
1.0
230
0.0
  0
LINE
  5
CD
330
1F
100
AcDbEntity
  8
0
100
AcDbLine
 10
-51.08000001199998
 20
-15.0
 30
-0.0000000000000005
 11
-51.08000001199998
 21
15.0
 31
-0.0000000000000005
210
0.0
220
1.0
230
0.0
  0
LINE
  5
CE
330
1F
100
AcDbEntity
  8
0
100
AcDbLine
 10
-51.08000001199998
 20
-15.0
 30
-0.0000000000000005
 11
-43.08000001199999
 21
-15.0
 31
0.0
210
0.0
220
1.0
230
0.0
  0
LINE
  5
CF
330
1F
100
AcDbEntity
  8
0
100
AcDbLine
 10
-51.08000001199998
 20
15.0
 30
-0.0000000000000005
 11
-43.08000001199999
 21
15.0
 31
0.0
210
0.0
220
1.0
230
0.0
  0
ARC
  5
D0
330
1F
100
AcDbEntity
  8
0
100
AcDbCircle
 10
-83.48000001199999
 20
0.0
 30
-0.0000000000000025
 40
100.0
100
AcDbArc
 50
171.8703152213919
 51
188.129684778608
  0
LINE
  5
D1
330
1F
100
AcDbEntity
  8
0
100
AcDbLine
 10
-177.480000012
 20
15.0
 30
-0.0000000000000082
 11
-181.4851019200128
 21
15.0
 31
-0.0000000000000085
210
0.0
220
1.0
230
0.0
  0
LINE
  5
D2
330
1F
100
AcDbEntity
  8
0
100
AcDbLine
 10
-51.08000001199998
 20
15.0
 30
-0.0000000000000005
 11
-61.08000001199998
 21
15.0
 31
-0.0000000000000011
210
0.0
220
1.0
230
0.0
  0
LINE
  5
D3
330
1F
100
AcDbEntity
  8
0
100
AcDbLine
 10
-177.480000012
 20
-15.0
 30
-0.0000000000000082
 11
-181.4851019200128
 21
-15.0
 31
-0.0000000000000085
210
0.0
220
1.0
230
0.0
  0
LINE
  5
D4
330
1F
100
AcDbEntity
  8
0
100
AcDbLine
 10
-51.08000001199998
 20
-15.0
 30
-0.0000000000000005
 11
-61.08000001199998
 21
-15.0
 31
-0.0000000000000011
210
0.0
220
1.0
230
0.0
  0
ARC
  5
D5
330
1F
100
AcDbEntity
  8
0
100
AcDbCircle
 10
-181.4851019200128
 20
14.0
 30
-0.0000000000000085
 40
1.0
100
AcDbArc
 50
90.0
 51
171.8703152213921
  0
ARC
  5
D6
330
1F
100
AcDbEntity
  8
0
100
AcDbCircle
 10
-181.4851019200128
 20
-14.0
 30
-0.0000000000000085
 40
1.0
100
AcDbArc
 50
188.1296847786076
 51
269.9999999999996
  0
CIRCLE
  5
D8
330
1F
100
AcDbEntity
  8
0
100
AcDbCircle
 10
0.0
 20
0.0
 30
0.0
 40
15.0
  0
LINE
  5
DA
330
1F
100
AcDbEntity
  8
0
100
AcDbLine
 10
177.480000012
 20
14.42879066311518
 30
0.0000000000000247
 11
61.08000001199998
 21
14.42879066311518
 31
0.0000000000000033
210
0.0
220
1.0
230
0.0
  0
LINE
  5
DB
330
1F
100
AcDbEntity
  8
0
100
AcDbLine
 10
177.480000012
 20
15.0
 30
0.0000000000000247
 11
177.480000012
 21
14.42879066311518
 31
0.0000000000000247
210
0.0
220
1.0
230
0.0
  0
LINE
  5
DC
330
1F
100
AcDbEntity
  8
0
100
AcDbLine
 10
61.08000001199998
 20
14.42879066311518
 30
0.0000000000000033
 11
61.08000001199998
 21
15.0
 31
0.0000000000000033
210
0.0
220
1.0
230
0.0
  0
LINE
  5
DD
330
1F
100
AcDbEntity
  8
0
100
AcDbLine
 10
177.480000012
 20
-4.099999999999997
 30
0.0000000000000247
 11
61.08000001199998
 21
-4.099999999999997
 31
0.0000000000000033
210
0.0
220
1.0
230
0.0
  0
LINE
  5
DE
330
1F
100
AcDbEntity
  8
0
100
AcDbLine
 10
177.480000012
 20
4.100000000000003
 30
0.0000000000000247
 11
177.480000012
 21
-4.100000000000203
 31
0.0000000000000247
210
0.0
220
1.0
230
0.0
  0
LINE
  5
DF
330
1F
100
AcDbEntity
  8
0
100
AcDbLine
 10
61.08000001199998
 20
4.099999999999997
 30
0.0000000000000033
 11
177.480000012
 21
4.099999999999997
 31
0.0000000000000247
210
0.0
220
1.0
230
0.0
  0
LINE
  5
E0
330
1F
100
AcDbEntity
  8
0
100
AcDbLine
 10
61.08000001199998
 20
-4.100000000000003
 30
0.0000000000000033
 11
61.08000001199998
 21
4.100000000000203
 31
0.0000000000000033
210
0.0
220
1.0
230
0.0
  0
LINE
  5
E1
330
1F
100
AcDbEntity
  8
0
100
AcDbLine
 10
177.480000012
 20
-14.42879066311518
 30
0.0000000000000247
 11
177.480000012
 21
-15.0
 31
0.0000000000000247
210
0.0
220
1.0
230
0.0
  0
LINE
  5
E2
330
1F
100
AcDbEntity
  8
0
100
AcDbLine
 10
61.08000001199998
 20
-14.42879066311518
 30
0.0000000000000033
 11
177.480000012
 21
-14.42879066311518
 31
0.0000000000000247
210
0.0
220
1.0
230
0.0
  0
LINE
  5
E3
330
1F
100
AcDbEntity
  8
0
100
AcDbLine
 10
61.08000001199998
 20
-15.0
 30
0.0000000000000033
 11
61.08000001199998
 21
-14.42879066311518
 31
0.0000000000000033
210
0.0
220
1.0
230
0.0
  0
LINE
  5
E4
330
1F
100
AcDbEntity
  8
0
100
AcDbLine
 10
51.08000001199998
 20
-15.0
 30
0.0000000000000015
 11
51.08000001199998
 21
15.0
 31
0.0000000000000015
210
0.0
220
1.0
230
0.0
  0
LINE
  5
E5
330
1F
100
AcDbEntity
  8
0
100
AcDbLine
 10
43.08000001199999
 20
0.0
 30
0.0
 11
43.08000001199999
 21
15.0
 31
0.0
210
0.0
220
1.0
230
0.0
  0
LINE
  5
E6
330
1F
100
AcDbEntity
  8
0
100
AcDbLine
 10
43.08000001199999
 20
-15.0
 30
0.0
 11
43.08000001199999
 21
0.0000000000002095
 31
0.0
210
0.0
220
1.0
230
0.0
  0
LINE
  5
E7
330
1F
100
AcDbEntity
  8
0
100
AcDbLine
 10
51.08000001199998
 20
0.0
 30
0.0000000000000015
 11
51.08000001199998
 21
-15.0
 31
0.0000000000000015
210
0.0
220
1.0
230
0.0
  0
LINE
  5
E8
330
1F
100
AcDbEntity
  8
0
100
AcDbLine
 10
51.08000001199998
 20
15.0
 30
0.0000000000000015
 11
51.08000001199998
 21
-0.0000000000002095
 31
0.0000000000000015
210
0.0
220
1.0
230
0.0
  0
LINE
  5
E9
330
1F
100
AcDbEntity
  8
0
100
AcDbLine
 10
51.08000001199998
 20
15.0
 30
0.0000000000000015
 11
43.08000001199999
 21
15.0
 31
0.0
210
0.0
220
1.0
230
0.0
  0
LINE
  5
EA
330
1F
100
AcDbEntity
  8
0
100
AcDbLine
 10
51.08000001199998
 20
-15.0
 30
0.0000000000000015
 11
43.08000001199999
 21
-15.0
 31
0.0
210
0.0
220
1.0
230
0.0
  0
ARC
  5
EB
330
1F
100
AcDbEntity
  8
0
100
AcDbCircle
 10
83.48000001199999
 20
0.0
 30
0.0000000000000074
 40
100.0
100
AcDbArc
 50
351.870315221392
 51
8.129684778608037
  0
LINE
  5
EC
330
1F
100
AcDbEntity
  8
0
100
AcDbLine
 10
177.480000012
 20
-15.0
 30
0.0000000000000247
 11
181.4851019200128
 21
-15.0
 31
0.0000000000000254
210
0.0
220
1.0
230
0.0
  0
LINE
  5
ED
330
1F
100
AcDbEntity
  8
0
100
AcDbLine
 10
51.08000001199998
 20
-15.0
 30
0.0000000000000015
 11
61.08000001199998
 21
-15.0
 31
0.0000000000000033
210
0.0
220
1.0
230
0.0
  0
LINE
  5
EE
330
1F
100
AcDbEntity
  8
0
100
AcDbLine
 10
177.480000012
 20
15.0
 30
0.0000000000000247
 11
181.4851019200128
 21
15.0
 31
0.0000000000000254
210
0.0
220
1.0
230
0.0
  0
LINE
  5
EF
330
1F
100
AcDbEntity
  8
0
100
AcDbLine
 10
51.08000001199998
 20
15.0
 30
0.0000000000000015
 11
61.08000001199998
 21
15.0
 31
0.0000000000000033
210
0.0
220
1.0
230
0.0
  0
ARC
  5
F0
330
1F
100
AcDbEntity
  8
0
100
AcDbCircle
 10
181.4851019200128
 20
-14.0
 30
0.0000000000000254
 40
1.0
100
AcDbArc
 50
270.0000000000004
 51
351.8703152213922
  0
ARC
  5
F1
330
1F
100
AcDbEntity
  8
0
100
AcDbCircle
 10
181.4851019200128
 20
14.0
 30
0.0000000000000254
 40
1.0
100
AcDbArc
 50
8.129684778607767
 51
90.0
  0
LINE
  5
F3
330
1F
100
AcDbEntity
  8
0
100
AcDbLine
 10
14.42879066311518
 20
-177.480000012
 30
0.0
 11
14.42879066311518
 21
-61.08000001199998
 31
0.0
  0
LINE
  5
F4
330
1F
100
AcDbEntity
  8
0
100
AcDbLine
 10
15.0
 20
-177.480000012
 30
0.0
 11
14.42879066311518
 21
-177.480000012
 31
0.0
  0
LINE
  5
F5
330
1F
100
AcDbEntity
  8
0
100
AcDbLine
 10
14.42879066311518
 20
-61.08000001199998
 30
0.0
 11
15.0
 21
-61.08000001199998
 31
0.0
  0
LINE
  5
F6
330
1F
100
AcDbEntity
  8
0
100
AcDbLine
 10
-4.099999999999997
 20
-177.480000012
 30
0.0
 11
-4.099999999999997
 21
-61.08000001199998
 31
0.0
  0
LINE
  5
F7
330
1F
100
AcDbEntity
  8
0
100
AcDbLine
 10
4.099999999999996
 20
-177.480000012
 30
0.0
 11
-4.099999999999998
 21
-177.480000012
 31
0.0
  0
LINE
  5
F8
330
1F
100
AcDbEntity
  8
0
100
AcDbLine
 10
4.099999999999997
 20
-61.08000001199998
 30
0.0
 11
4.099999999999997
 21
-177.480000012
 31
0.0
  0
LINE
  5
F9
330
1F
100
AcDbEntity
  8
0
100
AcDbLine
 10
-4.099999999999998
 20
-61.08000001199998
 30
0.0
 11
4.099999999999996
 21
-61.08000001199998
 31
0.0
  0
LINE
  5
FA
330
1F
100
AcDbEntity
  8
0
100
AcDbLine
 10
-14.42879066311518
 20
-177.480000012
 30
0.0
 11
-15.0
 21
-177.480000012
 31
0.0
  0
LINE
  5
FB
330
1F
100
AcDbEntity
  8
0
100
AcDbLine
 10
-14.42879066311518
 20
-61.08000001199998
 30
0.0
 11
-14.42879066311518
 21
-177.480000012
 31
0.0
  0
LINE
  5
FC
330
1F
100
AcDbEntity
  8
0
100
AcDbLine
 10
-15.0
 20
-61.08000001199998
 30
0.0
 11
-14.42879066311513
 21
-61.08000001199998
 31
0.0
  0
LINE
  5
FD
330
1F
100
AcDbEntity
  8
0
100
AcDbLine
 10
-15.0
 20
-51.08000001199998
 30
0.0
 11
15.0
 21
-51.08000001199998
 31
0.0
  0
LINE
  5
FE
330
1F
100
AcDbEntity
  8
0
100
AcDbLine
 10
-15.0
 20
-43.08000001199999
 30
0.0
 11
15.0
 21
-43.08000001199999
 31
0.0
  0
LINE
  5
FF
330
1F
100
AcDbEntity
  8
0
100
AcDbLine
 10
15.0
 20
-51.08000001199998
 30
0.0
 11
-15.0
 21
-51.08000001199998
 31
0.0
  0
LINE
  5
100
330
1F
100
AcDbEntity
  8
0
100
AcDbLine
 10
15.0
 20
-51.08000001199998
 30
0.0
 11
15.0
 21
-43.08000001199999
 31
0.0
  0
LINE
  5
101
330
1F
100
AcDbEntity
  8
0
100
AcDbLine
 10
-15.0
 20
-51.08000001199998
 30
0.0
 11
-15.0
 21
-43.08000001199999
 31
0.0
  0
ARC
  5
102
330
1F
100
AcDbEntity
  8
0
100
AcDbCircle
 10
0.0
 20
-83.48000001199999
 30
0.0
 40
100.0
100
AcDbArc
 50
261.870315221392
 51
278.129684778608
  0
LINE
  5
103
330
1F
100
AcDbEntity
  8
0
100
AcDbLine
 10
-15.0
 20
-177.480000012
 30
0.0
 11
-15.0
 21
-181.4851019200128
 31
0.0
  0
LINE
  5
104
330
1F
100
AcDbEntity
  8
0
100
AcDbLine
 10
-15.0
 20
-51.08000001199998
 30
0.0
 11
-15.0
 21
-61.08000001199998
 31
0.0
  0
LINE
  5
105
330
1F
100
AcDbEntity
  8
0
100
AcDbLine
 10
15.0
 20
-177.480000012
 30
0.0
 11
15.0
 21
-181.4851019200128
 31
0.0
  0
LINE
  5
106
330
1F
100
AcDbEntity
  8
0
100
AcDbLine
 10
15.0
 20
-51.08000001199998
 30
0.0
 11
15.0
 21
-61.08000001199998
 31
0.0
  0
ARC
  5
107
330
1F
100
AcDbEntity
  8
0
100
AcDbCircle
 10
-14.0
 20
-181.4851019200128
 30
0.0
 40
1.0
100
AcDbArc
 50
180.0
 51
261.8703152213921
  0
ARC
  5
108
330
1F
100
AcDbEntity
  8
0
100
AcDbCircle
 10
14.0
 20
-181.4851019200128
 30
0.0
 40
1.0
100
AcDbArc
 50
278.1296847786077
 51
359.9999999999996
  0
ENDSEC
  0
SECTION
  2
OBJECTS
  0
DICTIONARY
  5
C
330
0
100
AcDbDictionary
  3
ACAD_GROUP
350
D
  3
ACAD_LAYOUT
350
1A
  3
ACAD_MLINESTYLE
350
17
  3
ACAD_PLOTSETTINGS
350
19
  3
ACAD_PLOTSTYLENAME
350
B9
  3
ACDBHEADERROUNDTRIPXREC
350
133
1001
ACAD
1000
TREAT_AS_HARD
1070
     0
  0
DICTIONARY
  5
B3
330
1F
100
AcDbDictionary
  3
ACAD_LAYOUTSELFREF
350
154
  0
DICTIONARY
  5
B1
330
1B
100
AcDbDictionary
  3
ACAD_LAYOUTSELFREF
350
153
  0
DICTIONARY
  5
D
102
{ACAD_REACTORS
330
C
102
}
330
C
100
AcDbDictionary
1001
ACAD
1000
TREAT_AS_HARD
1070
     0
  0
DICTIONARY
  5
1A
102
{ACAD_REACTORS
330
C
102
}
330
C
100
AcDbDictionary
1001
ACAD
1000
TREAT_AS_HARD
1070
     0
  0
DICTIONARY
  5
17
102
{ACAD_REACTORS
330
C
102
}
330
C
100
AcDbDictionary
  3
STANDARD
350
18
1001
ACAD
1000
TREAT_AS_HARD
1070
     0
  0
DICTIONARY
  5
19
102
{ACAD_REACTORS
330
C
102
}
330
C
100
AcDbDictionary
1001
ACAD
1000
TREAT_AS_HARD
1070
     0
  0
ACDBDICTIONARYWDFLT
  5
B9
102
{ACAD_REACTORS
330
C
102
}
330
C
100
AcDbDictionary
281
     1
  3
Normal
350
BA
100
AcDbDictionaryWithDefault
340
BA
  0
DICTIONARY
  5
133
102
{ACAD_REACTORS
330
C
102
}
330
C
100
AcDbDictionary
  3
TSTACKALIGN
350
134
  3
TSTACKSIZE
350
135
  3
HYPERLINKBASE
350
136
  3
STYLESHEET
350
137
  3
LAYOUTDICT
350
138
  3
PLOTSETDICT
350
139
  3
PLOTSTYLNAMDICT
350
13A
  3
LWETCUNION
350
13B
  3
INSUNITS
350
13C
  3
CEPSNTYPE
350
13D
  3
FINGERPRINTGUID
350
13E
  3
VERSIONGUID
350
13F
  3
PSVPSCALE
350
140
  3
PUCSORTHOREF
350
141
  3
PUCSORTHOVIEW
350
142
  3
PUCSBASE
350
143
  3
PUCSORGTOP
350
144
  3
PUCSORGBOTTOM
350
145
  3
PUCSORGLEFT
350
146
  3
PUCSORGRIGHT
350
147
  3
PUCSORGFRONT
350
148
  3
PUCSORGBACK
350
149
  3
UCSORTHOREF
350
14A
  3
UCSORTHOVIEW
350
14B
  3
UCSBASE
350
14C
  3
UCSORGTOP
350
14D
  3
UCSORGBOTTOM
350
14E
  3
UCSORGLEFT
350
14F
  3
UCSORGRIGHT
350
150
  3
UCSORGFRONT
350
151
  3
UCSORGBACK
350
152
  0
XRECORD
  5
154
102
{ACAD_REACTORS
330
B3
102
}
330
B3
100
AcDbXrecord
340
1F
  0
XRECORD
  5
153
102
{ACAD_REACTORS
330
B1
102
}
330
B1
100
AcDbXrecord
340
1B
  0
MLINESTYLE
  5
18
102
{ACAD_REACTORS
330
17
102
}
330
17
100
AcDbMlineStyle
  2
STANDARD
 70
     0
  3

 62
   256
 51
90.0
 52
90.0
 71
     2
 49
0.5
 62
   256
  6
BYLAYER
 49
-0.5
 62
   256
  6
BYLAYER
  0
ACDBPLACEHOLDER
  5
BA
102
{ACAD_REACTORS
330
B9
102
}
330
B9
100
AcDbPlaceHolder
280
     0
  0
XRECORD
  5
134
102
{ACAD_REACTORS
330
133
102
}
330
133
100
AcDbXrecord
 90
        1
  0
XRECORD
  5
135
102
{ACAD_REACTORS
330
133
102
}
330
133
100
AcDbXrecord
 90
       70
  0
XRECORD
  5
136
102
{ACAD_REACTORS
330
133
102
}
330
133
100
AcDbXrecord
  1

  0
XRECORD
  5
137
102
{ACAD_REACTORS
330
133
102
}
330
133
100
AcDbXrecord
  1

  0
XRECORD
  5
138
102
{ACAD_REACTORS
330
133
102
}
330
133
100
AcDbXrecord
340
1A
  0
XRECORD
  5
139
102
{ACAD_REACTORS
330
133
102
}
330
133
100
AcDbXrecord
340
19
  0
XRECORD
  5
13A
102
{ACAD_REACTORS
330
133
102
}
330
133
100
AcDbXrecord
340
B9
  0
XRECORD
  5
13B
102
{ACAD_REACTORS
330
133
102
}
330
133
100
AcDbXrecord
 90
    10781
  0
XRECORD
  5
13C
102
{ACAD_REACTORS
330
133
102
}
330
133
100
AcDbXrecord
 90
        0
  0
XRECORD
  5
13D
102
{ACAD_REACTORS
330
133
102
}
330
133
100
AcDbXrecord
 90
        0
  0
XRECORD
  5
13E
102
{ACAD_REACTORS
330
133
102
}
330
133
100
AcDbXrecord
  1
{39C8A93C-0365-4448-9923-4EEDB18CAA03}
  0
XRECORD
  5
13F
102
{ACAD_REACTORS
330
133
102
}
330
133
100
AcDbXrecord
  1
{849B2952-1F78-4D42-92EB-AE1FFCB43AA8}
  0
XRECORD
  5
140
102
{ACAD_REACTORS
330
133
102
}
330
133
100
AcDbXrecord
 40
0.0
  0
XRECORD
  5
141
102
{ACAD_REACTORS
330
133
102
}
330
133
100
AcDbXrecord
340
0
  0
XRECORD
  5
142
102
{ACAD_REACTORS
330
133
102
}
330
133
100
AcDbXrecord
 70
     0
  0
XRECORD
  5
143
102
{ACAD_REACTORS
330
133
102
}
330
133
100
AcDbXrecord
340
0
  0
XRECORD
  5
144
102
{ACAD_REACTORS
330
133
102
}
330
133
100
AcDbXrecord
 10
0.0
 20
0.0
 30
0.0
  0
XRECORD
  5
145
102
{ACAD_REACTORS
330
133
102
}
330
133
100
AcDbXrecord
 10
0.0
 20
0.0
 30
0.0
  0
XRECORD
  5
146
102
{ACAD_REACTORS
330
133
102
}
330
133
100
AcDbXrecord
 10
0.0
 20
0.0
 30
0.0
  0
XRECORD
  5
147
102
{ACAD_REACTORS
330
133
102
}
330
133
100
AcDbXrecord
 10
0.0
 20
0.0
 30
0.0
  0
XRECORD
  5
148
102
{ACAD_REACTORS
330
133
102
}
330
133
100
AcDbXrecord
 10
0.0
 20
0.0
 30
0.0
  0
XRECORD
  5
149
102
{ACAD_REACTORS
330
133
102
}
330
133
100
AcDbXrecord
 10
0.0
 20
0.0
 30
0.0
  0
XRECORD
  5
14A
102
{ACAD_REACTORS
330
133
102
}
330
133
100
AcDbXrecord
340
0
  0
XRECORD
  5
14B
102
{ACAD_REACTORS
330
133
102
}
330
133
100
AcDbXrecord
 70
     0
  0
XRECORD
  5
14C
102
{ACAD_REACTORS
330
133
102
}
330
133
100
AcDbXrecord
340
0
  0
XRECORD
  5
14D
102
{ACAD_REACTORS
330
133
102
}
330
133
100
AcDbXrecord
 10
0.0
 20
0.0
 30
0.0
  0
XRECORD
  5
14E
102
{ACAD_REACTORS
330
133
102
}
330
133
100
AcDbXrecord
 10
0.0
 20
0.0
 30
0.0
  0
XRECORD
  5
14F
102
{ACAD_REACTORS
330
133
102
}
330
133
100
AcDbXrecord
 10
0.0
 20
0.0
 30
0.0
  0
XRECORD
  5
150
102
{ACAD_REACTORS
330
133
102
}
330
133
100
AcDbXrecord
 10
0.0
 20
0.0
 30
0.0
  0
XRECORD
  5
151
102
{ACAD_REACTORS
330
133
102
}
330
133
100
AcDbXrecord
 10
0.0
 20
0.0
 30
0.0
  0
XRECORD
  5
152
102
{ACAD_REACTORS
330
133
102
}
330
133
100
AcDbXrecord
 10
0.0
 20
0.0
 30
0.0
  0
ENDSEC
  0
EOF
