  0
SECTION
  2
HEADER
  9
$ACADVER
  1
AC1015
  9
$ACADMAINTVER
 70
    20
  9
$DWGCODEPAGE
  3
ANSI_1252
  9
$INSBASE
 10
0.0
 20
0.0
 30
0.0
  9
$EXTMIN
 10
-36.65
 20
0.0
 30
-36.65
  9
$EXTMAX
 10
36.65
 20
80.0
 30
36.65
  9
$LIMMIN
 10
0.0
 20
0.0
  9
$LIMMAX
 10
420.0
 20
297.0
  9
$ORTHOMODE
 70
     0
  9
$REGENMODE
 70
     1
  9
$FILLMODE
 70
     1
  9
$QTEXTMODE
 70
     0
  9
$MIRRTEXT
 70
     1
  9
$LTSCALE
 40
1.0
  9
$ATTMODE
 70
     1
  9
$TEXTSIZE
 40
2.5
  9
$TRACEWID
 40
1.0
  9
$TEXTSTYLE
  7
STANDARD
  9
$CLAYER
  8
0
  9
$CELTYPE
  6
ByLayer
  9
$CECOLOR
 62
   256
  9
$CELTSCALE
 40
1.0
  9
$DISPSILH
 70
     0
  9
$DIMSCALE
 40
1.0
  9
$DIMASZ
 40
2.5
  9
$DIMEXO
 40
1.0
  9
$DIMDLI
 40
10.0
  9
$DIMRND
 40
0.0
  9
$DIMDLE
 40
0.0
  9
$DIMEXE
 40
1.0
  9
$DIMTP
 40
0.1
  9
$DIMTM
 40
0.1
  9
$DIMTXT
 40
3.5
  9
$DIMCEN
 40
0.0
  9
$DIMTSZ
 40
0.0
  9
$DIMTOL
 70
     0
  9
$DIMLIM
 70
     0
  9
$DIMTIH
 70
     0
  9
$DIMTOH
 70
     0
  9
$DIMSE1
 70
     0
  9
$DIMSE2
 70
     0
  9
$DIMTAD
 70
     1
  9
$DIMZIN
 70
     8
  9
$DIMBLK
  1

  9
$DIMASO
 70
     1
  9
$DIMSHO
 70
     1
  9
$DIMPOST
  1

  9
$DIMAPOST
  1
"
  9
$DIMALT
 70
     0
  9
$DIMALTD
 70
     2
  9
$DIMALTF
 40
0.0393701
  9
$DIMLFAC
 40
1.0
  9
$DIMTOFL
 70
     1
  9
$DIMTVP
 40
0.0
  9
$DIMTIX
 70
     0
  9
$DIMSOXD
 70
     0
  9
$DIMSAH
 70
     0
  9
$DIMBLK1
  1

  9
$DIMBLK2
  1

  9
$DIMSTYLE
  2
AM_ISO
  9
$DIMCLRD
 70
   256
  9
$DIMCLRE
 70
   256
  9
$DIMCLRT
 70
     2
  9
$DIMTFAC
 40
0.71
  9
$DIMGAP
 40
1.5
  9
$DIMJUST
 70
     0
  9
$DIMSD1
 70
     0
  9
$DIMSD2
 70
     0
  9
$DIMTOLJ
 70
     0
  9
$DIMTZIN
 70
     8
  9
$DIMALTZ
 70
     0
  9
$DIMALTTZ
 70
     0
  9
$DIMUPT
 70
     0
  9
$DIMDEC
 70
     2
  9
$DIMTDEC
 70
     3
  9
$DIMALTU
 70
     2
  9
$DIMALTTD
 70
     4
  9
$DIMTXSTY
  7
STANDARD
  9
$DIMAUNIT
 70
     0
  9
$DIMADEC
 70
     0
  9
$DIMALTRND
 40
0.0
  9
$DIMAZIN
 70
     2
  9
$DIMDSEP
 70
    46
  9
$DIMATFIT
 70
     3
  9
$DIMFRAC
 70
     0
  9
$DIMLDRBLK
  1

  9
$DIMLUNIT
 70
     2
  9
$DIMLWD
 70
    -1
  9
$DIMLWE
 70
    -1
  9
$DIMTMOVE
 70
     0
  9
$LUNITS
 70
     2
  9
$LUPREC
 70
     2
  9
$SKETCHINC
 40
1.0
  9
$FILLETRAD
 40
2.5
  9
$AUNITS
 70
     0
  9
$AUPREC
 70
     0
  9
$MENU
  1
.
  9
$ELEVATION
 40
0.0
  9
$PELEVATION
 40
0.0
  9
$THICKNESS
 40
0.0
  9
$LIMCHECK
 70
     0
  9
$CHAMFERA
 40
2.5
  9
$CHAMFERB
 40
2.5
  9
$CHAMFERC
 40
20.0
  9
$CHAMFERD
 40
0.0
  9
$SKPOLY
 70
     0
  9
$TDCREATE
 40
2456580.253809190
  9
$TDUCREATE
 40
2456580.170475856
  9
$TDUPDATE
 40
2456580.258258634
  9
$TDUUPDATE
 40
2456580.174925301
  9
$TDINDWG
 40
0.0044958565
  9
$TDUSRTIMER
 40
0.0044494444
  9
$USRTIMER
 70
     1
  9
$ANGBASE
 50
0.0
  9
$ANGDIR
 70
     0
  9
$PDMODE
 70
     0
  9
$PDSIZE
 40
0.0
  9
$PLINEWID
 40
0.0
  9
$SPLFRAME
 70
     0
  9
$SPLINETYPE
 70
     6
  9
$SPLINESEGS
 70
     8
  9
$HANDSEED
  5
328
  9
$SURFTAB1
 70
     6
  9
$SURFTAB2
 70
     6
  9
$SURFTYPE
 70
     6
  9
$SURFU
 70
     6
  9
$SURFV
 70
     6
  9
$UCSBASE
  2

  9
$UCSNAME
  2

  9
$UCSORG
 10
0.0
 20
0.0
 30
0.0
  9
$UCSXDIR
 10
1.0
 20
0.0
 30
0.0
  9
$UCSYDIR
 10
0.0
 20
1.0
 30
0.0
  9
$UCSORTHOREF
  2

  9
$UCSORTHOVIEW
 70
     0
  9
$UCSORGTOP
 10
0.0
 20
0.0
 30
0.0
  9
$UCSORGBOTTOM
 10
0.0
 20
0.0
 30
0.0
  9
$UCSORGLEFT
 10
0.0
 20
0.0
 30
0.0
  9
$UCSORGRIGHT
 10
0.0
 20
0.0
 30
0.0
  9
$UCSORGFRONT
 10
0.0
 20
0.0
 30
0.0
  9
$UCSORGBACK
 10
0.0
 20
0.0
 30
0.0
  9
$PUCSBASE
  2

  9
$PUCSNAME
  2

  9
$PUCSORG
 10
0.0
 20
0.0
 30
0.0
  9
$PUCSXDIR
 10
1.0
 20
0.0
 30
0.0
  9
$PUCSYDIR
 10
0.0
 20
1.0
 30
0.0
  9
$PUCSORTHOREF
  2

  9
$PUCSORTHOVIEW
 70
     0
  9
$PUCSORGTOP
 10
0.0
 20
0.0
 30
0.0
  9
$PUCSORGBOTTOM
 10
0.0
 20
0.0
 30
0.0
  9
$PUCSORGLEFT
 10
0.0
 20
0.0
 30
0.0
  9
$PUCSORGRIGHT
 10
0.0
 20
0.0
 30
0.0
  9
$PUCSORGFRONT
 10
0.0
 20
0.0
 30
0.0
  9
$PUCSORGBACK
 10
0.0
 20
0.0
 30
0.0
  9
$USERI1
 70
     0
  9
$USERI2
 70
     0
  9
$USERI3
 70
     0
  9
$USERI4
 70
     0
  9
$USERI5
 70
     0
  9
$USERR1
 40
0.0
  9
$USERR2
 40
0.0
  9
$USERR3
 40
0.0
  9
$USERR4
 40
0.0
  9
$USERR5
 40
0.0
  9
$WORLDVIEW
 70
     1
  9
$SHADEDGE
 70
     3
  9
$SHADEDIF
 70
    70
  9
$TILEMODE
 70
     1
  9
$MAXACTVP
 70
    64
  9
$PINSBASE
 10
0.0
 20
0.0
 30
0.0
  9
$PLIMCHECK
 70
     0
  9
$PEXTMIN
 10
1.000000000000000E+20
 20
1.000000000000000E+20
 30
1.000000000000000E+20
  9
$PEXTMAX
 10
-1.000000000000000E+20
 20
-1.000000000000000E+20
 30
-1.000000000000000E+20
  9
$PLIMMIN
 10
0.0
 20
0.0
  9
$PLIMMAX
 10
420.0
 20
297.0
  9
$UNITMODE
 70
     0
  9
$VISRETAIN
 70
     1
  9
$PLINEGEN
 70
     0
  9
$PSLTSCALE
 70
     1
  9
$TREEDEPTH
 70
  3020
  9
$CMLSTYLE
  2
Standard
  9
$CMLJUST
 70
     0
  9
$CMLSCALE
 40
20.0
  9
$PROXYGRAPHICS
 70
     1
  9
$MEASUREMENT
 70
     1
  9
$CELWEIGHT
370
    -1
  9
$ENDCAPS
280
     0
  9
$JOINSTYLE
280
     0
  9
$LWDISPLAY
290
     0
  9
$INSUNITS
 70
     4
  9
$HYPERLINKBASE
  1

  9
$STYLESHEET
  1

  9
$XEDIT
290
     1
  9
$CEPSNTYPE
380
     0
  9
$PSTYLEMODE
290
     1
  9
$FINGERPRINTGUID
  2
{3B35A29E-AFC9-4B65-A3F7-AFDBD57CE574}
  9
$VERSIONGUID
  2
{74363871-6349-4439-8C99-FEF616FA2BF8}
  9
$EXTNAMES
290
     1
  9
$PSVPSCALE
 40
0.0
  9
$OLESTARTUP
290
     0
  0
ENDSEC
  0
SECTION
  2
CLASSES
  0
CLASS
  1
ACDBDICTIONARYWDFLT
  2
AcDbDictionaryWithDefault
  3
ObjectDBX Classes
 90
        0
280
     0
281
     0
  0
CLASS
  1
ACDBPLACEHOLDER
  2
AcDbPlaceHolder
  3
ObjectDBX Classes
 90
        0
280
     0
281
     0
  0
CLASS
  1
LAYOUT
  2
AcDbLayout
  3
ObjectDBX Classes
 90
        0
280
     0
281
     0
  0
CLASS
  1
ACME_DOCUMENT
  2
AcMeDbDoc
  3
AcMeServices
 90
        0
280
     0
281
     0
  0
CLASS
  1
AMGSETTINGSOBJ
  2
AmgSettingsObj
  3
"AcadM|Product Description: AutoCAD Mechanical 2000|Company: Autodesk"
 90
        0
280
     0
281
     0
  0
CLASS
  1
ACMESCOPE
  2
AcMeScope
  3
AcMeServices
 90
        0
280
     0
281
     0
  0
CLASS
  1
ACMECOMMANDHISTORY
  2
AcMeCommandHistory
  3
AcMeServices
 90
        0
280
     0
281
     0
  0
CLASS
  1
ACIMSYSVARMAN
  2
AcImSysVarManager
  3
AcMeServices
 90
        0
280
     0
281
     0
  0
CLASS
  1
ACIMREALSYSVAR
  2
AcImRealSysVar
  3
AcMeServices
 90
        0
280
     0
281
     0
  0
CLASS
  1
ACIMINTSYSVAR
  2
AcImIntSysVar
  3
AcMeServices
 90
        0
280
     0
281
     0
  0
CLASS
  1
ACMEDRAWINGMAN
  2
AcMeDrawingMan
  3
AcMeServices
 90
        0
280
     0
281
     0
  0
CLASS
  1
ACMEVIEW
  2
AcMeView
  3
AcMeServices
 90
        0
280
     0
281
     0
  0
CLASS
  1
ACDBENTITYCACHE
  2
AcMeEntityCache
  3
AcMeServices
 90
        0
280
     0
281
     0
  0
CLASS
  1
GSMANAGER
  2
AcMeGSManager
  3
AcMeServices
 90
        0
280
     0
281
     0
  0
CLASS
  1
AMDTINTERNALREACTOR
  2
AmdtInternalReactor
  3
AcMeServices
 90
        0
280
     0
281
     0
  0
CLASS
  1
ACMESTATEMGR
  2
AcMeStateMgr
  3
AcMeServices
 90
        0
280
     0
281
     0
  0
CLASS
  1
ACGREFMASTER
  2
AcGrefMaster
  3
AcAttribServices
 90
        0
280
     0
281
     0
  0
CLASS
  1
ACME_DATABASE
  2
AcMeDbDatabase
  3
AcMeServices
 90
        0
280
     0
281
     0
  0
CLASS
  1
ACRFINSADJUSTERMGR
  2
AcRfInsAdjusterMgr
  3
AcMeServices
 90
        0
280
     0
281
     0
  0
CLASS
  1
ACGREFACADMASTER
  2
AcGrefacadMaster
  3
AcGrefServices
 90
        0
280
     0
281
     0
  0
CLASS
  1
AMIMASTER
  2
AmiMaster
  3
AmiServices
 90
        0
280
     0
281
     0
  0
CLASS
  1
ACMDATADICTIONARY
  2
AcmDataDictionary
  3
"AcmSymBB|Product Description: AutoCAD Mechanical 2004 DX|Company: Autodesk"
 90
        0
280
     0
281
     0
  0
CLASS
  1
ACMDATAENTRYBLOCK
  2
AcmDataEntryBlock
  3
"AcmSymBB|Product Description: AutoCAD Mechanical 2004 DX|Company: Autodesk"
 90
        0
280
     0
281
     0
  0
CLASS
  1
ACIMSTRSYSVAR
  2
AcImStrSysVar
  3
AcMeServices
 90
        0
280
     0
281
     0
  0
CLASS
  1
ACMSTANDARDISO
  2
AcmStandardISO
  3
"Amdt_StdImp|Product Description: AutoCAD Mechanical 2004 DX|Company: Autodesk"
 90
        0
280
     0
281
     0
  0
CLASS
  1
AMGOBJPROPCFG
  2
AmgObjPropCfg
  3
"AmgLay|Product Description: AutoCAD Mechanical 2000|Company: Autodesk"
 90
        1
280
     0
281
     0
  0
CLASS
  1
AMDTEDGESTANDARDISO
  2
AmdtEdgeStdISO
  3
"Amdt_StdImp|Product Description: AutoCAD Mechanical 2004 DX|Company: Autodesk"
 90
        0
280
     0
281
     0
  0
CLASS
  1
ACMSURFSTANDARDISO
  2
AcmSurfTextStdISO
  3
"Amdt_StdImp|Product Description: AutoCAD Mechanical 2004 DX|Company: Autodesk"
 90
        0
280
     0
281
     0
  0
CLASS
  1
ACMFCFSTANDARDISO
  2
AcmFCFStdISO
  3
"Amdt_StdImp|Product Description: AutoCAD Mechanical 2004 DX|Company: Autodesk"
 90
        0
280
     0
281
     0
  0
CLASS
  1
ACMWELDSTANDARDISO
  2
AcmWeldingStdISO
  3
"Amdt_StdImp|Product Description: AutoCAD Mechanical 2004 DX|Company: Autodesk"
 90
        0
280
     0
281
     0
  0
CLASS
  1
ACMIDSTANDARDISO
  2
AcmIdStdISO
  3
"Amdt_StdImp|Product Description: AutoCAD Mechanical 2004 DX|Company: Autodesk"
 90
        0
280
     0
281
     0
  0
CLASS
  1
ACMDATUMSTANDARDISO
  2
AcmDatumStdISO
  3
"Amdt_StdImp|Product Description: AutoCAD Mechanical 2004 DX|Company: Autodesk"
 90
        0
280
     0
281
     0
  0
CLASS
  1
ACMBOMSTANDARDISO
  2
AcmBOMStdISO
  3
"Amdt_StdImp|Product Description: AutoCAD Mechanical 2004 DX|Company: Autodesk"
 90
        0
280
     0
281
     0
  0
CLASS
  1
ACMDETAILSTANDARDISO
  2
AmdtDetailSymStdISO
  3
"Amdt_StdImp|Product Description: AutoCAD Mechanical 2004 DX|Company: Autodesk"
 90
        0
280
     0
281
     0
  0
CLASS
  1
ACMSECTIONSTANDARDISO
  2
AmdtSectionSymStdISO
  3
"Amdt_StdImp|Product Description: AutoCAD Mechanical 2004 DX|Company: Autodesk"
 90
        0
280
     0
281
     0
  0
CLASS
  1
ACMCENTERLINESTANDARDISO
  2
AmdtCenterLineStdISO
  3
"Amdt_StdImp|Product Description: AutoCAD Mechanical 2004 DX|Company: Autodesk"
 90
        0
280
     0
281
     0
  0
CLASS
  1
ACMNOTESTANDARDISO
  2
AmdtNoteStdISO
  3
"Amdt_StdImp|Product Description: AutoCAD Mechanical 2004 DX|Company: Autodesk"
 90
        0
280
     0
281
     0
  0
CLASS
  1
ACAMGLAYSTD
  2
AcAmgLayStd
  3
"AcAmgLayStd|Product Description: AutoCAD Mechanical 2000|Company: Autodesk"
 90
        0
280
     0
281
     0
  0
CLASS
  1
ACAMGDIMSTD
  2
AcAmgDimStd
  3
"AcAmgDimStd|Product Description: AutoCAD Mechanical 2000|Company: Autodesk"
 90
        0
280
     0
281
     0
  0
CLASS
  1
ACAMGHOLECHARTSTDISO
  2
AcAmgHoleChartStdISO
  3
ACMSYMBB_MODULE_NAME
 90
        0
280
     0
281
     0
  0
CLASS
  1
ACAMGTITLESTD
  2
AcAmgTitleStd
  3
"TITLEAPP"
 90
        0
280
     0
281
     0
  0
CLASS
  1
LAYER_INDEX
  2
AcDbLayerIndex
  3
ObjectDBX Classes
 90
    32768
280
     0
281
     0
  0
CLASS
  1
IDBUFFER
  2
AcDbIdBuffer
  3
ObjectDBX Classes
 90
    32768
280
     0
281
     0
  0
CLASS
  1
DICTIONARYVAR
  2
AcDbDictionaryVar
  3
ObjectDBX Classes
 90
        0
280
     0
281
     0
  0
CLASS
  1
AM_DRAWING_MGR
  2
AcDmDwgMgr
  3
AcMechDwgViewMgmt
 90
        0
280
     0
281
     0
  0
CLASS
  1
AM_DWG_DOCUMENT
  2
AcDmDwgDocument
  3
AcMechDwgViewMgmt
 90
        0
280
     0
281
     0
  0
CLASS
  1
AM_DWG_SHEET
  2
AcDmSheet
  3
AcMechDwgViewMgmt
 90
        0
280
     0
281
     0
  0
CLASS
  1
AM_VIEWDIMPARMAP
  2
AcDmViewDimParMap
  3
AcMechDwgViewMgmt
 90
        0
280
     0
281
     0
  0
CLASS
  1
AM_DWGMGR_NAME
  2
AcDmDwgMgrName
  3
AcMechDwgViewMgmt
 90
        0
280
     0
281
     0
  0
CLASS
  1
AMDTMENUSTATEMGR
  2
AmdtMenuStateMgr
  3
McadcomServices
 90
        0
280
     0
281
     0
  0
CLASS
  1
AMDTMCOMMENUSTATE
  2
AmdtMcomMenuState
  3
McadcomServices
 90
        0
280
     0
281
     0
  0
CLASS
  1
MAPIAMMOUDLE
  2
MApiAmModule
  3
MApiAmServices
 90
        0
280
     0
281
     0
  0
CLASS
  1
AMDTADMENUSTATE
  2
AmdtAdMenuState
  3
DesignerServices
 90
        0
280
     0
281
     0
  0
CLASS
  1
ADAPPL
  2
AcAdAppl
  3
DesignerServices
 90
        0
280
     0
281
     0
  0
CLASS
  1
DEPMGR
  2
AcAdDepMgr
  3
DesignerServices
 90
        0
280
     0
281
     0
  0
CLASS
  1
PARAMMGR
  2
AcAdParamMgr
  3
DesignerServices
 90
        0
280
     0
281
     0
  0
CLASS
  1
PARAMSCOPE
  2
AcAdParamScope
  3
DesignerServices
 90
        0
280
     0
281
     0
  0
CLASS
  1
NAMEDAPPL
  2
AcAdNamedAppl
  3
DesignerServices
 90
        0
280
     0
281
     0
  0
CLASS
  1
AMDTDMMENUSTATE
  2
AmdtDmMenuState
  3
AcMechDwgViewMgmt
 90
        0
280
     0
281
     0
  0
CLASS
  1
AMDTAMMENUSTATE
  2
AmdtAmMenuState
  3
DesignerAssemblies
 90
        0
280
     0
281
     0
  0
CLASS
  1
ACAMPROJECT
  2
AcAmProject
  3
DesignerAssemblies
 90
        0
280
     0
281
     0
  0
CLASS
  1
ACAMGRCOMPDEF
  2
AcAmGrCompDef
  3
DesignerAssemblies
 90
        0
280
     0
281
     0
  0
CLASS
  1
ACCMCONTEXT
  2
AcCmContext
  3
DesignerAssemblies
 90
        0
280
     0
281
     0
  0
CLASS
  1
ACAMCOMPDEF
  2
AcAmCompDef
  3
DesignerAssemblies
 90
        0
280
     0
281
     0
  0
CLASS
  1
ACAMCOMPDEFMGR
  2
AcAmCompDefMgr
  3
DesignerAssemblies
 90
        0
280
     0
281
     0
  0
CLASS
  1
AMCONTEXTMGR
  2
AcAmContextMgr
  3
DesignerAssemblies
 90
        0
280
     0
281
     0
  0
CLASS
  1
ACAMCONTEXTMODELER
  2
AcAmContextModeler
  3
DesignerAssemblies
 90
        0
280
     0
281
     0
  0
CLASS
  1
ACMTHREADLINESTANDARDISO
  2
AmdtThreadLineStdISO
  3
"Amdt_StdImp|Product Description: AutoCAD Mechanical 2004 DX|Company: Autodesk"
 90
        0
280
     0
281
     0
  0
CLASS
  1
CATALOGSTATE
  2
AcAmCatalogState
  3
DesignerAssemblies
 90
        0
280
     0
281
     0
  0
CLASS
  1
ACAMGRCOMPDEFSET
  2
AcAmGrCompDefSet
  3
DesignerAssemblies
 90
        0
280
     0
281
     0
  0
CLASS
  1
AMDTBROWSERDBTAB
  2
AmdtBrowserDbTab
  3
McadcomServices
 90
        0
280
     0
281
     0
  0
CLASS
  1
CBROWSERAPPOBJECT
  2
CBrowserAppObject
  3
McadcomServices
 90
        0
280
     0
281
     0
  0
CLASS
  1
DM_PLACEHOLDER
  2
AcDmSelsetPlaceholder
  3
AcMechDwgViewMgmt
 90
        0
280
     0
281
     0
  0
CLASS
  1
TABLESTYLE
  2
AcDbTableStyle
  3
ObjectDBX Classes
 90
     2047
280
     0
281
     0
  0
CLASS
  1
VAACXREFPANELOBJECT
  2
VaAcXREFPanelObject
  3
VAAC_ADDIN
 90
    32768
280
     0
281
     0
  0
CLASS
  1
VAACIMAGEINVENTORY
  2
VaAcImageInventory
  3
VAAC_ADDIN
 90
    32768
280
     0
281
     0
  0
CLASS
  1
AMDTNOTETEMPLATEDB
  2
AmdtNoteTemplateDB
  3
AMDT_STDIMP_MODULE_NAME
 90
        0
280
     0
281
     0
  0
CLASS
  1
ACAMGFILTERDAT
  2
AcAmgFilterDat
  3
"AcadM|Product Description: AutoCAD Mechanical 2000|Company: Autodesk"
 90
        0
280
     0
281
     0
  0
CLASS
  1
ACMBOM
  2
AcmBom
  3
"AcmSymBB|Product Description: AutoCAD Mechanical 2004 DX|Company: Autodesk"
 90
    32768
280
     0
281
     0
  0
CLASS
  1
AMDTFORMULAUPDATEDISPATCHER
  2
AmdtFormulaUpdateDispatcher
  3
AcMeServices
 90
    32768
280
     0
281
     0
  0
CLASS
  1
SORTENTSTABLE
  2
AcDbSortentsTable
  3
ObjectDBX Classes
 90
        0
280
     0
281
     0
  0
CLASS
  1
ACRFATTGENMGR
  2
AcRfAttGeneralMgr
  3
AcAttribServices
 90
        0
280
     0
281
     0
  0
ENDSEC
  0
SECTION
  2
TABLES
  0
TABLE
  2
VPORT
  5
8
330
0
100
AcDbSymbolTable
 70
     5
  0
VPORT
  5
31F
330
8
100
AcDbSymbolTableRecord
100
AcDbViewportTableRecord
  2
*Active
 70
     0
 10
0.0
 20
0.0
 11
1.0
 21
1.0
 12
30.44879971675352
 22
-8.89322428704834
 13
0.0
 23
0.0
 14
2.5
 24
2.5
 15
10.0
 25
10.0
 16
-76.26126355876289
 26
5.041483571863466
 36
-296.200528589711
 17
-10.91105477704867
 27
36.99741823136799
 37
26.60850850403611
 40
188.5849115057455
 41
1.891696750902527
 42
50.0
 43
0.0
 44
0.0
 50
0.0
 51
282.6266701803523
 71
     0
 72
   100
 73
     1
 74
     3
 75
     0
 76
     0
 77
     0
 78
     0
281
     0
 65
     1
110
0.0
120
0.0
130
0.0
111
1.0
121
0.0
131
0.0
112
0.0
122
1.0
132
0.0
 79
     0
146
0.0
  0
ENDTAB
  0
TABLE
  2
LTYPE
  5
5
330
0
100
AcDbSymbolTable
 70
    14
  0
LTYPE
  5
14
330
5
100
AcDbSymbolTableRecord
100
AcDbLinetypeTableRecord
  2
ByBlock
 70
     0
  3

 72
    65
 73
     0
 40
0.0
  0
LTYPE
  5
15
330
5
100
AcDbSymbolTableRecord
100
AcDbLinetypeTableRecord
  2
ByLayer
 70
     0
  3

 72
    65
 73
     0
 40
0.0
  0
LTYPE
  5
16
330
5
100
AcDbSymbolTableRecord
100
AcDbLinetypeTableRecord
  2
Continuous
 70
     0
  3
Solid line
 72
    65
 73
     0
 40
0.0
  0
LTYPE
  5
64
330
5
100
AcDbSymbolTableRecord
100
AcDbLinetypeTableRecord
  2
AM_ISO02W050
 70
     0
  3
__ __ __ __ __ __ __ __ __ __ __ __ __ __ __
 72
    65
 73
     2
 40
7.5
 49
6.0
 74
     0
 49
-1.5
 74
     0
  0
LTYPE
  5
65
330
5
100
AcDbSymbolTableRecord
100
AcDbLinetypeTableRecord
  2
AM_ISO08W050
 70
     0
  3
____ . ____ . ____ . ____ . ____ . ____ . ____
 72
    65
 73
     4
 40
18.0
 49
12.0
 74
     0
 49
-1.5
 74
     0
 49
3.0
 74
     0
 49
-1.5
 74
     0
  0
LTYPE
  5
66
330
5
100
AcDbSymbolTableRecord
100
AcDbLinetypeTableRecord
  2
AM_ISO09W050
 70
     0
  3
_____ . . _____ . . _____ . . ____ .. ____
 72
    65
 73
     6
 40
22.5
 49
12.0
 74
     0
 49
-1.5
 74
     0
 49
3.0
 74
     0
 49
-1.5
 74
     0
 49
3.0
 74
     0
 49
-1.5
 74
     0
  0
LTYPE
  5
67
330
5
100
AcDbSymbolTableRecord
100
AcDbLinetypeTableRecord
  2
Amconstr
 70
     0
  3
_______________________
 72
    65
 73
     2
 40
9999.0
 49
9999.0
 74
     0
 49
0.0
 74
     0
  0
LTYPE
  5
68
330
5
100
AcDbSymbolTableRecord
100
AcDbLinetypeTableRecord
  2
AM_ISO08W050x2
 70
     0
  3
__ . __ . __ . __ . __ . __
 72
    65
 73
     4
 40
9.0
 49
6.0
 74
     0
 49
-0.75
 74
     0
 49
1.5
 74
     0
 49
-0.75
 74
     0
  0
LTYPE
  5
69
330
5
100
AcDbSymbolTableRecord
100
AcDbLinetypeTableRecord
  2
AM_ISO02W050x2
 70
     0
  3
 _ _ _ _ _ _ _ _ _ _ _ _
 72
    65
 73
     2
 40
3.75
 49
3.0
 74
     0
 49
-0.75
 74
     0
  0
LTYPE
  5
6C
330
5
100
AcDbSymbolTableRecord
100
AcDbLinetypeTableRecord
  2
Amzigzag
 70
     0
  3
/\/-/\/-/\/-/\/-/\/-/\/
 72
    65
 73
     2
 40
11.0001
 49
0.0001
 74
     4
 75
   136
340
22C
 46
0.04
 50
0.0
 44
0.0
 45
0.0
 49
-11.0
 74
     0
  0
LTYPE
  5
7A
330
5
100
AcDbSymbolTableRecord
100
AcDbLinetypeTableRecord
  2
ACISOWELD
 70
     0
  3
_ _ _ _ _
 72
    65
 73
     2
 40
2.0
 49
2.0
 74
     0
 49
-1.0
 74
     0
  0
LTYPE
  5
7B
330
5
100
AcDbSymbolTableRecord
100
AcDbLinetypeTableRecord
  2
ACISOTGB
 70
     0
  3
__ . . __ . .
 72
    65
 73
     6
 40
9.0
 49
4.0
 74
     0
 49
-1.0
 74
     0
 49
1.0
 74
     0
 49
-1.0
 74
     0
 49
1.0
 74
     0
 49
-1.0
 74
     0
  0
LTYPE
  5
7C
330
5
100
AcDbSymbolTableRecord
100
AcDbLinetypeTableRecord
  2
ACISOTGL
 70
     0
  3
_ _ _ _ _
 72
    65
 73
     2
 40
3.0
 49
2.0
 74
     0
 49
-1.0
 74
     0
  0
LTYPE
  5
7E
330
5
100
AcDbSymbolTableRecord
100
AcDbLinetypeTableRecord
  2
CENTER
 70
     0
  3
__ . __
 72
    65
 73
     4
 40
7.0
 49
4.0
 74
     0
 49
-1.0
 74
     0
 49
1.0
 74
     0
 49
-1.0
 74
     0
  0
LTYPE
  5
D8
330
5
100
AcDbSymbolTableRecord
100
AcDbLinetypeTableRecord
  2
HIDDEN
 70
     0
  3
Hidden __ __ __ __ __ __ __ __ __ __ __ __ __ _
 72
    65
 73
     2
 40
9.524999999999998
 49
6.349999999999999
 74
     0
 49
-3.174999999999999
 74
     0
  0
LTYPE
  5
D9
330
5
100
AcDbSymbolTableRecord
100
AcDbLinetypeTableRecord
  2
PHANTOM2
 70
     0
  3
Phantom (.5x) ___ _ _ ___ _ _ ___ _ _ ___ _ _
 72
    65
 73
     6
 40
31.75
 49
15.875
 74
     0
 49
-3.174999999999999
 74
     0
 49
3.174999999999999
 74
     0
 49
-3.174999999999999
 74
     0
 49
3.174999999999999
 74
     0
 49
-3.174999999999999
 74
     0
  0
ENDTAB
  0
TABLE
  2
LAYER
  5
2
330
0
100
AcDbSymbolTable
 70
     3
  0
LAYER
  5
10
330
2
100
AcDbSymbolTableRecord
100
AcDbLayerTableRecord
  2
0
 70
     0
 62
     7
  6
Continuous
370
    -3
390
F
  0
LAYER
  5
2D6
330
2
100
AcDbSymbolTableRecord
100
AcDbLayerTableRecord
  2
1
 70
     0
 62
     7
  6
Continuous
370
    -3
390
F
  0
LAYER
  5
307
330
2
100
AcDbSymbolTableRecord
100
AcDbLayerTableRecord
  2
ASHADE
 70
     4
 62
     7
  6
Continuous
370
    -3
390
F
  0
ENDTAB
  0
TABLE
  2
STYLE
  5
3
330
0
100
AcDbSymbolTable
 70
     9
  0
STYLE
  5
11
330
3
100
AcDbSymbolTableRecord
100
AcDbTextStyleTableRecord
  2
STANDARD
 70
     0
 40
0.0
 41
1.0
 50
0.0
 71
     0
 42
2.5
  3
ISOCP.SHX
  4

  0
STYLE
  5
6D
330
3
100
AcDbSymbolTableRecord
100
AcDbTextStyleTableRecord
  2
ACISOTS
 70
     0
 40
1.0
 41
1.0
 50
0.0
 71
     0
 42
2.5
  3
isocp.shx
  4
bigfont.shx
  0
STYLE
  5
79
330
3
100
AcDbSymbolTableRecord
100
AcDbTextStyleTableRecord
  2
ACISOGDT
 70
     0
 40
0.0
 41
1.0
 50
0.0
 71
     0
 42
2.5
  3
AMGDT
  4
bigfont.shx
  0
STYLE
  5
22C
330
3
100
AcDbSymbolTableRecord
100
AcDbTextStyleTableRecord
  2

 70
     1
 40
0.0
 41
1.0
 50
0.0
 71
     0
 42
2.5
  3
genltshp.shx
  4

  0
ENDTAB
  0
TABLE
  2
VIEW
  5
6
330
0
100
AcDbSymbolTable
 70
     3
  0
ENDTAB
  0
TABLE
  2
UCS
  5
7
330
0
100
AcDbSymbolTable
 70
     0
  0
ENDTAB
  0
TABLE
  2
APPID
  5
9
330
0
100
AcDbSymbolTable
 70
    16
  0
APPID
  5
12
330
9
100
AcDbSymbolTableRecord
100
AcDbRegAppTableRecord
  2
ACAD
 70
     0
  0
APPID
  5
46
330
9
100
AcDbSymbolTableRecord
100
AcDbRegAppTableRecord
  2
MCAD_NO_VIS
 70
     0
  0
APPID
  5
47
330
9
100
AcDbSymbolTableRecord
100
AcDbRegAppTableRecord
  2
ACAD_TEMP_GRAPHIC
 70
     0
  0
APPID
  5
58
330
9
100
AcDbSymbolTableRecord
100
AcDbRegAppTableRecord
  2
ACATTRIBSERVICES
 70
     0
  0
APPID
  5
EE
330
9
100
AcDbSymbolTableRecord
100
AcDbRegAppTableRecord
  2
AD_DRAW
 70
     0
  0
APPID
  5
10C
330
9
100
AcDbSymbolTableRecord
100
AcDbRegAppTableRecord
  2
DESIGNERASSEMBLIES
 70
     0
  0
APPID
  5
111
330
9
100
AcDbSymbolTableRecord
100
AcDbRegAppTableRecord
  2
ACADM_DIM_EDIT
 70
     0
  0
APPID
  5
112
330
9
100
AcDbSymbolTableRecord
100
AcDbRegAppTableRecord
  2
AMDT_DM_ADJ
 70
     0
  0
APPID
  5
1A3
330
9
100
AcDbSymbolTableRecord
100
AcDbRegAppTableRecord
  2
ACAD_DSTYLE_DIMARC_LENGTH_SYMBOL
 70
     0
  0
APPID
  5
1A4
330
9
100
AcDbSymbolTableRecord
100
AcDbRegAppTableRecord
  2
ACAD_DSTYLE_DIMJOGGED_JOGANGLE_SYMBOL
 70
     0
  0
APPID
  5
2D4
330
9
100
AcDbSymbolTableRecord
100
AcDbRegAppTableRecord
  2
ACADSTEP
 70
     0
  0
APPID
  5
305
330
9
100
AcDbSymbolTableRecord
100
AcDbRegAppTableRecord
  2
AVE_RENDER
 70
     0
  0
APPID
  5
306
330
9
100
AcDbSymbolTableRecord
100
AcDbRegAppTableRecord
  2
AVE_ENTITY_MATERIAL
 70
     0
  0
APPID
  5
313
330
9
100
AcDbSymbolTableRecord
100
AcDbRegAppTableRecord
  2
AVE_FINISH
 70
     0
  0
APPID
  5
314
330
9
100
AcDbSymbolTableRecord
100
AcDbRegAppTableRecord
  2
AVE_MATERIAL
 70
     0
  0
APPID
  5
315
330
9
100
AcDbSymbolTableRecord
100
AcDbRegAppTableRecord
  2
AVE_GLOBAL
 70
     0
  0
ENDTAB
  0
TABLE
  2
DIMSTYLE
  5
A
330
0
100
AcDbSymbolTable
 70
     8
100
AcDbDimStyleTable
 71
     1
340
81
  0
DIMSTYLE
105
81
330
A
100
AcDbSymbolTableRecord
100
AcDbDimStyleTableRecord
  2
AM_ISO
 70
     0
  4
"
 41
2.5
 42
1.0
 43
10.0
 44
1.0
 47
0.1
 48
0.1
 73
     0
 74
     0
 77
     1
 78
     8
 79
     2
140
3.5
141
0.0
143
0.0393701
146
0.71
147
1.5
172
     1
176
   256
177
   256
178
     2
271
     2
272
     3
274
     4
283
     0
284
     8
340
11
371
    -1
372
    -1
1001
ACAD_DSTYLE_DIMARC_LENGTH_SYMBOL
1070
   379
1070
     1
1001
ACAD_DSTYLE_DIMJOGGED_JOGANGLE_SYMBOL
1070
   384
1040
0.7853981633974483
  0
DIMSTYLE
105
82
330
A
100
AcDbSymbolTableRecord
100
AcDbDimStyleTableRecord
  2
AM_ISO$3
 70
     0
  4
"
 41
2.5
 42
1.0
 43
10.0
 44
1.0
 47
0.1
 48
0.1
 73
     0
 77
     1
 78
     8
 79
     2
140
3.5
141
0.0
143
0.0393701
146
0.71
147
1.5
176
   256
177
   256
178
     2
271
     2
272
     3
274
     4
283
     0
284
     8
288
     1
289
     0
340
11
371
    -1
372
    -1
1001
ACAD_DSTYLE_DIMARC_LENGTH_SYMBOL
1070
   379
1070
     1
1001
ACAD_DSTYLE_DIMJOGGED_JOGANGLE_SYMBOL
1070
   384
1040
0.7853981633974483
  0
DIMSTYLE
105
83
330
A
100
AcDbSymbolTableRecord
100
AcDbDimStyleTableRecord
  2
AM_ISO$4
 70
     0
  4
"
 41
2.5
 42
1.0
 43
10.0
 44
1.0
 47
0.1
 48
0.1
 73
     0
 77
     1
 78
     8
 79
     2
140
3.5
141
0.0
143
0.0393701
146
0.71
147
1.5
176
   256
177
   256
178
     2
271
     2
272
     3
274
     4
283
     0
284
     8
288
     1
289
     0
340
11
371
    -1
372
    -1
1001
ACAD_DSTYLE_DIMARC_LENGTH_SYMBOL
1070
   379
1070
     1
1001
ACAD_DSTYLE_DIMJOGGED_JOGANGLE_SYMBOL
1070
   384
1040
0.7853981633974483
  0
DIMSTYLE
105
84
330
A
100
AcDbSymbolTableRecord
100
AcDbDimStyleTableRecord
  2
AM_ISO$6
 70
     0
  4
"
 41
2.5
 42
1.0
 43
10.0
 44
1.0
 47
0.1
 48
0.1
 73
     0
 74
     0
 78
     8
 79
     2
140
3.5
141
0.0
143
0.0393701
146
0.71
147
1.5
172
     1
176
   256
177
   256
178
     2
271
     2
272
     3
274
     4
283
     0
284
     8
340
11
371
    -1
372
    -1
1001
ACAD_DSTYLE_DIMARC_LENGTH_SYMBOL
1070
   379
1070
     1
1001
ACAD_DSTYLE_DIMJOGGED_JOGANGLE_SYMBOL
1070
   384
1040
0.7853981633974483
  0
DIMSTYLE
105
85
330
A
100
AcDbSymbolTableRecord
100
AcDbDimStyleTableRecord
  2
AM_ISO$7
 70
     0
  4
"
 41
2.5
 42
1.0
 43
10.0
 44
1.0
 47
0.1
 48
0.1
 73
     0
 74
     0
 77
     1
 78
     8
 79
     2
140
5.0
141
0.0
143
0.0393701
146
0.71
147
1.5
172
     1
176
   256
177
   256
178
     2
271
     2
272
     3
274
     4
283
     0
284
     8
340
11
371
    -1
372
    -1
1001
ACAD_DSTYLE_DIMARC_LENGTH_SYMBOL
1070
   379
1070
     1
1001
ACAD_DSTYLE_DIMJOGGED_JOGANGLE_SYMBOL
1070
   384
1040
0.7853981633974483
  0
DIMSTYLE
105
86
330
A
100
AcDbSymbolTableRecord
100
AcDbDimStyleTableRecord
  2
AM_ISO$SF
 70
     0
  4
"
 41
2.5
 42
1.0
 43
10.0
 44
1.0
 47
0.1
 48
0.1
 73
     0
 74
     0
 75
     1
 76
     1
 77
     1
 78
     8
 79
     2
140
3.5
141
0.0
143
0.0393701
146
0.71
147
1.5
172
     1
176
   256
177
   256
178
     2
271
     2
272
     3
274
     4
283
     0
284
     8
340
11
371
    -1
372
    -1
1001
ACAD_DSTYLE_DIMARC_LENGTH_SYMBOL
1070
   379
1070
     1
1001
ACAD_DSTYLE_DIMJOGGED_JOGANGLE_SYMBOL
1070
   384
1040
0.7853981633974483
  0
DIMSTYLE
105
8B
330
A
100
AcDbSymbolTableRecord
100
AcDbDimStyleTableRecord
  2
AM_ISO$SH
 70
     0
  4
"
 41
2.5
 42
1.0
 43
10.0
 44
1.0
 47
0.1
 48
0.1
 73
     0
 74
     0
 75
     1
 76
     1
 77
     1
 78
     8
 79
     2
140
3.5
141
0.0
143
0.0393701
144
2.0
146
0.71
147
1.5
172
     1
173
     1
176
   256
177
   256
178
     2
271
     2
272
     3
274
     4
283
     0
284
     8
340
11
343
87
371
    -1
372
    -1
1001
ACAD_DSTYLE_DIMARC_LENGTH_SYMBOL
1070
   379
1070
     1
1001
ACAD_DSTYLE_DIMJOGGED_JOGANGLE_SYMBOL
1070
   384
1040
0.7853981633974483
  0
ENDTAB
  0
TABLE
  2
BLOCK_RECORD
  5
1
330
0
100
AcDbSymbolTable
 70
     6
  0
BLOCK_RECORD
  5
1F
102
{ACAD_XDICTIONARY
360
8F
102
}
330
1
100
AcDbSymbolTableRecord
100
AcDbBlockTableRecord
  2
*Model_Space
340
22
  0
BLOCK_RECORD
  5
1B
330
1
100
AcDbSymbolTableRecord
100
AcDbBlockTableRecord
  2
*Paper_Space
340
1E
  0
BLOCK_RECORD
  5
23
330
1
100
AcDbSymbolTableRecord
100
AcDbBlockTableRecord
  2
*Paper_Space0
340
26
  0
BLOCK_RECORD
  5
87
330
1
100
AcDbSymbolTableRecord
100
AcDbBlockTableRecord
  2
GENAXEH
340
0
  0
BLOCK_RECORD
  5
308
330
1
100
AcDbSymbolTableRecord
100
AcDbBlockTableRecord
  2
AVE_RENDER
340
0
102
{BLKREFS
331
30B
331
30C
331
30D
331
30E
331
30F
331
310
331
311
331
312
102
}
  0
BLOCK_RECORD
  5
316
330
1
100
AcDbSymbolTableRecord
100
AcDbBlockTableRecord
  2
AVE_GLOBAL
340
0
102
{BLKREFS
331
319
102
}
  0
ENDTAB
  0
ENDSEC
  0
SECTION
  2
BLOCKS
  0
BLOCK
  5
20
330
1F
100
AcDbEntity
  8
0
100
AcDbBlockBegin
  2
*Model_Space
 70
     0
 10
0.0
 20
0.0
 30
0.0
  3
*Model_Space
  1

  0
ENDBLK
  5
21
330
1F
100
AcDbEntity
  8
0
100
AcDbBlockEnd
  0
BLOCK
  5
1C
330
1B
100
AcDbEntity
 67
     1
  8
0
100
AcDbBlockBegin
  2
*Paper_Space
 70
     0
 10
0.0
 20
0.0
 30
0.0
  3
*Paper_Space
  1

  0
ENDBLK
  5
1D
330
1B
100
AcDbEntity
 67
     1
  8
0
100
AcDbBlockEnd
  0
BLOCK
  5
24
330
23
100
AcDbEntity
 67
     1
  8
0
100
AcDbBlockBegin
  2
*Paper_Space0
 70
     0
 10
0.0
 20
0.0
 30
0.0
  3
*Paper_Space0
  1

  0
ENDBLK
  5
25
330
23
100
AcDbEntity
 67
     1
  8
0
100
AcDbBlockEnd
  0
BLOCK
  5
89
330
87
100
AcDbEntity
  8
0
100
AcDbBlockBegin
  2
GENAXEH
 70
     0
 10
0.0
 20
0.0
 30
0.0
  3
GENAXEH
  1

  0
LINE
  5
88
330
87
100
AcDbEntity
  8
0
100
AcDbLine
 10
-1.0
 20
0.0
 30
0.0
 11
1.0
 21
0.0
 31
0.0
  0
ENDBLK
  5
8A
330
87
100
AcDbEntity
  8
0
100
AcDbBlockEnd
  0
BLOCK
  5
309
330
308
100
AcDbEntity
  8
ASHADE
100
AcDbBlockBegin
  2
AVE_RENDER
 70
     0
 10
0.0
 20
0.0
 30
0.0
  3
AVE_RENDER
  1
AVE_RENDER
  0
ENDBLK
  5
30A
330
308
100
AcDbEntity
  8
0
100
AcDbBlockEnd
  0
BLOCK
  5
317
330
316
100
AcDbEntity
  8
ASHADE
100
AcDbBlockBegin
  2
AVE_GLOBAL
 70
     0
 10
0.0
 20
0.0
 30
0.0
  3
AVE_GLOBAL
  1
AVE_GLOBAL
  0
ENDBLK
  5
318
330
316
100
AcDbEntity
  8
0
100
AcDbBlockEnd
  0
ENDSEC
  0
SECTION
  2
ENTITIES
  0
BODY
  5
2E0
330
1F
100
AcDbEntity
  8
1
 62
   252
100
AcDbModelerGeometry
 70
     1
  1
koo mi n o          
  1
ni ^ *+0;:,4 ^ *+0\^ [ nh ^ LR iqoqjqhook QK mk R01 P<+ nk oiennejl monl 
  1
n fqfffffffffffffffj:rooh n:rono 
  1
=0;& {n {m {rn {rn |
  1
-:9@)+r:&:r>++-6= {rn {rn {rn {o {l {k |
  1
3*2/ {j {rn {i {o |
  1
:&:@-:961:2:1+ {rn j 8-6;  n l +-6 n k ,*-9 o l >;5 o k 8->; o f /0,+<7:<4 o k ,+03 oqknnholmmggnkofohm k 1+03 lo k ;,63 o g 93>+1:,, o h /6'>-:> o k 72>' o i 8-6;>- o j 28-6; looo j *8-6; o j )8-6; o no :1;@96:3;, |
  1
):-+:'@+:2/3>+: {rn l o n g |
  1
-:9@)+r:&:r>++-6= {rn {rn {rn {m {l {k |
  1
,7:33 {h {rn {rn {g {rn {m |
  1
-:9@)+r:&:r>++-6= {rn {rn {rn {i {l {k |
  1
9><: {f {rn {no {i {rn {nn -:):-,:; ,6183: |
  1
92:,7r:&:r>++-6= {rn {nm {rn {g |
  1
300/ {rn {nl {nk {g |
  1
<01:r,*-9><: {rn o rmkfmqfffffffffffig o o n o o o oqonmgmojnmgmojnmgli n V V oqonmgnfkjflmjoijgkk oqffffnhgmhljjnlkig oqonmgmojnmgmojnmgli 90-(>-; V V V V |
  1
-:9@)+r:&:r>++-6= {rn {rn {f {g {l {k |
  1
300/ {rn {rn {nj {g |
  1
<0:;8: {rn {nk {nk {rn {ni 90-(>-; {no {rn |
  1
<0:;8: {rn {nj {nj {rn {nh 90-(>-; {nl {rn |
  1
:;8: {ng {nf {nf {nk {mo 90-(>-; |
  1
:;8: {mn {mm {mm {nj {ml 90-(>-; |
  1
/+36,+r:&:r>++-6= {rn {rn {rn {ni |
  1
):-+:' {rn {ni {mk |
  1
:336/,:r<*-): {rn o hgqojmnffknkohming o o n o o o lmqfhjomgnfhinilok n V V |
  1
/+36,+r:&:r>++-6= {rn {rn {rn {nh |
  1
):-+:' {rn {nh {mj |
  1
:336/,:r<*-): {rn o kqfinjknimmomkgnoh o o rn o o o lmqolhfigkgmllliok n V V |
  1
/061+ {rn o hgqojmnffknkohming lmqfhjomgnfhinilok |
  1
/061+ {rn o kqfinjknimmomkgnoh lmqolhfigkgmllliok |
1001
ACADSTEP
1000
ID
1002
{
1000
40
1002
}
  0
REGION
  5
2E1
330
1F
100
AcDbEntity
  8
1
 62
   252
100
AcDbModelerGeometry
 70
     1
  1
koo nf n o          
  1
ni ^ *+0;:,4 ^ *+0\^ [ nh ^ LR iqoqjqhook QK mk R01 P<+ nk oiennejl monl 
  1
n fqfffffffffffffffj:rooh n:rono 
  1
=0;& {n {m {rn {rn |
  1
-:9@)+r:&:r>++-6= {rn {rn {rn {o {l {k |
  1
3*2/ {j {rn {i {o |
  1
:&:@-:961:2:1+ {rn j 8-6;  n l +-6 n k ,*-9 o l >;5 o k 8->; o f /0,+<7:<4 o k ,+03 oqknnholmmggnkofohm k 1+03 lo k ;,63 o g 93>+1:,, o h /6'>-:> o k 72>' o i 8-6;>- o j 28-6; looo j *8-6; o j )8-6; o no :1;@96:3;, |
  1
):-+:'@+:2/3>+: {rn l o n g |
  1
-:9@)+r:&:r>++-6= {rn {rn {rn {m {l {k |
  1
,7:33 {h {rn {rn {g {rn {m |
  1
-:9@)+r:&:r>++-6= {rn {rn {rn {i {l {k |
  1
9><: {f {rn {no {i {rn {nn 90-(>-; ;0*=3: 0*+ |
  1
92:,7r:&:r>++-6= {rn {nm {rn {g |
  1
300/ {rn {rn {nl {g |
  1
/3>1:r,*-9><: {rn rlnqfkmolijoomfjomj m rlnqfkmolijoomfjomj o n o o o n 90-(>-;@) V V V V |
  1
-:9@)+r:&:r>++-6= {rn {rn {f {g {l {k |
  1
<0:;8: {rn {nl {nl {rn {nk 90-(>-; {no {rn |
  1
:;8: {nj {ni {ni {nl {nh 90-(>-; |
  1
/+36,+r:&:r>++-6= {rn {rn {rn {nk |
  1
):-+:' {rn {nk {ng |
  1
:336/,:r<*-): {rn o m o o n o o o mfqolgmnjooomigmom n V V |
  1
/061+ {rn o m mfqolgmnjooomigmom |
1001
ACADSTEP
1000
ID
1002
{
1000
40
1002
}
  0
BODY
  5
2E2
330
1F
100
AcDbEntity
  8
1
 62
   252
100
AcDbModelerGeometry
 70
     1
  1
koo mi n o          
  1
ni ^ *+0;:,4 ^ *+0\^ [ nh ^ LR iqoqjqhook QK mk R01 P<+ nk oiennejl monl 
  1
n fqfffffffffffffffj:rooh n:rono 
  1
=0;& {n {m {rn {rn |
  1
-:9@)+r:&:r>++-6= {rn {rn {rn {o {l {k |
  1
3*2/ {j {rn {i {o |
  1
:&:@-:961:2:1+ {rn j 8-6;  n l +-6 n k ,*-9 o l >;5 o k 8->; o f /0,+<7:<4 o k ,+03 oqknnholmmggnkofohm k 1+03 lo k ;,63 o g 93>+1:,, o h /6'>-:> o k 72>' o i 8-6;>- o j 28-6; looo j *8-6; o j )8-6; o no :1;@96:3;, |
  1
):-+:'@+:2/3>+: {rn l o n g |
  1
-:9@)+r:&:r>++-6= {rn {rn {rn {m {l {k |
  1
,7:33 {h {rn {rn {g {rn {m |
  1
-:9@)+r:&:r>++-6= {rn {rn {rn {i {l {k |
  1
9><: {f {rn {no {i {rn {nn 90-(>-; ,6183: |
  1
92:,7r:&:r>++-6= {rn {nm {rn {g |
  1
300/ {rn {nl {nk {g |
  1
<01:r,*-9><: {rn o o o o n o o o liqikfffffffffffff n V V o n liqikfffffffffffff 90-(>-; V V V V |
  1
-:9@)+r:&:r>++-6= {rn {rn {f {g {l {k |
  1
300/ {rn {rn {nj {g |
  1
<0:;8: {rn {nk {nk {rn {ni -:):-,:; {no {rn |
  1
<0:;8: {rn {nj {nj {rn {nh 90-(>-; {nl {rn |
  1
:;8: {ng {nf {nf {nk {mo 90-(>-; |
  1
:;8: {mn {mm {mm {nj {ml 90-(>-; |
  1
/+36,+r:&:r>++-6= {rn {rn {rn {ni |
  1
):-+:' {rn {ni {mk |
  1
:336/,:r<*-): {rn o im o o rn o o o rliqikfffffffffffff n V V |
  1
/+36,+r:&:r>++-6= {rn {rn {rn {nh |
  1
):-+:' {rn {nh {mj |
  1
:336/,:r<*-): {rn o hg o o rn o o o liqikfffffffffffff n V V |
  1
/061+ {rn o im rliqikfffffffffffff |
  1
/061+ {rn o hg liqikfffffffffffff |
1001
ACADSTEP
1000
ID
1002
{
1000
40
1002
}
  0
BODY
  5
2E3
330
1F
100
AcDbEntity
  8
1
 62
   252
100
AcDbModelerGeometry
 70
     1
  1
koo mi n o          
  1
ni ^ *+0;:,4 ^ *+0\^ [ nh ^ LR iqoqjqhook QK mk R01 P<+ nk oiennejl monl 
  1
n fqfffffffffffffffj:rooh n:rono 
  1
=0;& {n {m {rn {rn |
  1
-:9@)+r:&:r>++-6= {rn {rn {rn {o {l {k |
  1
3*2/ {j {rn {i {o |
  1
:&:@-:961:2:1+ {rn j 8-6;  n l +-6 n k ,*-9 o l >;5 o k 8->; o f /0,+<7:<4 o k ,+03 oqknnholmmggnkofohm k 1+03 lo k ;,63 o g 93>+1:,, o h /6'>-:> o k 72>' o i 8-6;>- o j 28-6; looo j *8-6; o j )8-6; o no :1;@96:3;, |
  1
):-+:'@+:2/3>+: {rn l o n g |
  1
-:9@)+r:&:r>++-6= {rn {rn {rn {m {l {k |
  1
,7:33 {h {rn {rn {g {rn {m |
  1
-:9@)+r:&:r>++-6= {rn {rn {rn {i {l {k |
  1
9><: {f {rn {no {i {rn {nn 90-(>-; ,6183: |
  1
92:,7r:&:r>++-6= {rn {nm {rn {g |
  1
300/ {rn {nl {nk {g |
  1
<01:r,*-9><: {rn o ilqmlfoimhgnjlninj o o rn o o o rljqljoooooooooooon n V V o n ljqljoooooooooooon 90-(>-; V V V V |
  1
-:9@)+r:&:r>++-6= {rn {rn {f {g {l {k |
  1
300/ {rn {rn {nj {g |
  1
<0:;8: {rn {nk {nk {rn {ni 90-(>-; {no {rn |
  1
<0:;8: {rn {nj {nj {rn {nh 90-(>-; {nl {rn |
  1
:;8: {ng {nf {nf {nk {mo 90-(>-; |
  1
:;8: {mn {mm {mm {nj {ml 90-(>-; |
  1
/+36,+r:&:r>++-6= {rn {rn {rn {ni |
  1
):-+:' {rn {ni {mk |
  1
:336/,:r<*-): {rn o ioqjnllflnmjmigmof o o rn o o o ljqljoooooooooooon n V V |
  1
/+36,+r:&:r>++-6= {rn {rn {rn {nh |
  1
):-+:' {rn {nh {mj |
  1
:336/,:r<*-): {rn o i o o n o o o rljqljoooooooooooon n V V |
  1
/061+ {rn o ioqjnllflnmjmigmof ljqljoooooooooooon |
  1
/061+ {rn o i rljqljoooooooooooon |
1001
ACADSTEP
1000
ID
1002
{
1000
40
1002
}
  0
REGION
  5
2E4
330
1F
100
AcDbEntity
  8
1
 62
   252
100
AcDbModelerGeometry
 70
     1
  1
koo nf n o          
  1
ni ^ *+0;:,4 ^ *+0\^ [ nh ^ LR iqoqjqhook QK mk R01 P<+ nk oiennejl monl 
  1
n fqfffffffffffffffj:rooh n:rono 
  1
=0;& {n {m {rn {rn |
  1
-:9@)+r:&:r>++-6= {rn {rn {rn {o {l {k |
  1
3*2/ {j {rn {i {o |
  1
:&:@-:961:2:1+ {rn j 8-6;  n l +-6 n k ,*-9 o l >;5 o k 8->; o f /0,+<7:<4 o k ,+03 oqknnholmmggnkofohm k 1+03 lo k ;,63 o g 93>+1:,, o h /6'>-:> o k 72>' o i 8-6;>- o j 28-6; looo j *8-6; o j )8-6; o no :1;@96:3;, |
  1
):-+:'@+:2/3>+: {rn l o n g |
  1
-:9@)+r:&:r>++-6= {rn {rn {rn {m {l {k |
  1
,7:33 {h {rn {rn {g {rn {m |
  1
-:9@)+r:&:r>++-6= {rn {rn {rn {i {l {k |
  1
9><: {f {rn {no {i {rn {nn 90-(>-; ;0*=3: 0*+ |
  1
92:,7r:&:r>++-6= {rn {nm {rn {g |
  1
300/ {rn {rn {nl {g |
  1
/3>1:r,*-9><: {rn rlmqmgjoooooooooook o lmqmgjoooooooooook o rn o o o rn 90-(>-;@) V V V V |
  1
-:9@)+r:&:r>++-6= {rn {rn {f {g {l {k |
  1
<0:;8: {rn {nl {nl {rn {nk 90-(>-; {no {rn |
  1
:;8: {nj {ni {ni {nl {nh 90-(>-; |
  1
/+36,+r:&:r>++-6= {rn {rn {rn {nk |
  1
):-+:' {rn {nk {ng |
  1
:336/,:r<*-): {rn o o o o rn o o o rmfqljoooooooooooon n V V |
  1
/061+ {rn o o rmfqljoooooooooooon |
1001
ACADSTEP
1000
ID
1002
{
1000
40
1002
}
  0
BODY
  5
2E5
330
1F
100
AcDbEntity
  8
1
 62
   252
100
AcDbModelerGeometry
 70
     1
  1
koo mi n o          
  1
ni ^ *+0;:,4 ^ *+0\^ [ nh ^ LR iqoqjqhook QK mk R01 P<+ nk oiennejl monl 
  1
n fqfffffffffffffffj:rooh n:rono 
  1
=0;& {n {m {rn {rn |
  1
-:9@)+r:&:r>++-6= {rn {rn {rn {o {l {k |
  1
3*2/ {j {rn {i {o |
  1
:&:@-:961:2:1+ {rn j 8-6;  n l +-6 n k ,*-9 o l >;5 o k 8->; o f /0,+<7:<4 o k ,+03 oqknnholmmggnkofohm k 1+03 lo k ;,63 o g 93>+1:,, o h /6'>-:> o k 72>' o i 8-6;>- o j 28-6; looo j *8-6; o j )8-6; o no :1;@96:3;, |
  1
):-+:'@+:2/3>+: {rn l o n g |
  1
-:9@)+r:&:r>++-6= {rn {rn {rn {m {l {k |
  1
,7:33 {h {rn {rn {g {rn {m |
  1
-:9@)+r:&:r>++-6= {rn {rn {rn {i {l {k |
  1
9><: {f {rn {no {i {rn {nn 90-(>-; ,6183: |
  1
92:,7r:&:r>++-6= {rn {nm {rn {g |
  1
300/ {rn {nl {nk {g |
  1
+0-*,r,*-9><: {rn o hg o o n o lkqikfffffffffffff m o o n 90-(>-;@) V V V V |
  1
-:9@)+r:&:r>++-6= {rn {rn {f {g {l {k |
  1
300/ {rn {rn {nj {g |
  1
<0:;8: {rn {nk {nk {rn {ni -:):-,:; {no {rn |
  1
<0:;8: {rn {nj {nj {rn {nh -:):-,:; {nl {rn |
  1
:;8: {ng {nf {nf {nk {mo 90-(>-; |
  1
:;8: {mn {mm {mm {nj {ml 90-(>-; |
  1
/+36,+r:&:r>++-6= {rn {rn {rn {ni |
  1
):-+:' {rn {ni {mk |
  1
:336/,:r<*-): {rn o hg o o rn o o o liqikfffffffffffff n V V |
  1
/+36,+r:&:r>++-6= {rn {rn {rn {nh |
  1
):-+:' {rn {nh {mj |
  1
:336/,:r<*-): {rn o go o o n o o o lkqikfffffffffffff n V V |
  1
/061+ {rn o hg liqikfffffffffffff |
  1
/061+ {rn o go lkqikfffffffffffff |
1001
ACADSTEP
1000
ID
1002
{
1000
40
1002
}
  0
BODY
  5
2E6
330
1F
100
AcDbEntity
  8
1
 62
   252
100
AcDbModelerGeometry
 70
     1
  1
koo mi n o          
  1
ni ^ *+0;:,4 ^ *+0\^ [ nh ^ LR iqoqjqhook QK mk R01 P<+ nk oiennejl monl 
  1
n fqfffffffffffffffj:rooh n:rono 
  1
=0;& {n {m {rn {rn |
  1
-:9@)+r:&:r>++-6= {rn {rn {rn {o {l {k |
  1
3*2/ {j {rn {i {o |
  1
:&:@-:961:2:1+ {rn j 8-6;  n l +-6 n k ,*-9 o l >;5 o k 8->; o f /0,+<7:<4 o k ,+03 oqknnholmmggnkofohm k 1+03 lo k ;,63 o g 93>+1:,, o h /6'>-:> o k 72>' o i 8-6;>- o j 28-6; looo j *8-6; o j )8-6; o no :1;@96:3;, |
  1
):-+:'@+:2/3>+: {rn l o n g |
  1
-:9@)+r:&:r>++-6= {rn {rn {rn {m {l {k |
  1
,7:33 {h {rn {rn {g {rn {m |
  1
-:9@)+r:&:r>++-6= {rn {rn {rn {i {l {k |
  1
9><: {f {rn {no {i {rn {nn 90-(>-; ,6183: |
  1
92:,7r:&:r>++-6= {rn {nm {rn {g |
  1
300/ {rn {nl {nk {g |
  1
+0-*,r,*-9><: {rn o hgqomijiokfjkmmjnj o o n o lkqfhkgilgjmlmii m o o n 90-(>-;@) V V V V |
  1
-:9@)+r:&:r>++-6= {rn {rn {f {g {l {k |
  1
300/ {rn {rn {nj {g |
  1
<0:;8: {rn {nk {nk {rn {ni 90-(>-; {no {rn |
  1
<0:;8: {rn {nj {nj {rn {nh -:):-,:; {nl {rn |
  1
:;8: {ng {nf {nf {nk {mo 90-(>-; |
  1
:;8: {mn {mm {mm {nj {ml 90-(>-; |
  1
/+36,+r:&:r>++-6= {rn {rn {rn {ni |
  1
):-+:' {rn {ni {mk |
  1
:336/,:r<*-): {rn o go o o n o o o lkqikfffffffffffff n V V |
  1
/+36,+r:&:r>++-6= {rn {rn {rn {nh |
  1
):-+:' {rn {nh {mj |
  1
:336/,:r<*-): {rn o hgqojmnffknkohming o o n o o o lmqfhjomgnfhinilok n V V |
  1
/061+ {rn o go lkqikfffffffffffff |
  1
/061+ {rn o hgqojmnffknkohming lmqfhjomgnfhinilok |
1001
ACADSTEP
1000
ID
1002
{
1000
40
1002
}
  0
BODY
  5
2E7
330
1F
100
AcDbEntity
  8
1
 62
   252
100
AcDbModelerGeometry
 70
     1
  1
koo mi n o          
  1
ni ^ *+0;:,4 ^ *+0\^ [ nh ^ LR iqoqjqhook QK mk R01 P<+ nk oiennejl monl 
  1
n fqfffffffffffffffj:rooh n:rono 
  1
=0;& {n {m {rn {rn |
  1
-:9@)+r:&:r>++-6= {rn {rn {rn {o {l {k |
  1
3*2/ {j {rn {i {o |
  1
:&:@-:961:2:1+ {rn j 8-6;  n l +-6 n k ,*-9 o l >;5 o k 8->; o f /0,+<7:<4 o k ,+03 oqknnholmmggnkofohm k 1+03 lo k ;,63 o g 93>+1:,, o h /6'>-:> o k 72>' o i 8-6;>- o j 28-6; looo j *8-6; o j )8-6; o no :1;@96:3;, |
  1
):-+:'@+:2/3>+: {rn l o n g |
  1
-:9@)+r:&:r>++-6= {rn {rn {rn {m {l {k |
  1
,7:33 {h {rn {rn {g {rn {m |
  1
-:9@)+r:&:r>++-6= {rn {rn {rn {i {l {k |
  1
9><: {f {rn {no {i {rn {nn -:):-,:; ,6183: |
  1
92:,7r:&:r>++-6= {rn {nm {rn {g |
  1
300/ {rn {nl {nk {g |
  1
+0-*,r,*-9><: {rn o ioqjnllflnmjmigmof o o n o liqgjoooooooooooon nqj o o n 90-(>-;@) V V V V |
  1
-:9@)+r:&:r>++-6= {rn {rn {f {g {l {k |
  1
300/ {rn {rn {nj {g |
  1
<0:;8: {rn {nk {nk {rn {ni -:):-,:; {no {rn |
  1
<0:;8: {rn {nj {nj {rn {nh 90-(>-; {nl {rn |
  1
:;8: {ng {nf {nf {nk {mo 90-(>-; |
  1
:;8: {mn {mm {mm {nj {ml 90-(>-; |
  1
/+36,+r:&:r>++-6= {rn {rn {rn {ni |
  1
):-+:' {rn {ni {mk |
  1
:336/,:r<*-): {rn o ioqjnllflnmjmigmof o o rn o o o ljqljoooooooooooon n V V |
  1
/+36,+r:&:r>++-6= {rn {rn {rn {nh |
  1
):-+:' {rn {nh {mj |
  1
:336/,:r<*-): {rn o im o o rn o o o rliqikfffffffffffff n V V |
  1
/061+ {rn o ioqjnllflnmjmigmof ljqljoooooooooooon |
  1
/061+ {rn o im rliqikfffffffffffff |
1001
ACADSTEP
1000
ID
1002
{
1000
40
1002
}
  0
BODY
  5
2E8
330
1F
100
AcDbEntity
  8
1
 62
   252
100
AcDbModelerGeometry
 70
     1
  1
koo mi n o          
  1
ni ^ *+0;:,4 ^ *+0\^ [ nh ^ LR iqoqjqhook QK mk R01 P<+ nk oiennejl monl 
  1
n fqfffffffffffffffj:rooh n:rono 
  1
=0;& {n {m {rn {rn |
  1
-:9@)+r:&:r>++-6= {rn {rn {rn {o {l {k |
  1
3*2/ {j {rn {i {o |
  1
:&:@-:961:2:1+ {rn j 8-6;  n l +-6 n k ,*-9 o l >;5 o k 8->; o f /0,+<7:<4 o k ,+03 oqknnholmmggnkofohm k 1+03 lo k ;,63 o g 93>+1:,, o h /6'>-:> o k 72>' o i 8-6;>- o j 28-6; looo j *8-6; o j )8-6; o no :1;@96:3;, |
  1
):-+:'@+:2/3>+: {rn l o n g |
  1
-:9@)+r:&:r>++-6= {rn {rn {rn {m {l {k |
  1
,7:33 {h {rn {rn {g {rn {m |
  1
-:9@)+r:&:r>++-6= {rn {rn {rn {i {l {k |
  1
9><: {f {rn {no {i {rn {nn 90-(>-; ,6183: |
  1
92:,7r:&:r>++-6= {rn {nm {rn {g |
  1
300/ {rn {nl {nk {g |
  1
+0-*,r,*-9><: {rn o i o o rn o mfqljoooooooooooon i o o rn 90-(>-;@) V V V V |
  1
-:9@)+r:&:r>++-6= {rn {rn {f {g {l {k |
  1
300/ {rn {rn {nj {g |
  1
<0:;8: {rn {nk {nk {rn {ni -:):-,:; {no {rn |
  1
<0:;8: {rn {nj {nj {rn {nh -:):-,:; {nl {rn |
  1
:;8: {ng {nf {nf {nk {mo 90-(>-; |
  1
:;8: {mn {mm {mm {nj {ml 90-(>-; |
  1
/+36,+r:&:r>++-6= {rn {rn {rn {ni |
  1
):-+:' {rn {ni {mk |
  1
:336/,:r<*-): {rn o o o o rn o o o rmfqljoooooooooooon n V V |
  1
/+36,+r:&:r>++-6= {rn {rn {rn {nh |
  1
):-+:' {rn {nh {mj |
  1
:336/,:r<*-): {rn o i o o n o o o rljqljoooooooooooon n V V |
  1
/061+ {rn o o rmfqljoooooooooooon |
  1
/061+ {rn o i rljqljoooooooooooon |
1001
ACADSTEP
1000
ID
1002
{
1000
40
1002
}
  0
BODY
  5
2E9
330
1F
100
AcDbEntity
  8
1
 62
   252
100
AcDbModelerGeometry
 70
     1
  1
koo mi n o          
  1
ni ^ *+0;:,4 ^ *+0\^ [ nh ^ LR iqoqjqhook QK mk R01 P<+ nk oiennejl monl 
  1
n fqfffffffffffffffj:rooh n:rono 
  1
=0;& {n {m {rn {rn |
  1
-:9@)+r:&:r>++-6= {rn {rn {rn {o {l {k |
  1
3*2/ {j {rn {i {o |
  1
:&:@-:961:2:1+ {rn j 8-6;  n l +-6 n k ,*-9 o l >;5 o k 8->; o f /0,+<7:<4 o k ,+03 oqknnholmmggnkofohm k 1+03 lo k ;,63 o g 93>+1:,, o h /6'>-:> o k 72>' o i 8-6;>- o j 28-6; looo j *8-6; o j )8-6; o no :1;@96:3;, |
  1
):-+:'@+:2/3>+: {rn l o n g |
  1
-:9@)+r:&:r>++-6= {rn {rn {rn {m {l {k |
  1
,7:33 {h {rn {rn {g {rn {m |
  1
-:9@)+r:&:r>++-6= {rn {rn {rn {i {l {k |
  1
9><: {f {rn {no {i {rn {nn -:):-,:; ,6183: |
  1
92:,7r:&:r>++-6= {rn {nm {rn {g |
  1
300/ {rn {nl {nk {g |
  1
+0-*,r,*-9><: {rn o j o o n o mfqolgmnjooomigmom l o o n 90-(>-;@) V V V V |
  1
-:9@)+r:&:r>++-6= {rn {rn {f {g {l {k |
  1
300/ {rn {rn {nj {g |
  1
<0:;8: {rn {nk {nk {rn {ni -:):-,:; {no {rn |
  1
<0:;8: {rn {nj {nj {rn {nh -:):-,:; {nl {rn |
  1
:;8: {ng {nf {nf {nk {mo 90-(>-; |
  1
:;8: {mn {mm {mm {nj {ml 90-(>-; |
  1
/+36,+r:&:r>++-6= {rn {rn {rn {ni |
  1
):-+:' {rn {ni {mk |
  1
:336/,:r<*-): {rn o kqfinjknimmomkgnoh o o rn o o o lmqolhfigkgmllliok n V V |
  1
/+36,+r:&:r>++-6= {rn {rn {rn {nh |
  1
):-+:' {rn {nh {mj |
  1
:336/,:r<*-): {rn o m o o n o o o mfqolgmnjooomigmom n V V |
  1
/061+ {rn o kqfinjknimmomkgnoh lmqolhfigkgmllliok |
  1
/061+ {rn o m mfqolgmnjooomigmom |
1001
ACADSTEP
1000
ID
1002
{
1000
40
1002
}
  0
INSERT
  5
30B
330
1F
100
AcDbEntity
  8
ASHADE
 62
     1
100
AcDbBlockReference
  2
AVE_RENDER
 10
0.0
 20
0.0
 30
0.0
1001
AVE_RENDER
1002
{
1070
     7
1000
Pref
1070
    50
1070
    20
1070
     1
1070
     0
1000

1070
    10
1070
     1
1070
    10
1040
1.0
1070
     1
1040
0.7
1040
1.0
1040
0.0
1040
10.0
1010
-1.0
1020
-1.0
1030
-1.0
1040
0.3
1070
    49
1070
     0
1070
     0
1010
1.0
1020
1.0
1030
1.0
1040
45.0
1070
     1
1070
     0
1000
WCS
1040
0.0
1070
     0
1040
10.0
1002
}
  0
INSERT
  5
30C
330
1F
100
AcDbEntity
  8
ASHADE
 62
     3
100
AcDbBlockReference
  2
AVE_RENDER
 10
0.0
 20
0.0
 30
0.0
1001
AVE_RENDER
1002
{
1070
     0
1000
Full Opt
1070
     0
1070
     1
1070
     1
1070
     1
1070
     0
1070
     0
1070
     0
1070
     1
1070
     1
1040
0.0001
1040
0.0001
1002
}
  0
INSERT
  5
30D
330
1F
100
AcDbEntity
  8
ASHADE
 62
     4
100
AcDbBlockReference
  2
AVE_RENDER
 10
0.0
 20
0.0
 30
0.0
1001
AVE_RENDER
1002
{
1070
     0
1000
Quick Opt
1070
     0
1070
     1
1070
     1
1070
     1
1070
     0
1070
     0
1070
     1
1002
}
  0
INSERT
  5
30E
330
1F
100
AcDbEntity
  8
ASHADE
 62
     5
100
AcDbBlockReference
  2
AVE_RENDER
 10
0.0
 20
0.0
 30
0.0
1001
AVE_RENDER
1002
{
1070
     1
1000
Scanl Opt
1070
     2
1070
     0
1070
     2
1040
2.0
1040
4.0
1070
     0
1070
     1
1070
     0
1040
0.03
1002
}
  0
INSERT
  5
30F
330
1F
100
AcDbEntity
  8
ASHADE
 62
     6
100
AcDbBlockReference
  2
AVE_RENDER
 10
0.0
 20
0.0
 30
0.0
1001
AVE_RENDER
1002
{
1070
     2
1000
Raytr Opt
1070
     2
1070
     0
1070
     2
1040
2.0
1040
4.0
1070
     0
1070
     1
1070
     1
1040
0.03
1070
     3
1040
0.03
1002
}
  0
INSERT
  5
310
330
1F
100
AcDbEntity
  8
ASHADE
 62
     7
100
AcDbBlockReference
  2
AVE_RENDER
 10
0.0
 20
0.0
 30
0.0
1001
AVE_RENDER
1002
{
1070
     0
1000
RFile Opt
1070
     1
1070
   640
1070
   480
1070
 10000
1070
     1
1070
     8
1070
     8
1070
     0
1070
     0
1070
     0
1070
     0
1070
     0
1070
     0
1070
     0
1002
}
  0
INSERT
  5
311
330
1F
100
AcDbEntity
  8
ASHADE
 62
     8
100
AcDbBlockReference
  2
AVE_RENDER
 10
0.0
 20
0.0
 30
0.0
1001
AVE_RENDER
1002
{
1070
     0
1000
Fog Opt
1070
     0
1070
     0
1040
0.0
1040
1.0
1040
0.0
1040
1.0
1010
0.5
1020
0.5
1030
0.5
1002
}
  0
INSERT
  5
312
330
1F
100
AcDbEntity
  8
ASHADE
 62
     9
100
AcDbBlockReference
  2
AVE_RENDER
 10
0.0
 20
0.0
 30
0.0
1001
AVE_RENDER
1002
{
1070
     0
1000
BG Opt
1070
     0
1070
     1
1010
0.0
1020
0.0
1030
0.0
1010
1.0
1020
0.0
1030
0.0
1010
0.0
1020
1.0
1030
0.0
1010
0.0
1020
0.0
1030
1.0
1040
0.5
1040
0.33
1040
0.0
1000

1070
     1
1000

1070
     1
1070
     1
1040
1.0
1040
1.0
1040
0.0
1040
0.0
1070
     0
1002
}
  0
INSERT
  5
319
330
1F
100
AcDbEntity
  8
ASHADE
 62
     1
100
AcDbBlockReference
  2
AVE_GLOBAL
 10
0.0
 20
0.0
 30
0.0
1001
AVE_MATERIAL
1002
{
1000
*GLOBAL*
1000
2
1000
Globales Material.
1002
{
1002
}
1002
{
1070
    63
1002
{
1002
{
1010
-1.0
1020
-1.0
1030
-1.0
1002
}
1040
0.6999999880790711
1000

1040
0.0
1002
{
1002
}
1040
0.0
1002
{
1002
}
1040
0.0
1002
}
1002
{
1002
{
1010
-1.0
1020
-1.0
1030
-1.0
1002
}
1040
1.0
1000

1040
0.0
1002
{
1002
}
1040
0.0
1002
{
1002
}
1040
0.0
1002
}
1002
{
1002
{
1010
-1.0
1020
-1.0
1030
-1.0
1002
}
1040
0.2000000029802322
1000

1040
0.0
1002
{
1002
}
1040
0.0
1002
{
1002
}
1040
0.0
1002
}
1002
{
1070
     0
1002
{
1070
     1
1002
{
1040
1.0
1040
1.0
1000

1040
0.0
1002
{
1002
}
1040
0.0
1002
{
1002
}
1040
0.0
1002
}
1002
}
1040
1.0
1040
0.0
1040
0.0
1002
}
1002
{
1040
1.0
1040
1.0
1000

1040
0.0
1002
{
1002
}
1040
0.0
1002
{
1002
}
1040
0.0
1002
}
1002
{
1040
0.5
1040
1.0
1000

1040
0.0
1002
{
1002
}
1040
0.0
1002
{
1002
}
1040
0.0
1002
}
1002
{
1070
     0
1040
0.0
1002
{
1002
}
1040
1.0
1002
{
1002
}
1040
0.0
1002
}
1002
{
1040
0.0
1002
{
1002
{
1010
0.0
1020
0.0
1030
0.0
1002
}
1040
1.0
1000

1040
0.0
1002
{
1002
}
1040
0.0
1002
{
1002
}
1040
0.0
1002
}
1002
}
1002
{
1002
{
1070
     1
1002
{
1040
0.0
1040
1.0
1000

1040
0.0
1002
{
1002
}
1040
0.0
1002
{
1002
}
1040
0.0
1002
}
1002
}
1040
0.0
1002
{
1002
}
1010
1.0
1020
0.0
1030
0.0
1010
0.0
1020
1.0
1030
0.0
1010
0.0
1020
0.0
1030
1.0
1070
     0
1002
}
1002
{
1002
{
1040
1.0
1040
1.0
1002
{
1070
     1
1002
{
1040
1.0
1040
1.0
1000

1040
0.0
1002
{
1002
}
1040
0.0
1002
{
1002
}
1040
0.0
1002
}
1002
}
1002
}
1070
     0
1040
0.0
1002
{
1002
}
1002
}
1002
{
1002
}
1002
}
1002
{
1071
        3
1070
     3
1070
     0
1002
{
1070
     2
1070
     0
1070
     0
1040
0.0
1002
}
1070
     0
1070
     2
1002
{
1002
}
1002
}
1002
{
1040
8030.0
1040
190.3000030517578
1040
0.3050000071525574
1040
228.0
1040
545.0
1040
14.0
1040
17.39999961853027
1040
0.4560000002384186
1002
}
1000

1002
}
  0
ENDSEC
  0
SECTION
  2
OBJECTS
  0
DICTIONARY
  5
C
330
0
100
AcDbDictionary
281
     1
  3
ACAD_COLOR
350
BE
  3
ACAD_GROUP
350
D
  3
ACAD_LAYOUT
350
1A
  3
ACAD_MATERIAL
350
BD
  3
ACAD_MLINESTYLE
350
17
  3
ACAD_PLOTSETTINGS
350
19
  3
ACAD_PLOTSTYLENAME
350
E
  3
ACAD_TABLESTYLE
350
11A
  3
ACDBHEADERROUNDTRIPXREC
350
321
  3
AcDbVariableDictionary
350
94
  3
AcmDictionary
350
5B
  3
AMG
350
41
  3
AMGSNAPSETTINGS
350
26B
  3
AVE_ACITABLE
350
31A
  3
DWGPROPS
350
320
  0
DICTIONARY
  5
8F
330
1F
100
AcDbDictionary
280
     1
281
     1
  3
ACAD_SORTENTS
360
2DF
  0
DICTIONARY
  5
BE
102
{ACAD_REACTORS
330
C
102
}
330
C
100
AcDbDictionary
281
     1
  0
DICTIONARY
  5
D
102
{ACAD_REACTORS
330
C
102
}
330
C
100
AcDbDictionary
281
     1
  0
DICTIONARY
  5
1A
102
{ACAD_REACTORS
330
C
102
}
330
C
100
AcDbDictionary
281
     1
  3
Layout1
350
1E
  3
Layout2
350
26
  3
Model
350
22
  0
DICTIONARY
  5
BD
102
{ACAD_REACTORS
330
C
102
}
330
C
100
AcDbDictionary
281
     1
  0
DICTIONARY
  5
17
102
{ACAD_REACTORS
330
C
102
}
330
C
100
AcDbDictionary
281
     1
  3
Standard
350
18
  0
DICTIONARY
  5
19
102
{ACAD_REACTORS
330
C
102
}
330
C
100
AcDbDictionary
281
     1
  0
ACDBDICTIONARYWDFLT
  5
E
102
{ACAD_REACTORS
330
C
102
}
330
C
100
AcDbDictionary
281
     1
  3
Normal
350
F
100
AcDbDictionaryWithDefault
340
F
  0
DICTIONARY
  5
11A
102
{ACAD_REACTORS
330
C
102
}
330
C
100
AcDbDictionary
281
     1
  3
Standard
350
11B
  0
DICTIONARY
  5
321
102
{ACAD_REACTORS
330
C
102
}
330
C
100
AcDbDictionary
281
     1
  0
DICTIONARY
  5
94
102
{ACAD_REACTORS
330
C
102
}
330
C
100
AcDbDictionary
281
     1
  3
CTABLESTYLE
350
138
  3
DIMASSOC
350
96
  3
INDEXCTL
350
95
  3
PROJECTNAME
350
31E
  0
DICTIONARY
  5
5B
102
{ACAD_REACTORS
330
C
102
}
330
C
100
AcDbDictionary
281
     1
  3
AcmBOM
350
272
  3
AcmStdDictionary
350
61
  3
AMDTSECTSYM_ARROWCOLOR
350
123
  0
DICTIONARY
  5
41
102
{ACAD_REACTORS
330
C
102
}
330
C
100
AcDbDictionary
281
     1
  0
DICTIONARY
  5
26B
102
{ACAD_REACTORS
330
C
102
}
330
C
100
AcDbDictionary
281
     1
  0
DICTIONARY
  5
31A
102
{ACAD_REACTORS
330
C
102
}
330
C
100
AcDbDictionary
281
     1
  0
XRECORD
  5
320
102
{ACAD_REACTORS
330
C
102
}
330
C
100
AcDbXrecord
280
     1
  1
DWGPROPS COOKIE
  2

  3

  4

  6

  7

  8

  9

300
AmdtFileType=84
301
=
302
=
303
=
304
=
305
=
306
=
307
=
308
=
309
=
 40
0.0044958564814815
 41
2456580.25380919
 42
2456580.258258634
  1

 90
        1
  0
SORTENTSTABLE
  5
2DF
102
{ACAD_REACTORS
330
8F
102
}
330
8F
100
AcDbSortentsTable
330
1F
331
2E8
  5
2E8
331
2E6
  5
2E6
331
2E4
  5
2E4
331
2E2
  5
2E2
331
2E0
  5
2E0
331
2E9
  5
2E9
331
2E7
  5
2E7
331
2E5
  5
2E5
331
2E3
  5
2E3
331
2E1
  5
2E1
  0
LAYOUT
  5
1E
102
{ACAD_XDICTIONARY
360
322
102
}
102
{ACAD_REACTORS
330
1A
102
}
330
1A
100
AcDbPlotSettings
  1

  2

  4

  6

 40
0.0
 41
0.0
 42
0.0
 43
0.0
 44
0.0
 45
0.0
 46
0.0
 47
0.0
 48
0.0
 49
0.0
140
0.0
141
0.0
142
1.0
143
1.0
 70
   688
 72
     0
 73
     0
 74
     5
  7

 75
    16
147
1.0
148
0.0
149
0.0
100
AcDbLayout
  1
Layout1
 70
     1
 71
     1
 10
0.0
 20
0.0
 11
420.0
 21
297.0
 12
0.0
 22
0.0
 32
0.0
 14
1.000000000000000E+20
 24
1.000000000000000E+20
 34
1.000000000000000E+20
 15
-1.000000000000000E+20
 25
-1.000000000000000E+20
 35
-1.000000000000000E+20
146
0.0
 13
0.0
 23
0.0
 33
0.0
 16
1.0
 26
0.0
 36
0.0
 17
0.0
 27
1.0
 37
0.0
 76
     0
330
1B
  0
LAYOUT
  5
26
102
{ACAD_XDICTIONARY
360
326
102
}
102
{ACAD_REACTORS
330
1A
102
}
330
1A
100
AcDbPlotSettings
  1

  2

  4

  6

 40
0.0
 41
0.0
 42
0.0
 43
0.0
 44
0.0
 45
0.0
 46
0.0
 47
0.0
 48
0.0
 49
0.0
140
0.0
141
0.0
142
1.0
143
1.0
 70
   688
 72
     0
 73
     0
 74
     5
  7

 75
    16
147
1.0
148
0.0
149
0.0
100
AcDbLayout
  1
Layout2
 70
     1
 71
     2
 10
0.0
 20
0.0
 11
12.0
 21
9.0
 12
0.0
 22
0.0
 32
0.0
 14
0.0
 24
0.0
 34
0.0
 15
0.0
 25
0.0
 35
0.0
146
0.0
 13
0.0
 23
0.0
 33
0.0
 16
1.0
 26
0.0
 36
0.0
 17
0.0
 27
1.0
 37
0.0
 76
     0
330
23
  0
LAYOUT
  5
22
102
{ACAD_XDICTIONARY
360
324
102
}
102
{ACAD_REACTORS
330
1A
102
}
330
1A
100
AcDbPlotSettings
  1

  2

  4

  6

 40
0.0
 41
0.0
 42
0.0
 43
0.0
 44
0.0
 45
0.0
 46
0.0
 47
0.0
 48
0.0
 49
0.0
140
0.0
141
0.0
142
1.0
143
1.0
 70
  1712
 72
     0
 73
     0
 74
     0
  7

 75
     0
147
1.0
148
0.0
149
0.0
100
AcDbLayout
  1
Model
 70
     1
 71
     0
 10
0.0
 20
0.0
 11
12.0
 21
9.0
 12
0.0
 22
0.0
 32
0.0
 14
0.0
 24
0.0
 34
0.0
 15
0.0
 25
0.0
 35
0.0
146
0.0
 13
0.0
 23
0.0
 33
0.0
 16
1.0
 26
0.0
 36
0.0
 17
0.0
 27
1.0
 37
0.0
 76
     0
330
1F
  0
MLINESTYLE
  5
18
102
{ACAD_REACTORS
330
17
102
}
330
17
100
AcDbMlineStyle
  2
STANDARD
 70
     0
  3

 62
   256
 51
90.0
 52
90.0
 71
     2
 49
0.5
 62
   256
  6
BYLAYER
 49
-0.5
 62
   256
  6
BYLAYER
  0
ACDBPLACEHOLDER
  5
F
102
{ACAD_REACTORS
330
E
102
}
330
E
  0
TABLESTYLE
  5
11B
102
{ACAD_REACTORS
330
11A
102
}
330
11A
100
AcDbTableStyle
  3
Standard
 70
     0
 71
     0
 40
1.5
 41
1.5
280
     0
281
     0
  7
STANDARD
140
4.5
170
     2
 62
     0
 63
     7
283
     0
274
    -2
284
     1
 64
     0
275
    -2
285
     1
 65
     0
276
    -2
286
     1
 66
     0
277
    -2
287
     1
 67
     0
278
    -2
288
     1
 68
     0
279
    -2
289
     1
 69
     0
  7
STANDARD
140
6.0
170
     5
 62
     0
 63
     7
283
     0
274
    -2
284
     1
 64
     0
275
    -2
285
     1
 65
     0
276
    -2
286
     1
 66
     0
277
    -2
287
     1
 67
     0
278
    -2
288
     1
 68
     0
279
    -2
289
     1
 69
     0
  7
STANDARD
140
4.5
170
     5
 62
     0
 63
     7
283
     0
274
    -2
284
     1
 64
     0
275
    -2
285
     1
 65
     0
276
    -2
286
     1
 66
     0
277
    -2
287
     1
 67
     0
278
    -2
288
     1
 68
     0
279
    -2
289
     1
 69
     0
  0
DICTIONARYVAR
  5
138
102
{ACAD_REACTORS
330
94
102
}
330
94
100
DictionaryVariables
280
     0
  1
STANDARD
  0
DICTIONARYVAR
  5
96
102
{ACAD_REACTORS
330
94
102
}
330
94
100
DictionaryVariables
280
     0
  1
2
  0
DICTIONARYVAR
  5
95
102
{ACAD_REACTORS
330
94
102
}
330
94
100
DictionaryVariables
280
     0
  1
0
  0
DICTIONARYVAR
  5
31E
102
{ACAD_REACTORS
330
94
102
}
330
94
100
DictionaryVariables
280
     0
  1

  0
DICTIONARY
  5
272
102
{ACAD_REACTORS
330
5B
102
}
330
5B
100
AcDbDictionary
281
     1
  0
DICTIONARY
  5
61
102
{ACAD_REACTORS
330
5B
102
}
330
5B
100
AcDbDictionary
281
     1
  0
XRECORD
  5
123
102
{ACAD_REACTORS
330
5B
102
}
330
5B
100
AcDbXrecord
280
     1
 90
-1023410169
  0
DICTIONARY
  5
322
330
1E
100
AcDbDictionary
280
     1
281
     1
  3
ACAD_XREC_ROUNDTRIP
360
323
  0
DICTIONARY
  5
326
330
26
100
AcDbDictionary
280
     1
281
     1
  3
ACAD_XREC_ROUNDTRIP
360
327
  0
DICTIONARY
  5
324
330
22
100
AcDbDictionary
280
     1
281
     1
  3
ACAD_XREC_ROUNDTRIP
360
325
  0
XRECORD
  5
323
102
{ACAD_REACTORS
330
322
102
}
330
322
100
AcDbXrecord
280
     1
102
SHADEPLOT
 70
     0
102
SHADEPLOTRESLEVEL
 70
     2
102
SHADEPLOTCUSTOMDPI
 70
   300
  0
XRECORD
  5
327
102
{ACAD_REACTORS
330
326
102
}
330
326
100
AcDbXrecord
280
     1
102
SHADEPLOT
 70
     0
102
SHADEPLOTRESLEVEL
 70
     2
102
SHADEPLOTCUSTOMDPI
 70
   300
  0
XRECORD
  5
325
102
{ACAD_REACTORS
330
324
102
}
330
324
100
AcDbXrecord
280
     1
102
SHADEPLOT
 70
     0
102
SHADEPLOTRESLEVEL
 70
     2
102
SHADEPLOTCUSTOMDPI
 70
   300
  0
ENDSEC
  0
EOF
