  0
SECTION
  2
HEADER
  9
$ACADVER
  1
AC1027
  9
$ACADMAINTVER
 70
   125
  9
$DWGCODEPAGE
  3
ANSI_1252
  9
$LASTSAVEDBY
  1
kaschu
  9
$REQUIREDVERSIONS
160
                 0
  9
$INSBASE
 10
0.0
 20
0.0
 30
0.0
  9
$EXTMIN
 10
-11425.09223890763
 20
-846.928348674281
 30
-0.0000000000002545
  9
$EXTMAX
 10
3701.61034258628
 20
1360.035167297469
 30
0.0000000000001721
  9
$LIMMIN
 10
-0.5
 20
-0.5
  9
$LIMMAX
 10
5.0
 20
5.0
  9
$ORTHOMODE
 70
     0
  9
$REGENMODE
 70
     1
  9
$FILLMODE
 70
     1
  9
$QTEXTMODE
 70
     0
  9
$MIRRTEXT
 70
     1
  9
$LTSCALE
 40
1.0
  9
$ATTMODE
 70
     1
  9
$TEXTSIZE
 40
0.2
  9
$TRACEWID
 40
0.05
  9
$TEXTSTYLE
  7
Standard
  9
$CLAYER
  8
HEWI
  9
$CELTYPE
  6
BYLAYER
  9
$CECOLOR
 62
   256
  9
$CELTSCALE
 40
1.0
  9
$DISPSILH
 70
     0
  9
$DIMSCALE
 40
1.0
  9
$DIMASZ
 40
0.18
  9
$DIMEXO
 40
0.0625
  9
$DIMDLI
 40
0.38
  9
$DIMRND
 40
0.0
  9
$DIMDLE
 40
0.0
  9
$DIMEXE
 40
0.18
  9
$DIMTP
 40
0.0
  9
$DIMTM
 40
0.0
  9
$DIMTXT
 40
0.18
  9
$DIMCEN
 40
0.09
  9
$DIMTSZ
 40
0.0
  9
$DIMTOL
 70
     0
  9
$DIMLIM
 70
     0
  9
$DIMTIH
 70
     1
  9
$DIMTOH
 70
     1
  9
$DIMSE1
 70
     0
  9
$DIMSE2
 70
     0
  9
$DIMTAD
 70
     0
  9
$DIMZIN
 70
     0
  9
$DIMBLK
  1

  9
$DIMASO
 70
     1
  9
$DIMSHO
 70
     1
  9
$DIMPOST
  1

  9
$DIMAPOST
  1

  9
$DIMALT
 70
     0
  9
$DIMALTD
 70
     2
  9
$DIMALTF
 40
25.4
  9
$DIMLFAC
 40
1.0
  9
$DIMTOFL
 70
     0
  9
$DIMTVP
 40
0.0
  9
$DIMTIX
 70
     0
  9
$DIMSOXD
 70
     0
  9
$DIMSAH
 70
     0
  9
$DIMBLK1
  1

  9
$DIMBLK2
  1

  9
$DIMSTYLE
  2
Standard
  9
$DIMCLRD
 70
     0
  9
$DIMCLRE
 70
     0
  9
$DIMCLRT
 70
     0
  9
$DIMTFAC
 40
1.0
  9
$DIMGAP
 40
0.09
  9
$DIMJUST
 70
     0
  9
$DIMSD1
 70
     0
  9
$DIMSD2
 70
     0
  9
$DIMTOLJ
 70
     1
  9
$DIMTZIN
 70
     0
  9
$DIMALTZ
 70
     0
  9
$DIMALTTZ
 70
     0
  9
$DIMUPT
 70
     0
  9
$DIMDEC
 70
     4
  9
$DIMTDEC
 70
     4
  9
$DIMALTU
 70
     2
  9
$DIMALTTD
 70
     2
  9
$DIMTXSTY
  7
Standard
  9
$DIMAUNIT
 70
     0
  9
$DIMADEC
 70
     0
  9
$DIMALTRND
 40
0.0
  9
$DIMAZIN
 70
     0
  9
$DIMDSEP
 70
    46
  9
$DIMATFIT
 70
     3
  9
$DIMFRAC
 70
     0
  9
$DIMLDRBLK
  1

  9
$DIMLUNIT
 70
     2
  9
$DIMLWD
 70
    -2
  9
$DIMLWE
 70
    -2
  9
$DIMTMOVE
 70
     0
  9
$DIMFXL
 40
1.0
  9
$DIMFXLON
 70
     0
  9
$DIMJOGANG
 40
0.7853981633974483
  9
$DIMTFILL
 70
     0
  9
$DIMTFILLCLR
 70
     0
  9
$DIMARCSYM
 70
     0
  9
$DIMLTYPE
  6

  9
$DIMLTEX1
  6

  9
$DIMLTEX2
  6

  9
$DIMTXTDIRECTION
 70
     0
  9
$LUNITS
 70
     2
  9
$LUPREC
 70
     4
  9
$SKETCHINC
 40
0.1
  9
$FILLETRAD
 40
0.5
  9
$AUNITS
 70
     0
  9
$AUPREC
 70
     0
  9
$MENU
  1
.
  9
$ELEVATION
 40
0.0
  9
$PELEVATION
 40
0.0
  9
$THICKNESS
 40
0.0
  9
$LIMCHECK
 70
     0
  9
$CHAMFERA
 40
0.5
  9
$CHAMFERB
 40
0.5
  9
$CHAMFERC
 40
1.0
  9
$CHAMFERD
 40
0.0
  9
$SKPOLY
 70
     0
  9
$TDCREATE
 40
2457709.612233796
  9
$TDUCREATE
 40
2457709.570570822
  9
$TDUPDATE
 40
2459613.661087963
  9
$TDUUPDATE
 40
2459613.619421296
  9
$TDINDWG
 40
0.0654442477
  9
$TDUSRTIMER
 40
0.0654442014
  9
$USRTIMER
 70
     1
  9
$ANGBASE
 50
0.0
  9
$ANGDIR
 70
     0
  9
$PDMODE
 70
     0
  9
$PDSIZE
 40
0.0
  9
$PLINEWID
 40
0.0
  9
$SPLFRAME
 70
     0
  9
$SPLINETYPE
 70
     6
  9
$SPLINESEGS
 70
     8
  9
$HANDSEED
  5
3F7E
  9
$SURFTAB1
 70
     6
  9
$SURFTAB2
 70
     6
  9
$SURFTYPE
 70
     6
  9
$SURFU
 70
     6
  9
$SURFV
 70
     6
  9
$UCSBASE
  2

  9
$UCSNAME
  2

  9
$UCSORG
 10
0.0
 20
0.0
 30
0.0
  9
$UCSXDIR
 10
1.0
 20
0.0
 30
0.0
  9
$UCSYDIR
 10
0.0
 20
1.0
 30
0.0
  9
$UCSORTHOREF
  2

  9
$UCSORTHOVIEW
 70
     0
  9
$UCSORGTOP
 10
0.0
 20
0.0
 30
0.0
  9
$UCSORGBOTTOM
 10
0.0
 20
0.0
 30
0.0
  9
$UCSORGLEFT
 10
0.0
 20
0.0
 30
0.0
  9
$UCSORGRIGHT
 10
0.0
 20
0.0
 30
0.0
  9
$UCSORGFRONT
 10
0.0
 20
0.0
 30
0.0
  9
$UCSORGBACK
 10
0.0
 20
0.0
 30
0.0
  9
$PUCSBASE
  2

  9
$PUCSNAME
  2

  9
$PUCSORG
 10
0.0
 20
0.0
 30
0.0
  9
$PUCSXDIR
 10
1.0
 20
0.0
 30
0.0
  9
$PUCSYDIR
 10
0.0
 20
1.0
 30
0.0
  9
$PUCSORTHOREF
  2

  9
$PUCSORTHOVIEW
 70
     0
  9
$PUCSORGTOP
 10
0.0
 20
0.0
 30
0.0
  9
$PUCSORGBOTTOM
 10
0.0
 20
0.0
 30
0.0
  9
$PUCSORGLEFT
 10
0.0
 20
0.0
 30
0.0
  9
$PUCSORGRIGHT
 10
0.0
 20
0.0
 30
0.0
  9
$PUCSORGFRONT
 10
0.0
 20
0.0
 30
0.0
  9
$PUCSORGBACK
 10
0.0
 20
0.0
 30
0.0
  9
$USERI1
 70
     0
  9
$USERI2
 70
     0
  9
$USERI3
 70
     0
  9
$USERI4
 70
     0
  9
$USERI5
 70
     0
  9
$USERR1
 40
0.0
  9
$USERR2
 40
0.0
  9
$USERR3
 40
0.0
  9
$USERR4
 40
0.0
  9
$USERR5
 40
0.0
  9
$WORLDVIEW
 70
     1
  9
$SHADEDGE
 70
     3
  9
$SHADEDIF
 70
    70
  9
$TILEMODE
 70
     1
  9
$MAXACTVP
 70
    64
  9
$PINSBASE
 10
0.0
 20
0.0
 30
0.0
  9
$PLIMCHECK
 70
     0
  9
$PEXTMIN
 10
-0.5
 20
-0.5
 30
-0.5
  9
$PEXTMAX
 10
5.0
 20
5.0
 30
5.0
  9
$PLIMMIN
 10
-0.5
 20
-0.5
  9
$PLIMMAX
 10
5.0
 20
5.0
  9
$UNITMODE
 70
     0
  9
$VISRETAIN
 70
     1
  9
$PLINEGEN
 70
     0
  9
$PSLTSCALE
 70
     1
  9
$TREEDEPTH
 70
  3020
  9
$CMLSTYLE
  2
Standard
  9
$CMLJUST
 70
     0
  9
$CMLSCALE
 40
1.0
  9
$PROXYGRAPHICS
 70
     1
  9
$MEASUREMENT
 70
     1
  9
$CELWEIGHT
370
    -1
  9
$ENDCAPS
280
     0
  9
$JOINSTYLE
280
     0
  9
$LWDISPLAY
290
     1
  9
$INSUNITS
 70
     4
  9
$HYPERLINKBASE
  1

  9
$STYLESHEET
  1

  9
$XEDIT
290
     1
  9
$CEPSNTYPE
380
     0
  9
$PSTYLEMODE
290
     1
  9
$FINGERPRINTGUID
  2
{4E37A116-25B5-4624-9C8B-138BCAC3F045}
  9
$VERSIONGUID
  2
{F188B4A0-AC1F-714E-9C8F-C4F437D34138}
  9
$EXTNAMES
290
     1
  9
$PSVPSCALE
 40
0.0
  9
$OLESTARTUP
290
     0
  9
$SORTENTS
280
   127
  9
$INDEXCTL
280
     0
  9
$HIDETEXT
280
     1
  9
$XCLIPFRAME
280
     0
  9
$HALOGAP
280
     0
  9
$OBSCOLOR
 70
   257
  9
$OBSLTYPE
280
     0
  9
$INTERSECTIONDISPLAY
280
     0
  9
$INTERSECTIONCOLOR
 70
   257
  9
$DIMASSOC
280
     2
  9
$PROJECTNAME
  1

  9
$CAMERADISPLAY
290
     0
  9
$LENSLENGTH
 40
50.0
  9
$CAMERAHEIGHT
 40
0.0
  9
$STEPSPERSEC
 40
2.0
  9
$STEPSIZE
 40
6.0
  9
$3DDWFPREC
 40
2.0
  9
$PSOLWIDTH
 40
0.25
  9
$PSOLHEIGHT
 40
4.0
  9
$LOFTANG1
 40
1.570796326794896
  9
$LOFTANG2
 40
1.570796326794896
  9
$LOFTMAG1
 40
0.0
  9
$LOFTMAG2
 40
0.0
  9
$LOFTPARAM
 70
     7
  9
$LOFTNORMALS
280
     1
  9
$LATITUDE
 40
37.795
  9
$LONGITUDE
 40
-122.394
  9
$NORTHDIRECTION
 40
0.0
  9
$TIMEZONE
 70
 -8000
  9
$LIGHTGLYPHDISPLAY
280
     1
  9
$TILEMODELIGHTSYNCH
280
     1
  9
$CMATERIAL
347
3C
  9
$SOLIDHIST
280
     0
  9
$SHOWHIST
280
     1
  9
$DWFFRAME
280
     2
  9
$DGNFRAME
280
     0
  9
$REALWORLDSCALE
290
     1
  9
$INTERFERECOLOR
 62
     1
  9
$INTERFEREOBJVS
345
33
  9
$INTERFEREVPVS
346
13FC
  9
$CSHADOW
280
     0
  9
$SHADOWPLANELOCATION
 40
0.0
  0
ENDSEC
  0
SECTION
  2
CLASSES
  0
CLASS
  1
ACDBDICTIONARYWDFLT
  2
AcDbDictionaryWithDefault
  3
ObjectDBX Classes
 90
        0
 91
        1
280
     0
281
     0
  0
CLASS
  1
VISUALSTYLE
  2
AcDbVisualStyle
  3
ObjectDBX Classes
 90
     4095
 91
       26
280
     0
281
     0
  0
CLASS
  1
MATERIAL
  2
AcDbMaterial
  3
ObjectDBX Classes
 90
     1153
 91
        3
280
     0
281
     0
  0
CLASS
  1
TABLESTYLE
  2
AcDbTableStyle
  3
ObjectDBX Classes
 90
     4095
 91
        1
280
     0
281
     0
  0
CLASS
  1
SCALE
  2
AcDbScale
  3
ObjectDBX Classes
 90
     1153
 91
       17
280
     0
281
     0
  0
CLASS
  1
MLEADERSTYLE
  2
AcDbMLeaderStyle
  3
ACDB_MLEADERSTYLE_CLASS
 90
     4095
 91
        1
280
     0
281
     0
  0
CLASS
  1
ACDBSECTIONVIEWSTYLE
  2
AcDbSectionViewStyle
  3
ObjectDBX Classes
 90
     1025
 91
        2
280
     0
281
     0
  0
CLASS
  1
ACDBDETAILVIEWSTYLE
  2
AcDbDetailViewStyle
  3
ObjectDBX Classes
 90
     1025
 91
        2
280
     0
281
     0
  0
CLASS
  1
DICTIONARYVAR
  2
AcDbDictionaryVar
  3
ObjectDBX Classes
 90
        0
 91
        9
280
     0
281
     0
  0
CLASS
  1
DIMASSOC
  2
AcDbDimAssoc
  3
"AcDbDimAssoc|Product Desc:     AcDim ARX App For Dimension|Company:          Autodesk, Inc.|WEB Address:      www.autodesk.com"
 90
        0
 91
       34
280
     0
281
     0
  0
CLASS
  1
SORTENTSTABLE
  2
AcDbSortentsTable
  3
ObjectDBX Classes
 90
        0
 91
        1
280
     0
281
     0
  0
CLASS
  1
CELLSTYLEMAP
  2
AcDbCellStyleMap
  3
ObjectDBX Classes
 90
     1152
 91
        5
280
     0
281
     0
  0
ENDSEC
  0
SECTION
  2
TABLES
  0
TABLE
  2
VPORT
  5
8
330
0
100
AcDbSymbolTable
 70
    17
1001
ACAD
1000
DbSaveVer
1071
      224
  0
VPORT
  5
29
330
8
100
AcDbSymbolTableRecord
100
AcDbViewportTableRecord
  2
DUMMY
 70
     0
 10
0.0
 20
0.0
 11
1.0
 21
1.0
 12
10.429907
 22
4.5
 13
0.0
 23
0.0
 14
0.5
 24
0.5
 15
0.5
 25
0.5
 16
0.0
 26
0.0
 36
1.0
 17
0.0
 27
0.0
 37
0.0
 40
9.0
 41
1.972972999999999
 42
50.0
 43
0.0
 44
0.0
 50
0.0
 51
0.0
 71
     0
 72
   100
 73
     1
 74
     3
 75
     0
 76
     0
 77
     0
 78
     0
281
     0
 65
     1
110
0.0
120
0.0
130
0.0
111
1.0
121
0.0
131
0.0
112
0.0
122
1.0
132
0.0
 79
     0
146
0.0
348
2F
 60
     3
 61
     5
292
     1
282
     1
141
0.0
142
0.0
 63
   250
421
  3355443
  0
VPORT
  5
13C2
330
8
100
AcDbSymbolTableRecord
100
AcDbViewportTableRecord
  2
*ACTIVE
 70
     0
 10
0.0
 20
0.0
 11
1.0
 21
1.0
 12
1318.61418003101
 22
231.1070611195037
 13
0.0
 23
0.0
 14
0.5
 24
0.5
 15
0.5
 25
0.5
 16
0.0
 26
0.0
 36
1.0
 17
0.0
 27
0.0
 37
0.0
 40
2009.915230399261
 41
2.14188422247446
 42
50.0
 43
1853.549887
 44
-1853.549887
 50
0.0
 51
0.0
 71
     0
 72
   100
 73
     1
 74
     3
 75
     0
 76
     0
 77
     0
 78
     0
281
     0
 65
     1
110
0.0
120
0.0
130
0.0
111
1.0
121
0.0
131
0.0
112
0.0
122
1.0
132
0.0
 79
     0
146
0.0
348
2F
 60
     3
 61
     5
292
     1
282
     1
141
0.0
142
0.0
 63
   250
421
  3355443
1001
ACAD_NAV_VCDISPLAY
1070
     3
  0
VPORT
  5
13C3
330
8
100
AcDbSymbolTableRecord
100
AcDbViewportTableRecord
  2
L1
 70
     0
 10
0.0
 20
0.0
 11
1.0
 21
1.0
 12
485.2110169999998
 22
449.3441509999998
 13
0.0
 23
0.0
 14
0.5
 24
0.5
 15
0.5
 25
0.5
 16
0.0
 26
0.0
 36
1.0
 17
0.0
 27
0.0
 37
0.0
 40
254.0
 41
0.069908
 42
50.0
 43
1853.549887
 44
-1853.549887
 50
0.0
 51
0.0
 71
     0
 72
   100
 73
     1
 74
     3
 75
     0
 76
     0
 77
     0
 78
     0
281
     0
 65
     1
110
0.0
120
0.0
130
0.0
111
1.0
121
0.0
131
0.0
112
0.0
122
1.0
132
0.0
 79
     0
146
0.0
348
2F
 60
     3
 61
     5
292
     1
282
     1
141
0.0
142
0.0
 63
   250
421
  3355443
  0
VPORT
  5
13C4
330
8
100
AcDbSymbolTableRecord
100
AcDbViewportTableRecord
  2
L2
 70
     0
 10
0.0
 20
0.0
 11
0.5
 21
1.0
 12
0.0
 22
0.0
 13
0.0
 23
0.0
 14
0.5
 24
0.5
 15
0.5
 25
0.5
 16
0.0
 26
-1.0
 36
0.0
 17
0.0
 27
0.0
 37
0.0
 40
1319.822715
 41
0.013454
 42
50.0
 43
672.020833
 44
-672.020833
 50
0.0
 51
0.0
 71
     0
 72
   100
 73
     1
 74
     3
 75
     0
 76
     0
 77
     0
 78
     0
281
     0
 65
     1
110
0.0
120
0.0
130
0.0
111
1.0
121
0.0
131
0.0
112
0.0
122
1.0
132
0.0
 79
     0
146
0.0
348
2F
 60
     3
 61
     5
292
     1
282
     1
141
0.0
142
0.0
 63
   250
421
  3355443
  0
VPORT
  5
13C5
330
8
100
AcDbSymbolTableRecord
100
AcDbViewportTableRecord
  2
L2
 70
     0
 10
0.5
 20
0.0
 11
1.0
 21
1.0
 12
0.0
 22
0.0
 13
0.0
 23
0.0
 14
0.5
 24
0.5
 15
0.5
 25
0.5
 16
1.0
 26
0.0
 36
0.0
 17
0.0
 27
0.0
 37
0.0
 40
1319.822715
 41
0.013454
 42
50.0
 43
672.020833
 44
-672.020833
 50
0.0
 51
0.0
 71
     0
 72
   100
 73
     1
 74
     3
 75
     0
 76
     0
 77
     0
 78
     0
281
     0
 65
     1
110
0.0
120
0.0
130
0.0
111
1.0
121
0.0
131
0.0
112
0.0
122
1.0
132
0.0
 79
     0
146
0.0
348
2F
 60
     3
 61
     5
292
     1
282
     1
141
0.0
142
0.0
 63
   250
421
  3355443
  0
VPORT
  5
13C6
330
8
100
AcDbSymbolTableRecord
100
AcDbViewportTableRecord
  2
L3
 70
     0
 10
0.0
 20
0.5
 11
1.0
 21
1.0
 12
485.2110169999998
 22
449.3441509999998
 13
0.0
 23
0.0
 14
0.5
 24
0.5
 15
0.5
 25
0.5
 16
0.0
 26
0.0
 36
1.0
 17
0.0
 27
0.0
 37
0.0
 40
254.0
 41
0.069908
 42
50.0
 43
1853.549887
 44
-1853.549887
 50
0.0
 51
0.0
 71
     0
 72
   100
 73
     1
 74
     3
 75
     0
 76
     0
 77
     0
 78
     0
281
     0
 65
     1
110
0.0
120
0.0
130
0.0
111
1.0
121
0.0
131
0.0
112
0.0
122
1.0
132
0.0
 79
     0
146
0.0
348
2F
 60
     3
 61
     5
292
     1
282
     1
141
0.0
142
0.0
 63
   250
421
  3355443
  0
VPORT
  5
13C7
330
8
100
AcDbSymbolTableRecord
100
AcDbViewportTableRecord
  2
L3
 70
     0
 10
0.0
 20
0.0
 11
1.0
 21
0.5
 12
0.0
 22
0.0
 13
0.0
 23
0.0
 14
0.5
 24
0.5
 15
0.5
 25
0.5
 16
0.0
 26
-1.0
 36
0.0
 17
0.0
 27
0.0
 37
0.0
 40
1319.822715
 41
0.013454
 42
50.0
 43
672.020833
 44
-672.020833
 50
0.0
 51
0.0
 71
     0
 72
   100
 73
     1
 74
     3
 75
     0
 76
     0
 77
     0
 78
     0
281
     0
 65
     1
110
0.0
120
0.0
130
0.0
111
1.0
121
0.0
131
0.0
112
0.0
122
1.0
132
0.0
 79
     0
146
0.0
348
2F
 60
     3
 61
     5
292
     1
282
     1
141
0.0
142
0.0
 63
   250
421
  3355443
  0
VPORT
  5
13C8
330
8
100
AcDbSymbolTableRecord
100
AcDbViewportTableRecord
  2
L4
 70
     0
 10
0.0
 20
0.5
 11
0.5
 21
1.0
 12
485.2110169999998
 22
449.3441509999998
 13
0.0
 23
0.0
 14
0.5
 24
0.5
 15
0.5
 25
0.5
 16
0.0
 26
0.0
 36
1.0
 17
0.0
 27
0.0
 37
0.0
 40
254.0
 41
0.069908
 42
50.0
 43
1853.549887
 44
-1853.549887
 50
0.0
 51
0.0
 71
     0
 72
   100
 73
     1
 74
     3
 75
     0
 76
     0
 77
     0
 78
     0
281
     0
 65
     1
110
0.0
120
0.0
130
0.0
111
1.0
121
0.0
131
0.0
112
0.0
122
1.0
132
0.0
 79
     0
146
0.0
348
2F
 60
     3
 61
     5
292
     1
282
     1
141
0.0
142
0.0
 63
   250
421
  3355443
  0
VPORT
  5
13C9
330
8
100
AcDbSymbolTableRecord
100
AcDbViewportTableRecord
  2
L4
 70
     0
 10
0.0
 20
0.0
 11
0.5
 21
0.5
 12
0.0
 22
0.0
 13
0.0
 23
0.0
 14
0.5
 24
0.5
 15
0.5
 25
0.5
 16
0.0
 26
-1.0
 36
0.0
 17
0.0
 27
0.0
 37
0.0
 40
1319.822715
 41
0.013454
 42
50.0
 43
672.020833
 44
-672.020833
 50
0.0
 51
0.0
 71
     0
 72
   100
 73
     1
 74
     3
 75
     0
 76
     0
 77
     0
 78
     0
281
     0
 65
     1
110
0.0
120
0.0
130
0.0
111
1.0
121
0.0
131
0.0
112
0.0
122
1.0
132
0.0
 79
     0
146
0.0
348
2F
 60
     3
 61
     5
292
     1
282
     1
141
0.0
142
0.0
 63
   250
421
  3355443
  0
VPORT
  5
13CA
330
8
100
AcDbSymbolTableRecord
100
AcDbViewportTableRecord
  2
L4
 70
     0
 10
0.5
 20
0.0
 11
1.0
 21
0.5
 12
0.0
 22
0.0
 13
0.0
 23
0.0
 14
0.5
 24
0.5
 15
0.5
 25
0.5
 16
1.0
 26
0.0
 36
0.0
 17
0.0
 27
0.0
 37
0.0
 40
1319.822715
 41
0.013454
 42
50.0
 43
672.020833
 44
-672.020833
 50
0.0
 51
0.0
 71
     0
 72
   100
 73
     1
 74
     3
 75
     0
 76
     0
 77
     0
 78
     0
281
     0
 65
     1
110
0.0
120
0.0
130
0.0
111
1.0
121
0.0
131
0.0
112
0.0
122
1.0
132
0.0
 79
     0
146
0.0
348
2F
 60
     3
 61
     5
292
     1
282
     1
141
0.0
142
0.0
 63
   250
421
  3355443
  0
VPORT
  5
13CB
330
8
100
AcDbSymbolTableRecord
100
AcDbViewportTableRecord
  2
L4
 70
     0
 10
0.5
 20
0.5
 11
1.0
 21
1.0
 12
0.0
 22
0.0
 13
0.0
 23
0.0
 14
0.5
 24
0.5
 15
0.5
 25
0.5
 16
0.577350269189626
 26
-0.577350269189626
 36
0.577350269189626
 17
0.0
 27
0.0
 37
0.0
 40
1285.020866
 41
0.013818
 42
50.0
 43
667.141407
 44
-667.141407
 50
0.0
 51
0.0
 71
     0
 72
   100
 73
     1
 74
     3
 75
     0
 76
     0
 77
     0
 78
     0
281
     0
 65
     1
110
0.0
120
0.0
130
0.0
111
1.0
121
0.0
131
0.0
112
0.0
122
1.0
132
0.0
 79
     0
146
0.0
348
2F
 60
     3
 61
     5
292
     1
282
     1
141
0.0
142
0.0
 63
   250
421
  3355443
  0
VPORT
  5
13CC
330
8
100
AcDbSymbolTableRecord
100
AcDbViewportTableRecord
  2
L6
 70
     0
 10
0.0
 20
0.5
 11
0.333333
 21
1.0
 12
0.0
 22
0.0
 13
0.0
 23
0.0
 14
0.5
 24
0.5
 15
0.5
 25
0.5
 16
0.7188730927569436
 26
-0.5850486126764433
 36
0.3754192287502549
 17
0.0
 27
0.0
 37
0.0
 40
1357.434192
 41
0.013081
 42
50.0
 43
701.839477
 44
-701.839477
 50
0.0
 51
0.0
 71
     0
 72
   100
 73
     1
 74
     3
 75
     0
 76
     0
 77
     0
 78
     0
281
     0
 65
     1
110
0.0
120
0.0
130
0.0
111
1.0
121
0.0
131
0.0
112
0.0
122
1.0
132
0.0
 79
     0
146
0.0
348
2F
 60
     3
 61
     5
292
     1
282
     1
141
0.0
142
0.0
 63
   250
421
  3355443
  0
VPORT
  5
13CD
330
8
100
AcDbSymbolTableRecord
100
AcDbViewportTableRecord
  2
L6
 70
     0
 10
0.0
 20
0.0
 11
0.333333
 21
0.5
 12
0.0
 22
0.0
 13
0.0
 23
0.0
 14
0.5
 24
0.5
 15
0.5
 25
0.5
 16
-1.0
 26
0.0
 36
0.0
 17
0.0
 27
0.0
 37
0.0
 40
1319.822715
 41
0.013454
 42
50.0
 43
672.020833
 44
-672.020833
 50
0.0
 51
0.0
 71
     0
 72
   100
 73
     1
 74
     3
 75
     0
 76
     0
 77
     0
 78
     0
281
     0
 65
     1
110
0.0
120
0.0
130
0.0
111
1.0
121
0.0
131
0.0
112
0.0
122
1.0
132
0.0
 79
     0
146
0.0
348
2F
 60
     3
 61
     5
292
     1
282
     1
141
0.0
142
0.0
 63
   250
421
  3355443
  0
VPORT
  5
13CE
330
8
100
AcDbSymbolTableRecord
100
AcDbViewportTableRecord
  2
L6
 70
     0
 10
0.333333
 20
0.5
 11
0.666667
 21
1.0
 12
485.2110169999998
 22
449.3441509999998
 13
0.0
 23
0.0
 14
0.5
 24
0.5
 15
0.5
 25
0.5
 16
0.0
 26
0.0
 36
1.0
 17
0.0
 27
0.0
 37
0.0
 40
254.0
 41
0.069908
 42
50.0
 43
1853.549887
 44
-1853.549887
 50
0.0
 51
0.0
 71
     0
 72
   100
 73
     1
 74
     3
 75
     0
 76
     0
 77
     0
 78
     0
281
     0
 65
     1
110
0.0
120
0.0
130
0.0
111
1.0
121
0.0
131
0.0
112
0.0
122
1.0
132
0.0
 79
     0
146
0.0
348
2F
 60
     3
 61
     5
292
     1
282
     1
141
0.0
142
0.0
 63
   250
421
  3355443
  0
VPORT
  5
13CF
330
8
100
AcDbSymbolTableRecord
100
AcDbViewportTableRecord
  2
L6
 70
     0
 10
0.333333
 20
0.0
 11
0.666667
 21
0.5
 12
0.0
 22
0.0
 13
0.0
 23
0.0
 14
0.5
 24
0.5
 15
0.5
 25
0.5
 16
0.0
 26
-1.0
 36
0.0
 17
0.0
 27
0.0
 37
0.0
 40
1319.822715
 41
0.013454
 42
50.0
 43
672.020833
 44
-672.020833
 50
0.0
 51
0.0
 71
     0
 72
   100
 73
     1
 74
     3
 75
     0
 76
     0
 77
     0
 78
     0
281
     0
 65
     1
110
0.0
120
0.0
130
0.0
111
1.0
121
0.0
131
0.0
112
0.0
122
1.0
132
0.0
 79
     0
146
0.0
348
2F
 60
     3
 61
     5
292
     1
282
     1
141
0.0
142
0.0
 63
   250
421
  3355443
  0
VPORT
  5
13D0
330
8
100
AcDbSymbolTableRecord
100
AcDbViewportTableRecord
  2
L6
 70
     0
 10
0.666667
 20
0.5
 11
1.0
 21
1.0
 12
0.0
 22
0.0
 13
0.0
 23
0.0
 14
0.5
 24
0.5
 15
0.5
 25
0.5
 16
0.577350269189626
 26
-0.577350269189626
 36
0.577350269189626
 17
0.0
 27
0.0
 37
0.0
 40
1285.020866
 41
0.013818
 42
50.0
 43
667.141407
 44
-667.141407
 50
0.0
 51
0.0
 71
     0
 72
   100
 73
     1
 74
     3
 75
     0
 76
     0
 77
     0
 78
     0
281
     0
 65
     1
110
0.0
120
0.0
130
0.0
111
1.0
121
0.0
131
0.0
112
0.0
122
1.0
132
0.0
 79
     0
146
0.0
348
2F
 60
     3
 61
     5
292
     1
282
     1
141
0.0
142
0.0
 63
   250
421
  3355443
  0
VPORT
  5
13D1
330
8
100
AcDbSymbolTableRecord
100
AcDbViewportTableRecord
  2
L6
 70
     0
 10
0.666667
 20
0.0
 11
1.0
 21
0.5
 12
0.0
 22
0.0
 13
0.0
 23
0.0
 14
0.5
 24
0.5
 15
0.5
 25
0.5
 16
1.0
 26
0.0
 36
0.0
 17
0.0
 27
0.0
 37
0.0
 40
1319.822715
 41
0.013454
 42
50.0
 43
672.020833
 44
-672.020833
 50
0.0
 51
0.0
 71
     0
 72
   100
 73
     1
 74
     3
 75
     0
 76
     0
 77
     0
 78
     0
281
     0
 65
     1
110
0.0
120
0.0
130
0.0
111
1.0
121
0.0
131
0.0
112
0.0
122
1.0
132
0.0
 79
     0
146
0.0
348
2F
 60
     3
 61
     5
292
     1
282
     1
141
0.0
142
0.0
 63
   250
421
  3355443
  0
ENDTAB
  0
TABLE
  2
LTYPE
  5
5
330
0
100
AcDbSymbolTable
 70
     3
  0
LTYPE
  5
14
330
5
100
AcDbSymbolTableRecord
100
AcDbLinetypeTableRecord
  2
BYBLOCK
 70
     0
  3

 72
    65
 73
     0
 40
0.0
  0
LTYPE
  5
15
330
5
100
AcDbSymbolTableRecord
100
AcDbLinetypeTableRecord
  2
BYLAYER
 70
     0
  3

 72
    65
 73
     0
 40
0.0
  0
LTYPE
  5
16
330
5
100
AcDbSymbolTableRecord
100
AcDbLinetypeTableRecord
  2
CONTINUOUS
 70
     0
  3
Solid line
 72
    65
 73
     0
 40
0.0
  0
LTYPE
  5
1F87
330
5
100
AcDbSymbolTableRecord
100
AcDbLinetypeTableRecord
  2
CUSTOM
 70
     0
  3

 72
    65
 73
     0
 40
0.0
  0
LTYPE
  5
2443
330
5
100
AcDbSymbolTableRecord
100
AcDbLinetypeTableRecord
  2
CENTER
 70
     0
  3
____ _ ____ _ ____ _ ____
 72
    65
 73
     4
 40
47.4
 49
22.0
 74
     4
 75
     0
340
0
 46
0.0
 50
0.0
 44
0.0
 45
0.0
 49
-8.5
 74
     4
 75
     0
340
0
 46
0.0
 50
0.0
 44
0.0
 45
0.0
 49
8.5
 74
     4
 75
     0
340
0
 46
0.0
 50
0.0
 44
0.0
 45
0.0
 49
-8.5
 74
     4
 75
     0
340
0
 46
0.0
 50
0.0
 44
0.0
 45
0.0
  0
ENDTAB
  0
TABLE
  2
LAYER
  5
2
102
{ACAD_XDICTIONARY
360
1559
102
}
330
0
100
AcDbSymbolTable
 70
     5
  0
LAYER
  5
10
102
{ACAD_XDICTIONARY
360
14CA
102
}
330
2
100
AcDbSymbolTableRecord
100
AcDbLayerTableRecord
  2
0
 70
     0
 62
     7
  6
CONTINUOUS
370
    -3
390
F
347
3E
348
0
  0
LAYER
  5
1572
330
2
100
AcDbSymbolTableRecord
100
AcDbLayerTableRecord
  2
PV-B2
 70
     2
 62
     7
  6
CONTINUOUS
370
    -3
390
F
347
3E
348
0
  0
LAYER
  5
1606
330
2
100
AcDbSymbolTableRecord
100
AcDbLayerTableRecord
  2
Defpoints
 70
     0
 62
     7
  6
CONTINUOUS
290
     0
370
    -3
390
F
347
3E
348
0
  0
LAYER
  5
165B
330
2
100
AcDbSymbolTableRecord
100
AcDbLayerTableRecord
  2
HEWI
 70
     0
 62
     7
  6
CONTINUOUS
370
    13
390
F
347
3E
348
0
1001
AcAecLayerStandard
1000

1000

1001
AcCmTransparency
1071
        0
  0
LAYER
  5
2444
330
2
100
AcDbSymbolTableRecord
100
AcDbLayerTableRecord
  2
1
 70
     0
 62
     7
420
 16777215
  6
CONTINUOUS
370
    -3
390
F
347
3E
348
0
  0
ENDTAB
  0
TABLE
  2
STYLE
  5
3
330
0
100
AcDbSymbolTable
 70
     2
  0
STYLE
  5
11
330
3
100
AcDbSymbolTableRecord
100
AcDbTextStyleTableRecord
  2
Standard
 70
     0
 40
0.0
 41
1.0
 50
0.0
 71
     0
 42
0.2
  3
txt
  4

  0
STYLE
  5
2445
330
3
100
AcDbSymbolTableRecord
100
AcDbTextStyleTableRecord
  2
iso-1
 70
     0
 40
0.0
 41
1.0
 50
0.0
 71
     0
 42
0.2
  3
isocp.shx
  4

  0
ENDTAB
  0
TABLE
  2
VIEW
  5
6
330
0
100
AcDbSymbolTable
 70
     0
  0
ENDTAB
  0
TABLE
  2
UCS
  5
7
330
0
100
AcDbSymbolTable
 70
     0
  0
ENDTAB
  0
TABLE
  2
APPID
  5
9
330
0
100
AcDbSymbolTable
 70
    10
  0
APPID
  5
12
330
9
100
AcDbSymbolTableRecord
100
AcDbRegAppTableRecord
  2
ACAD
 70
     0
  0
APPID
  5
1422
330
9
100
AcDbSymbolTableRecord
100
AcDbRegAppTableRecord
  2
ACAD_NAV_VCDISPLAY
 70
     0
  0
APPID
  5
163A
330
9
100
AcDbSymbolTableRecord
100
AcDbRegAppTableRecord
  2
ACAD_EXEMPT_FROM_CAD_STANDARDS
 70
     0
  0
APPID
  5
165C
330
9
100
AcDbSymbolTableRecord
100
AcDbRegAppTableRecord
  2
AcAecLayerStandard
 70
     0
  0
APPID
  5
165D
330
9
100
AcDbSymbolTableRecord
100
AcDbRegAppTableRecord
  2
AcCmTransparency
 70
     0
  0
APPID
  5
1F88
330
9
100
AcDbSymbolTableRecord
100
AcDbRegAppTableRecord
  2
ACAD_PSEXT
 70
     0
  0
APPID
  5
2446
330
9
100
AcDbSymbolTableRecord
100
AcDbRegAppTableRecord
  2
ACAD_DSTYLE_DIMBREAK
 70
     0
  0
APPID
  5
2447
330
9
100
AcDbSymbolTableRecord
100
AcDbRegAppTableRecord
  2
ACAD_DSTYLE_DIM_LINETYPE
 70
     0
  0
APPID
  5
2448
330
9
100
AcDbSymbolTableRecord
100
AcDbRegAppTableRecord
  2
ACAD_DSTYLE_DIM_EXT1_LINETYPE
 70
     0
  0
APPID
  5
2449
330
9
100
AcDbSymbolTableRecord
100
AcDbRegAppTableRecord
  2
ACAD_DSTYLE_DIM_EXT2_LINETYPE
 70
     0
  0
ENDTAB
  0
TABLE
  2
DIMSTYLE
  5
A
330
0
100
AcDbSymbolTable
 70
     2
100
AcDbDimStyleTable
 71
     1
340
27
  0
DIMSTYLE
105
27
330
A
100
AcDbSymbolTableRecord
100
AcDbDimStyleTableRecord
  2
Standard
 70
     0
340
11
  0
DIMSTYLE
105
203D
330
A
100
AcDbSymbolTableRecord
100
AcDbDimStyleTableRecord
  2
ISO-25
 70
     0
 41
2.5
 42
0.625
 43
3.75
 44
1.25
 73
     0
 74
     0
 77
     1
 78
     8
140
2.5
141
2.5
143
0.03937007874016
147
0.625
171
     3
172
     1
271
     2
272
     2
274
     3
278
    44
283
     0
284
     8
340
11
  0
ENDTAB
  0
TABLE
  2
BLOCK_RECORD
  5
1
330
0
100
AcDbSymbolTable
 70
    51
  0
BLOCK_RECORD
  5
1F
102
{ACAD_XDICTIONARY
360
1666
102
}
330
1
100
AcDbSymbolTableRecord
100
AcDbBlockTableRecord
  2
*Model_Space
340
22
 70
     0
280
     1
281
     0
  0
BLOCK_RECORD
  5
1B
330
1
100
AcDbSymbolTableRecord
100
AcDbBlockTableRecord
  2
*Paper_Space
340
1E
 70
     0
280
     1
281
     0
  0
BLOCK_RECORD
  5
23
330
1
100
AcDbSymbolTableRecord
100
AcDbBlockTableRecord
  2
*Paper_Space0
340
26
 70
     0
280
     1
281
     0
  0
BLOCK_RECORD
  5
1B59
330
1
100
AcDbSymbolTableRecord
100
AcDbBlockTableRecord
  2
*D1
340
0
 70
     0
280
     1
281
     0
  0
BLOCK_RECORD
  5
1B73
330
1
100
AcDbSymbolTableRecord
100
AcDbBlockTableRecord
  2
*D2
340
0
 70
     0
280
     1
281
     0
  0
BLOCK_RECORD
  5
1B8D
330
1
100
AcDbSymbolTableRecord
100
AcDbBlockTableRecord
  2
*D3
340
0
 70
     0
280
     1
281
     0
  0
BLOCK_RECORD
  5
1C57
330
1
100
AcDbSymbolTableRecord
100
AcDbBlockTableRecord
  2
*D4
340
0
 70
     0
280
     1
281
     0
  0
BLOCK_RECORD
  5
1C71
330
1
100
AcDbSymbolTableRecord
100
AcDbBlockTableRecord
  2
*D5
340
0
 70
     0
280
     1
281
     0
  0
BLOCK_RECORD
  5
1C8B
330
1
100
AcDbSymbolTableRecord
100
AcDbBlockTableRecord
  2
*D6
340
0
 70
     0
280
     1
281
     0
  0
BLOCK_RECORD
  5
1CA6
330
1
100
AcDbSymbolTableRecord
100
AcDbBlockTableRecord
  2
*D7
340
0
 70
     0
280
     1
281
     0
  0
BLOCK_RECORD
  5
1D19
330
1
100
AcDbSymbolTableRecord
100
AcDbBlockTableRecord
  2
*D8
340
0
 70
     0
280
     1
281
     0
  0
BLOCK_RECORD
  5
1D87
330
1
100
AcDbSymbolTableRecord
100
AcDbBlockTableRecord
  2
*D9
340
0
 70
     0
280
     1
281
     0
  0
BLOCK_RECORD
  5
1DA1
330
1
100
AcDbSymbolTableRecord
100
AcDbBlockTableRecord
  2
*D10
340
0
 70
     0
280
     1
281
     0
  0
BLOCK_RECORD
  5
1DBB
330
1
100
AcDbSymbolTableRecord
100
AcDbBlockTableRecord
  2
*D11
340
0
 70
     0
280
     1
281
     0
  0
BLOCK_RECORD
  5
1DD5
330
1
100
AcDbSymbolTableRecord
100
AcDbBlockTableRecord
  2
*D12
340
0
 70
     0
280
     1
281
     0
  0
BLOCK_RECORD
  5
1DF1
330
1
100
AcDbSymbolTableRecord
100
AcDbBlockTableRecord
  2
*D13
340
0
 70
     0
280
     1
281
     0
  0
BLOCK_RECORD
  5
1E0B
330
1
100
AcDbSymbolTableRecord
100
AcDbBlockTableRecord
  2
*D14
340
0
 70
     0
280
     1
281
     0
  0
BLOCK_RECORD
  5
1E43
330
1
100
AcDbSymbolTableRecord
100
AcDbBlockTableRecord
  2
*D15
340
0
 70
     0
280
     1
281
     0
  0
BLOCK_RECORD
  5
1E5D
330
1
100
AcDbSymbolTableRecord
100
AcDbBlockTableRecord
  2
*D16
340
0
 70
     0
280
     1
281
     0
  0
BLOCK_RECORD
  5
1E77
330
1
100
AcDbSymbolTableRecord
100
AcDbBlockTableRecord
  2
*D17
340
0
 70
     0
280
     1
281
     0
  0
BLOCK_RECORD
  5
2171
330
1
100
AcDbSymbolTableRecord
100
AcDbBlockTableRecord
  2
*D18
340
0
 70
     0
280
     1
281
     0
  0
BLOCK_RECORD
  5
218B
330
1
100
AcDbSymbolTableRecord
100
AcDbBlockTableRecord
  2
*D19
340
0
 70
     0
280
     1
281
     0
  0
BLOCK_RECORD
  5
2428
330
1
100
AcDbSymbolTableRecord
100
AcDbBlockTableRecord
  2
_U0
340
0
 70
     0
280
     1
281
     0
  0
BLOCK_RECORD
  5
2431
330
1
100
AcDbSymbolTableRecord
100
AcDbBlockTableRecord
  2
_U1
340
0
 70
     0
280
     1
281
     0
  0
BLOCK_RECORD
  5
243A
330
1
100
AcDbSymbolTableRecord
100
AcDbBlockTableRecord
  2
_U2
340
0
 70
     0
280
     1
281
     0
  0
BLOCK_RECORD
  5
28F5
330
1
100
AcDbSymbolTableRecord
100
AcDbBlockTableRecord
  2
*D24
340
0
 70
     0
280
     1
281
     0
  0
BLOCK_RECORD
  5
2901
330
1
100
AcDbSymbolTableRecord
100
AcDbBlockTableRecord
  2
*D25
340
0
 70
     0
280
     1
281
     0
  0
BLOCK_RECORD
  5
290D
330
1
100
AcDbSymbolTableRecord
100
AcDbBlockTableRecord
  2
*D26
340
0
 70
     0
280
     1
281
     0
  0
BLOCK_RECORD
  5
29AE
330
1
100
AcDbSymbolTableRecord
100
AcDbBlockTableRecord
  2
*D27
340
0
 70
     0
280
     1
281
     0
  0
BLOCK_RECORD
  5
2A28
330
1
100
AcDbSymbolTableRecord
100
AcDbBlockTableRecord
  2
_U3
340
0
 70
     0
280
     1
281
     0
  0
BLOCK_RECORD
  5
2A31
330
1
100
AcDbSymbolTableRecord
100
AcDbBlockTableRecord
  2
_U4
340
0
 70
     0
280
     1
281
     0
  0
BLOCK_RECORD
  5
2A3A
330
1
100
AcDbSymbolTableRecord
100
AcDbBlockTableRecord
  2
_U5
340
0
 70
     0
280
     1
281
     0
  0
BLOCK_RECORD
  5
2A41
330
1
100
AcDbSymbolTableRecord
100
AcDbBlockTableRecord
  2
_U6
340
0
 70
     0
280
     1
281
     0
  0
BLOCK_RECORD
  5
2A4A
330
1
100
AcDbSymbolTableRecord
100
AcDbBlockTableRecord
  2
_U7
340
0
 70
     0
280
     1
281
     0
  0
BLOCK_RECORD
  5
3883
330
1
100
AcDbSymbolTableRecord
100
AcDbBlockTableRecord
  2
*D34
340
0
 70
     0
280
     1
281
     0
  0
BLOCK_RECORD
  5
388F
330
1
100
AcDbSymbolTableRecord
100
AcDbBlockTableRecord
  2
*D35
340
0
 70
     0
280
     1
281
     0
  0
BLOCK_RECORD
  5
389B
330
1
100
AcDbSymbolTableRecord
100
AcDbBlockTableRecord
  2
*D36
340
0
 70
     0
280
     1
281
     0
  0
BLOCK_RECORD
  5
38A7
330
1
100
AcDbSymbolTableRecord
100
AcDbBlockTableRecord
  2
*D37
340
0
 70
     0
280
     1
281
     0
  0
BLOCK_RECORD
  5
38B3
330
1
100
AcDbSymbolTableRecord
100
AcDbBlockTableRecord
  2
*D38
340
0
 70
     0
280
     1
281
     0
  0
BLOCK_RECORD
  5
38BF
330
1
100
AcDbSymbolTableRecord
100
AcDbBlockTableRecord
  2
*D39
340
0
 70
     0
280
     1
281
     0
  0
BLOCK_RECORD
  5
38CB
330
1
100
AcDbSymbolTableRecord
100
AcDbBlockTableRecord
  2
*D40
340
0
 70
     0
280
     1
281
     0
  0
BLOCK_RECORD
  5
38D7
330
1
100
AcDbSymbolTableRecord
100
AcDbBlockTableRecord
  2
*D41
340
0
 70
     0
280
     1
281
     0
  0
BLOCK_RECORD
  5
3909
330
1
100
AcDbSymbolTableRecord
100
AcDbBlockTableRecord
  2
*D42
340
0
 70
     0
280
     1
281
     0
  0
BLOCK_RECORD
  5
3983
330
1
100
AcDbSymbolTableRecord
100
AcDbBlockTableRecord
  2
*D43
340
0
 70
     0
280
     1
281
     0
  0
BLOCK_RECORD
  5
3ED0
330
1
100
AcDbSymbolTableRecord
100
AcDbBlockTableRecord
  2
*D45
340
0
 70
     0
280
     1
281
     0
  0
BLOCK_RECORD
  5
3EDC
330
1
100
AcDbSymbolTableRecord
100
AcDbBlockTableRecord
  2
*D46
340
0
 70
     0
280
     1
281
     0
  0
BLOCK_RECORD
  5
3EE8
330
1
100
AcDbSymbolTableRecord
100
AcDbBlockTableRecord
  2
*D47
340
0
 70
     0
280
     1
281
     0
  0
BLOCK_RECORD
  5
3EF4
330
1
100
AcDbSymbolTableRecord
100
AcDbBlockTableRecord
  2
*D48
340
0
 70
     0
280
     1
281
     0
  0
BLOCK_RECORD
  5
3F00
330
1
100
AcDbSymbolTableRecord
100
AcDbBlockTableRecord
  2
*D49
340
0
 70
     0
280
     1
281
     0
  0
BLOCK_RECORD
  5
3F0D
330
1
100
AcDbSymbolTableRecord
100
AcDbBlockTableRecord
  2
*D50
340
0
 70
     0
280
     1
281
     0
  0
ENDTAB
  0
ENDSEC
  0
SECTION
  2
BLOCKS
  0
BLOCK
  5
20
330
1F
100
AcDbEntity
  8
0
100
AcDbBlockBegin
  2
*Model_Space
 70
     0
 10
0.0
 20
0.0
 30
0.0
  3
*Model_Space
  1

  0
ENDBLK
  5
21
330
1F
100
AcDbEntity
  8
0
100
AcDbBlockEnd
  0
BLOCK
  5
1C
330
1B
100
AcDbEntity
 67
     1
  8
0
100
AcDbBlockBegin
  2
*Paper_Space
 70
     0
 10
0.0
 20
0.0
 30
0.0
  3
*Paper_Space
  1

  0
ENDBLK
  5
1D
330
1B
100
AcDbEntity
 67
     1
  8
0
100
AcDbBlockEnd
  0
BLOCK
  5
24
330
23
100
AcDbEntity
 67
     1
  8
0
100
AcDbBlockBegin
  2
*Paper_Space0
 70
     0
 10
0.0
 20
0.0
 30
0.0
  3
*Paper_Space0
  1

  0
ENDBLK
  5
25
330
23
100
AcDbEntity
 67
     1
  8
0
100
AcDbBlockEnd
  0
BLOCK
  5
1B5A
330
1B59
100
AcDbEntity
  8
0
100
AcDbBlockBegin
  2
*D1
 70
     1
 10
0.0
 20
0.0
 30
0.0
  3
*D1
  1

  0
LINE
  5
1B67
330
1B59
100
AcDbEntity
  8
HEWI
 62
     0
440
 16777216
370
    -2
100
AcDbLine
 10
1029.966667158042
 20
513.7058710597267
 30
0.0
 11
1036.870541093885
 21
513.7058710597267
 31
0.0
  0
LINE
  5
1B68
330
1B59
100
AcDbEntity
  8
HEWI
 62
     0
440
 16777216
370
    -2
100
AcDbLine
 10
1029.966667158042
 20
504.7193099801473
 30
0.0
 11
1036.870541093885
 21
504.7193099801473
 31
0.0
  0
LINE
  5
1B69
330
1B59
100
AcDbEntity
  8
HEWI
 62
     0
440
 16777216
370
    -2
100
AcDbLine
 10
1036.690541093885
 20
513.5258710597269
 30
0.0
 11
1036.690541093885
 21
509.3925905199371
 31
0.0
  0
LINE
  5
1B6A
330
1B59
100
AcDbEntity
  8
HEWI
 62
     0
440
 16777216
370
    -2
100
AcDbLine
 10
1036.690541093885
 20
504.8993099801474
 30
0.0
 11
1036.690541093885
 21
509.0325905199371
 31
0.0
  0
SOLID
  5
1B6B
330
1B59
100
AcDbEntity
  8
HEWI
 62
     0
440
 16777216
100
AcDbTrace
 10
1036.660541093885
 20
513.5258710597269
 30
0.0
 11
1036.720541093885
 21
513.5258710597269
 31
0.0
 12
1036.690541093885
 22
513.7058710597267
 32
0.0
 13
1036.690541093885
 23
513.7058710597267
 33
0.0
  0
SOLID
  5
1B6C
330
1B59
100
AcDbEntity
  8
HEWI
 62
     0
440
 16777216
100
AcDbTrace
 10
1036.660541093885
 20
504.8993099801474
 30
0.0
 11
1036.720541093885
 21
504.8993099801474
 31
0.0
 12
1036.690541093885
 22
504.7193099801473
 32
0.0
 13
1036.690541093885
 23
504.7193099801473
 33
0.0
  0
MTEXT
  5
1B6D
330
1B59
100
AcDbEntity
  8
HEWI
 62
     0
440
 16777216
100
AcDbMText
 10
1036.690541093885
 20
509.2125905199373
 30
0.0
 40
0.18
 41
0.0
 46
0.0
 71
     5
 72
     1
  1
\A1;8.9866
 73
     1
 44
1.0
  0
POINT
  5
1B6E
330
1B59
100
AcDbEntity
  8
Defpoints
 62
     0
440
 16777216
100
AcDbPoint
 10
1029.904167158042
 20
513.7058710597267
 30
0.0
  0
POINT
  5
1B6F
330
1B59
100
AcDbEntity
  8
Defpoints
 62
     0
440
 16777216
100
AcDbPoint
 10
1029.904167158042
 20
504.7193099801473
 30
0.0
  0
POINT
  5
1B70
330
1B59
100
AcDbEntity
  8
Defpoints
 62
     0
440
 16777216
100
AcDbPoint
 10
1036.690541093885
 20
504.7193099801473
 30
0.0
  0
ENDBLK
  5
1B5B
330
1B59
100
AcDbEntity
  8
0
100
AcDbBlockEnd
  0
BLOCK
  5
1B74
330
1B73
100
AcDbEntity
  8
0
100
AcDbBlockBegin
  2
*D2
 70
     1
 10
0.0
 20
0.0
 30
0.0
  3
*D2
  1

  0
LINE
  5
1B81
330
1B73
100
AcDbEntity
  8
HEWI
 62
     0
440
 16777216
370
    -2
100
AcDbLine
 10
1012.215991836987
 20
328.7193099801474
 30
0.0
 11
1123.827331527456
 21
328.7193099801474
 31
0.0
  0
LINE
  5
1B82
330
1B73
100
AcDbEntity
  8
HEWI
 62
     0
440
 16777216
370
    -2
100
AcDbLine
 10
1012.215991836987
 20
316.7414285531413
 30
0.0
 11
1123.827331527456
 21
316.7414285531413
 31
0.0
  0
LINE
  5
1B83
330
1B73
100
AcDbEntity
  8
HEWI
 62
     0
440
 16777216
370
    -2
100
AcDbLine
 10
1123.647331527456
 20
328.5393099801474
 30
0.0
 11
1123.647331527456
 21
322.9103692666444
 31
0.0
  0
LINE
  5
1B84
330
1B73
100
AcDbEntity
  8
HEWI
 62
     0
440
 16777216
370
    -2
100
AcDbLine
 10
1123.647331527456
 20
316.9214285531413
 30
0.0
 11
1123.647331527456
 21
322.5503692666443
 31
0.0
  0
SOLID
  5
1B85
330
1B73
100
AcDbEntity
  8
HEWI
 62
     0
440
 16777216
100
AcDbTrace
 10
1123.617331527456
 20
328.5393099801474
 30
0.0
 11
1123.677331527456
 21
328.5393099801474
 31
0.0
 12
1123.647331527456
 22
328.7193099801474
 32
0.0
 13
1123.647331527456
 23
328.7193099801474
 33
0.0
  0
SOLID
  5
1B86
330
1B73
100
AcDbEntity
  8
HEWI
 62
     0
440
 16777216
100
AcDbTrace
 10
1123.617331527456
 20
316.9214285531413
 30
0.0
 11
1123.677331527456
 21
316.9214285531413
 31
0.0
 12
1123.647331527456
 22
316.7414285531413
 32
0.0
 13
1123.647331527456
 23
316.7414285531413
 33
0.0
  0
MTEXT
  5
1B87
330
1B73
100
AcDbEntity
  8
HEWI
 62
     0
440
 16777216
100
AcDbMText
 10
1123.647331527456
 20
322.7303692666445
 30
0.0
 40
0.18
 41
0.0
 46
0.0
 71
     5
 72
     1
  1
\A1;11.9779
 73
     1
 44
1.0
  0
POINT
  5
1B88
330
1B73
100
AcDbEntity
  8
Defpoints
 62
     0
440
 16777216
100
AcDbPoint
 10
1012.153491836987
 20
328.7193099801474
 30
0.0
  0
POINT
  5
1B89
330
1B73
100
AcDbEntity
  8
Defpoints
 62
     0
440
 16777216
100
AcDbPoint
 10
1012.153491836987
 20
316.7414285531413
 30
0.0
  0
POINT
  5
1B8A
330
1B73
100
AcDbEntity
  8
Defpoints
 62
     0
440
 16777216
100
AcDbPoint
 10
1123.647331527456
 20
316.7414285531413
 30
0.0
  0
ENDBLK
  5
1B75
330
1B73
100
AcDbEntity
  8
0
100
AcDbBlockEnd
  0
BLOCK
  5
1B8E
330
1B8D
100
AcDbEntity
  8
0
100
AcDbBlockBegin
  2
*D3
 70
     1
 10
0.0
 20
0.0
 30
0.0
  3
*D3
  1

  0
LINE
  5
1B9B
330
1B8D
100
AcDbEntity
  8
HEWI
 62
     0
440
 16777216
370
    -2
100
AcDbLine
 10
966.3331401242771
 20
513.9073460027398
 30
0.0
 11
1000.47127753101
 21
513.9073460027398
 31
0.0
  0
LINE
  5
1B9C
330
1B8D
100
AcDbEntity
  8
HEWI
 62
     0
440
 16777216
370
    -2
100
AcDbLine
 10
966.3331401242771
 20
316.7414285531413
 30
0.0
 11
1000.47127753101
 21
316.7414285531413
 31
0.0
  0
LINE
  5
1B9D
330
1B8D
100
AcDbEntity
  8
HEWI
 62
     0
440
 16777216
370
    -2
100
AcDbLine
 10
1000.29127753101
 20
513.7273460027397
 30
0.0
 11
1000.29127753101
 21
415.5043872779407
 31
0.0
  0
LINE
  5
1B9E
330
1B8D
100
AcDbEntity
  8
HEWI
 62
     0
440
 16777216
370
    -2
100
AcDbLine
 10
1000.29127753101
 20
316.9214285531413
 30
0.0
 11
1000.29127753101
 21
415.1443872779406
 31
0.0
  0
SOLID
  5
1B9F
330
1B8D
100
AcDbEntity
  8
HEWI
 62
     0
440
 16777216
100
AcDbTrace
 10
1000.26127753101
 20
513.7273460027397
 30
0.0
 11
1000.32127753101
 21
513.7273460027397
 31
0.0
 12
1000.29127753101
 22
513.9073460027398
 32
0.0
 13
1000.29127753101
 23
513.9073460027398
 33
0.0
  0
SOLID
  5
1BA0
330
1B8D
100
AcDbEntity
  8
HEWI
 62
     0
440
 16777216
100
AcDbTrace
 10
1000.26127753101
 20
316.9214285531413
 30
0.0
 11
1000.32127753101
 21
316.9214285531413
 31
0.0
 12
1000.29127753101
 22
316.7414285531413
 32
0.0
 13
1000.29127753101
 23
316.7414285531413
 33
0.0
  0
MTEXT
  5
1BA1
330
1B8D
100
AcDbEntity
  8
HEWI
 62
     0
440
 16777216
100
AcDbMText
 10
1000.29127753101
 20
415.3243872779408
 30
0.0
 40
0.18
 41
0.0
 46
0.0
 71
     5
 72
     1
  1
\A1;197.1659
 73
     1
 44
1.0
  0
POINT
  5
1BA2
330
1B8D
100
AcDbEntity
  8
Defpoints
 62
     0
440
 16777216
100
AcDbPoint
 10
966.2706401242772
 20
513.9073460027398
 30
0.0
  0
POINT
  5
1BA3
330
1B8D
100
AcDbEntity
  8
Defpoints
 62
     0
440
 16777216
100
AcDbPoint
 10
966.2706401242772
 20
316.7414285531413
 30
0.0
  0
POINT
  5
1BA4
330
1B8D
100
AcDbEntity
  8
Defpoints
 62
     0
440
 16777216
100
AcDbPoint
 10
1000.29127753101
 20
316.7414285531413
 30
0.0
  0
ENDBLK
  5
1B8F
330
1B8D
100
AcDbEntity
  8
0
100
AcDbBlockEnd
  0
BLOCK
  5
1C58
330
1C57
100
AcDbEntity
  8
0
100
AcDbBlockBegin
  2
*D4
 70
     1
 10
0.0
 20
0.0
 30
0.0
  3
*D4
  1

  0
LINE
  5
1C65
330
1C57
100
AcDbEntity
  8
HEWI
 62
     0
440
 16777216
370
    -2
100
AcDbLine
 10
66.15849421761959
 20
696.4982704788707
 30
0.0
 11
66.15849421761961
 21
921.5083758536563
 31
0.0
  0
LINE
  5
1C66
330
1C57
100
AcDbEntity
  8
HEWI
 62
     0
440
 16777216
370
    -2
100
AcDbLine
 10
1066.158494217619
 20
696.4982704788707
 30
0.0
 11
1066.158494217619
 21
921.5083758536563
 31
0.0
  0
LINE
  5
1C67
330
1C57
100
AcDbEntity
  8
HEWI
 62
     0
440
 16777216
370
    -2
100
AcDbLine
 10
66.33849421761961
 20
921.3283758536563
 30
0.0
 11
565.4834942176196
 21
921.3283758536563
 31
0.0
  0
LINE
  5
1C68
330
1C57
100
AcDbEntity
  8
HEWI
 62
     0
440
 16777216
370
    -2
100
AcDbLine
 10
1065.978494217619
 20
921.3283758536563
 30
0.0
 11
566.8334942176194
 21
921.3283758536563
 31
0.0
  0
SOLID
  5
1C69
330
1C57
100
AcDbEntity
  8
HEWI
 62
     0
440
 16777216
100
AcDbTrace
 10
66.33849421761961
 20
921.3583758536563
 30
0.0
 11
66.33849421761961
 21
921.2983758536564
 31
0.0
 12
66.15849421761961
 22
921.3283758536563
 32
0.0
 13
66.15849421761961
 23
921.3283758536563
 33
0.0
  0
SOLID
  5
1C6A
330
1C57
100
AcDbEntity
  8
HEWI
 62
     0
440
 16777216
100
AcDbTrace
 10
1065.978494217619
 20
921.3583758536563
 30
0.0
 11
1065.978494217619
 21
921.2983758536564
 31
0.0
 12
1066.158494217619
 22
921.3283758536563
 32
0.0
 13
1066.158494217619
 23
921.3283758536563
 33
0.0
  0
MTEXT
  5
1C6B
330
1C57
100
AcDbEntity
  8
HEWI
 62
     0
440
 16777216
100
AcDbMText
 10
566.1584942176196
 20
921.3283758536563
 30
0.0
 40
0.18
 41
0.0
 46
0.0
 71
     5
 72
     1
  1
\A1;1000.0000
 73
     1
 44
1.0
  0
POINT
  5
1C6C
330
1C57
100
AcDbEntity
  8
Defpoints
 62
     0
440
 16777216
100
AcDbPoint
 10
66.15849421761959
 20
696.4357704788707
 30
0.0
  0
POINT
  5
1C6D
330
1C57
100
AcDbEntity
  8
Defpoints
 62
     0
440
 16777216
100
AcDbPoint
 10
1066.158494217619
 20
696.4357704788707
 30
0.0
  0
POINT
  5
1C6E
330
1C57
100
AcDbEntity
  8
Defpoints
 62
     0
440
 16777216
100
AcDbPoint
 10
1066.158494217619
 20
921.3283758536563
 30
0.0
  0
ENDBLK
  5
1C59
330
1C57
100
AcDbEntity
  8
0
100
AcDbBlockEnd
  0
BLOCK
  5
1C72
330
1C71
100
AcDbEntity
  8
0
100
AcDbBlockBegin
  2
*D5
 70
     1
 10
0.0
 20
0.0
 30
0.0
  3
*D5
  1

  0
LINE
  5
1C7F
330
1C71
100
AcDbEntity
  8
HEWI
 62
     0
440
 16777216
370
    -2
100
AcDbLine
 10
66.15849421761959
 20
696.4982704788707
 30
0.0
 11
66.15849421761961
 21
884.9889176199756
 31
0.0
  0
LINE
  5
1C80
330
1C71
100
AcDbEntity
  8
HEWI
 62
     0
440
 16777216
370
    -2
100
AcDbLine
 10
266.1584942176196
 20
696.4982704788707
 30
0.0
 11
266.1584942176196
 21
884.9889176199756
 31
0.0
  0
LINE
  5
1C81
330
1C71
100
AcDbEntity
  8
HEWI
 62
     0
440
 16777216
370
    -2
100
AcDbLine
 10
66.33849421761961
 20
884.8089176199755
 30
0.0
 11
165.5284942176196
 21
884.8089176199755
 31
0.0
  0
LINE
  5
1C82
330
1C71
100
AcDbEntity
  8
HEWI
 62
     0
440
 16777216
370
    -2
100
AcDbLine
 10
265.9784942176196
 20
884.8089176199755
 30
0.0
 11
166.7884942176196
 21
884.8089176199755
 31
0.0
  0
SOLID
  5
1C83
330
1C71
100
AcDbEntity
  8
HEWI
 62
     0
440
 16777216
100
AcDbTrace
 10
66.33849421761961
 20
884.8389176199756
 30
0.0
 11
66.33849421761961
 21
884.7789176199754
 31
0.0
 12
66.15849421761961
 22
884.8089176199755
 32
0.0
 13
66.15849421761961
 23
884.8089176199755
 33
0.0
  0
SOLID
  5
1C84
330
1C71
100
AcDbEntity
  8
HEWI
 62
     0
440
 16777216
100
AcDbTrace
 10
265.9784942176196
 20
884.8389176199756
 30
0.0
 11
265.9784942176196
 21
884.7789176199754
 31
0.0
 12
266.1584942176196
 22
884.8089176199755
 32
0.0
 13
266.1584942176196
 23
884.8089176199755
 33
0.0
  0
MTEXT
  5
1C85
330
1C71
100
AcDbEntity
  8
HEWI
 62
     0
440
 16777216
100
AcDbMText
 10
166.1584942176196
 20
884.8089176199755
 30
0.0
 40
0.18
 41
0.0
 46
0.0
 71
     5
 72
     1
  1
\A1;200.0000
 73
     1
 44
1.0
  0
POINT
  5
1C86
330
1C71
100
AcDbEntity
  8
Defpoints
 62
     0
440
 16777216
100
AcDbPoint
 10
66.15849421761959
 20
696.4357704788707
 30
0.0
  0
POINT
  5
1C87
330
1C71
100
AcDbEntity
  8
Defpoints
 62
     0
440
 16777216
100
AcDbPoint
 10
266.1584942176196
 20
696.4357704788707
 30
0.0
  0
POINT
  5
1C88
330
1C71
100
AcDbEntity
  8
Defpoints
 62
     0
440
 16777216
100
AcDbPoint
 10
266.1584942176196
 20
884.8089176199755
 30
0.0
  0
ENDBLK
  5
1C73
330
1C71
100
AcDbEntity
  8
0
100
AcDbBlockEnd
  0
BLOCK
  5
1C8C
330
1C8B
100
AcDbEntity
  8
0
100
AcDbBlockBegin
  2
*D6
 70
     1
 10
0.0
 20
0.0
 30
0.0
  3
*D6
  1

  0
LINE
  5
1C99
330
1C8B
100
AcDbEntity
  8
HEWI
 62
     0
440
 16777216
370
    -2
100
AcDbLine
 10
254.1584942176196
 20
696.4982704788707
 30
0.0
 11
254.1584942176196
 21
876.6890548773115
 31
0.0
  0
LINE
  5
1C9A
330
1C8B
100
AcDbEntity
  8
HEWI
 62
     0
440
 16777216
370
    -2
100
AcDbLine
 10
454.1584942176196
 20
696.4982704788707
 30
0.0
 11
454.1584942176196
 21
876.6890548773115
 31
0.0
  0
LINE
  5
1C9B
330
1C8B
100
AcDbEntity
  8
HEWI
 62
     0
440
 16777216
370
    -2
100
AcDbLine
 10
254.3384942176196
 20
876.5090548773114
 30
0.0
 11
353.5284942176196
 21
876.5090548773114
 31
0.0
  0
LINE
  5
1C9C
330
1C8B
100
AcDbEntity
  8
HEWI
 62
     0
440
 16777216
370
    -2
100
AcDbLine
 10
453.9784942176193
 20
876.5090548773114
 30
0.0
 11
354.7884942176196
 21
876.5090548773114
 31
0.0
  0
SOLID
  5
1C9D
330
1C8B
100
AcDbEntity
  8
HEWI
 62
     0
440
 16777216
100
AcDbTrace
 10
254.3384942176196
 20
876.5390548773114
 30
0.0
 11
254.3384942176196
 21
876.4790548773115
 31
0.0
 12
254.1584942176196
 22
876.5090548773114
 32
0.0
 13
254.1584942176196
 23
876.5090548773114
 33
0.0
  0
SOLID
  5
1C9E
330
1C8B
100
AcDbEntity
  8
HEWI
 62
     0
440
 16777216
100
AcDbTrace
 10
453.9784942176193
 20
876.5390548773114
 30
0.0
 11
453.9784942176193
 21
876.4790548773115
 31
0.0
 12
454.1584942176196
 22
876.5090548773114
 32
0.0
 13
454.1584942176196
 23
876.5090548773114
 33
0.0
  0
MTEXT
  5
1C9F
330
1C8B
100
AcDbEntity
  8
HEWI
 62
     0
440
 16777216
100
AcDbMText
 10
354.1584942176196
 20
876.5090548773114
 30
0.0
 40
0.18
 41
0.0
 46
0.0
 71
     5
 72
     1
  1
\A1;200.0000
 73
     1
 44
1.0
  0
POINT
  5
1CA0
330
1C8B
100
AcDbEntity
  8
Defpoints
 62
     0
440
 16777216
100
AcDbPoint
 10
254.1584942176196
 20
696.4357704788707
 30
0.0
  0
POINT
  5
1CA1
330
1C8B
100
AcDbEntity
  8
Defpoints
 62
     0
440
 16777216
100
AcDbPoint
 10
454.1584942176196
 20
696.4357704788707
 30
0.0
  0
POINT
  5
1CA2
330
1C8B
100
AcDbEntity
  8
Defpoints
 62
     0
440
 16777216
100
AcDbPoint
 10
454.1584942176196
 20
876.5090548773114
 30
0.0
  0
ENDBLK
  5
1C8D
330
1C8B
100
AcDbEntity
  8
0
100
AcDbBlockEnd
  0
BLOCK
  5
1CA7
330
1CA6
100
AcDbEntity
  8
0
100
AcDbBlockBegin
  2
*D7
 70
     1
 10
0.0
 20
0.0
 30
0.0
  3
*D7
  1

  0
LINE
  5
1CB4
330
1CA6
100
AcDbEntity
  8
HEWI
 62
     0
440
 16777216
370
    -2
100
AcDbLine
 10
1232.516361422029
 20
205.028068627893
 30
0.0
 11
1278.664466633447
 21
205.028068627893
 31
0.0
  0
LINE
  5
1CB5
330
1CA6
100
AcDbEntity
  8
HEWI
 62
     0
440
 16777216
370
    -2
100
AcDbLine
 10
1232.516361422029
 20
10.02806862789299
 30
0.0
 11
1278.664466633447
 21
10.02806862789298
 31
0.0
  0
LINE
  5
1CB6
330
1CA6
100
AcDbEntity
  8
HEWI
 62
     0
440
 16777216
370
    -2
100
AcDbLine
 10
1278.484466633446
 20
204.848068627893
 30
0.0
 11
1278.484466633446
 21
107.708068627893
 31
0.0
  0
LINE
  5
1CB7
330
1CA6
100
AcDbEntity
  8
HEWI
 62
     0
440
 16777216
370
    -2
100
AcDbLine
 10
1278.484466633446
 20
10.20806862789298
 30
0.0
 11
1278.484466633446
 21
107.3480686278929
 31
0.0
  0
SOLID
  5
1CB8
330
1CA6
100
AcDbEntity
  8
HEWI
 62
     0
440
 16777216
100
AcDbTrace
 10
1278.454466633446
 20
204.848068627893
 30
0.0
 11
1278.514466633446
 21
204.848068627893
 31
0.0
 12
1278.484466633446
 22
205.028068627893
 32
0.0
 13
1278.484466633446
 23
205.028068627893
 33
0.0
  0
SOLID
  5
1CB9
330
1CA6
100
AcDbEntity
  8
HEWI
 62
     0
440
 16777216
100
AcDbTrace
 10
1278.454466633446
 20
10.20806862789298
 30
0.0
 11
1278.514466633446
 21
10.20806862789298
 31
0.0
 12
1278.484466633446
 22
10.02806862789298
 32
0.0
 13
1278.484466633446
 23
10.02806862789298
 33
0.0
  0
MTEXT
  5
1CBA
330
1CA6
100
AcDbEntity
  8
HEWI
 62
     0
440
 16777216
100
AcDbMText
 10
1278.484466633446
 20
107.5280686278931
 30
0.0
 40
0.18
 41
0.0
 46
0.0
 71
     5
 72
     1
  1
\A1;195.0000
 73
     1
 44
1.0
  0
POINT
  5
1CBB
330
1CA6
100
AcDbEntity
  8
Defpoints
 62
     0
440
 16777216
100
AcDbPoint
 10
1232.453861422029
 20
205.028068627893
 30
0.0
  0
POINT
  5
1CBC
330
1CA6
100
AcDbEntity
  8
Defpoints
 62
     0
440
 16777216
100
AcDbPoint
 10
1232.453861422029
 20
10.02806862789299
 30
0.0
  0
POINT
  5
1CBD
330
1CA6
100
AcDbEntity
  8
Defpoints
 62
     0
440
 16777216
100
AcDbPoint
 10
1278.484466633446
 20
10.02806862789298
 30
0.0
  0
ENDBLK
  5
1CA8
330
1CA6
100
AcDbEntity
  8
0
100
AcDbBlockEnd
  0
BLOCK
  5
1D1A
330
1D19
100
AcDbEntity
  8
0
100
AcDbBlockBegin
  2
*D8
 70
     1
 10
0.0
 20
0.0
 30
0.0
  3
*D8
  1

  0
LINE
  5
1D27
330
1D19
100
AcDbEntity
  8
HEWI
 62
     0
440
 16777216
370
    -2
100
AcDbLine
 10
78.12539228663355
 20
1106.744070065466
 30
0.0
 11
78.12539228663355
 21
1270.660412328277
 31
0.0
  0
LINE
  5
1D28
330
1D19
100
AcDbEntity
  8
HEWI
 62
     0
440
 16777216
370
    -2
100
AcDbLine
 10
1054.125392286633
 20
1104.518188948586
 30
0.0
 11
1054.125392286633
 21
1270.660412328277
 31
0.0
  0
LINE
  5
1D29
330
1D19
100
AcDbEntity
  8
HEWI
 62
     0
440
 16777216
370
    -2
100
AcDbLine
 10
78.30539228663356
 20
1270.480412328277
 30
0.0
 11
565.4653922866335
 21
1270.480412328277
 31
0.0
  0
LINE
  5
1D2A
330
1D19
100
AcDbEntity
  8
HEWI
 62
     0
440
 16777216
370
    -2
100
AcDbLine
 10
1053.945392286633
 20
1270.480412328277
 30
0.0
 11
566.7853922866335
 21
1270.480412328277
 31
0.0
  0
SOLID
  5
1D2B
330
1D19
100
AcDbEntity
  8
HEWI
 62
     0
440
 16777216
100
AcDbTrace
 10
78.30539228663356
 20
1270.510412328277
 30
0.0
 11
78.30539228663356
 21
1270.450412328277
 31
0.0
 12
78.12539228663355
 22
1270.480412328277
 32
0.0
 13
78.12539228663355
 23
1270.480412328277
 33
0.0
  0
SOLID
  5
1D2C
330
1D19
100
AcDbEntity
  8
HEWI
 62
     0
440
 16777216
100
AcDbTrace
 10
1053.945392286633
 20
1270.510412328277
 30
0.0
 11
1053.945392286633
 21
1270.450412328277
 31
0.0
 12
1054.125392286633
 22
1270.480412328277
 32
0.0
 13
1054.125392286633
 23
1270.480412328277
 33
0.0
  0
MTEXT
  5
1D2D
330
1D19
100
AcDbEntity
  8
HEWI
 62
     0
440
 16777216
100
AcDbMText
 10
566.1253922866335
 20
1270.480412328277
 30
0.0
 40
0.18
 41
0.0
 46
0.0
 71
     5
 72
     1
  1
\A1;976.0000
 73
     1
 44
1.0
  0
POINT
  5
1D2E
330
1D19
100
AcDbEntity
  8
Defpoints
 62
     0
440
 16777216
100
AcDbPoint
 10
78.12539228663355
 20
1106.681570065466
 30
0.0
  0
POINT
  5
1D2F
330
1D19
100
AcDbEntity
  8
Defpoints
 62
     0
440
 16777216
100
AcDbPoint
 10
1054.125392286633
 20
1104.455688948586
 30
0.0
  0
POINT
  5
1D30
330
1D19
100
AcDbEntity
  8
Defpoints
 62
     0
440
 16777216
100
AcDbPoint
 10
1054.125392286633
 20
1270.480412328277
 30
0.0
  0
ENDBLK
  5
1D1B
330
1D19
100
AcDbEntity
  8
0
100
AcDbBlockEnd
  0
BLOCK
  5
1D88
330
1D87
100
AcDbEntity
  8
0
100
AcDbBlockBegin
  2
*D9
 70
     1
 10
0.0
 20
0.0
 30
0.0
  3
*D9
  1

  0
LINE
  5
1D95
330
1D87
100
AcDbEntity
  8
HEWI
 62
     0
440
 16777216
370
    -2
100
AcDbLine
 10
1038.914655077025
 20
1201.413523352006
 30
0.0
 11
1003.968406079199
 21
1201.413523352006
 31
0.0
  0
LINE
  5
1D96
330
1D87
100
AcDbEntity
  8
HEWI
 62
     0
440
 16777216
370
    -2
100
AcDbLine
 10
1038.914655077025
 20
1004.47780752158
 30
0.0
 11
1003.968406079199
 21
1004.47780752158
 31
0.0
  0
LINE
  5
1D97
330
1D87
100
AcDbEntity
  8
HEWI
 62
     0
440
 16777216
370
    -2
100
AcDbLine
 10
1004.148406079199
 20
1201.233523352006
 30
0.0
 11
1004.148406079199
 21
1103.125665436793
 31
0.0
  0
LINE
  5
1D98
330
1D87
100
AcDbEntity
  8
HEWI
 62
     0
440
 16777216
370
    -2
100
AcDbLine
 10
1004.148406079199
 20
1004.65780752158
 30
0.0
 11
1004.148406079199
 21
1102.765665436793
 31
0.0
  0
SOLID
  5
1D99
330
1D87
100
AcDbEntity
  8
HEWI
 62
     0
440
 16777216
100
AcDbTrace
 10
1004.118406079199
 20
1201.233523352006
 30
0.0
 11
1004.178406079199
 21
1201.233523352006
 31
0.0
 12
1004.148406079199
 22
1201.413523352006
 32
0.0
 13
1004.148406079199
 23
1201.413523352006
 33
0.0
  0
SOLID
  5
1D9A
330
1D87
100
AcDbEntity
  8
HEWI
 62
     0
440
 16777216
100
AcDbTrace
 10
1004.118406079199
 20
1004.65780752158
 30
0.0
 11
1004.178406079199
 21
1004.65780752158
 31
0.0
 12
1004.148406079199
 22
1004.47780752158
 32
0.0
 13
1004.148406079199
 23
1004.47780752158
 33
0.0
  0
MTEXT
  5
1D9B
330
1D87
100
AcDbEntity
  8
HEWI
 62
     0
440
 16777216
100
AcDbMText
 10
1004.148406079199
 20
1102.945665436793
 30
0.0
 40
0.18
 41
0.0
 46
0.0
 71
     5
 72
     1
  1
\A1;196.9357
 73
     1
 44
1.0
  0
POINT
  5
1D9C
330
1D87
100
AcDbEntity
  8
Defpoints
 62
     0
440
 16777216
100
AcDbPoint
 10
1038.977155077025
 20
1201.413523352006
 30
0.0
  0
POINT
  5
1D9D
330
1D87
100
AcDbEntity
  8
Defpoints
 62
     0
440
 16777216
100
AcDbPoint
 10
1038.977155077025
 20
1004.47780752158
 30
0.0
  0
POINT
  5
1D9E
330
1D87
100
AcDbEntity
  8
Defpoints
 62
     0
440
 16777216
100
AcDbPoint
 10
1004.148406079199
 20
1004.47780752158
 30
0.0
  0
ENDBLK
  5
1D89
330
1D87
100
AcDbEntity
  8
0
100
AcDbBlockEnd
  0
BLOCK
  5
1DA2
330
1DA1
100
AcDbEntity
  8
0
100
AcDbBlockBegin
  2
*D10
 70
     1
 10
0.0
 20
0.0
 30
0.0
  3
*D10
  1

  0
LINE
  5
1DAF
330
1DA1
100
AcDbEntity
  8
HEWI
 62
     0
440
 16777216
370
    -2
100
AcDbLine
 10
1038.269144776265
 20
1204.456201738644
 30
0.0
 11
1103.243669229712
 21
1204.456201738644
 31
0.0
  0
LINE
  5
1DB0
330
1DA1
100
AcDbEntity
  8
HEWI
 62
     0
440
 16777216
370
    -2
100
AcDbLine
 10
1038.269144776265
 20
1004.47780752158
 30
0.0
 11
1103.243669229712
 21
1004.47780752158
 31
0.0
  0
LINE
  5
1DB1
330
1DA1
100
AcDbEntity
  8
HEWI
 62
     0
440
 16777216
370
    -2
100
AcDbLine
 10
1103.063669229712
 20
1204.276201738644
 30
0.0
 11
1103.063669229712
 21
1104.647004630112
 31
0.0
  0
LINE
  5
1DB2
330
1DA1
100
AcDbEntity
  8
HEWI
 62
     0
440
 16777216
370
    -2
100
AcDbLine
 10
1103.063669229712
 20
1004.65780752158
 30
0.0
 11
1103.063669229712
 21
1104.287004630112
 31
0.0
  0
SOLID
  5
1DB3
330
1DA1
100
AcDbEntity
  8
HEWI
 62
     0
440
 16777216
100
AcDbTrace
 10
1103.033669229712
 20
1204.276201738644
 30
0.0
 11
1103.093669229712
 21
1204.276201738644
 31
0.0
 12
1103.063669229712
 22
1204.456201738644
 32
0.0
 13
1103.063669229712
 23
1204.456201738644
 33
0.0
  0
SOLID
  5
1DB4
330
1DA1
100
AcDbEntity
  8
HEWI
 62
     0
440
 16777216
100
AcDbTrace
 10
1103.033669229712
 20
1004.65780752158
 30
0.0
 11
1103.093669229712
 21
1004.65780752158
 31
0.0
 12
1103.063669229712
 22
1004.47780752158
 32
0.0
 13
1103.063669229712
 23
1004.47780752158
 33
0.0
  0
MTEXT
  5
1DB5
330
1DA1
100
AcDbEntity
  8
HEWI
 62
     0
440
 16777216
100
AcDbMText
 10
1103.063669229712
 20
1104.467004630112
 30
0.0
 40
0.18
 41
0.0
 46
0.0
 71
     5
 72
     1
  1
\A1;199.9784
 73
     1
 44
1.0
  0
POINT
  5
1DB6
330
1DA1
100
AcDbEntity
  8
Defpoints
 62
     0
440
 16777216
100
AcDbPoint
 10
1038.206644776265
 20
1204.456201738644
 30
0.0
  0
POINT
  5
1DB7
330
1DA1
100
AcDbEntity
  8
Defpoints
 62
     0
440
 16777216
100
AcDbPoint
 10
1038.206644776265
 20
1004.47780752158
 30
0.0
  0
POINT
  5
1DB8
330
1DA1
100
AcDbEntity
  8
Defpoints
 62
     0
440
 16777216
100
AcDbPoint
 10
1103.063669229712
 20
1004.47780752158
 30
0.0
  0
ENDBLK
  5
1DA3
330
1DA1
100
AcDbEntity
  8
0
100
AcDbBlockEnd
  0
BLOCK
  5
1DBC
330
1DBB
100
AcDbEntity
  8
0
100
AcDbBlockBegin
  2
*D11
 70
     1
 10
0.0
 20
0.0
 30
0.0
  3
*D11
  1

  0
LINE
  5
1DC9
330
1DBB
100
AcDbEntity
  8
HEWI
 62
     0
440
 16777216
370
    -2
100
AcDbLine
 10
134.6910584746077
 20
1204.476386681104
 30
0.0
 11
-4.492519063023467
 21
1204.476386681104
 31
0.0
  0
LINE
  5
1DCA
330
1DBB
100
AcDbEntity
  8
HEWI
 62
     0
440
 16777216
370
    -2
100
AcDbLine
 10
134.6910584746077
 20
1004.47780752158
 30
0.0
 11
-4.492519063023511
 21
1004.47780752158
 31
0.0
  0
LINE
  5
1DCB
330
1DBB
100
AcDbEntity
  8
HEWI
 62
     0
440
 16777216
370
    -2
100
AcDbLine
 10
-4.312519063023458
 20
1204.296386681104
 30
0.0
 11
-4.312519063023477
 21
1104.657097101342
 31
0.0
  0
LINE
  5
1DCC
330
1DBB
100
AcDbEntity
  8
HEWI
 62
     0
440
 16777216
370
    -2
100
AcDbLine
 10
-4.312519063023501
 20
1004.65780752158
 30
0.0
 11
-4.312519063023477
 21
1104.297097101342
 31
0.0
  0
SOLID
  5
1DCD
330
1DBB
100
AcDbEntity
  8
HEWI
 62
     0
440
 16777216
100
AcDbTrace
 10
-4.342519063023456
 20
1204.296386681104
 30
0.0
 11
-4.282519063023458
 21
1204.296386681104
 31
0.0
 12
-4.312519063023458
 22
1204.476386681104
 32
0.0
 13
-4.312519063023458
 23
1204.476386681104
 33
0.0
  0
SOLID
  5
1DCE
330
1DBB
100
AcDbEntity
  8
HEWI
 62
     0
440
 16777216
100
AcDbTrace
 10
-4.342519063023503
 20
1004.65780752158
 30
0.0
 11
-4.282519063023502
 21
1004.65780752158
 31
0.0
 12
-4.312519063023501
 22
1004.47780752158
 32
0.0
 13
-4.312519063023501
 23
1004.47780752158
 33
0.0
  0
MTEXT
  5
1DCF
330
1DBB
100
AcDbEntity
  8
HEWI
 62
     0
440
 16777216
100
AcDbMText
 10
-4.312519063023658
 20
1104.477097101342
 30
0.0
 40
0.18
 41
0.0
 46
0.0
 71
     5
 72
     1
  1
\A1;199.9986
 73
     1
 44
1.0
  0
POINT
  5
1DD0
330
1DBB
100
AcDbEntity
  8
Defpoints
 62
     0
440
 16777216
100
AcDbPoint
 10
134.7535584746077
 20
1204.476386681104
 30
0.0
  0
POINT
  5
1DD1
330
1DBB
100
AcDbEntity
  8
Defpoints
 62
     0
440
 16777216
100
AcDbPoint
 10
134.7535584746077
 20
1004.47780752158
 30
0.0
  0
POINT
  5
1DD2
330
1DBB
100
AcDbEntity
  8
Defpoints
 62
     0
440
 16777216
100
AcDbPoint
 10
-4.312519063023501
 20
1004.47780752158
 30
0.0
  0
ENDBLK
  5
1DBD
330
1DBB
100
AcDbEntity
  8
0
100
AcDbBlockEnd
  0
BLOCK
  5
1DD6
330
1DD5
100
AcDbEntity
  8
0
100
AcDbBlockBegin
  2
*D12
 70
     1
 10
0.0
 20
0.0
 30
0.0
  3
*D12
  1

  0
LINE
  5
1DE3
330
1DD5
100
AcDbEntity
  8
HEWI
 62
     0
440
 16777216
370
    -2
100
AcDbLine
 10
566.2209942176196
 20
1204.466748235083
 30
0.0
 11
605.1092673044762
 21
1204.466748235083
 31
0.0
  0
LINE
  5
1DE4
330
1DD5
100
AcDbEntity
  8
HEWI
 62
     0
440
 16777216
370
    -2
100
AcDbLine
 10
566.2209942176196
 20
1004.47780752158
 30
0.0
 11
605.1092673044762
 21
1004.47780752158
 31
0.0
  0
LINE
  5
1DE5
330
1DD5
100
AcDbEntity
  8
HEWI
 62
     0
440
 16777216
370
    -2
100
AcDbLine
 10
604.9292673044765
 20
1204.286748235083
 30
0.0
 11
604.9292673044765
 21
1104.652277878331
 31
0.0
  0
LINE
  5
1DE6
330
1DD5
100
AcDbEntity
  8
HEWI
 62
     0
440
 16777216
370
    -2
100
AcDbLine
 10
604.9292673044765
 20
1004.65780752158
 30
0.0
 11
604.9292673044765
 21
1104.292277878331
 31
0.0
  0
SOLID
  5
1DE7
330
1DD5
100
AcDbEntity
  8
HEWI
 62
     0
440
 16777216
100
AcDbTrace
 10
604.8992673044764
 20
1204.286748235083
 30
0.0
 11
604.9592673044765
 21
1204.286748235083
 31
0.0
 12
604.9292673044765
 22
1204.466748235083
 32
0.0
 13
604.9292673044765
 23
1204.466748235083
 33
0.0
  0
SOLID
  5
1DE8
330
1DD5
100
AcDbEntity
  8
HEWI
 62
     0
440
 16777216
100
AcDbTrace
 10
604.8992673044764
 20
1004.65780752158
 30
0.0
 11
604.9592673044765
 21
1004.65780752158
 31
0.0
 12
604.9292673044765
 22
1004.47780752158
 32
0.0
 13
604.9292673044765
 23
1004.47780752158
 33
0.0
  0
MTEXT
  5
1DE9
330
1DD5
100
AcDbEntity
  8
HEWI
 62
     0
440
 16777216
100
AcDbMText
 10
604.9292673044764
 20
1104.472277878332
 30
0.0
 40
0.18
 41
0.0
 46
0.0
 71
     5
 72
     1
  1
\A1;199.9889
 73
     1
 44
1.0
  0
POINT
  5
1DEA
330
1DD5
100
AcDbEntity
  8
Defpoints
 62
     0
440
 16777216
100
AcDbPoint
 10
566.1584942176196
 20
1204.466748235083
 30
0.0
  0
POINT
  5
1DEB
330
1DD5
100
AcDbEntity
  8
Defpoints
 62
     0
440
 16777216
100
AcDbPoint
 10
566.1584942176196
 20
1004.47780752158
 30
0.0
  0
POINT
  5
1DEC
330
1DD5
100
AcDbEntity
  8
Defpoints
 62
     0
440
 16777216
100
AcDbPoint
 10
604.9292673044765
 20
1004.47780752158
 30
0.0
  0
ENDBLK
  5
1DD7
330
1DD5
100
AcDbEntity
  8
0
100
AcDbBlockEnd
  0
BLOCK
  5
1DF2
330
1DF1
100
AcDbEntity
  8
0
100
AcDbBlockBegin
  2
*D13
 70
     1
 10
0.0
 20
0.0
 30
0.0
  3
*D13
  1

  0
LINE
  5
1E38
330
1DF1
100
AcDbEntity
  8
HEWI
 62
     0
440
 16777216
370
    -2
100
AcDbLine
 10
259.5097455150485
 20
1204.47780752158
 30
0.0
 11
228.2855518122404
 21
1204.47780752158
 31
0.0
  0
LINE
  5
1E39
330
1DF1
100
AcDbEntity
  8
HEWI
 62
     0
440
 16777216
370
    -2
100
AcDbLine
 10
259.5097455150485
 20
1004.47780752158
 30
0.0
 11
228.2855518122404
 21
1004.47780752158
 31
0.0
  0
LINE
  5
1E3A
330
1DF1
100
AcDbEntity
  8
HEWI
 62
     0
440
 16777216
370
    -2
100
AcDbLine
 10
228.4655518122404
 20
1204.29780752158
 30
0.0
 11
228.4655518122404
 21
1104.65780752158
 31
0.0
  0
LINE
  5
1E3B
330
1DF1
100
AcDbEntity
  8
HEWI
 62
     0
440
 16777216
370
    -2
100
AcDbLine
 10
228.4655518122404
 20
1004.65780752158
 30
0.0
 11
228.4655518122404
 21
1104.29780752158
 31
0.0
  0
SOLID
  5
1E3C
330
1DF1
100
AcDbEntity
  8
HEWI
 62
     0
440
 16777216
100
AcDbTrace
 10
228.4355518122404
 20
1204.29780752158
 30
0.0
 11
228.4955518122404
 21
1204.29780752158
 31
0.0
 12
228.4655518122404
 22
1204.47780752158
 32
0.0
 13
228.4655518122404
 23
1204.47780752158
 33
0.0
  0
SOLID
  5
1E3D
330
1DF1
100
AcDbEntity
  8
HEWI
 62
     0
440
 16777216
100
AcDbTrace
 10
228.4355518122404
 20
1004.65780752158
 30
0.0
 11
228.4955518122404
 21
1004.65780752158
 31
0.0
 12
228.4655518122404
 22
1004.47780752158
 32
0.0
 13
228.4655518122404
 23
1004.47780752158
 33
0.0
  0
MTEXT
  5
1E3E
330
1DF1
100
AcDbEntity
  8
HEWI
 62
     0
440
 16777216
100
AcDbMText
 10
228.4655518122402
 20
1104.47780752158
 30
0.0
 40
0.18
 41
0.0
 46
0.0
 71
     5
 72
     1
  1
\A1;200.0000
 73
     1
 44
1.0
  0
POINT
  5
1E3F
330
1DF1
100
AcDbEntity
  8
Defpoints
 62
     0
440
 16777216
100
AcDbPoint
 10
259.5722455150485
 20
1204.47780752158
 30
0.0
  0
POINT
  5
1E40
330
1DF1
100
AcDbEntity
  8
Defpoints
 62
     0
440
 16777216
100
AcDbPoint
 10
259.5722455150485
 20
1004.47780752158
 30
0.0
  0
POINT
  5
1E41
330
1DF1
100
AcDbEntity
  8
Defpoints
 62
     0
440
 16777216
100
AcDbPoint
 10
228.4655518122404
 20
1004.47780752158
 30
0.0
  0
ENDBLK
  5
1DF3
330
1DF1
100
AcDbEntity
  8
0
100
AcDbBlockEnd
  0
BLOCK
  5
1E0C
330
1E0B
100
AcDbEntity
  8
0
100
AcDbBlockBegin
  2
*D14
 70
     1
 10
0.0
 20
0.0
 30
0.0
  3
*D14
  1

  0
LINE
  5
1E19
330
1E0B
100
AcDbEntity
  8
HEWI
 62
     0
440
 16777216
370
    -2
100
AcDbLine
 10
665.3874621305507
 20
1204.464532658559
 30
0.0
 11
713.9735812007927
 21
1204.464532658559
 31
0.0
  0
LINE
  5
1E1A
330
1E0B
100
AcDbEntity
  8
HEWI
 62
     0
440
 16777216
370
    -2
100
AcDbLine
 10
665.3874621305507
 20
1004.47780752158
 30
0.0
 11
713.9735812007927
 21
1004.47780752158
 31
0.0
  0
LINE
  5
1E1B
330
1E0B
100
AcDbEntity
  8
HEWI
 62
     0
440
 16777216
370
    -2
100
AcDbLine
 10
713.7935812007927
 20
1204.284532658558
 30
0.0
 11
713.7935812007927
 21
1104.651170090069
 31
0.0
  0
LINE
  5
1E1C
330
1E0B
100
AcDbEntity
  8
HEWI
 62
     0
440
 16777216
370
    -2
100
AcDbLine
 10
713.7935812007927
 20
1004.65780752158
 30
0.0
 11
713.7935812007927
 21
1104.291170090069
 31
0.0
  0
SOLID
  5
1E1D
330
1E0B
100
AcDbEntity
  8
HEWI
 62
     0
440
 16777216
100
AcDbTrace
 10
713.7635812007927
 20
1204.284532658558
 30
0.0
 11
713.8235812007926
 21
1204.284532658558
 31
0.0
 12
713.7935812007927
 22
1204.464532658559
 32
0.0
 13
713.7935812007927
 23
1204.464532658559
 33
0.0
  0
SOLID
  5
1E1E
330
1E0B
100
AcDbEntity
  8
HEWI
 62
     0
440
 16777216
100
AcDbTrace
 10
713.7635812007927
 20
1004.65780752158
 30
0.0
 11
713.8235812007926
 21
1004.65780752158
 31
0.0
 12
713.7935812007927
 22
1004.47780752158
 32
0.0
 13
713.7935812007927
 23
1004.47780752158
 33
0.0
  0
MTEXT
  5
1E1F
330
1E0B
100
AcDbEntity
  8
HEWI
 62
     0
440
 16777216
100
AcDbMText
 10
713.7935812007925
 20
1104.471170090069
 30
0.0
 40
0.18
 41
0.0
 46
0.0
 71
     5
 72
     1
  1
\A1;199.9867
 73
     1
 44
1.0
  0
POINT
  5
1E20
330
1E0B
100
AcDbEntity
  8
Defpoints
 62
     0
440
 16777216
100
AcDbPoint
 10
665.3249621305507
 20
1204.464532658559
 30
0.0
  0
POINT
  5
1E21
330
1E0B
100
AcDbEntity
  8
Defpoints
 62
     0
440
 16777216
100
AcDbPoint
 10
665.3249621305507
 20
1004.47780752158
 30
0.0
  0
POINT
  5
1E22
330
1E0B
100
AcDbEntity
  8
Defpoints
 62
     0
440
 16777216
100
AcDbPoint
 10
713.7935812007927
 20
1004.47780752158
 30
0.0
  0
ENDBLK
  5
1E0D
330
1E0B
100
AcDbEntity
  8
0
100
AcDbBlockEnd
  0
BLOCK
  5
1E44
330
1E43
100
AcDbEntity
  8
0
100
AcDbBlockBegin
  2
*D15
 70
     1
 10
0.0
 20
0.0
 30
0.0
  3
*D15
  1

  0
LINE
  5
1E51
330
1E43
100
AcDbEntity
  8
HEWI
 62
     0
440
 16777216
370
    -2
100
AcDbLine
 10
991.9638160854228
 20
1204.47780752158
 30
0.0
 11
1149.362631367868
 21
1204.47780752158
 31
0.0
  0
LINE
  5
1E52
330
1E43
100
AcDbEntity
  8
HEWI
 62
     0
440
 16777216
370
    -2
100
AcDbLine
 10
991.9638160854228
 20
1004.47780752158
 30
0.0
 11
1149.362631367868
 21
1004.47780752158
 31
0.0
  0
LINE
  5
1E53
330
1E43
100
AcDbEntity
  8
HEWI
 62
     0
440
 16777216
370
    -2
100
AcDbLine
 10
1149.182631367868
 20
1204.29780752158
 30
0.0
 11
1149.182631367868
 21
1104.65780752158
 31
0.0
  0
LINE
  5
1E54
330
1E43
100
AcDbEntity
  8
HEWI
 62
     0
440
 16777216
370
    -2
100
AcDbLine
 10
1149.182631367868
 20
1004.65780752158
 30
0.0
 11
1149.182631367868
 21
1104.29780752158
 31
0.0
  0
SOLID
  5
1E55
330
1E43
100
AcDbEntity
  8
HEWI
 62
     0
440
 16777216
100
AcDbTrace
 10
1149.152631367868
 20
1204.29780752158
 30
0.0
 11
1149.212631367868
 21
1204.29780752158
 31
0.0
 12
1149.182631367868
 22
1204.47780752158
 32
0.0
 13
1149.182631367868
 23
1204.47780752158
 33
0.0
  0
SOLID
  5
1E56
330
1E43
100
AcDbEntity
  8
HEWI
 62
     0
440
 16777216
100
AcDbTrace
 10
1149.152631367868
 20
1004.65780752158
 30
0.0
 11
1149.212631367868
 21
1004.65780752158
 31
0.0
 12
1149.182631367868
 22
1004.47780752158
 32
0.0
 13
1149.182631367868
 23
1004.47780752158
 33
0.0
  0
MTEXT
  5
1E57
330
1E43
100
AcDbEntity
  8
HEWI
 62
     0
440
 16777216
100
AcDbMText
 10
1149.182631367868
 20
1104.47780752158
 30
0.0
 40
0.18
 41
0.0
 46
0.0
 71
     5
 72
     1
  1
\A1;200.0000
 73
     1
 44
1.0
  0
POINT
  5
1E58
330
1E43
100
AcDbEntity
  8
Defpoints
 62
     0
440
 16777216
100
AcDbPoint
 10
991.9013160854229
 20
1204.47780752158
 30
0.0
  0
POINT
  5
1E59
330
1E43
100
AcDbEntity
  8
Defpoints
 62
     0
440
 16777216
100
AcDbPoint
 10
991.9013160854229
 20
1004.47780752158
 30
0.0
  0
POINT
  5
1E5A
330
1E43
100
AcDbEntity
  8
Defpoints
 62
     0
440
 16777216
100
AcDbPoint
 10
1149.182631367868
 20
1004.47780752158
 30
0.0
  0
ENDBLK
  5
1E45
330
1E43
100
AcDbEntity
  8
0
100
AcDbBlockEnd
  0
BLOCK
  5
1E5E
330
1E5D
100
AcDbEntity
  8
0
100
AcDbBlockBegin
  2
*D16
 70
     1
 10
0.0
 20
0.0
 30
0.0
  3
*D16
  1

  0
LINE
  5
1E6B
330
1E5D
100
AcDbEntity
  8
HEWI
 62
     0
440
 16777216
370
    -2
100
AcDbLine
 10
1054.125392286633
 20
1104.518188948586
 30
0.0
 11
1054.125392286633
 21
1274.981360509809
 31
0.0
  0
LINE
  5
1E6C
330
1E5D
100
AcDbEntity
  8
HEWI
 62
     0
440
 16777216
370
    -2
100
AcDbLine
 10
868.1253922866336
 20
1104.518188948586
 30
0.0
 11
868.1253922866336
 21
1274.981360509809
 31
0.0
  0
LINE
  5
1E6D
330
1E5D
100
AcDbEntity
  8
HEWI
 62
     0
440
 16777216
370
    -2
100
AcDbLine
 10
1053.945392286633
 20
1274.801360509809
 30
0.0
 11
961.7553922866337
 21
1274.801360509809
 31
0.0
  0
LINE
  5
1E6E
330
1E5D
100
AcDbEntity
  8
HEWI
 62
     0
440
 16777216
370
    -2
100
AcDbLine
 10
868.3053922866335
 20
1274.801360509809
 30
0.0
 11
960.4953922866336
 21
1274.801360509809
 31
0.0
  0
SOLID
  5
1E6F
330
1E5D
100
AcDbEntity
  8
HEWI
 62
     0
440
 16777216
100
AcDbTrace
 10
1053.945392286633
 20
1274.831360509809
 30
0.0
 11
1053.945392286633
 21
1274.771360509809
 31
0.0
 12
1054.125392286633
 22
1274.801360509809
 32
0.0
 13
1054.125392286633
 23
1274.801360509809
 33
0.0
  0
SOLID
  5
1E70
330
1E5D
100
AcDbEntity
  8
HEWI
 62
     0
440
 16777216
100
AcDbTrace
 10
868.3053922866335
 20
1274.831360509809
 30
0.0
 11
868.3053922866335
 21
1274.771360509809
 31
0.0
 12
868.1253922866336
 22
1274.801360509809
 32
0.0
 13
868.1253922866336
 23
1274.801360509809
 33
0.0
  0
MTEXT
  5
1E71
330
1E5D
100
AcDbEntity
  8
HEWI
 62
     0
440
 16777216
100
AcDbMText
 10
961.1253922866337
 20
1274.801360509809
 30
0.0
 40
0.18
 41
0.0
 46
0.0
 71
     5
 72
     1
  1
\A1;186.0000
 73
     1
 44
1.0
  0
POINT
  5
1E72
330
1E5D
100
AcDbEntity
  8
Defpoints
 62
     0
440
 16777216
100
AcDbPoint
 10
1054.125392286633
 20
1104.455688948586
 30
0.0
  0
POINT
  5
1E73
330
1E5D
100
AcDbEntity
  8
Defpoints
 62
     0
440
 16777216
100
AcDbPoint
 10
868.1253922866336
 20
1104.455688948586
 30
0.0
  0
POINT
  5
1E74
330
1E5D
100
AcDbEntity
  8
Defpoints
 62
     0
440
 16777216
100
AcDbPoint
 10
868.1253922866336
 20
1274.801360509809
 30
0.0
  0
ENDBLK
  5
1E5F
330
1E5D
100
AcDbEntity
  8
0
100
AcDbBlockEnd
  0
BLOCK
  5
1E78
330
1E77
100
AcDbEntity
  8
0
100
AcDbBlockBegin
  2
*D17
 70
     1
 10
0.0
 20
0.0
 30
0.0
  3
*D17
  1

  0
LINE
  5
1E85
330
1E77
100
AcDbEntity
  8
HEWI
 62
     0
440
 16777216
370
    -2
100
AcDbLine
 10
856.1584942176196
 20
1104.54030752158
 30
0.0
 11
856.1584942176196
 21
1279.346878226067
 31
0.0
  0
LINE
  5
1E86
330
1E77
100
AcDbEntity
  8
HEWI
 62
     0
440
 16777216
370
    -2
100
AcDbLine
 10
670.1584942176196
 20
1104.54030752158
 30
0.0
 11
670.1584942176196
 21
1279.346878226067
 31
0.0
  0
LINE
  5
1E87
330
1E77
100
AcDbEntity
  8
HEWI
 62
     0
440
 16777216
370
    -2
100
AcDbLine
 10
855.9784942176197
 20
1279.166878226068
 30
0.0
 11
763.7884942176196
 21
1279.166878226068
 31
0.0
  0
LINE
  5
1E88
330
1E77
100
AcDbEntity
  8
HEWI
 62
     0
440
 16777216
370
    -2
100
AcDbLine
 10
670.3384942176194
 20
1279.166878226068
 30
0.0
 11
762.5284942176196
 21
1279.166878226068
 31
0.0
  0
SOLID
  5
1E89
330
1E77
100
AcDbEntity
  8
HEWI
 62
     0
440
 16777216
100
AcDbTrace
 10
855.9784942176197
 20
1279.196878226067
 30
0.0
 11
855.9784942176197
 21
1279.136878226067
 31
0.0
 12
856.1584942176196
 22
1279.166878226068
 32
0.0
 13
856.1584942176196
 23
1279.166878226068
 33
0.0
  0
SOLID
  5
1E8A
330
1E77
100
AcDbEntity
  8
HEWI
 62
     0
440
 16777216
100
AcDbTrace
 10
670.3384942176194
 20
1279.196878226067
 30
0.0
 11
670.3384942176194
 21
1279.136878226067
 31
0.0
 12
670.1584942176196
 22
1279.166878226068
 32
0.0
 13
670.1584942176196
 23
1279.166878226068
 33
0.0
  0
MTEXT
  5
1E8B
330
1E77
100
AcDbEntity
  8
HEWI
 62
     0
440
 16777216
100
AcDbMText
 10
763.1584942176194
 20
1279.166878226068
 30
0.0
 40
0.18
 41
0.0
 46
0.0
 71
     5
 72
     1
  1
\A1;186.0000
 73
     1
 44
1.0
  0
POINT
  5
1E8C
330
1E77
100
AcDbEntity
  8
Defpoints
 62
     0
440
 16777216
100
AcDbPoint
 10
856.1584942176196
 20
1104.47780752158
 30
0.0
  0
POINT
  5
1E8D
330
1E77
100
AcDbEntity
  8
Defpoints
 62
     0
440
 16777216
100
AcDbPoint
 10
670.1584942176196
 20
1104.47780752158
 30
0.0
  0
POINT
  5
1E8E
330
1E77
100
AcDbEntity
  8
Defpoints
 62
     0
440
 16777216
100
AcDbPoint
 10
670.1584942176196
 20
1279.166878226068
 30
0.0
  0
ENDBLK
  5
1E79
330
1E77
100
AcDbEntity
  8
0
100
AcDbBlockEnd
  0
BLOCK
  5
2172
330
2171
100
AcDbEntity
  8
0
100
AcDbBlockBegin
  2
*D18
 70
     1
 10
0.0
 20
0.0
 30
0.0
  3
*D18
  1

  0
LINE
  5
217F
330
2171
100
AcDbEntity
  8
HEWI
 62
     0
440
 16777216
370
    -2
100
AcDbLine
 10
-328.6138906371689
 20
1249.156694591314
 30
0.0
 11
-328.6138906371689
 21
1283.283425377199
 31
0.0
  0
LINE
  5
2180
330
2171
100
AcDbEntity
  8
HEWI
 62
     0
440
 16777216
370
    -2
100
AcDbLine
 10
-277.6192556711426
 20
1249.156694591314
 30
0.0
 11
-277.6192556711426
 21
1283.283425377199
 31
0.0
  0
LINE
  5
2181
330
2171
100
AcDbEntity
  8
HEWI
 62
     0
440
 16777216
370
    -2
100
AcDbLine
 10
-328.4338906371689
 20
1283.1034253772
 30
0.0
 11
-303.7315731541557
 21
1283.1034253772
 31
0.0
  0
LINE
  5
2182
330
2171
100
AcDbEntity
  8
HEWI
 62
     0
440
 16777216
370
    -2
100
AcDbLine
 10
-277.7992556711426
 20
1283.1034253772
 30
0.0
 11
-302.5015731541557
 21
1283.1034253772
 31
0.0
  0
SOLID
  5
2183
330
2171
100
AcDbEntity
  8
HEWI
 62
     0
440
 16777216
100
AcDbTrace
 10
-328.4338906371689
 20
1283.133425377199
 30
0.0
 11
-328.4338906371689
 21
1283.073425377199
 31
0.0
 12
-328.6138906371689
 22
1283.1034253772
 32
0.0
 13
-328.6138906371689
 23
1283.1034253772
 33
0.0
  0
SOLID
  5
2184
330
2171
100
AcDbEntity
  8
HEWI
 62
     0
440
 16777216
100
AcDbTrace
 10
-277.7992556711426
 20
1283.133425377199
 30
0.0
 11
-277.7992556711426
 21
1283.073425377199
 31
0.0
 12
-277.6192556711426
 22
1283.1034253772
 32
0.0
 13
-277.6192556711426
 23
1283.1034253772
 33
0.0
  0
MTEXT
  5
2185
330
2171
100
AcDbEntity
  8
HEWI
 62
     0
440
 16777216
100
AcDbMText
 10
-303.1165731541557
 20
1283.1034253772
 30
0.0
 40
0.18
 41
0.0
 46
0.0
 71
     5
 72
     1
  1
\A1;50.9946
 73
     1
 44
1.0
  0
POINT
  5
2186
330
2171
100
AcDbEntity
  8
Defpoints
 62
     0
440
 16777216
100
AcDbPoint
 10
-328.6138906371689
 20
1249.094194591314
 30
0.0
  0
POINT
  5
2187
330
2171
100
AcDbEntity
  8
Defpoints
 62
     0
440
 16777216
100
AcDbPoint
 10
-277.6192556711426
 20
1249.094194591314
 30
0.0
  0
POINT
  5
2188
330
2171
100
AcDbEntity
  8
Defpoints
 62
     0
440
 16777216
100
AcDbPoint
 10
-277.6192556711426
 20
1283.1034253772
 30
0.0
  0
ENDBLK
  5
2173
330
2171
100
AcDbEntity
  8
0
100
AcDbBlockEnd
  0
BLOCK
  5
218C
330
218B
100
AcDbEntity
  8
0
100
AcDbBlockBegin
  2
*D19
 70
     1
 10
0.0
 20
0.0
 30
0.0
  3
*D19
  1

  0
LINE
  5
2199
330
218B
100
AcDbEntity
  8
HEWI
 62
     0
440
 16777216
370
    -2
100
AcDbLine
 10
141.1584942176197
 20
1004.54030752158
 30
0.0
 11
141.1584942176197
 21
1053.949989504259
 31
0.0
  0
LINE
  5
219A
330
218B
100
AcDbEntity
  8
HEWI
 62
     0
440
 16777216
370
    -2
100
AcDbLine
 10
191.1584942176195
 20
1004.54030752158
 30
0.0
 11
191.1584942176195
 21
1053.949989504259
 31
0.0
  0
LINE
  5
219B
330
218B
100
AcDbEntity
  8
HEWI
 62
     0
440
 16777216
370
    -2
100
AcDbLine
 10
141.3384942176197
 20
1053.769989504258
 30
0.0
 11
165.6034942176196
 21
1053.769989504258
 31
0.0
  0
LINE
  5
219C
330
218B
100
AcDbEntity
  8
HEWI
 62
     0
440
 16777216
370
    -2
100
AcDbLine
 10
190.9784942176195
 20
1053.769989504258
 30
0.0
 11
166.7134942176196
 21
1053.769989504258
 31
0.0
  0
SOLID
  5
219D
330
218B
100
AcDbEntity
  8
HEWI
 62
     0
440
 16777216
100
AcDbTrace
 10
141.3384942176197
 20
1053.799989504258
 30
0.0
 11
141.3384942176197
 21
1053.739989504259
 31
0.0
 12
141.1584942176197
 22
1053.769989504258
 32
0.0
 13
141.1584942176197
 23
1053.769989504258
 33
0.0
  0
SOLID
  5
219E
330
218B
100
AcDbEntity
  8
HEWI
 62
     0
440
 16777216
100
AcDbTrace
 10
190.9784942176195
 20
1053.799989504258
 30
0.0
 11
190.9784942176195
 21
1053.739989504259
 31
0.0
 12
191.1584942176195
 22
1053.769989504258
 32
0.0
 13
191.1584942176195
 23
1053.769989504258
 33
0.0
  0
MTEXT
  5
219F
330
218B
100
AcDbEntity
  8
HEWI
 62
     0
440
 16777216
100
AcDbMText
 10
166.1584942176196
 20
1053.769989504258
 30
0.0
 40
0.18
 41
0.0
 46
0.0
 71
     5
 72
     1
  1
\A1;50.0000
 73
     1
 44
1.0
  0
POINT
  5
21A0
330
218B
100
AcDbEntity
  8
Defpoints
 62
     0
440
 16777216
100
AcDbPoint
 10
141.1584942176197
 20
1004.47780752158
 30
-0.0000000000000046
  0
POINT
  5
21A1
330
218B
100
AcDbEntity
  8
Defpoints
 62
     0
440
 16777216
100
AcDbPoint
 10
191.1584942176195
 20
1004.47780752158
 30
0.0000000000000046
  0
POINT
  5
21A2
330
218B
100
AcDbEntity
  8
Defpoints
 62
     0
440
 16777216
100
AcDbPoint
 10
191.1584942176195
 20
1053.769989504258
 30
0.0
  0
ENDBLK
  5
218D
330
218B
100
AcDbEntity
  8
0
100
AcDbBlockEnd
  0
BLOCK
  5
2429
330
2428
100
AcDbEntity
  8
0
100
AcDbBlockBegin
  2
_U0
 70
     0
 10
0.0
 20
0.0
 30
0.0
  3
_U0
  1

  0
MTEXT
  5
242A
330
2428
100
AcDbEntity
  8
1
  6
Continuous
 62
    18
440
 16777216
370
    18
100
AcDbMText
 10
139.934031
 20
196.915524
 30
0.0
 40
2.5
 41
0.0
 46
0.0
 71
     7
 72
     5
  1
\W0.7128;354
  7
iso-1
 11
0.0000000000000001
 21
1.0
 31
0.0
 73
     2
 44
0.9638549999999998
  0
LINE
  5
242B
330
2428
100
AcDbEntity
  8
1
 62
    18
440
 16777216
370
    18
100
AcDbLine
 10
102.301651
 20
241.886579
 30
0.0
 11
142.209425
 21
241.886579
 31
0.0
  0
LINE
  5
242C
330
2428
100
AcDbEntity
  8
1
 62
    18
440
 16777216
370
    18
100
AcDbLine
 10
129.680063
 20
171.185231
 30
0.0
 11
142.209425
 21
171.185231
 31
0.0
  0
LINE
  5
242D
330
2428
100
AcDbEntity
  8
1
 62
    18
440
 16777216
370
    18
100
AcDbLine
 10
140.209425
 20
241.886579
 30
0.0
 11
140.209425
 21
171.185231
 31
0.0
  0
SOLID
  5
242E
330
2428
100
AcDbEntity
  8
1
 62
    18
440
 16777216
370
    18
100
AcDbTrace
 10
140.209425
 20
241.886579
 30
0.0
 11
140.82657
 21
238.386581
 31
0.0
 12
139.592281
 22
238.386577
 32
0.0
 13
139.592281
 23
238.386577
 33
0.0
  0
SOLID
  5
242F
330
2428
100
AcDbEntity
  8
1
 62
    18
440
 16777216
370
    18
100
AcDbTrace
 10
140.209425
 20
171.185231
 30
0.0
 11
139.592281
 21
174.685229
 31
0.0
 12
140.82657
 22
174.685233
 32
0.0
 13
140.82657
 23
174.685233
 33
0.0
  0
ENDBLK
  5
2430
330
2428
100
AcDbEntity
  8
0
100
AcDbBlockEnd
  0
BLOCK
  5
2432
330
2431
100
AcDbEntity
  8
0
100
AcDbBlockBegin
  2
_U1
 70
     0
 10
0.0
 20
0.0
 30
0.0
  3
_U1
  1

  0
MTEXT
  5
2433
330
2431
100
AcDbEntity
  8
1
  6
Continuous
 62
    18
440
 16777216
370
    18
100
AcDbMText
 10
203.04531
 20
251.311288
 30
0.0
 40
2.5
 41
0.0
 46
0.0
 71
     7
 72
     5
  1
\W0.6044;153
  7
iso-1
 73
     2
 44
0.9638549999999998
  0
LINE
  5
2434
330
2431
100
AcDbEntity
  8
1
 62
    18
440
 16777216
370
    18
100
AcDbLine
 10
189.015723
 20
232.925231
 30
0.0
 11
189.015723
 21
252.790893
 31
0.0
  0
LINE
  5
2435
330
2431
100
AcDbEntity
  8
1
 62
    18
440
 16777216
370
    18
100
AcDbLine
 10
219.561141
 20
239.90028
 30
0.0
 11
219.561141
 21
252.790893
 31
0.0
  0
LINE
  5
2436
330
2431
100
AcDbEntity
  8
1
 62
    18
440
 16777216
370
    18
100
AcDbLine
 10
189.015723
 20
250.790893
 30
0.0
 11
219.561141
 21
250.790893
 31
0.0
  0
SOLID
  5
2437
330
2431
100
AcDbEntity
  8
1
 62
    18
440
 16777216
370
    18
100
AcDbTrace
 10
189.015723
 20
250.790893
 30
0.0
 11
192.51572
 21
251.408038
 31
0.0
 12
192.515725
 22
250.173749
 32
0.0
 13
192.515725
 23
250.173749
 33
0.0
  0
SOLID
  5
2438
330
2431
100
AcDbEntity
  8
1
 62
    18
440
 16777216
370
    18
100
AcDbTrace
 10
219.561141
 20
250.790893
 30
0.0
 11
216.061143
 21
250.173749
 31
0.0
 12
216.061138
 22
251.408038
 32
0.0
 13
216.061138
 23
251.408038
 33
0.0
  0
ENDBLK
  5
2439
330
2431
100
AcDbEntity
  8
0
100
AcDbBlockEnd
  0
BLOCK
  5
243B
330
243A
100
AcDbEntity
  8
0
100
AcDbBlockBegin
  2
_U2
 70
     0
 10
0.0
 20
0.0
 30
0.0
  3
_U2
  1

  0
MTEXT
  5
243C
330
243A
100
AcDbEntity
  8
1
  6
Continuous
 62
    18
440
 16777216
370
    18
100
AcDbMText
 10
100.101257
 20
251.311288
 30
0.0
 40
2.5
 41
0.0
 46
0.0
 71
     7
 72
     5
  1
\W0.6850;287
  7
iso-1
 73
     2
 44
0.9638549999999998
  0
LINE
  5
243D
330
243A
100
AcDbEntity
  8
1
 62
    18
440
 16777216
370
    18
100
AcDbLine
 10
130.9865
 20
239.882754
 30
0.0
 11
130.9865
 21
252.790893
 31
0.0
  0
LINE
  5
243E
330
243A
100
AcDbEntity
  8
1
 62
    18
440
 16777216
370
    18
100
AcDbLine
 10
73.616803
 20
239.882754
 30
0.0
 11
73.616803
 21
252.790893
 31
0.0
  0
LINE
  5
243F
330
243A
100
AcDbEntity
  8
1
 62
    18
440
 16777216
370
    18
100
AcDbLine
 10
130.9865
 20
250.790893
 30
0.0
 11
73.616803
 21
250.790893
 31
0.0
  0
SOLID
  5
2440
330
243A
100
AcDbEntity
  8
1
 62
    18
440
 16777216
370
    18
100
AcDbTrace
 10
130.9865
 20
250.790893
 30
0.0
 11
127.486502
 21
250.173749
 31
0.0
 12
127.486498
 22
251.408038
 32
0.0
 13
127.486498
 23
251.408038
 33
0.0
  0
SOLID
  5
2441
330
243A
100
AcDbEntity
  8
1
 62
    18
440
 16777216
370
    18
100
AcDbTrace
 10
73.616803
 20
250.790893
 30
0.0
 11
77.1168
 21
251.408038
 31
0.0
 12
77.11680499999999
 22
250.173749
 32
0.0
 13
77.11680499999999
 23
250.173749
 33
0.0
  0
ENDBLK
  5
2442
330
243A
100
AcDbEntity
  8
0
100
AcDbBlockEnd
  0
BLOCK
  5
28F6
330
28F5
100
AcDbEntity
  8
0
100
AcDbBlockBegin
  2
*D24
 70
     1
 10
0.0
 20
0.0
 30
0.0
  3
*D24
  1

  0
LINE
  5
2A15
330
28F5
100
AcDbEntity
  8
HEWI
  6
Continuous
 62
    18
440
 16777216
370
    18
100
AcDbLine
 10
1765.37677692264
 20
1196.132719440309
 30
0.0000000000000002
 11
1956.91564692264
 21
1196.132719440309
 31
0.0000000000000002
  0
LINE
  5
2A16
330
28F5
100
AcDbEntity
  8
HEWI
  6
Continuous
 62
    18
440
 16777216
370
    18
100
AcDbLine
 10
1857.18404192264
 20
842.6259794403089
 30
0.0000000000000002
 11
1956.91564692264
 21
842.6259794403089
 31
0.0000000000000002
  0
LINE
  5
2A17
330
28F5
100
AcDbEntity
  8
HEWI
  6
Continuous
 62
    18
440
 16777216
370
    18
100
AcDbLine
 10
1954.91564692264
 20
1192.632719440309
 30
0.0000000000000002
 11
1954.91564692264
 21
846.1259794403089
 31
0.0000000000000002
  0
SOLID
  5
2A18
330
28F5
100
AcDbEntity
  8
HEWI
 62
    18
440
 16777216
100
AcDbTrace
 10
1954.332313589306
 20
1192.632719440309
 30
0.0000000000000002
 11
1955.498980255973
 21
1192.632719440309
 31
0.0000000000000002
 12
1954.91564692264
 22
1196.132719440309
 32
0.0000000000000002
 13
1954.91564692264
 23
1196.132719440309
 33
0.0000000000000002
  0
SOLID
  5
2A19
330
28F5
100
AcDbEntity
  8
HEWI
 62
    18
440
 16777216
100
AcDbTrace
 10
1954.332313589306
 20
846.1259794403089
 30
0.0000000000000002
 11
1955.498980255973
 21
846.1259794403089
 31
0.0000000000000002
 12
1954.91564692264
 22
842.6259794403089
 32
0.0000000000000002
 13
1954.91564692264
 23
842.6259794403089
 33
0.0000000000000002
  0
MTEXT
  5
2A1A
330
28F5
100
AcDbEntity
  8
HEWI
 62
    18
440
 16777216
100
AcDbMText
 10
1951.165646922639
 20
980.2280994403083
 30
0.0000000000000002
 40
2.5
 41
0.0
 46
0.0
 71
     1
 72
     1
  1
\A1;1768
  7
iso-1
 11
0.0000000000000001
 21
1.0
 31
0.0
 73
     1
 44
1.0
  0
POINT
  5
2A1B
330
28F5
100
AcDbEntity
  8
Defpoints
 62
     0
440
 16777216
100
AcDbPoint
 10
1765.37677692264
 20
1196.132719440309
 30
0.0000000000000002
  0
POINT
  5
2A1C
330
28F5
100
AcDbEntity
  8
Defpoints
 62
     0
440
 16777216
100
AcDbPoint
 10
1857.18404192264
 20
842.6259794403089
 30
0.0000000000000002
  0
POINT
  5
2A1D
330
28F5
100
AcDbEntity
  8
Defpoints
 62
     0
440
 16777216
100
AcDbPoint
 10
1954.91564692264
 20
842.6259794403089
 30
0.0000000000000002
  0
ENDBLK
  5
28F7
330
28F5
100
AcDbEntity
  8
0
100
AcDbBlockEnd
  0
BLOCK
  5
2902
330
2901
100
AcDbEntity
  8
0
100
AcDbBlockBegin
  2
*D25
 70
     1
 10
0.0
 20
0.0
 30
0.0
  3
*D25
  1

  0
LINE
  5
2A0C
330
2901
100
AcDbEntity
  8
HEWI
  6
Continuous
 62
    18
440
 16777216
370
    18
100
AcDbLine
 10
2198.947136922639
 20
1117.325979440308
 30
0.0000000000000002
 11
2198.947136922639
 21
1242.654287141296
 31
0.0000000000000002
  0
LINE
  5
2A0D
330
2901
100
AcDbEntity
  8
HEWI
  6
Continuous
 62
    18
440
 16777216
370
    18
100
AcDbLine
 10
2351.674224540298
 20
1186.201222141296
 30
0.0000000000000002
 11
2351.674224540298
 21
1242.654287141296
 31
0.0000000000000002
  0
LINE
  5
2A0E
330
2901
100
AcDbEntity
  8
HEWI
  6
Continuous
 62
    18
440
 16777216
370
    18
100
AcDbLine
 10
2202.447136922639
 20
1240.654287141296
 30
0.0000000000000002
 11
2348.174224540299
 21
1240.654287141296
 31
0.0000000000000002
  0
SOLID
  5
2A0F
330
2901
100
AcDbEntity
  8
HEWI
 62
    18
440
 16777216
100
AcDbTrace
 10
2202.447136922639
 20
1241.237620474629
 30
0.0000000000000002
 11
2202.447136922639
 21
1240.070953807963
 31
0.0000000000000002
 12
2198.947136922639
 22
1240.654287141296
 32
0.0000000000000002
 13
2198.947136922639
 23
1240.654287141296
 33
0.0000000000000002
  0
SOLID
  5
2A10
330
2901
100
AcDbEntity
  8
HEWI
 62
    18
440
 16777216
100
AcDbTrace
 10
2348.174224540299
 20
1241.237620474629
 30
0.0000000000000002
 11
2348.174224540299
 21
1240.070953807963
 31
0.0000000000000002
 12
2351.674224540298
 22
1240.654287141296
 32
0.0000000000000002
 13
2351.674224540298
 23
1240.654287141296
 33
0.0000000000000002
  0
MTEXT
  5
2A11
330
2901
100
AcDbEntity
  8
HEWI
 62
    18
440
 16777216
100
AcDbMText
 10
2276.340465678359
 20
1244.404287141296
 30
0.0000000000000002
 40
2.5
 41
0.0
 46
0.0
 71
     1
 72
     1
  1
\A1;764
  7
iso-1
 73
     1
 44
1.0
  0
POINT
  5
2A12
330
2901
100
AcDbEntity
  8
Defpoints
 62
     0
440
 16777216
100
AcDbPoint
 10
2198.947136922639
 20
1117.325979440308
 30
0.0000000000000002
  0
POINT
  5
2A13
330
2901
100
AcDbEntity
  8
Defpoints
 62
     0
440
 16777216
100
AcDbPoint
 10
2351.674224540298
 20
1186.201222141296
 30
0.0000000000000002
  0
POINT
  5
2A14
330
2901
100
AcDbEntity
  8
Defpoints
 62
     0
440
 16777216
100
AcDbPoint
 10
2351.674224540298
 20
1240.654287141296
 30
0.0000000000000002
  0
ENDBLK
  5
2903
330
2901
100
AcDbEntity
  8
0
100
AcDbBlockEnd
  0
BLOCK
  5
290E
330
290D
100
AcDbEntity
  8
0
100
AcDbBlockBegin
  2
*D26
 70
     1
 10
0.0
 20
0.0
 30
0.0
  3
*D26
  1

  0
LINE
  5
2A03
330
290D
100
AcDbEntity
  8
HEWI
  6
Continuous
 62
    18
440
 16777216
370
    18
100
AcDbLine
 10
1908.801021604887
 20
1186.113594272823
 30
0.0000000000000002
 11
1908.801021604887
 21
1242.654289272823
 31
0.0000000000000002
  0
LINE
  5
2A04
330
290D
100
AcDbEntity
  8
HEWI
  6
Continuous
 62
    18
440
 16777216
370
    18
100
AcDbLine
 10
1621.952534618627
 20
1186.113594272823
 30
0.0000000000000002
 11
1621.952534618627
 21
1242.654289272823
 31
0.0000000000000002
  0
LINE
  5
2A05
330
290D
100
AcDbEntity
  8
HEWI
  6
Continuous
 62
    18
440
 16777216
370
    18
100
AcDbLine
 10
1905.301021604887
 20
1240.654289272823
 30
0.0000000000000002
 11
1625.452534618627
 21
1240.654289272823
 31
0.0000000000000002
  0
SOLID
  5
2A06
330
290D
100
AcDbEntity
  8
HEWI
 62
    18
440
 16777216
100
AcDbTrace
 10
1905.301021604887
 20
1241.237622606156
 30
0.0000000000000002
 11
1905.301021604887
 21
1240.07095593949
 31
0.0000000000000002
 12
1908.801021604887
 22
1240.654289272823
 32
0.0000000000000002
 13
1908.801021604887
 23
1240.654289272823
 33
0.0000000000000002
  0
SOLID
  5
2A07
330
290D
100
AcDbEntity
  8
HEWI
 62
    18
440
 16777216
100
AcDbTrace
 10
1625.452534618627
 20
1241.237622606156
 30
0.0000000000000002
 11
1625.452534618627
 21
1240.07095593949
 31
0.0000000000000002
 12
1621.952534618627
 22
1240.654289272823
 32
0.0000000000000002
 13
1621.952534618627
 23
1240.654289272823
 33
0.0000000000000002
  0
MTEXT
  5
2A08
330
290D
100
AcDbEntity
  8
HEWI
 62
    18
440
 16777216
100
AcDbMText
 10
1762.251775611757
 20
1244.404289272823
 30
0.0000000000000002
 40
2.5
 41
0.0
 46
0.0
 71
     1
 72
     1
  1
\A1;1434
  7
iso-1
 73
     1
 44
1.0
  0
POINT
  5
2A09
330
290D
100
AcDbEntity
  8
Defpoints
 62
     0
440
 16777216
100
AcDbPoint
 10
1908.801021604887
 20
1186.113594272823
 30
0.0000000000000002
  0
POINT
  5
2A0A
330
290D
100
AcDbEntity
  8
Defpoints
 62
     0
440
 16777216
100
AcDbPoint
 10
1621.952534618627
 20
1186.113594272823
 30
0.0000000000000002
  0
POINT
  5
2A0B
330
290D
100
AcDbEntity
  8
Defpoints
 62
     0
440
 16777216
100
AcDbPoint
 10
1621.952534618627
 20
1240.654289272823
 30
0.0000000000000002
  0
ENDBLK
  5
290F
330
290D
100
AcDbEntity
  8
0
100
AcDbBlockEnd
  0
BLOCK
  5
29AF
330
29AE
100
AcDbEntity
  8
0
100
AcDbBlockBegin
  2
*D27
 70
     1
 10
0.0
 20
0.0
 30
0.0
  3
*D27
  1

  0
LINE
  5
29B1
330
29AE
100
AcDbEntity
  8
HEWI
 62
     0
440
 16777216
370
    -2
100
AcDbLine
 10
189.015723
 20
246.0125707799471
 30
0.0
 11
189.015723
 21
261.0364848477781
 31
0.0
  0
LINE
  5
29B2
330
29AE
100
AcDbEntity
  8
HEWI
 62
     0
440
 16777216
370
    -2
100
AcDbLine
 10
219.561141
 20
246.0125707799471
 30
0.0
 11
219.561141
 21
261.0364848477781
 31
0.0
  0
LINE
  5
29B3
330
29AE
100
AcDbEntity
  8
HEWI
 62
     0
440
 16777216
370
    -2
100
AcDbLine
 10
189.195723
 20
260.8564848477781
 30
0.0
 11
203.673432
 21
260.8564848477781
 31
0.0
  0
LINE
  5
29B4
330
29AE
100
AcDbEntity
  8
HEWI
 62
     0
440
 16777216
370
    -2
100
AcDbLine
 10
219.381141
 20
260.8564848477781
 30
0.0
 11
204.903432
 21
260.8564848477781
 31
0.0
  0
SOLID
  5
29B5
330
29AE
100
AcDbEntity
  8
HEWI
 62
     0
440
 16777216
100
AcDbTrace
 10
189.195723
 20
260.8864848477781
 30
0.0
 11
189.195723
 21
260.8264848477781
 31
0.0
 12
189.015723
 22
260.8564848477781
 32
0.0
 13
189.015723
 23
260.8564848477781
 33
0.0
  0
SOLID
  5
29B6
330
29AE
100
AcDbEntity
  8
HEWI
 62
     0
440
 16777216
100
AcDbTrace
 10
219.381141
 20
260.8864848477781
 30
0.0
 11
219.381141
 21
260.8264848477781
 31
0.0
 12
219.561141
 22
260.8564848477781
 32
0.0
 13
219.561141
 23
260.8564848477781
 33
0.0
  0
MTEXT
  5
29B7
330
29AE
100
AcDbEntity
  8
HEWI
 62
     0
440
 16777216
100
AcDbMText
 10
204.288432
 20
260.8564848477781
 30
0.0
 40
0.18
 41
0.0
 46
0.0
 71
     5
 72
     1
  1
\A1;30.5454
 73
     1
 44
1.0
  0
POINT
  5
29B8
330
29AE
100
AcDbEntity
  8
Defpoints
 62
     0
440
 16777216
100
AcDbPoint
 10
189.015723
 20
245.950070779947
 30
0.0
  0
POINT
  5
29B9
330
29AE
100
AcDbEntity
  8
Defpoints
 62
     0
440
 16777216
100
AcDbPoint
 10
219.561141
 20
245.950070779947
 30
0.0
  0
POINT
  5
29BA
330
29AE
100
AcDbEntity
  8
Defpoints
 62
     0
440
 16777216
100
AcDbPoint
 10
219.561141
 20
260.8564848477781
 30
0.0
  0
ENDBLK
  5
29B0
330
29AE
100
AcDbEntity
  8
0
100
AcDbBlockEnd
  0
BLOCK
  5
2A29
330
2A28
100
AcDbEntity
  8
0
100
AcDbBlockBegin
  2
_U3
 70
     0
 10
0.0
 20
0.0
 30
0.0
  3
_U3
  1

  0
MTEXT
  5
2A2A
330
2A28
100
AcDbEntity
  8
1
  6
Continuous
 62
    18
440
 16777216
370
    18
100
AcDbMText
 10
126.246502
 20
217.306314
 30
0.0
 40
2.5
 41
0.0
 46
0.0
 71
     7
 72
     5
  1
\W0.6850;295
  7
iso-1
 11
0.0000000000000001
 21
1.0
 31
0.0
 73
     2
 44
0.9638549999999998
  0
LINE
  5
2A2B
330
2A28
100
AcDbEntity
  8
1
 62
    18
440
 16777216
370
    18
100
AcDbLine
 10
84.541976
 20
111.01094
 30
0.0
 11
128.521897
 21
111.01094
 31
0.0
  0
LINE
  5
2A2C
330
2A28
100
AcDbEntity
  8
1
 62
    18
440
 16777216
370
    18
100
AcDbLine
 10
96.60672599999999
 20
258.57422
 30
0.0
 11
128.521897
 21
258.57422
 31
0.0
  0
LINE
  5
2A2D
330
2A28
100
AcDbEntity
  8
1
 62
    18
440
 16777216
370
    18
100
AcDbLine
 10
126.521897
 20
111.01094
 30
0.0
 11
126.521897
 21
258.57422
 31
0.0
  0
SOLID
  5
2A2E
330
2A28
100
AcDbEntity
  8
1
 62
    18
440
 16777216
370
    18
100
AcDbTrace
 10
126.521897
 20
111.01094
 30
0.0
 11
125.904752
 21
114.510938
 31
0.0
 12
127.139041
 22
114.510943
 32
0.0
 13
127.139041
 23
114.510943
 33
0.0
  0
SOLID
  5
2A2F
330
2A28
100
AcDbEntity
  8
1
 62
    18
440
 16777216
370
    18
100
AcDbTrace
 10
126.521897
 20
258.57422
 30
0.0
 11
127.139041
 21
255.074222
 31
0.0
 12
125.904752
 22
255.074217
 32
0.0
 13
125.904752
 23
255.074217
 33
0.0
  0
ENDBLK
  5
2A30
330
2A28
100
AcDbEntity
  8
0
100
AcDbBlockEnd
  0
BLOCK
  5
2A32
330
2A31
100
AcDbEntity
  8
0
100
AcDbBlockBegin
  2
_U4
 70
     0
 10
0.0
 20
0.0
 30
0.0
  3
_U4
  1

  0
MTEXT
  5
2A33
330
2A31
100
AcDbEntity
  8
1
  6
Continuous
 62
    18
440
 16777216
370
    18
100
AcDbMText
 10
114.664681
 20
226.861194
 30
0.0
 40
2.5
 41
0.0
 46
0.0
 71
     7
 72
     5
  1
\W0.6850;278
  7
iso-1
 11
0.0000000000000001
 21
1.0
 31
0.0
 73
     2
 44
0.9638549999999998
  0
LINE
  5
2A34
330
2A31
100
AcDbEntity
  8
1
 62
    18
440
 16777216
370
    18
100
AcDbLine
 10
98.36171400000001
 20
119.414584
 30
0.0
 11
116.940076
 21
119.414584
 31
0.0
  0
LINE
  5
2A35
330
2A31
100
AcDbEntity
  8
1
 62
    18
440
 16777216
370
    18
100
AcDbLine
 10
96.60672599999999
 20
258.57422
 30
0.0
 11
116.940076
 21
258.57422
 31
0.0
  0
LINE
  5
2A36
330
2A31
100
AcDbEntity
  8
1
 62
    18
440
 16777216
370
    18
100
AcDbLine
 10
114.940076
 20
119.414584
 30
0.0
 11
114.940076
 21
258.57422
 31
0.0
  0
SOLID
  5
2A37
330
2A31
100
AcDbEntity
  8
1
 62
    18
440
 16777216
370
    18
100
AcDbTrace
 10
114.940076
 20
119.414584
 30
0.0
 11
114.322931
 21
122.914582
 31
0.0
 12
115.55722
 22
122.914587
 32
0.0
 13
115.55722
 23
122.914587
 33
0.0
  0
SOLID
  5
2A38
330
2A31
100
AcDbEntity
  8
1
 62
    18
440
 16777216
370
    18
100
AcDbTrace
 10
114.940076
 20
258.57422
 30
0.0
 11
115.55722
 21
255.074223
 31
0.0
 12
114.322931
 22
255.074218
 32
0.0
 13
114.322931
 23
255.074218
 33
0.0
  0
ENDBLK
  5
2A39
330
2A31
100
AcDbEntity
  8
0
100
AcDbBlockEnd
  0
BLOCK
  5
2A3B
330
2A3A
100
AcDbEntity
  8
0
100
AcDbBlockBegin
  2
_U5
 70
     0
 10
0.0
 20
0.0
 30
0.0
  3
_U5
  1

  0
MTEXT
  5
2A3C
330
2A3A
100
AcDbEntity
  8
1
  6
Continuous
 62
    18
440
 16777216
370
    18
100
AcDbMText
 10
261.362416
 20
214.199598
 30
0.0
 40
2.5
 41
0.0
 46
0.0
 71
     7
 72
     5
  1
\W0.6474;60
  7
iso-1
 73
     2
 44
0.9638549999999998
  0
LINE
  5
2A3D
330
2A3A
100
AcDbEntity
  8
1
 62
    18
440
 16777216
370
    18
100
AcDbLine
 10
284.672107
 20
213.679203
 30
0.0
 11
254.672107
 21
213.679203
 31
0.0
  0
SOLID
  5
2A3E
330
2A3A
100
AcDbEntity
  8
1
 62
    18
440
 16777216
370
    18
100
AcDbTrace
 10
284.672107
 20
213.679203
 30
0.0
 11
281.172109
 21
213.062059
 31
0.0
 12
281.172104
 22
214.296348
 32
0.0
 13
281.172104
 23
214.296348
 33
0.0
  0
SOLID
  5
2A3F
330
2A3A
100
AcDbEntity
  8
1
 62
    18
440
 16777216
370
    18
100
AcDbTrace
 10
254.672107
 20
213.679203
 30
0.0
 11
258.172104
 21
214.296348
 31
0.0
 12
258.172109
 22
213.062059
 32
0.0
 13
258.172109
 23
213.062059
 33
0.0
  0
ENDBLK
  5
2A40
330
2A3A
100
AcDbEntity
  8
0
100
AcDbBlockEnd
  0
BLOCK
  5
2A42
330
2A41
100
AcDbEntity
  8
0
100
AcDbBlockBegin
  2
_U6
 70
     0
 10
0.0
 20
0.0
 30
0.0
  3
_U6
  1

  0
MTEXT
  5
2A43
330
2A41
100
AcDbEntity
  8
1
  6
Continuous
 62
    18
440
 16777216
370
    18
100
AcDbMText
 10
198.765973
 20
9.339764999999999
 30
0.0
 40
2.5
 41
0.0
 46
0.0
 71
     7
 72
     5
  1
\W0.7128;284
  7
iso-1
 73
     2
 44
0.9638549999999998
  0
LINE
  5
2A44
330
2A41
100
AcDbEntity
  8
1
 62
    18
440
 16777216
370
    18
100
AcDbLine
 10
181.074359
 20
51.152775
 30
0.0
 11
181.074359
 21
6.819369999999999
 31
0.0
  0
LINE
  5
2A45
330
2A41
100
AcDbEntity
  8
1
 62
    18
440
 16777216
370
    18
100
AcDbLine
 10
237.850013
 20
39.730624
 30
0.0
 11
237.850013
 21
6.819369999999999
 31
0.0
  0
LINE
  5
2A46
330
2A41
100
AcDbEntity
  8
1
 62
    18
440
 16777216
370
    18
100
AcDbLine
 10
181.074359
 20
8.819369999999999
 30
0.0
 11
237.850013
 21
8.819369999999999
 31
0.0
  0
SOLID
  5
2A47
330
2A41
100
AcDbEntity
  8
1
 62
    18
440
 16777216
370
    18
100
AcDbTrace
 10
181.074359
 20
8.819369999999999
 30
0.0
 11
184.574357
 21
9.436514999999999
 31
0.0
 12
184.574361
 22
8.202225999999999
 32
0.0
 13
184.574361
 23
8.202225999999999
 33
0.0
  0
SOLID
  5
2A48
330
2A41
100
AcDbEntity
  8
1
 62
    18
440
 16777216
370
    18
100
AcDbTrace
 10
237.850013
 20
8.819369999999999
 30
0.0
 11
234.350015
 21
8.202225999999999
 31
0.0
 12
234.35001
 22
9.436514999999999
 32
0.0
 13
234.35001
 23
9.436514999999999
 33
0.0
  0
ENDBLK
  5
2A49
330
2A41
100
AcDbEntity
  8
0
100
AcDbBlockEnd
  0
BLOCK
  5
2A4B
330
2A4A
100
AcDbEntity
  8
0
100
AcDbBlockBegin
  2
_U7
 70
     0
 10
0.0
 20
0.0
 30
0.0
  3
_U7
  1

  0
MTEXT
  5
2A4C
330
2A4A
100
AcDbEntity
  8
1
  6
Continuous
 62
    18
440
 16777216
370
    18
100
AcDbMText
 10
193.932971
 20
271.643077
 30
0.0
 40
2.5
 41
0.0
 46
0.0
 71
     7
 72
     5
  1
\W0.6044;106
  7
iso-1
 73
     2
 44
0.9638549999999998
  0
LINE
  5
2A4D
330
2A4A
100
AcDbEntity
  8
1
 62
    18
440
 16777216
370
    18
100
AcDbLine
 10
168.175598
 20
219.313903
 30
0.0
 11
168.175598
 21
273.122682
 31
0.0
  0
LINE
  5
2A4E
330
2A4A
100
AcDbEntity
  8
1
 62
    18
440
 16777216
370
    18
100
AcDbLine
 10
221.103066
 20
253.533128
 30
0.0
 11
221.103066
 21
273.122682
 31
0.0
  0
LINE
  5
2A4F
330
2A4A
100
AcDbEntity
  8
1
 62
    18
440
 16777216
370
    18
100
AcDbLine
 10
168.175598
 20
271.122682
 30
0.0
 11
221.103066
 21
271.122682
 31
0.0
  0
SOLID
  5
2A50
330
2A4A
100
AcDbEntity
  8
1
 62
    18
440
 16777216
370
    18
100
AcDbTrace
 10
168.175598
 20
271.122682
 30
0.0
 11
171.675595
 21
271.739826
 31
0.0
 12
171.6756
 22
270.505538
 32
0.0
 13
171.6756
 23
270.505538
 33
0.0
  0
SOLID
  5
2A51
330
2A4A
100
AcDbEntity
  8
1
 62
    18
440
 16777216
370
    18
100
AcDbTrace
 10
221.103066
 20
271.122682
 30
0.0
 11
217.603068
 21
270.505538
 31
0.0
 12
217.603063
 22
271.739826
 32
0.0
 13
217.603063
 23
271.739826
 33
0.0
  0
ENDBLK
  5
2A52
330
2A4A
100
AcDbEntity
  8
0
100
AcDbBlockEnd
  0
BLOCK
  5
3884
330
3883
100
AcDbEntity
  8
0
100
AcDbBlockBegin
  2
*D34
 70
     1
 10
0.0
 20
0.0
 30
0.0
  3
*D34
  1

  0
LINE
  5
3A35
330
3883
100
AcDbEntity
  8
HEWI
  6
Continuous
 62
    18
440
 16777216
370
    18
100
AcDbLine
 10
2397.215884979633
 20
270.3867785479137
 30
0.0
 11
2460.759940979634
 21
270.3867785479137
 31
0.0
  0
LINE
  5
3A36
330
3883
100
AcDbEntity
  8
HEWI
  6
Continuous
 62
    18
440
 16777216
370
    18
100
AcDbLine
 10
2420.019992979634
 20
78.8588321781782
 30
0.0
 11
2460.759940979634
 21
78.8588321781782
 31
0.0
  0
LINE
  5
3A37
330
3883
100
AcDbEntity
  8
HEWI
  6
Continuous
 62
    18
440
 16777216
370
    18
100
AcDbLine
 10
2458.759940979634
 20
266.8867785479137
 30
0.0
 11
2458.759940979634
 21
82.3588321781782
 31
0.0
  0
SOLID
  5
3A38
330
3883
100
AcDbEntity
  8
HEWI
 62
    18
440
 16777216
100
AcDbTrace
 10
2458.1766076463
 20
266.8867785479137
 30
0.0
 11
2459.343274312967
 21
266.8867785479137
 31
0.0
 12
2458.759940979634
 22
270.3867785479137
 32
0.0
 13
2458.759940979634
 23
270.3867785479137
 33
0.0
  0
SOLID
  5
3A39
330
3883
100
AcDbEntity
  8
HEWI
 62
    18
440
 16777216
100
AcDbTrace
 10
2458.1766076463
 20
82.3588321781782
 30
0.0
 11
2459.343274312967
 21
82.3588321781782
 31
0.0
 12
2458.759940979634
 22
78.8588321781782
 32
0.0
 13
2458.759940979634
 23
78.8588321781782
 33
0.0
  0
MTEXT
  5
3A3A
330
3883
100
AcDbEntity
  8
HEWI
 62
    18
440
 16777216
100
AcDbMText
 10
2454.634940979633
 20
110.0513201499646
 30
0.0
 40
2.5
 41
0.0
 46
0.0
 71
     1
 72
     1
  1
\A1;383,1
  7
iso-1
 11
0.0000000000000001
 21
1.0
 31
0.0
 73
     1
 44
1.0
  0
POINT
  5
3A3B
330
3883
100
AcDbEntity
  8
Defpoints
 62
     0
440
 16777216
100
AcDbPoint
 10
2397.215884979633
 20
270.3867785479137
 30
0.0
  0
POINT
  5
3A3C
330
3883
100
AcDbEntity
  8
Defpoints
 62
     0
440
 16777216
100
AcDbPoint
 10
2420.019992979634
 20
78.8588321781782
 30
0.0
  0
POINT
  5
3A3D
330
3883
100
AcDbEntity
  8
Defpoints
 62
     0
440
 16777216
100
AcDbPoint
 10
2458.759940979634
 20
78.8588321781782
 30
0.0
  0
ENDBLK
  5
3885
330
3883
100
AcDbEntity
  8
0
100
AcDbBlockEnd
  0
BLOCK
  5
3890
330
388F
100
AcDbEntity
  8
0
100
AcDbBlockBegin
  2
*D35
 70
     1
 10
0.0
 20
0.0
 30
0.0
  3
*D35
  1

  0
LINE
  5
3A2C
330
388F
100
AcDbEntity
  8
HEWI
  6
Continuous
 62
    18
440
 16777216
370
    18
100
AcDbLine
 10
2397.215884979633
 20
270.3867785479137
 30
0.0
 11
2399.758168979633
 21
270.3867785479137
 31
0.0
  0
LINE
  5
3A2D
330
388F
100
AcDbEntity
  8
HEWI
  6
Continuous
 62
    18
440
 16777216
370
    18
100
AcDbLine
 10
2372.465884979634
 20
150.4267785479135
 30
0.0
 11
2399.758168979633
 21
150.4267785479135
 31
0.0
  0
LINE
  5
3A2E
330
388F
100
AcDbEntity
  8
HEWI
  6
Continuous
 62
    18
440
 16777216
370
    18
100
AcDbLine
 10
2397.758168979633
 20
266.8867785479136
 30
0.0
 11
2397.758168979633
 21
153.9267785479135
 31
0.0
  0
SOLID
  5
3A2F
330
388F
100
AcDbEntity
  8
HEWI
 62
    18
440
 16777216
100
AcDbTrace
 10
2397.1748356463
 20
266.8867785479136
 30
0.0
 11
2398.341502312967
 21
266.8867785479136
 31
0.0
 12
2397.758168979633
 22
270.3867785479137
 32
0.0
 13
2397.758168979633
 23
270.3867785479137
 33
0.0
  0
SOLID
  5
3A30
330
388F
100
AcDbEntity
  8
HEWI
 62
    18
440
 16777216
100
AcDbTrace
 10
2397.1748356463
 20
153.9267785479135
 30
0.0
 11
2398.341502312967
 21
153.9267785479135
 31
0.0
 12
2397.758168979633
 22
150.4267785479135
 32
0.0
 13
2397.758168979633
 23
150.4267785479135
 33
0.0
  0
MTEXT
  5
3A31
330
388F
100
AcDbEntity
  8
HEWI
 62
    18
440
 16777216
100
AcDbMText
 10
2393.633885251198
 20
179.8527586600592
 30
0.0
 40
2.5
 41
0.0
 46
0.0
 71
     1
 72
     1
  1
\A1;239,9
  7
iso-1
 11
0.0000000000000001
 21
1.0
 31
0.0
 73
     1
 44
1.0
  0
POINT
  5
3A32
330
388F
100
AcDbEntity
  8
Defpoints
 62
     0
440
 16777216
100
AcDbPoint
 10
2397.215884979633
 20
270.3867785479137
 30
0.0
  0
POINT
  5
3A33
330
388F
100
AcDbEntity
  8
Defpoints
 62
     0
440
 16777216
100
AcDbPoint
 10
2372.465884979634
 20
150.4267785479135
 30
0.0
  0
POINT
  5
3A34
330
388F
100
AcDbEntity
  8
Defpoints
 62
     0
440
 16777216
100
AcDbPoint
 10
2397.758168979633
 20
150.4267785479135
 30
0.0
  0
ENDBLK
  5
3891
330
388F
100
AcDbEntity
  8
0
100
AcDbBlockEnd
  0
BLOCK
  5
389C
330
389B
100
AcDbEntity
  8
0
100
AcDbBlockBegin
  2
*D36
 70
     1
 10
0.0
 20
0.0
 30
0.0
  3
*D36
  1

  0
LINE
  5
3A23
330
389B
100
AcDbEntity
  8
HEWI
  6
Continuous
 62
    18
440
 16777216
370
    18
100
AcDbLine
 10
2196.803084174153
 20
-110.8663680434903
 30
0.0
 11
2164.984974174152
 21
-110.8663680434903
 31
0.0
  0
LINE
  5
3A24
330
389B
100
AcDbEntity
  8
HEWI
  6
Continuous
 62
    18
440
 16777216
370
    18
100
AcDbLine
 10
2191.620388174153
 20
33.99472395650976
 30
0.0
 11
2164.984974174152
 21
33.99472395650976
 31
0.0
  0
LINE
  5
3A25
330
389B
100
AcDbEntity
  8
HEWI
  6
Continuous
 62
    18
440
 16777216
370
    18
100
AcDbLine
 10
2166.984974174152
 20
-107.3663680434903
 30
0.0
 11
2166.984974174152
 21
30.49472395650976
 31
0.0
  0
SOLID
  5
3A26
330
389B
100
AcDbEntity
  8
HEWI
 62
    18
440
 16777216
100
AcDbTrace
 10
2166.401640840819
 20
-107.3663680434903
 30
0.0
 11
2167.568307507486
 21
-107.3663680434903
 31
0.0
 12
2166.984974174152
 22
-110.8663680434903
 32
0.0
 13
2166.984974174152
 23
-110.8663680434903
 33
0.0
  0
SOLID
  5
3A27
330
389B
100
AcDbEntity
  8
HEWI
 62
    18
440
 16777216
100
AcDbTrace
 10
2166.401640840819
 20
30.49472395650976
 30
0.0
 11
2167.568307507486
 21
30.49472395650976
 31
0.0
 12
2166.984974174152
 22
33.99472395650976
 32
0.0
 13
2166.984974174152
 23
33.99472395650976
 33
0.0
  0
MTEXT
  5
3A28
330
389B
100
AcDbEntity
  8
HEWI
 62
    18
440
 16777216
100
AcDbMText
 10
2163.234482048168
 20
-26.03566004349028
 30
0.0
 40
2.5
 41
0.0
 46
0.0
 71
     1
 72
     1
  1
\A1;724
  7
iso-1
 11
0.0000000000000001
 21
1.0
 31
0.0
 73
     1
 44
1.0
  0
POINT
  5
3A29
330
389B
100
AcDbEntity
  8
Defpoints
 62
     0
440
 16777216
100
AcDbPoint
 10
2196.803084174153
 20
-110.8663680434903
 30
0.0
  0
POINT
  5
3A2A
330
389B
100
AcDbEntity
  8
Defpoints
 62
     0
440
 16777216
100
AcDbPoint
 10
2191.620388174153
 20
33.99472395650976
 30
0.0
  0
POINT
  5
3A2B
330
389B
100
AcDbEntity
  8
Defpoints
 62
     0
440
 16777216
100
AcDbPoint
 10
2166.984974174152
 20
33.99472395650976
 30
0.0
  0
ENDBLK
  5
389D
330
389B
100
AcDbEntity
  8
0
100
AcDbBlockEnd
  0
BLOCK
  5
38A8
330
38A7
100
AcDbEntity
  8
0
100
AcDbBlockBegin
  2
*D37
 70
     1
 10
0.0
 20
0.0
 30
0.0
  3
*D37
  1

  0
LINE
  5
3A1A
330
38A7
100
AcDbEntity
  8
HEWI
  6
Continuous
 62
    18
440
 16777216
370
    18
100
AcDbLine
 10
1996.955622979633
 20
62.04242654791347
 30
0.0
 11
2082.915464979633
 21
62.04242654791348
 31
0.0
  0
LINE
  5
3A1B
330
38A7
100
AcDbEntity
  8
HEWI
  6
Continuous
 62
    18
440
 16777216
370
    18
100
AcDbLine
 10
2021.085122979633
 20
357.1689865479136
 30
0.0
 11
2082.915464979633
 21
357.1689865479136
 31
0.0
  0
LINE
  5
3A1C
330
38A7
100
AcDbEntity
  8
HEWI
  6
Continuous
 62
    18
440
 16777216
370
    18
100
AcDbLine
 10
2080.915464979633
 20
65.54242654791349
 30
0.0
 11
2080.915464979633
 21
353.6689865479136
 31
0.0
  0
SOLID
  5
3A1D
330
38A7
100
AcDbEntity
  8
HEWI
 62
    18
440
 16777216
100
AcDbTrace
 10
2080.3321316463
 20
65.54242654791349
 30
0.0
 11
2081.498798312967
 21
65.54242654791349
 31
0.0
 12
2080.915464979633
 22
62.04242654791348
 32
0.0
 13
2080.915464979633
 23
62.04242654791348
 33
0.0
  0
SOLID
  5
3A1E
330
38A7
100
AcDbEntity
  8
HEWI
 62
    18
440
 16777216
100
AcDbTrace
 10
2080.3321316463
 20
353.6689865479136
 30
0.0
 11
2081.498798312967
 21
353.6689865479136
 31
0.0
 12
2080.915464979633
 22
357.1689865479136
 32
0.0
 13
2080.915464979633
 23
357.1689865479136
 33
0.0
  0
MTEXT
  5
3A1F
330
38A7
100
AcDbEntity
  8
HEWI
 62
    18
440
 16777216
100
AcDbMText
 10
2077.165464979633
 20
276.8186103828272
 30
0.0
 40
2.5
 41
0.0
 46
0.0
 71
     1
 72
     1
  1
\A1;590
  7
iso-1
 11
0.0000000000000001
 21
1.0
 31
0.0
 73
     1
 44
1.0
  0
POINT
  5
3A20
330
38A7
100
AcDbEntity
  8
Defpoints
 62
     0
440
 16777216
100
AcDbPoint
 10
1996.955622979633
 20
62.04242654791347
 30
0.0
  0
POINT
  5
3A21
330
38A7
100
AcDbEntity
  8
Defpoints
 62
     0
440
 16777216
100
AcDbPoint
 10
2021.085122979633
 20
357.1689865479136
 30
0.0
  0
POINT
  5
3A22
330
38A7
100
AcDbEntity
  8
Defpoints
 62
     0
440
 16777216
100
AcDbPoint
 10
2080.915464979633
 20
357.1689865479136
 30
0.0
  0
ENDBLK
  5
38A9
330
38A7
100
AcDbEntity
  8
0
100
AcDbBlockEnd
  0
BLOCK
  5
38B4
330
38B3
100
AcDbEntity
  8
0
100
AcDbBlockBegin
  2
*D38
 70
     1
 10
0.0
 20
0.0
 30
0.0
  3
*D38
  1

  0
LINE
  5
3A11
330
38B3
100
AcDbEntity
  8
HEWI
  6
Continuous
 62
    18
440
 16777216
370
    18
100
AcDbLine
 10
2024.595099061804
 20
78.84971456209296
 30
0.0
 11
2059.751823061803
 21
78.84971456209296
 31
0.0
  0
LINE
  5
3A12
330
38B3
100
AcDbEntity
  8
HEWI
  6
Continuous
 62
    18
440
 16777216
370
    18
100
AcDbLine
 10
2021.085123061804
 20
357.1689865620931
 30
0.0
 11
2059.751823061803
 21
357.1689865620931
 31
0.0
  0
LINE
  5
3A13
330
38B3
100
AcDbEntity
  8
HEWI
  6
Continuous
 62
    18
440
 16777216
370
    18
100
AcDbLine
 10
2057.751823061804
 20
82.34971456209295
 30
0.0
 11
2057.751823061804
 21
353.6689865620932
 31
0.0
  0
SOLID
  5
3A14
330
38B3
100
AcDbEntity
  8
HEWI
 62
    18
440
 16777216
100
AcDbTrace
 10
2057.16848972847
 20
82.34971456209295
 30
0.0
 11
2058.335156395137
 21
82.34971456209295
 31
0.0
 12
2057.751823061804
 22
78.84971456209296
 32
0.0
 13
2057.751823061804
 23
78.84971456209296
 33
0.0
  0
SOLID
  5
3A15
330
38B3
100
AcDbEntity
  8
HEWI
 62
    18
440
 16777216
100
AcDbTrace
 10
2057.16848972847
 20
353.6689865620932
 30
0.0
 11
2058.335156395137
 21
353.6689865620932
 31
0.0
 12
2057.751823061804
 22
357.1689865620931
 32
0.0
 13
2057.751823061804
 23
357.1689865620931
 33
0.0
  0
MTEXT
  5
3A16
330
38B3
100
AcDbEntity
  8
HEWI
 62
    18
440
 16777216
100
AcDbMText
 10
2054.001823061803
 20
295.9337225620929
 30
0.0
 40
2.5
 41
0.0
 46
0.0
 71
     1
 72
     1
  1
\A1;557
  7
iso-1
 11
0.0000000000000001
 21
1.0
 31
0.0
 73
     1
 44
1.0
  0
POINT
  5
3A17
330
38B3
100
AcDbEntity
  8
Defpoints
 62
     0
440
 16777216
100
AcDbPoint
 10
2024.595099061804
 20
78.84971456209296
 30
0.0
  0
POINT
  5
3A18
330
38B3
100
AcDbEntity
  8
Defpoints
 62
     0
440
 16777216
100
AcDbPoint
 10
2021.085123061804
 20
357.1689865620931
 30
0.0
  0
POINT
  5
3A19
330
38B3
100
AcDbEntity
  8
Defpoints
 62
     0
440
 16777216
100
AcDbPoint
 10
2057.751823061804
 20
357.1689865620931
 30
0.0
  0
ENDBLK
  5
38B5
330
38B3
100
AcDbEntity
  8
0
100
AcDbBlockEnd
  0
BLOCK
  5
38C0
330
38BF
100
AcDbEntity
  8
0
100
AcDbBlockBegin
  2
*D39
 70
     1
 10
0.0
 20
0.0
 30
0.0
  3
*D39
  1

  0
LINE
  5
3A08
330
38BF
100
AcDbEntity
  8
HEWI
  6
Continuous
 62
    18
440
 16777216
370
    18
100
AcDbLine
 10
2397.215884979633
 20
270.3867785479135
 30
0.0
 11
2397.215884979633
 21
265.3789525479134
 31
0.0
  0
LINE
  5
3A09
330
38BF
100
AcDbEntity
  8
HEWI
  6
Continuous
 62
    18
440
 16777216
370
    18
100
AcDbLine
 10
2337.215884979633
 20
270.3909925479135
 30
0.0
 11
2337.215884979633
 21
265.3789525479134
 31
0.0
  0
LINE
  5
3A0A
330
38BF
100
AcDbEntity
  8
HEWI
  6
Continuous
 62
    18
440
 16777216
370
    18
100
AcDbLine
 10
2393.715884979632
 20
267.3789525479134
 30
0.0
 11
2340.715884979633
 21
267.3789525479134
 31
0.0
  0
SOLID
  5
3A0B
330
38BF
100
AcDbEntity
  8
HEWI
 62
    18
440
 16777216
100
AcDbTrace
 10
2393.715884979632
 20
267.9622858812467
 30
0.0
 11
2393.715884979632
 21
266.7956192145801
 31
0.0
 12
2397.215884979633
 22
267.3789525479134
 32
0.0
 13
2397.215884979633
 23
267.3789525479134
 33
0.0
  0
SOLID
  5
3A0C
330
38BF
100
AcDbEntity
  8
HEWI
 62
    18
440
 16777216
100
AcDbTrace
 10
2340.715884979633
 20
267.9622858812467
 30
0.0
 11
2340.715884979633
 21
266.7956192145801
 31
0.0
 12
2337.215884979633
 22
267.3789525479134
 32
0.0
 13
2337.215884979633
 23
267.3789525479134
 33
0.0
  0
MTEXT
  5
3A0D
330
38BF
100
AcDbEntity
  8
HEWI
 62
    18
440
 16777216
100
AcDbMText
 10
2351.216044727664
 20
271.1294446738977
 30
0.0
 40
2.5
 41
0.0
 46
0.0
 71
     1
 72
     1
  1
\A1;120
  7
iso-1
 73
     1
 44
1.0
  0
POINT
  5
3A0E
330
38BF
100
AcDbEntity
  8
Defpoints
 62
     0
440
 16777216
100
AcDbPoint
 10
2397.215884979633
 20
270.3867785479135
 30
0.0
  0
POINT
  5
3A0F
330
38BF
100
AcDbEntity
  8
Defpoints
 62
     0
440
 16777216
100
AcDbPoint
 10
2337.215884979633
 20
270.3909925479135
 30
0.0
  0
POINT
  5
3A10
330
38BF
100
AcDbEntity
  8
Defpoints
 62
     0
440
 16777216
100
AcDbPoint
 10
2337.215884979633
 20
267.3789525479134
 30
0.0
  0
ENDBLK
  5
38C1
330
38BF
100
AcDbEntity
  8
0
100
AcDbBlockEnd
  0
BLOCK
  5
38CC
330
38CB
100
AcDbEntity
  8
0
100
AcDbBlockBegin
  2
*D40
 70
     1
 10
0.0
 20
0.0
 30
0.0
  3
*D40
  1

  0
LINE
  5
39FF
330
38CB
100
AcDbEntity
  8
HEWI
  6
Continuous
 62
    18
440
 16777216
370
    18
100
AcDbLine
 10
2190.020388979633
 20
-44.73664545208651
 30
0.0
 11
2190.020388979633
 21
-144.3407134520865
 31
0.0
  0
LINE
  5
3A00
330
38CB
100
AcDbEntity
  8
HEWI
  6
Continuous
 62
    18
440
 16777216
370
    18
100
AcDbLine
 10
2303.571696979632
 20
-80.51820545208654
 30
0.0
 11
2303.571696979632
 21
-144.3407134520865
 31
0.0
  0
LINE
  5
3A01
330
38CB
100
AcDbEntity
  8
HEWI
  6
Continuous
 62
    18
440
 16777216
370
    18
100
AcDbLine
 10
2193.520388979632
 20
-142.3407134520865
 30
0.0
 11
2300.071696979632
 21
-142.3407134520865
 31
0.0
  0
SOLID
  5
3A02
330
38CB
100
AcDbEntity
  8
HEWI
 62
    18
440
 16777216
100
AcDbTrace
 10
2193.520388979632
 20
-141.7573801187532
 30
0.0
 11
2193.520388979632
 21
-142.9240467854199
 31
0.0
 12
2190.020388979633
 22
-142.3407134520865
 32
0.0
 13
2190.020388979633
 23
-142.3407134520865
 33
0.0
  0
SOLID
  5
3A03
330
38CB
100
AcDbEntity
  8
HEWI
 62
    18
440
 16777216
100
AcDbTrace
 10
2300.071696979632
 20
-141.7573801187532
 30
0.0
 11
2300.071696979632
 21
-142.9240467854199
 31
0.0
 12
2303.571696979632
 22
-142.3407134520865
 32
0.0
 13
2303.571696979632
 23
-142.3407134520865
 33
0.0
  0
MTEXT
  5
3A04
330
38CB
100
AcDbEntity
  8
HEWI
 62
    18
440
 16777216
100
AcDbMText
 10
2227.843878979633
 20
-138.5907134520865
 30
0.0
 40
2.5
 41
0.0
 46
0.0
 71
     1
 72
     1
  1
\A1;568
  7
iso-1
 73
     1
 44
1.0
  0
POINT
  5
3A05
330
38CB
100
AcDbEntity
  8
Defpoints
 62
     0
440
 16777216
100
AcDbPoint
 10
2190.020388979633
 20
-44.73664545208651
 30
0.0
  0
POINT
  5
3A06
330
38CB
100
AcDbEntity
  8
Defpoints
 62
     0
440
 16777216
100
AcDbPoint
 10
2303.571696979632
 20
-80.51820545208654
 30
0.0
  0
POINT
  5
3A07
330
38CB
100
AcDbEntity
  8
Defpoints
 62
     0
440
 16777216
100
AcDbPoint
 10
2303.571696979632
 20
-142.3407134520865
 30
0.0
  0
ENDBLK
  5
38CD
330
38CB
100
AcDbEntity
  8
0
100
AcDbBlockEnd
  0
BLOCK
  5
38D8
330
38D7
100
AcDbEntity
  8
0
100
AcDbBlockBegin
  2
*D41
 70
     1
 10
0.0
 20
0.0
 30
0.0
  3
*D41
  1

  0
LINE
  5
39F6
330
38D7
100
AcDbEntity
  8
HEWI
  6
Continuous
 62
    18
440
 16777216
370
    18
100
AcDbLine
 10
2164.222866979633
 20
278.6483525479134
 30
0.0
 11
2164.222866979633
 21
384.2659105479135
 31
0.0
  0
LINE
  5
39F7
330
38D7
100
AcDbEntity
  8
HEWI
  6
Continuous
 62
    18
440
 16777216
370
    18
100
AcDbLine
 10
2270.077802979633
 20
347.0868025479134
 30
0.0
 11
2270.077802979633
 21
384.2659105479135
 31
0.0
  0
LINE
  5
39F8
330
38D7
100
AcDbEntity
  8
HEWI
  6
Continuous
 62
    18
440
 16777216
370
    18
100
AcDbLine
 10
2167.722866979632
 20
382.2659105479134
 30
0.0
 11
2266.577802979633
 21
382.2659105479134
 31
0.0
  0
SOLID
  5
39F9
330
38D7
100
AcDbEntity
  8
HEWI
 62
    18
440
 16777216
100
AcDbTrace
 10
2167.722866979632
 20
382.8492438812468
 30
0.0
 11
2167.722866979632
 21
381.6825772145801
 31
0.0
 12
2164.222866979633
 22
382.2659105479134
 32
0.0
 13
2164.222866979633
 23
382.2659105479134
 33
0.0
  0
SOLID
  5
39FA
330
38D7
100
AcDbEntity
  8
HEWI
 62
    18
440
 16777216
100
AcDbTrace
 10
2266.577802979633
 20
382.8492438812468
 30
0.0
 11
2266.577802979633
 21
381.6825772145801
 31
0.0
 12
2270.077802979633
 22
382.2659105479134
 32
0.0
 13
2270.077802979633
 23
382.2659105479134
 33
0.0
  0
MTEXT
  5
39FB
330
38D7
100
AcDbEntity
  8
HEWI
 62
    18
440
 16777216
100
AcDbMText
 10
2217.478955034751
 20
386.0164026738977
 30
0.0
 40
2.5
 41
0.0
 46
0.0
 71
     1
 72
     1
  1
\A1;212
  7
iso-1
 73
     1
 44
1.0
  0
POINT
  5
39FC
330
38D7
100
AcDbEntity
  8
Defpoints
 62
     0
440
 16777216
100
AcDbPoint
 10
2164.222866979633
 20
278.6483525479134
 30
0.0
  0
POINT
  5
39FD
330
38D7
100
AcDbEntity
  8
Defpoints
 62
     0
440
 16777216
100
AcDbPoint
 10
2270.077802979633
 20
347.0868025479134
 30
0.0
  0
POINT
  5
39FE
330
38D7
100
AcDbEntity
  8
Defpoints
 62
     0
440
 16777216
100
AcDbPoint
 10
2270.077802979633
 20
382.2659105479134
 30
0.0
  0
ENDBLK
  5
38D9
330
38D7
100
AcDbEntity
  8
0
100
AcDbBlockEnd
  0
BLOCK
  5
390A
330
3909
100
AcDbEntity
  8
0
100
AcDbBlockBegin
  2
*D42
 70
     1
 10
0.0
 20
0.0
 30
0.0
  3
*D42
  1

  0
LINE
  5
390C
330
3909
100
AcDbEntity
  8
HEWI
 62
     0
440
 16777216
370
    -2
100
AcDbLine
 10
2044.111673011758
 20
37.1923427754864
 30
0.0
 11
2044.111673011758
 21
12.99820316641701
 31
0.0
  0
LINE
  5
390D
330
3909
100
AcDbEntity
  8
HEWI
 62
     0
440
 16777216
370
    -2
100
AcDbLine
 10
2100.887327011758
 20
37.1923427754864
 30
0.0
 11
2100.887327011758
 21
12.99820316641701
 31
0.0
  0
LINE
  5
390E
330
3909
100
AcDbEntity
  8
HEWI
 62
     0
440
 16777216
370
    -2
100
AcDbLine
 10
2044.291673011758
 20
13.178203166417
 30
0.0
 11
2071.869500011758
 21
13.178203166417
 31
0.0
  0
LINE
  5
390F
330
3909
100
AcDbEntity
  8
HEWI
 62
     0
440
 16777216
370
    -2
100
AcDbLine
 10
2100.707327011758
 20
13.178203166417
 30
0.0
 11
2073.129500011758
 21
13.178203166417
 31
0.0
  0
SOLID
  5
3910
330
3909
100
AcDbEntity
  8
HEWI
 62
     0
440
 16777216
100
AcDbTrace
 10
2044.291673011758
 20
13.208203166417
 30
0.0
 11
2044.291673011758
 21
13.148203166417
 31
0.0
 12
2044.111673011758
 22
13.178203166417
 32
0.0
 13
2044.111673011758
 23
13.178203166417
 33
0.0
  0
SOLID
  5
3911
330
3909
100
AcDbEntity
  8
HEWI
 62
     0
440
 16777216
100
AcDbTrace
 10
2100.707327011758
 20
13.208203166417
 30
0.0
 11
2100.707327011758
 21
13.148203166417
 31
0.0
 12
2100.887327011758
 22
13.178203166417
 32
0.0
 13
2100.887327011758
 23
13.178203166417
 33
0.0
  0
MTEXT
  5
3912
330
3909
100
AcDbEntity
  8
HEWI
 62
     0
440
 16777216
100
AcDbMText
 10
2072.499500011758
 20
13.178203166417
 30
0.0
 40
0.18
 41
0.0
 46
0.0
 71
     5
 72
     1
  1
\A1;56.7757
 73
     1
 44
1.0
  0
POINT
  5
3913
330
3909
100
AcDbEntity
  8
Defpoints
 62
     0
440
 16777216
100
AcDbPoint
 10
2044.111673011758
 20
37.2548427754864
 30
0.0
  0
POINT
  5
3914
330
3909
100
AcDbEntity
  8
Defpoints
 62
     0
440
 16777216
100
AcDbPoint
 10
2100.887327011758
 20
37.2548427754864
 30
0.0
  0
POINT
  5
3915
330
3909
100
AcDbEntity
  8
Defpoints
 62
     0
440
 16777216
100
AcDbPoint
 10
2100.887327011758
 20
13.178203166417
 30
0.0
  0
ENDBLK
  5
390B
330
3909
100
AcDbEntity
  8
0
100
AcDbBlockEnd
  0
BLOCK
  5
3984
330
3983
100
AcDbEntity
  8
0
100
AcDbBlockBegin
  2
*D43
 70
     1
 10
0.0
 20
0.0
 30
0.0
  3
*D43
  1

  0
LINE
  5
3991
330
3983
100
AcDbEntity
  8
HEWI
 62
     0
440
 16777216
370
    -2
100
AcDbLine
 10
1898.104865011758
 20
288.7635924029291
 30
0.0
 11
1898.104865011758
 21
309.1609668450344
 31
0.0
  0
LINE
  5
3992
330
3983
100
AcDbEntity
  8
HEWI
 62
     0
440
 16777216
370
    -2
100
AcDbLine
 10
1964.939910011758
 20
288.7635924029291
 30
0.0
 11
1964.939910011758
 21
309.1609668450344
 31
0.0
  0
LINE
  5
3993
330
3983
100
AcDbEntity
  8
HEWI
 62
     0
440
 16777216
370
    -2
100
AcDbLine
 10
1898.284865011758
 20
308.9809668450343
 30
0.0
 11
1930.907387511758
 21
308.9809668450343
 31
0.0
  0
LINE
  5
3994
330
3983
100
AcDbEntity
  8
HEWI
 62
     0
440
 16777216
370
    -2
100
AcDbLine
 10
1964.759910011758
 20
308.9809668450343
 30
0.0
 11
1932.137387511758
 21
308.9809668450343
 31
0.0
  0
SOLID
  5
3995
330
3983
100
AcDbEntity
  8
HEWI
 62
     0
440
 16777216
100
AcDbTrace
 10
1898.284865011758
 20
309.0109668450343
 30
0.0
 11
1898.284865011758
 21
308.9509668450344
 31
0.0
 12
1898.104865011758
 22
308.9809668450343
 32
0.0
 13
1898.104865011758
 23
308.9809668450343
 33
0.0
  0
SOLID
  5
3996
330
3983
100
AcDbEntity
  8
HEWI
 62
     0
440
 16777216
100
AcDbTrace
 10
1964.759910011758
 20
309.0109668450343
 30
0.0
 11
1964.759910011758
 21
308.9509668450344
 31
0.0
 12
1964.939910011758
 22
308.9809668450343
 32
0.0
 13
1964.939910011758
 23
308.9809668450343
 33
0.0
  0
MTEXT
  5
3997
330
3983
100
AcDbEntity
  8
HEWI
 62
     0
440
 16777216
100
AcDbMText
 10
1931.522387511758
 20
308.9809668450343
 30
0.0
 40
0.18
 41
0.0
 46
0.0
 71
     5
 72
     1
  1
\A1;66.8350
 73
     1
 44
1.0
  0
POINT
  5
3998
330
3983
100
AcDbEntity
  8
Defpoints
 62
     0
440
 16777216
100
AcDbPoint
 10
1898.104865011758
 20
288.7010924029291
 30
0.0
  0
POINT
  5
3999
330
3983
100
AcDbEntity
  8
Defpoints
 62
     0
440
 16777216
100
AcDbPoint
 10
1964.939910011758
 20
288.7010924029291
 30
0.0
  0
POINT
  5
399A
330
3983
100
AcDbEntity
  8
Defpoints
 62
     0
440
 16777216
100
AcDbPoint
 10
1964.939910011758
 20
308.9809668450343
 30
0.0
  0
ENDBLK
  5
3985
330
3983
100
AcDbEntity
  8
0
100
AcDbBlockEnd
  0
BLOCK
  5
3ED1
330
3ED0
100
AcDbEntity
  8
0
100
AcDbBlockBegin
  2
*D45
 70
     1
 10
0.0
 20
0.0
 30
0.0
  3
*D45
  1

  0
LINE
  5
3F6B
330
3ED0
100
AcDbEntity
  8
HEWI
  6
Continuous
 62
    18
440
 16777216
370
    18
100
AcDbLine
 10
1444.657319646397
 20
343.3212029593388
 30
0.0
 11
1532.580003646397
 21
343.3212029593388
 31
0.0
  0
LINE
  5
3F6C
330
3ED0
100
AcDbEntity
  8
HEWI
  6
Continuous
 62
    18
440
 16777216
370
    18
100
AcDbLine
 10
1485.600271646396
 20
656.4212029593388
 30
0.0
 11
1532.580003646396
 21
656.4212029593388
 31
0.0
  0
LINE
  5
3F6D
330
3ED0
100
AcDbEntity
  8
HEWI
  6
Continuous
 62
    18
440
 16777216
370
    18
100
AcDbLine
 10
1530.580003646397
 20
346.8212029593388
 30
0.0
 11
1530.580003646396
 21
652.9212029593388
 31
0.0
  0
SOLID
  5
3F6E
330
3ED0
100
AcDbEntity
  8
HEWI
 62
    18
440
 16777216
100
AcDbTrace
 10
1529.996670313063
 20
346.8212029593388
 30
0.0
 11
1531.16333697973
 21
346.8212029593388
 31
0.0
 12
1530.580003646397
 22
343.3212029593388
 32
0.0
 13
1530.580003646397
 23
343.3212029593388
 33
0.0
  0
SOLID
  5
3F6F
330
3ED0
100
AcDbEntity
  8
HEWI
 62
    18
440
 16777216
100
AcDbTrace
 10
1529.996670313063
 20
652.9212029593388
 30
0.0
 11
1531.16333697973
 21
652.9212029593388
 31
0.0
 12
1530.580003646396
 22
656.4212029593388
 32
0.0
 13
1530.580003646396
 23
656.4212029593388
 33
0.0
  0
MTEXT
  5
3F70
330
3ED0
100
AcDbEntity
  8
HEWI
 62
    18
440
 16777216
100
AcDbMText
 10
1526.829511520412
 20
497.4843919357167
 30
0.0
 40
2.5
 41
0.0
 46
0.0
 71
     1
 72
     1
  1
\A1;626
  7
iso-1
 11
0.0000000000000001
 21
1.0
 31
0.0
 73
     1
 44
1.0
  0
POINT
  5
3F71
330
3ED0
100
AcDbEntity
  8
Defpoints
 62
     0
440
 16777216
100
AcDbPoint
 10
1444.657319646397
 20
343.3212029593388
 30
0.0
  0
POINT
  5
3F72
330
3ED0
100
AcDbEntity
  8
Defpoints
 62
     0
440
 16777216
100
AcDbPoint
 10
1485.600271646396
 20
656.4212029593388
 30
0.0
  0
POINT
  5
3F73
330
3ED0
100
AcDbEntity
  8
Defpoints
 62
     0
440
 16777216
100
AcDbPoint
 10
1530.580003646396
 20
656.4212029593388
 30
0.0
  0
ENDBLK
  5
3ED2
330
3ED0
100
AcDbEntity
  8
0
100
AcDbBlockEnd
  0
BLOCK
  5
3EDD
330
3EDC
100
AcDbEntity
  8
0
100
AcDbBlockBegin
  2
*D46
 70
     1
 10
0.0
 20
0.0
 30
0.0
  3
*D46
  1

  0
LINE
  5
3F62
330
3EDC
100
AcDbEntity
  8
HEWI
  6
Continuous
 62
    18
440
 16777216
370
    18
100
AcDbLine
 10
1444.657319646397
 20
343.3212029593388
 30
0.0
 11
1509.525273646396
 21
343.3212029593388
 31
0.0
  0
LINE
  5
3F63
330
3EDC
100
AcDbEntity
  8
HEWI
  6
Continuous
 62
    18
440
 16777216
370
    18
100
AcDbLine
 10
1447.600271646397
 20
653.3212029593389
 30
0.0
 11
1509.525273646396
 21
653.3212029593389
 31
0.0
  0
LINE
  5
3F64
330
3EDC
100
AcDbEntity
  8
HEWI
  6
Continuous
 62
    18
440
 16777216
370
    18
100
AcDbLine
 10
1507.525273646396
 20
346.8212029593388
 30
0.0
 11
1507.525273646396
 21
649.8212029593389
 31
0.0
  0
SOLID
  5
3F65
330
3EDC
100
AcDbEntity
  8
HEWI
 62
    18
440
 16777216
100
AcDbTrace
 10
1506.941940313063
 20
346.8212029593388
 30
0.0
 11
1508.10860697973
 21
346.8212029593388
 31
0.0
 12
1507.525273646396
 22
343.3212029593388
 32
0.0
 13
1507.525273646396
 23
343.3212029593388
 33
0.0
  0
SOLID
  5
3F66
330
3EDC
100
AcDbEntity
  8
HEWI
 62
    18
440
 16777216
100
AcDbTrace
 10
1506.941940313063
 20
649.8212029593389
 30
0.0
 11
1508.108606979729
 21
649.8212029593389
 31
0.0
 12
1507.525273646396
 22
653.3212029593389
 32
0.0
 13
1507.525273646396
 23
653.3212029593389
 33
0.0
  0
MTEXT
  5
3F67
330
3EDC
100
AcDbEntity
  8
HEWI
 62
    18
440
 16777216
100
AcDbMText
 10
1503.774781520412
 20
456.7995035577638
 30
0.0
 40
2.5
 41
0.0
 46
0.0
 71
     1
 72
     1
  1
\A1;620
  7
iso-1
 11
0.0000000000000001
 21
1.0
 31
0.0
 73
     1
 44
1.0
  0
POINT
  5
3F68
330
3EDC
100
AcDbEntity
  8
Defpoints
 62
     0
440
 16777216
100
AcDbPoint
 10
1444.657319646397
 20
343.3212029593388
 30
0.0
  0
POINT
  5
3F69
330
3EDC
100
AcDbEntity
  8
Defpoints
 62
     0
440
 16777216
100
AcDbPoint
 10
1447.600271646397
 20
653.3212029593389
 30
0.0
  0
POINT
  5
3F6A
330
3EDC
100
AcDbEntity
  8
Defpoints
 62
     0
440
 16777216
100
AcDbPoint
 10
1507.525273646396
 20
653.3212029593389
 30
0.0
  0
ENDBLK
  5
3EDE
330
3EDC
100
AcDbEntity
  8
0
100
AcDbBlockEnd
  0
BLOCK
  5
3EE9
330
3EE8
100
AcDbEntity
  8
0
100
AcDbBlockBegin
  2
*D47
 70
     1
 10
0.0
 20
0.0
 30
0.0
  3
*D47
  1

  0
LINE
  5
3F59
330
3EE8
100
AcDbEntity
  8
HEWI
  6
Continuous
 62
    18
440
 16777216
370
    18
100
AcDbLine
 10
1341.609151646397
 20
633.8299289593387
 30
0.0
 11
1341.609151646397
 21
673.4974589593386
 31
0.0
  0
LINE
  5
3F5A
330
3EE8
100
AcDbEntity
  8
HEWI
  6
Continuous
 62
    18
440
 16777216
370
    18
100
AcDbLine
 10
1482.591391646396
 20
633.8299289593387
 30
0.0
 11
1482.591391646396
 21
673.4974589593386
 31
0.0
  0
LINE
  5
3F5B
330
3EE8
100
AcDbEntity
  8
HEWI
  6
Continuous
 62
    18
440
 16777216
370
    18
100
AcDbLine
 10
1345.109151646396
 20
671.4974589593387
 30
0.0
 11
1479.091391646396
 21
671.4974589593387
 31
0.0
  0
SOLID
  5
3F5C
330
3EE8
100
AcDbEntity
  8
HEWI
 62
    18
440
 16777216
100
AcDbTrace
 10
1345.109151646396
 20
672.080792292672
 30
0.0
 11
1345.109151646396
 21
670.9141256260053
 31
0.0
 12
1341.609151646397
 22
671.4974589593387
 32
0.0
 13
1341.609151646397
 23
671.4974589593387
 33
0.0
  0
SOLID
  5
3F5D
330
3EE8
100
AcDbEntity
  8
HEWI
 62
    18
440
 16777216
100
AcDbTrace
 10
1479.091391646396
 20
672.080792292672
 30
0.0
 11
1479.091391646396
 21
670.9141256260053
 31
0.0
 12
1482.591391646396
 22
671.4974589593387
 32
0.0
 13
1482.591391646396
 23
671.4974589593387
 33
0.0
  0
MTEXT
  5
3F5E
330
3EE8
100
AcDbEntity
  8
HEWI
 62
    18
440
 16777216
100
AcDbMText
 10
1409.743455701514
 20
675.2479510853229
 30
0.0
 40
2.5
 41
0.0
 46
0.0
 71
     1
 72
     1
  1
\A1;282
  7
iso-1
 73
     1
 44
1.0
  0
POINT
  5
3F5F
330
3EE8
100
AcDbEntity
  8
Defpoints
 62
     0
440
 16777216
100
AcDbPoint
 10
1341.609151646397
 20
633.8299289593387
 30
0.0
  0
POINT
  5
3F60
330
3EE8
100
AcDbEntity
  8
Defpoints
 62
     0
440
 16777216
100
AcDbPoint
 10
1482.591391646396
 20
633.8299289593387
 30
0.0
  0
POINT
  5
3F61
330
3EE8
100
AcDbEntity
  8
Defpoints
 62
     0
440
 16777216
100
AcDbPoint
 10
1482.591391646396
 20
671.4974589593387
 30
0.0
  0
ENDBLK
  5
3EEA
330
3EE8
100
AcDbEntity
  8
0
100
AcDbBlockEnd
  0
BLOCK
  5
3EF5
330
3EF4
100
AcDbEntity
  8
0
100
AcDbBlockBegin
  2
*D48
 70
     1
 10
0.0
 20
0.0
 30
0.0
  3
*D48
  1

  0
LINE
  5
3F50
330
3EF4
100
AcDbEntity
  8
HEWI
  6
Continuous
 62
    18
440
 16777216
370
    18
100
AcDbLine
 10
1341.609151646397
 20
633.8299289593387
 30
0.0
 11
1341.609151646397
 21
688.5305989593387
 31
0.0
  0
LINE
  5
3F51
330
3EF4
100
AcDbEntity
  8
HEWI
  6
Continuous
 62
    18
440
 16777216
370
    18
100
AcDbLine
 10
1490.397121646396
 20
653.9386529593387
 30
0.0
 11
1490.397121646396
 21
688.5305989593387
 31
0.0
  0
LINE
  5
3F52
330
3EF4
100
AcDbEntity
  8
HEWI
  6
Continuous
 62
    18
440
 16777216
370
    18
100
AcDbLine
 10
1345.109151646396
 20
686.5305989593387
 30
0.0
 11
1486.897121646396
 21
686.5305989593387
 31
0.0
  0
SOLID
  5
3F53
330
3EF4
100
AcDbEntity
  8
HEWI
 62
    18
440
 16777216
100
AcDbTrace
 10
1345.109151646396
 20
687.1139322926721
 30
0.0
 11
1345.109151646396
 21
685.9472656260053
 31
0.0
 12
1341.609151646397
 22
686.5305989593387
 32
0.0
 13
1341.609151646397
 23
686.5305989593387
 33
0.0
  0
SOLID
  5
3F54
330
3EF4
100
AcDbEntity
  8
HEWI
 62
    18
440
 16777216
100
AcDbTrace
 10
1486.897121646396
 20
687.1139322926721
 30
0.0
 11
1486.897121646396
 21
685.9472656260053
 31
0.0
 12
1490.397121646396
 22
686.5305989593387
 32
0.0
 13
1490.397121646396
 23
686.5305989593387
 33
0.0
  0
MTEXT
  5
3F55
330
3EF4
100
AcDbEntity
  8
HEWI
 62
    18
440
 16777216
100
AcDbMText
 10
1413.717025607294
 20
690.2810910853229
 30
0.0
 40
2.5
 41
0.0
 46
0.0
 71
     1
 72
     1
  1
\A1;298
  7
iso-1
 73
     1
 44
1.0
  0
POINT
  5
3F56
330
3EF4
100
AcDbEntity
  8
Defpoints
 62
     0
440
 16777216
100
AcDbPoint
 10
1341.609151646397
 20
633.8299289593387
 30
0.0
  0
POINT
  5
3F57
330
3EF4
100
AcDbEntity
  8
Defpoints
 62
     0
440
 16777216
100
AcDbPoint
 10
1490.397121646396
 20
653.9386529593387
 30
0.0
  0
POINT
  5
3F58
330
3EF4
100
AcDbEntity
  8
Defpoints
 62
     0
440
 16777216
100
AcDbPoint
 10
1490.397121646396
 20
686.5305989593387
 30
0.0
  0
ENDBLK
  5
3EF6
330
3EF4
100
AcDbEntity
  8
0
100
AcDbBlockEnd
  0
BLOCK
  5
3F01
330
3F00
100
AcDbEntity
  8
0
100
AcDbBlockBegin
  2
*D49
 70
     1
 10
0.0
 20
0.0
 30
0.0
  3
*D49
  1

  0
LINE
  5
3F47
330
3F00
100
AcDbEntity
  8
HEWI
  6
Continuous
 62
    18
440
 16777216
370
    18
100
AcDbLine
 10
1111.558575646396
 20
633.8299289593387
 30
0.0
 11
1111.558575646396
 21
673.4974589593386
 31
0.0
  0
LINE
  5
3F48
330
3F00
100
AcDbEntity
  8
HEWI
  6
Continuous
 62
    18
440
 16777216
370
    18
100
AcDbLine
 10
1272.540817646397
 20
633.8299289593387
 30
0.0
 11
1272.540817646397
 21
673.4974589593386
 31
0.0
  0
LINE
  5
3F49
330
3F00
100
AcDbEntity
  8
HEWI
  6
Continuous
 62
    18
440
 16777216
370
    18
100
AcDbLine
 10
1115.058575646396
 20
671.4974589593387
 30
0.0
 11
1269.040817646396
 21
671.4974589593387
 31
0.0
  0
SOLID
  5
3F4A
330
3F00
100
AcDbEntity
  8
HEWI
 62
    18
440
 16777216
100
AcDbTrace
 10
1115.058575646396
 20
672.080792292672
 30
0.0
 11
1115.058575646396
 21
670.9141256260053
 31
0.0
 12
1111.558575646396
 22
671.4974589593387
 32
0.0
 13
1111.558575646396
 23
671.4974589593387
 33
0.0
  0
SOLID
  5
3F4B
330
3F00
100
AcDbEntity
  8
HEWI
 62
    18
440
 16777216
100
AcDbTrace
 10
1269.040817646396
 20
672.080792292672
 30
0.0
 11
1269.040817646396
 21
670.9141256260053
 31
0.0
 12
1272.540817646397
 22
671.4974589593387
 32
0.0
 13
1272.540817646397
 23
671.4974589593387
 33
0.0
  0
MTEXT
  5
3F4C
330
3F00
100
AcDbEntity
  8
HEWI
 62
    18
440
 16777216
100
AcDbMText
 10
1189.724623827498
 20
675.2479510853229
 30
0.0
 40
2.5
 41
0.0
 46
0.0
 71
     1
 72
     1
  1
\A1;322
  7
iso-1
 73
     1
 44
1.0
  0
POINT
  5
3F4D
330
3F00
100
AcDbEntity
  8
Defpoints
 62
     0
440
 16777216
100
AcDbPoint
 10
1111.558575646396
 20
633.8299289593387
 30
0.0
  0
POINT
  5
3F4E
330
3F00
100
AcDbEntity
  8
Defpoints
 62
     0
440
 16777216
100
AcDbPoint
 10
1272.540817646397
 20
633.8299289593387
 30
0.0
  0
POINT
  5
3F4F
330
3F00
100
AcDbEntity
  8
Defpoints
 62
     0
440
 16777216
100
AcDbPoint
 10
1272.540817646397
 20
671.4974589593387
 30
0.0
  0
ENDBLK
  5
3F02
330
3F00
100
AcDbEntity
  8
0
100
AcDbBlockEnd
  0
BLOCK
  5
3F0E
330
3F0D
100
AcDbEntity
  8
0
100
AcDbBlockBegin
  2
*D50
 70
     1
 10
0.0
 20
0.0
 30
0.0
  3
*D50
  1

  0
LINE
  5
3F10
330
3F0D
100
AcDbEntity
  8
HEWI
 62
     0
440
 16777216
370
    -2
100
AcDbLine
 10
1114.375060683441
 20
412.1728510457669
 30
0.0
 11
1114.375060683441
 21
439.1374759169681
 31
0.0
  0
LINE
  5
3F11
330
3F0D
100
AcDbEntity
  8
HEWI
 62
     0
440
 16777216
370
    -2
100
AcDbLine
 10
1194.866181683441
 20
412.1728510457669
 30
0.0
 11
1194.866181683441
 21
439.1374759169681
 31
0.0
  0
LINE
  5
3F12
330
3F0D
100
AcDbEntity
  8
HEWI
 62
     0
440
 16777216
370
    -2
100
AcDbLine
 10
1114.555060683442
 20
438.9574759169682
 30
0.0
 11
1154.065621183441
 21
438.9574759169682
 31
0.0
  0
LINE
  5
3F13
330
3F0D
100
AcDbEntity
  8
HEWI
 62
     0
440
 16777216
370
    -2
100
AcDbLine
 10
1194.686181683441
 20
438.9574759169682
 30
0.0
 11
1155.175621183442
 21
438.9574759169682
 31
0.0
  0
SOLID
  5
3F14
330
3F0D
100
AcDbEntity
  8
HEWI
 62
     0
440
 16777216
100
AcDbTrace
 10
1114.555060683442
 20
438.9874759169681
 30
0.0
 11
1114.555060683442
 21
438.9274759169682
 31
0.0
 12
1114.375060683441
 22
438.9574759169682
 32
0.0
 13
1114.375060683441
 23
438.9574759169682
 33
0.0
  0
SOLID
  5
3F15
330
3F0D
100
AcDbEntity
  8
HEWI
 62
     0
440
 16777216
100
AcDbTrace
 10
1194.686181683441
 20
438.9874759169681
 30
0.0
 11
1194.686181683441
 21
438.9274759169682
 31
0.0
 12
1194.866181683441
 22
438.9574759169682
 32
0.0
 13
1194.866181683441
 23
438.9574759169682
 33
0.0
  0
MTEXT
  5
3F16
330
3F0D
100
AcDbEntity
  8
HEWI
 62
     0
440
 16777216
100
AcDbMText
 10
1154.620621183441
 20
438.9574759169682
 30
0.0
 40
0.18
 41
0.0
 46
0.0
 71
     5
 72
     1
  1
\A1;80.4911
 73
     1
 44
1.0
  0
POINT
  5
3F17
330
3F0D
100
AcDbEntity
  8
Defpoints
 62
     0
440
 16777216
100
AcDbPoint
 10
1114.375060683441
 20
412.1103510457669
 30
0.0
  0
POINT
  5
3F18
330
3F0D
100
AcDbEntity
  8
Defpoints
 62
     0
440
 16777216
100
AcDbPoint
 10
1194.866181683441
 20
412.1103510457669
 30
0.0
  0
POINT
  5
3F19
330
3F0D
100
AcDbEntity
  8
Defpoints
 62
     0
440
 16777216
100
AcDbPoint
 10
1194.866181683441
 20
438.9574759169682
 30
0.0
  0
ENDBLK
  5
3F0F
330
3F0D
100
AcDbEntity
  8
0
100
AcDbBlockEnd
  0
ENDSEC
  0
SECTION
  2
ENTITIES
  0
ARC
  5
1671
330
1F
100
AcDbEntity
  8
PV-B2
100
AcDbCircle
 10
-11424.59223890763
 20
370.4340166643989
 30
0.0000000000001721
 40
0.5
100
AcDbArc
 50
89.99999999999998
 51
269.860806877868
  0
ARC
  5
1672
330
1F
100
AcDbEntity
  8
PV-B2
100
AcDbCircle
 10
-11424.59223890763
 20
370.4340166643989
 30
0.0000000000001721
 40
0.5
100
AcDbArc
 50
89.99999999999998
 51
269.860806877868
  0
LINE
  5
3C8E
330
1F
100
AcDbEntity
  8
HEWI
 62
     7
100
AcDbLine
 10
109.8144519930861
 20
261.2404531152701
 30
0.0
 11
84.81540399308597
 21
261.2404531152701
 31
0.0
  0
LINE
  5
3C8F
330
1F
100
AcDbEntity
  8
HEWI
 62
     7
100
AcDbLine
 10
219.9275979930858
 20
261.2404531152701
 30
0.0
 11
194.9285499930861
 21
261.2404531152701
 31
0.0
  0
LINE
  5
3C91
330
1F
100
AcDbEntity
  8
HEWI
 62
     7
100
AcDbLine
 10
194.9285499930861
 20
261.2404531152701
 30
0.0
 11
109.8144519930861
 21
261.2404531152701
 31
0.0
  0
LINE
  5
3C94
330
1F
100
AcDbEntity
  8
HEWI
 62
     7
100
AcDbLine
 10
232.360705993086
 20
551.2404531152701
 30
0.0
 11
232.371501993086
 21
551.2404531152701
 31
0.0
  0
LINE
  5
3C95
330
1F
100
AcDbEntity
  8
HEWI
 62
     7
100
AcDbLine
 10
232.371501993086
 20
551.2404531152701
 30
0.0
 11
229.9272159930861
 21
271.1531871152701
 31
0.0
  0
LINE
  5
3C96
330
1F
100
AcDbEntity
  8
HEWI
 62
     7
100
AcDbLine
 10
74.81578599308614
 20
271.1531871152701
 30
0.0
 11
72.37150199308598
 21
551.2404531152701
 31
0.0
  0
LINE
  5
3C97
330
1F
100
AcDbEntity
  8
HEWI
 62
     7
100
AcDbLine
 10
72.37150199308598
 20
551.2404531152701
 30
0.0
 11
72.38229599308579
 21
551.2404531152701
 31
0.0
  0
LINE
  5
3C9A
330
1F
100
AcDbEntity
  8
HEWI
 62
     7
100
AcDbLine
 10
109.8144519930861
 20
271.1531871152701
 30
0.0
 11
194.9285499930861
 21
271.1531871152701
 31
0.0
  0
LINE
  5
3C9C
330
1F
100
AcDbEntity
  8
HEWI
 62
     7
100
AcDbLine
 10
197.3728339930858
 20
551.2404531152701
 30
0.0
 11
107.3701679930859
 21
551.2404531152701
 31
0.0
  0
LINE
  5
3C9D
330
1F
100
AcDbEntity
  8
HEWI
 62
     7
100
AcDbLine
 10
135.0530879930861
 20
571.2404451152702
 30
0.0
 11
135.074649993086
 21
571.85790311527
 31
0.0
  0
LINE
  5
3C9E
330
1F
100
AcDbEntity
  8
HEWI
 62
     7
100
AcDbLine
 10
135.5743459930859
 20
571.3404531152701
 30
0.0
 11
135.569981993086
 21
571.2404511152701
 31
0.0
  0
LINE
  5
3C9F
330
1F
100
AcDbEntity
  8
HEWI
 62
     7
100
AcDbLine
 10
169.6683519930861
 20
571.85790311527
 30
0.0
 11
169.689913993086
 21
571.2404451152702
 31
0.0
  0
LINE
  5
3CA0
330
1F
100
AcDbEntity
  8
HEWI
 62
     7
100
AcDbLine
 10
169.1730199930862
 20
571.2404511152701
 30
0.0
 11
169.1686559930858
 21
571.3404531152701
 31
0.0
  0
LINE
  5
3CA1
330
1F
100
AcDbEntity
  8
HEWI
 62
     7
100
AcDbLine
 10
135.6441879930857
 20
574.34045311527
 30
0.0
 11
139.8715019930859
 21
574.34045311527
 31
0.0
  0
LINE
  5
3CA2
330
1F
100
AcDbEntity
  8
HEWI
 62
     7
100
AcDbLine
 10
139.8715019930859
 20
574.34045311527
 30
0.0
 11
139.8715019930859
 21
573.8579031152701
 31
0.0
  0
LINE
  5
3CA3
330
1F
100
AcDbEntity
  8
HEWI
 62
     7
100
AcDbLine
 10
139.8715019930859
 20
574.34045311527
 30
0.0
 11
164.8715019930859
 21
574.34045311527
 31
0.0
  0
LINE
  5
3CA4
330
1F
100
AcDbEntity
  8
HEWI
 62
     7
100
AcDbLine
 10
164.8715019930859
 20
574.34045311527
 30
0.0
 11
164.8715019930859
 21
573.8579031152701
 31
0.0
  0
LINE
  5
3CA5
330
1F
100
AcDbEntity
  8
HEWI
 62
     7
100
AcDbLine
 10
164.8715019930859
 20
574.34045311527
 30
0.0
 11
169.0988139930859
 21
574.34045311527
 31
0.0
  0
LINE
  5
3CA6
330
1F
100
AcDbEntity
  8
HEWI
 62
     7
100
AcDbLine
 10
164.8715019930859
 20
573.8579031152701
 30
0.0
 11
139.8715019930859
 21
573.8579031152701
 31
0.0
  0
LINE
  5
3CA7
330
1F
100
AcDbEntity
  8
HEWI
 62
     7
100
AcDbLine
 10
135.074649993086
 20
571.85790311527
 30
0.0
 11
135.1444919930859
 21
573.8579031152701
 31
0.0
  0
LINE
  5
3CA8
330
1F
100
AcDbEntity
  8
HEWI
 62
     7
100
AcDbLine
 10
139.8715019930859
 20
573.8579031152701
 30
0.0
 11
139.8715019930859
 21
571.85790311527
 31
0.0
  0
LINE
  5
3CA9
330
1F
100
AcDbEntity
  8
HEWI
 62
     7
100
AcDbLine
 10
139.8715019930859
 20
573.8579031152701
 30
0.0
 11
135.1444919930859
 21
573.8579031152701
 31
0.0
  0
LINE
  5
3CAA
330
1F
100
AcDbEntity
  8
HEWI
 62
     7
100
AcDbLine
 10
164.8715019930859
 20
571.85790311527
 30
0.0
 11
164.8715019930859
 21
573.8579031152701
 31
0.0
  0
LINE
  5
3CAB
330
1F
100
AcDbEntity
  8
HEWI
 62
     7
100
AcDbLine
 10
169.5985099930858
 20
573.8579031152701
 30
0.0
 11
169.6683519930861
 21
571.85790311527
 31
0.0
  0
LINE
  5
3CAC
330
1F
100
AcDbEntity
  8
HEWI
 62
     7
100
AcDbLine
 10
169.5985099930858
 20
573.8579031152701
 30
0.0
 11
164.8715019930859
 21
573.8579031152701
 31
0.0
  0
LINE
  5
3CAD
330
1F
100
AcDbEntity
  8
HEWI
 62
     7
100
AcDbLine
 10
135.074649993086
 20
571.85790311527
 30
0.0
 11
139.8715019930859
 21
571.85790311527
 31
0.0
  0
LINE
  5
3CAE
330
1F
100
AcDbEntity
  8
HEWI
 62
     7
100
AcDbLine
 10
139.8715019930859
 20
571.3404531152701
 30
0.0
 11
135.5743459930859
 21
571.3404531152701
 31
0.0
  0
LINE
  5
3CAF
330
1F
100
AcDbEntity
  8
HEWI
 62
     7
100
AcDbLine
 10
139.8715019930859
 20
571.85790311527
 30
0.0
 11
164.8715019930859
 21
571.85790311527
 31
0.0
  0
LINE
  5
3CB0
330
1F
100
AcDbEntity
  8
HEWI
 62
     7
100
AcDbLine
 10
139.8715019930859
 20
571.3404531152701
 30
0.0
 11
139.8715019930859
 21
571.85790311527
 31
0.0
  0
LINE
  5
3CB1
330
1F
100
AcDbEntity
  8
HEWI
 62
     7
100
AcDbLine
 10
164.8715019930859
 20
571.3404531152701
 30
0.0
 11
139.8715019930859
 21
571.3404531152701
 31
0.0
  0
LINE
  5
3CB2
330
1F
100
AcDbEntity
  8
HEWI
 62
     7
100
AcDbLine
 10
164.8715019930859
 20
571.85790311527
 30
0.0
 11
169.6683519930861
 21
571.85790311527
 31
0.0
  0
LINE
  5
3CB3
330
1F
100
AcDbEntity
  8
HEWI
 62
     7
100
AcDbLine
 10
164.8715019930859
 20
571.3404531152701
 30
0.0
 11
164.8715019930859
 21
571.85790311527
 31
0.0
  0
LINE
  5
3CB4
330
1F
100
AcDbEntity
  8
HEWI
 62
     7
100
AcDbLine
 10
169.1686559930858
 20
571.3404531152701
 30
0.0
 11
164.8715019930859
 21
571.3404531152701
 31
0.0
  0
LINE
  5
3CB5
330
1F
100
AcDbEntity
  8
HEWI
 62
     7
100
AcDbLine
 10
232.713271993086
 20
560.3053911152701
 30
0.0
 11
232.733267993086
 21
560.3057411152701
 31
0.0
  0
LINE
  5
3CB6
330
1F
100
AcDbEntity
  8
HEWI
 62
     7
100
AcDbLine
 10
232.7830819930859
 20
556.3060011152701
 30
0.0
 11
232.8030779930859
 21
556.3063491152702
 31
0.0
  0
LINE
  5
3CB7
330
1F
100
AcDbEntity
  8
HEWI
 62
     7
100
AcDbLine
 10
232.733267993086
 20
560.3057411152701
 30
0.0
 11
232.8030779930859
 21
556.3063491152702
 31
0.0
  0
LINE
  5
3CB8
330
1F
100
AcDbEntity
  8
HEWI
 62
     7
100
AcDbLine
 10
77.13408799308581
 20
571.2404531152701
 30
0.0
 11
106.871501993086
 21
571.2404531152701
 31
0.0
  0
LINE
  5
3CBA
330
1F
100
AcDbEntity
  8
HEWI
 62
     7
100
AcDbLine
 10
106.871501993086
 20
571.2404531152701
 30
0.0
 11
197.871501993086
 21
571.2404531152701
 31
0.0
  0
LINE
  5
3CBC
330
1F
100
AcDbEntity
  8
HEWI
 62
     7
100
AcDbLine
 10
197.871501993086
 20
571.2404531152701
 30
0.0
 11
227.608913993086
 21
571.2404531152701
 31
0.0
  0
LINE
  5
3CBD
330
1F
100
AcDbEntity
  8
HEWI
 62
     7
100
AcDbLine
 10
197.871501993086
 20
566.3277151152701
 30
0.0
 11
106.871501993086
 21
566.3277151152701
 31
0.0
  0
LINE
  5
3CBF
330
1F
100
AcDbEntity
  8
HEWI
 62
     7
100
AcDbLine
 10
106.871501993086
 20
566.3277151152701
 30
0.0
 11
72.13484999308594
 21
566.3277151152701
 31
0.0
  0
LINE
  5
3CC1
330
1F
100
AcDbEntity
  8
HEWI
 62
     7
100
AcDbLine
 10
232.6081519930858
 20
566.3277151152701
 30
0.0
 11
232.8626219930861
 21
551.7491791152702
 31
0.0
  0
LINE
  5
3CC2
330
1F
100
AcDbEntity
  8
HEWI
 62
     7
100
AcDbLine
 10
232.6081519930858
 20
566.3277151152701
 30
0.0
 11
197.871501993086
 21
566.3277151152701
 31
0.0
  0
LINE
  5
3CC3
330
1F
100
AcDbEntity
  8
HEWI
 62
     7
100
AcDbLine
 10
232.3607039930857
 20
551.2404531152701
 30
0.0
 11
198.2422779930857
 21
551.2404531152701
 31
0.0
  0
LINE
  5
3CC4
330
1F
100
AcDbEntity
  8
HEWI
 62
     7
100
AcDbLine
 10
197.871501993086
 20
551.7491791152702
 30
0.0
 11
232.8626219930861
 21
551.7491791152702
 31
0.0
  0
LINE
  5
3CC5
330
1F
100
AcDbEntity
  8
HEWI
 62
     7
100
AcDbLine
 10
106.500723993086
 20
551.2404531152701
 30
0.0
 11
72.38229799308601
 21
551.2404531152701
 31
0.0
  0
LINE
  5
3CC6
330
1F
100
AcDbEntity
  8
HEWI
 62
     7
100
AcDbLine
 10
71.88037999308608
 20
551.7491791152702
 30
0.0
 11
106.871501993086
 21
551.7491791152702
 31
0.0
  0
LINE
  5
3CC9
330
1F
100
AcDbEntity
  8
HEWI
 62
     7
100
AcDbLine
 10
106.871501993086
 20
551.7491791152702
 30
0.0
 11
197.871501993086
 21
551.7491791152702
 31
0.0
  0
LINE
  5
3CCA
330
1F
100
AcDbEntity
  8
HEWI
 62
     7
100
AcDbLine
 10
71.88037999308608
 20
551.7491791152702
 30
0.0
 11
72.13484999308594
 21
566.3277151152701
 31
0.0
  0
LINE
  5
3CCB
330
1F
100
AcDbEntity
  8
HEWI
 62
     7
100
AcDbLine
 10
304.9528679930859
 20
261.2404531152701
 30
0.0
 11
304.866359993086
 21
271.1531871152701
 31
0.0
  0
LINE
  5
3CCE
330
1F
100
AcDbEntity
  8
HEWI
 62
     7
100
AcDbLine
 10
442.4112799930858
 20
551.2404531152701
 30
0.0
 11
442.4220759930858
 21
551.2404531152701
 31
0.0
  0
LINE
  5
3CCF
330
1F
100
AcDbEntity
  8
HEWI
 62
     7
100
AcDbLine
 10
442.4220759930858
 20
551.2404531152701
 30
0.0
 11
439.9777899930859
 21
271.1531871152701
 31
0.0
  0
LINE
  5
3CD0
330
1F
100
AcDbEntity
  8
HEWI
 62
     7
100
AcDbLine
 10
304.866359993086
 20
271.1531871152701
 30
0.0
 11
302.4220759930859
 21
551.2404531152701
 31
0.0
  0
LINE
  5
3CD1
330
1F
100
AcDbEntity
  8
HEWI
 62
     7
100
AcDbLine
 10
304.866359993086
 20
271.1531871152701
 30
0.0
 11
404.9791239930859
 21
271.1531871152701
 31
0.0
  0
LINE
  5
3CD3
330
1F
100
AcDbEntity
  8
HEWI
 62
     7
100
AcDbLine
 10
407.4234079930861
 20
551.2404531152701
 30
0.0
 11
302.4220759930859
 21
551.2404531152701
 31
0.0
  0
LINE
  5
3CD4
330
1F
100
AcDbEntity
  8
HEWI
 62
     7
100
AcDbLine
 10
445.9220759930858
 20
574.34045311527
 30
0.0
 11
450.1493879930858
 21
574.34045311527
 31
0.0
  0
LINE
  5
3CD5
330
1F
100
AcDbEntity
  8
HEWI
 62
     7
100
AcDbLine
 10
445.9220759930858
 20
574.34045311527
 30
0.0
 11
445.9220759930858
 21
573.8579031152701
 31
0.0
  0
LINE
  5
3CD6
330
1F
100
AcDbEntity
  8
HEWI
 62
     7
100
AcDbLine
 10
450.6490839930861
 20
573.8579031152701
 30
0.0
 11
445.9220759930858
 21
573.8579031152701
 31
0.0
  0
LINE
  5
3CD7
330
1F
100
AcDbEntity
  8
HEWI
 62
     7
100
AcDbLine
 10
445.9220759930858
 20
571.85790311527
 30
0.0
 11
450.718925993086
 21
571.85790311527
 31
0.0
  0
LINE
  5
3CD8
330
1F
100
AcDbEntity
  8
HEWI
 62
     7
100
AcDbLine
 10
450.2192299930861
 20
571.3404531152701
 30
0.0
 11
445.9220759930858
 21
571.3404531152701
 31
0.0
  0
LINE
  5
3CD9
330
1F
100
AcDbEntity
  8
HEWI
 62
     7
100
AcDbLine
 10
445.9220759930858
 20
571.3404531152701
 30
0.0
 11
445.9220759930858
 21
571.85790311527
 31
0.0
  0
LINE
  5
3CDA
330
1F
100
AcDbEntity
  8
HEWI
 62
     7
100
AcDbLine
 10
445.9220759930858
 20
571.3404531152701
 30
0.0
 11
428.7509499930861
 21
571.3404531152701
 31
0.0
  0
LINE
  5
3CDB
330
1F
100
AcDbEntity
  8
HEWI
 62
     7
100
AcDbLine
 10
428.7509499930861
 20
571.3404531152701
 30
0.0
 11
428.7509499930861
 21
571.85790311527
 31
0.0
  0
LINE
  5
3CDC
330
1F
100
AcDbEntity
  8
HEWI
 62
     7
100
AcDbLine
 10
428.722075993086
 20
574.34045311527
 30
0.0
 11
428.722075993086
 21
573.8579031152701
 31
0.0
  0
LINE
  5
3CDD
330
1F
100
AcDbEntity
  8
HEWI
 62
     7
100
AcDbLine
 10
428.7509499930861
 20
571.85790311527
 30
0.0
 11
445.9220759930858
 21
571.85790311527
 31
0.0
  0
LINE
  5
3CDE
330
1F
100
AcDbEntity
  8
HEWI
 62
     7
100
AcDbLine
 10
445.9220759930858
 20
571.85790311527
 30
0.0
 11
445.9220759930858
 21
573.8579031152701
 31
0.0
  0
LINE
  5
3CDF
330
1F
100
AcDbEntity
  8
HEWI
 62
     7
100
AcDbLine
 10
445.9220759930858
 20
573.8579031152701
 30
0.0
 11
428.722075993086
 21
573.8579031152701
 31
0.0
  0
LINE
  5
3CE0
330
1F
100
AcDbEntity
  8
HEWI
 62
     7
100
AcDbLine
 10
302.762525993086
 20
571.2404531152701
 30
0.0
 11
407.9220759930858
 21
571.2404531152701
 31
0.0
  0
LINE
  5
3CE2
330
1F
100
AcDbEntity
  8
HEWI
 62
     7
100
AcDbLine
 10
302.762525993086
 20
571.2404531152701
 30
0.0
 11
302.685347993086
 21
566.3277151152701
 31
0.0
  0
LINE
  5
3CE3
330
1F
100
AcDbEntity
  8
HEWI
 62
     7
100
AcDbLine
 10
302.1854239930858
 20
566.3277151152701
 30
0.0
 11
302.2626019930858
 21
570.7491791152701
 31
0.0
  0
LINE
  5
3CE4
330
1F
100
AcDbEntity
  8
HEWI
 62
     7
100
AcDbLine
 10
407.9220759930858
 20
566.3277151152701
 30
0.0
 11
302.685347993086
 21
566.3277151152701
 31
0.0
  0
LINE
  5
3CE5
330
1F
100
AcDbEntity
  8
HEWI
 62
     7
100
AcDbLine
 10
302.685347993086
 20
566.3277151152701
 30
0.0
 11
302.4308799930859
 21
551.7491791152702
 31
0.0
  0
LINE
  5
3CE7
330
1F
100
AcDbEntity
  8
HEWI
 62
     7
100
AcDbLine
 10
442.6587259930861
 20
566.3277151152701
 30
0.0
 11
407.9220759930858
 21
566.3277151152701
 31
0.0
  0
LINE
  5
3CE8
330
1F
100
AcDbEntity
  8
HEWI
 62
     7
100
AcDbLine
 10
302.4308799930859
 20
551.7491791152702
 30
0.0
 11
407.9220759930858
 21
551.7491791152702
 31
0.0
  0
LINE
  5
3CE9
330
1F
100
AcDbEntity
  8
HEWI
 62
     7
100
AcDbLine
 10
302.4308799930859
 20
551.7491791152702
 30
0.0
 11
302.4308799930859
 21
551.2404531152701
 31
0.0
  0
LINE
  5
3CEB
330
1F
100
AcDbEntity
  8
HEWI
 62
     7
100
AcDbLine
 10
442.411277993086
 20
551.2404531152701
 30
0.0
 11
408.2928539930858
 21
551.2404531152701
 31
0.0
  0
LINE
  5
3CEC
330
1F
100
AcDbEntity
  8
HEWI
 62
     7
100
AcDbLine
 10
407.9220759930858
 20
551.7491791152702
 30
0.0
 11
442.913195993086
 21
551.7491791152702
 31
0.0
  0
LINE
  5
3CED
330
1F
100
AcDbEntity
  8
HEWI
 62
     7
100
AcDbLine
 10
429.9781719930861
 20
261.2404531152701
 30
0.0
 11
404.9791239930859
 21
261.2404531152701
 31
0.0
  0
LINE
  5
3CEE
330
1F
100
AcDbEntity
  8
HEWI
 62
     7
100
AcDbLine
 10
407.9220759930858
 20
571.2404531152701
 30
0.0
 11
437.6594879930862
 21
571.2404531152701
 31
0.0
  0
LINE
  5
3CEF
330
1F
100
AcDbEntity
  8
HEWI
 62
     7
100
AcDbLine
 10
428.722075993086
 20
574.34045311527
 30
0.0
 11
445.9220759930858
 21
574.34045311527
 31
0.0
  0
LINE
  5
3CF0
330
1F
100
AcDbEntity
  8
HEWI
 62
     7
100
AcDbLine
 10
404.9791239930859
 20
261.2404531152701
 30
0.0
 11
304.9528679930859
 21
261.2404531152701
 31
0.0
  0
LINE
  5
3CF1
330
1F
100
AcDbEntity
  8
HEWI
 62
     7
100
AcDbLine
 10
450.6490839930861
 20
573.8579031152701
 30
0.0
 11
450.718925993086
 21
571.85790311527
 31
0.0
  0
LINE
  5
3CF2
330
1F
100
AcDbEntity
  8
HEWI
 62
     7
100
AcDbLine
 10
442.6587259930861
 20
566.3277151152701
 30
0.0
 11
442.913195993086
 21
551.7491791152702
 31
0.0
  0
LINE
  5
3CF3
330
1F
100
AcDbEntity
  8
HEWI
 62
     7
100
AcDbLine
 10
301.9309559930862
 20
551.7491791152702
 30
0.0
 11
302.1854239930858
 21
566.3277151152701
 31
0.0
  0
LINE
  5
3CF4
330
1F
100
AcDbEntity
  8
HEWI
 62
     7
100
AcDbLine
 10
177.3715019930859
 20
79.95290911527007
 30
0.0
 11
177.3715019930859
 21
81.19283111527005
 31
0.0
  0
LINE
  5
3CF5
330
1F
100
AcDbEntity
  8
HEWI
 62
     7
100
AcDbLine
 10
127.371501993086
 20
79.95290911527007
 30
0.0
 11
127.371501993086
 21
81.19283111527005
 31
0.0
  0
LINE
  5
3CF6
330
1F
100
AcDbEntity
  8
HEWI
 62
     7
100
AcDbLine
 10
197.371501993086
 20
79.95316311527005
 30
0.0
 11
197.371501993086
 21
81.19295911527007
 31
0.0
  0
LINE
  5
3CF7
330
1F
100
AcDbEntity
  8
HEWI
 62
     7
100
AcDbLine
 10
107.371501993086
 20
81.19295911527007
 30
0.0
 11
107.371501993086
 21
79.95316311527005
 31
0.0
  0
LINE
  5
3CF8
330
1F
100
AcDbEntity
  8
HEWI
 62
     7
100
AcDbLine
 10
108.371501993086
 20
79.95300711527005
 30
0.0
 11
108.371501993086
 21
81.19294311527005
 31
0.0
  0
LINE
  5
3CF9
330
1F
100
AcDbEntity
  8
HEWI
 62
     7
100
AcDbLine
 10
196.371501993086
 20
81.19294311527005
 30
0.0
 11
196.371501993086
 21
79.95300711527005
 31
0.0
  0
LINE
  5
3CFA
330
1F
100
AcDbEntity
  8
HEWI
 62
     7
100
AcDbLine
 10
216.6670999930861
 20
186.28844711527
 30
0.0
 11
216.6670999930861
 21
99.98838311527004
 31
0.0
  0
LINE
  5
3CFB
330
1F
100
AcDbEntity
  8
HEWI
 62
     7
100
AcDbLine
 10
216.6670999930861
 20
186.28844711527
 30
0.0
 11
216.1671179930859
 21
186.28844711527
 31
0.0
  0
LINE
  5
3CFC
330
1F
100
AcDbEntity
  8
HEWI
 62
     7
100
AcDbLine
 10
135.0134419930859
 20
81.19278311527006
 30
0.0
 11
106.871501993086
 21
81.19278311527006
 31
0.0
  0
LINE
  5
3CFD
330
1F
100
AcDbEntity
  8
HEWI
 62
     7
100
AcDbLine
 10
106.871501993086
 20
81.19276511527004
 30
0.0
 11
106.871501993086
 21
81.69276511527005
 31
0.0
  0
LINE
  5
3CFE
330
1F
100
AcDbEntity
  8
HEWI
 62
     7
100
AcDbLine
 10
197.871501993086
 20
81.19278311527006
 30
0.0
 11
169.7068639930858
 21
81.19278311527006
 31
0.0
  0
LINE
  5
3CFF
330
1F
100
AcDbEntity
  8
HEWI
 62
     7
100
AcDbLine
 10
106.871501993086
 20
81.69276511527005
 30
0.0
 11
134.3886559930861
 21
81.69276511527005
 31
0.0
  0
LINE
  5
3D00
330
1F
100
AcDbEntity
  8
HEWI
 62
     7
100
AcDbLine
 10
170.3543459930861
 20
81.69276511527005
 30
0.0
 11
197.871501993086
 21
81.69276511527005
 31
0.0
  0
LINE
  5
3D01
330
1F
100
AcDbEntity
  8
HEWI
 62
     7
100
AcDbLine
 10
216.1671179930859
 20
99.98838311527004
 30
0.0
 11
216.1671179930859
 21
186.28844711527
 31
0.0
  0
LINE
  5
3D02
330
1F
100
AcDbEntity
  8
HEWI
 62
     7
100
AcDbLine
 10
90.07137199308591
 20
188.28391511527
 30
0.0
 11
90.07137199308591
 21
187.7839351152701
 31
0.0
  0
LINE
  5
3D03
330
1F
100
AcDbEntity
  8
HEWI
 62
     7
100
AcDbLine
 10
214.6716299930858
 20
187.7839351152701
 30
0.0
 11
90.07137199308591
 21
187.7839351152701
 31
0.0
  0
LINE
  5
3D04
330
1F
100
AcDbEntity
  8
HEWI
 62
     7
100
AcDbLine
 10
214.6716299930858
 20
188.2839351152701
 30
0.0
 11
214.6716299930858
 21
187.7839351152701
 31
0.0
  0
LINE
  5
3D05
330
1F
100
AcDbEntity
  8
HEWI
 62
     7
100
AcDbLine
 10
90.07137199308591
 20
188.28391511527
 30
0.0
 11
214.6716299930858
 21
188.28391511527
 31
0.0
  0
LINE
  5
3D06
330
1F
100
AcDbEntity
  8
HEWI
 62
     7
100
AcDbLine
 10
216.6671179930859
 20
99.98838311527004
 30
0.0
 11
216.1671179930859
 21
99.98838311527004
 31
0.0
  0
LINE
  5
3D07
330
1F
100
AcDbEntity
  8
HEWI
 62
     7
100
AcDbLine
 10
197.871501993086
 20
81.19276511527004
 30
0.0
 11
197.871501993086
 21
81.69276511527005
 31
0.0
  0
LINE
  5
3D08
330
1F
100
AcDbEntity
  8
HEWI
 62
     7
100
AcDbLine
 10
88.07588399308588
 20
99.98838311527004
 30
0.0
 11
88.57588399308587
 21
99.98838311527004
 31
0.0
  0
LINE
  5
3D09
330
1F
100
AcDbEntity
  8
HEWI
 62
     7
100
AcDbLine
 10
88.57588399308587
 20
186.28844711527
 30
0.0
 11
88.57588399308587
 21
99.98838311527004
 31
0.0
  0
LINE
  5
3D0A
330
1F
100
AcDbEntity
  8
HEWI
 62
     7
100
AcDbLine
 10
88.07588399308588
 20
186.28844711527
 30
0.0
 11
88.57588399308587
 21
186.28844711527
 31
0.0
  0
LINE
  5
3D0B
330
1F
100
AcDbEntity
  8
HEWI
 62
     7
100
AcDbLine
 10
88.07590199308606
 20
99.98838311527004
 30
0.0
 11
88.07590199308606
 21
186.28844711527
 31
0.0
  0
LINE
  5
3D0C
330
1F
100
AcDbEntity
  8
HEWI
 62
     7
100
AcDbLine
 10
170.3543459930861
 20
83.68838311527008
 30
0.0
 11
170.3543459930861
 21
81.69276511527005
 31
0.0
  0
LINE
  5
3D0D
330
1F
100
AcDbEntity
  8
HEWI
 62
     7
100
AcDbLine
 10
134.3886559930861
 20
81.69276511527005
 30
0.0
 11
134.3886559930861
 21
83.68838311527008
 31
0.0
  0
LINE
  5
3D0E
330
1F
100
AcDbEntity
  8
HEWI
 62
     7
100
AcDbLine
 10
134.3886559930861
 20
81.69276511527005
 30
0.0
 11
134.8883519930859
 21
81.69276511527005
 31
0.0
  0
LINE
  5
3D0F
330
1F
100
AcDbEntity
  8
HEWI
 62
     7
100
AcDbLine
 10
170.3543459930861
 20
81.69276511527005
 30
0.0
 11
169.8546499930858
 21
81.69276511527005
 31
0.0
  0
LINE
  5
3D10
330
1F
100
AcDbEntity
  8
HEWI
 62
     7
100
AcDbLine
 10
170.3543459930861
 20
83.68838311527008
 30
0.0
 11
169.8546499930858
 21
83.68838311527008
 31
0.0
  0
LINE
  5
3D11
330
1F
100
AcDbEntity
  8
HEWI
 62
     7
100
AcDbLine
 10
169.353735993086
 20
84.18838311527009
 30
0.0
 11
169.353735993086
 21
84.68838311527008
 31
0.0
  0
LINE
  5
3D12
330
1F
100
AcDbEntity
  8
HEWI
 62
     7
100
AcDbLine
 10
135.3892659930861
 20
84.68838311527008
 30
0.0
 11
169.353735993086
 21
84.68838311527008
 31
0.0
  0
LINE
  5
3D13
330
1F
100
AcDbEntity
  8
HEWI
 62
     7
100
AcDbLine
 10
134.3886559930861
 20
83.68838311527008
 30
0.0
 11
134.8883519930859
 21
83.68838311527008
 31
0.0
  0
LINE
  5
3D14
330
1F
100
AcDbEntity
  8
HEWI
 62
     7
100
AcDbLine
 10
135.3892659930861
 20
84.18838311527009
 30
0.0
 11
135.3892659930861
 21
84.68838311527008
 31
0.0
  0
LINE
  5
3D15
330
1F
100
AcDbEntity
  8
HEWI
 62
     7
100
AcDbLine
 10
135.3892659930861
 20
84.18838311527009
 30
0.0
 11
135.487043993086
 21
84.18838311527009
 31
0.0
  0
LINE
  5
3D16
330
1F
100
AcDbEntity
  8
HEWI
 62
     7
100
AcDbLine
 10
169.2559579930857
 20
84.18838311527009
 30
0.0
 11
169.353735993086
 21
84.18838311527009
 31
0.0
  0
LINE
  5
3D17
330
1F
100
AcDbEntity
  8
HEWI
 62
     7
100
AcDbLine
 10
135.074649993086
 20
61.98838311527009
 30
0.0
 11
135.0743459930859
 21
61.98838311527009
 31
0.0
  0
LINE
  5
3D18
330
1F
100
AcDbEntity
  8
HEWI
 62
     7
100
AcDbLine
 10
135.074649993086
 20
79.15950711527006
 30
0.0
 11
135.0743459930859
 21
79.15950711527006
 31
0.0
  0
LINE
  5
3D19
330
1F
100
AcDbEntity
  8
HEWI
 62
     7
100
AcDbLine
 10
164.8715019930859
 20
57.1915311152701
 30
0.0
 11
164.8715019930859
 21
57.19122711527006
 31
0.0
  0
LINE
  5
3D1A
330
1F
100
AcDbEntity
  8
HEWI
 62
     7
100
AcDbLine
 10
139.8715019930859
 20
57.1915311152701
 30
0.0
 11
139.8715019930859
 21
57.19122711527006
 31
0.0
  0
LINE
  5
3D1B
330
1F
100
AcDbEntity
  8
HEWI
 62
     7
100
AcDbLine
 10
169.6683519930861
 20
61.98838311527009
 30
0.0
 11
169.6686559930858
 21
61.98838311527009
 31
0.0
  0
LINE
  5
3D1C
330
1F
100
AcDbEntity
  8
HEWI
 62
     7
100
AcDbLine
 10
169.6683519930861
 20
79.15950711527006
 30
0.0
 11
169.6686559930858
 21
79.15950711527006
 31
0.0
  0
LINE
  5
3D1D
330
1F
100
AcDbEntity
  8
HEWI
 62
     7
100
AcDbLine
 10
169.7548919930859
 20
81.65941311527006
 30
0.0
 11
169.854651993086
 21
81.68434311527006
 31
0.0
  0
LINE
  5
3D1E
330
1F
100
AcDbEntity
  8
HEWI
 62
     7
100
AcDbLine
 10
169.8546499930858
 20
81.69276511527005
 30
0.0
 11
169.8546499930858
 21
83.68838311527008
 31
0.0
  0
LINE
  5
3D1F
330
1F
100
AcDbEntity
  8
HEWI
 62
     7
100
AcDbLine
 10
169.8546499930858
 20
83.68838311527008
 30
0.0
 11
169.755653993086
 21
83.68838311527008
 31
0.0
  0
LINE
  5
3D20
330
1F
100
AcDbEntity
  8
HEWI
 62
     7
100
AcDbLine
 10
169.6683519930861
 20
61.98838311527009
 30
0.0
 11
169.6683519930861
 21
79.15950711527006
 31
0.0
  0
LINE
  5
3D21
330
1F
100
AcDbEntity
  8
HEWI
 62
     7
100
AcDbLine
 10
139.8715019930859
 20
57.1915311152701
 30
0.0
 11
164.8715019930859
 21
57.1915311152701
 31
0.0
  0
LINE
  5
3D22
330
1F
100
AcDbEntity
  8
HEWI
 62
     7
100
AcDbLine
 10
134.8883519930859
 20
83.68838311527008
 30
0.0
 11
134.8883519930859
 21
81.69276511527005
 31
0.0
  0
LINE
  5
3D23
330
1F
100
AcDbEntity
  8
HEWI
 62
     7
100
AcDbLine
 10
134.8883499930857
 20
81.68434311527006
 30
0.0
 11
134.9881099930858
 21
81.65941311527006
 31
0.0
  0
LINE
  5
3D24
330
1F
100
AcDbEntity
  8
HEWI
 62
     7
100
AcDbLine
 10
135.074649993086
 20
79.15950711527006
 30
0.0
 11
135.074649993086
 21
61.98838311527009
 31
0.0
  0
LINE
  5
3D25
330
1F
100
AcDbEntity
  8
HEWI
 62
     7
100
AcDbLine
 10
134.9873479930861
 20
83.68838311527008
 30
0.0
 11
134.8883519930859
 21
83.68838311527008
 31
0.0
  0
LINE
  5
3D26
330
1F
100
AcDbEntity
  8
HEWI
 62
     7
100
AcDbLine
 10
164.8715019930859
 20
57.1915311152701
 30
0.0
 11
164.8715019930859
 21
57.26137311527009
 31
0.0
  0
LINE
  5
3D27
330
1F
100
AcDbEntity
  8
HEWI
 62
     7
100
AcDbLine
 10
169.5985099930858
 20
61.98838311527009
 30
0.0
 11
169.6683519930861
 21
61.98838311527009
 31
0.0
  0
LINE
  5
3D28
330
1F
100
AcDbEntity
  8
HEWI
 62
     7
100
AcDbLine
 10
135.074649993086
 20
61.98838311527009
 30
0.0
 11
135.1444919930859
 21
61.98838311527009
 31
0.0
  0
LINE
  5
3D29
330
1F
100
AcDbEntity
  8
HEWI
 62
     7
100
AcDbLine
 10
139.8715019930859
 20
57.26137311527009
 30
0.0
 11
139.8715019930859
 21
57.1915311152701
 31
0.0
  0
LINE
  5
3D2A
330
1F
100
AcDbEntity
  8
HEWI
 62
     7
100
AcDbLine
 10
135.1444919930859
 20
61.98838311527009
 30
0.0
 11
135.1444919930859
 21
79.18838311527008
 31
0.0
  0
LINE
  5
3D2B
330
1F
100
AcDbEntity
  8
HEWI
 62
     7
100
AcDbLine
 10
135.6441879930857
 20
61.98838311527009
 30
0.0
 11
135.1444919930859
 21
61.98838311527009
 31
0.0
  0
LINE
  5
3D2C
330
1F
100
AcDbEntity
  8
HEWI
 62
     7
100
AcDbLine
 10
169.5985099930858
 20
79.18838311527008
 30
0.0
 11
169.5985099930858
 21
61.98838311527009
 31
0.0
  0
LINE
  5
3D2D
330
1F
100
AcDbEntity
  8
HEWI
 62
     7
100
AcDbLine
 10
169.0988139930859
 20
79.18838311527008
 30
0.0
 11
169.5985099930858
 21
79.18838311527008
 31
0.0
  0
LINE
  5
3D2E
330
1F
100
AcDbEntity
  8
HEWI
 62
     7
100
AcDbLine
 10
139.8715019930859
 20
57.76106911527006
 30
0.0
 11
139.8715019930859
 21
57.26137311527009
 31
0.0
  0
LINE
  5
3D2F
330
1F
100
AcDbEntity
  8
HEWI
 62
     7
100
AcDbLine
 10
164.8715019930859
 20
57.26137311527009
 30
0.0
 11
139.8715019930859
 21
57.26137311527009
 31
0.0
  0
LINE
  5
3D30
330
1F
100
AcDbEntity
  8
HEWI
 62
     7
100
AcDbLine
 10
135.6441879930857
 20
79.18838311527008
 30
0.0
 11
135.6441879930857
 21
61.98838311527009
 31
0.0
  0
LINE
  5
3D31
330
1F
100
AcDbEntity
  8
HEWI
 62
     7
100
AcDbLine
 10
139.8715019930859
 20
57.76106911527006
 30
0.0
 11
164.8715019930859
 21
57.76106911527006
 31
0.0
  0
LINE
  5
3D32
330
1F
100
AcDbEntity
  8
HEWI
 62
     7
100
AcDbLine
 10
169.0988139930859
 20
61.98838311527009
 30
0.0
 11
169.0988139930859
 21
79.18838311527008
 31
0.0
  0
LINE
  5
3D33
330
1F
100
AcDbEntity
  8
HEWI
 62
     7
100
AcDbLine
 10
169.0988139930859
 20
79.18838311527008
 30
0.0
 11
135.6441879930857
 21
79.18838311527008
 31
0.0
  0
LINE
  5
3D34
330
1F
100
AcDbEntity
  8
HEWI
 62
     7
100
AcDbLine
 10
169.2559579930857
 20
84.18838311527009
 30
0.0
 11
135.487043993086
 21
84.18838311527009
 31
0.0
  0
LINE
  5
3D35
330
1F
100
AcDbEntity
  8
HEWI
 62
     7
100
AcDbLine
 10
135.6441879930857
 20
79.18838311527008
 30
0.0
 11
135.1444919930859
 21
79.18838311527008
 31
0.0
  0
LINE
  5
3D36
330
1F
100
AcDbEntity
  8
HEWI
 62
     7
100
AcDbLine
 10
164.8715019930859
 20
57.76106911527006
 30
0.0
 11
164.8715019930859
 21
57.26137311527009
 31
0.0
  0
LINE
  5
3D37
330
1F
100
AcDbEntity
  8
HEWI
 62
     7
100
AcDbLine
 10
169.0988139930859
 20
61.98838311527009
 30
0.0
 11
169.5985099930858
 21
61.98838311527009
 31
0.0
  0
LINE
  5
3D38
330
1F
100
AcDbEntity
  8
HEWI
 62
     7
100
AcDbLine
 10
232.7713879930861
 20
194.62950311527
 30
0.0
 11
232.7913859930859
 21
194.62950311527
 31
0.0
  0
LINE
  5
3D39
330
1F
100
AcDbEntity
  8
HEWI
 62
     7
100
AcDbLine
 10
232.7454859930858
 20
194.49451511527
 30
0.0
 11
232.7611059930859
 21
194.49451511527
 31
0.0
  0
LINE
  5
3D3A
330
1F
100
AcDbEntity
  8
HEWI
 62
     7
100
AcDbLine
 10
232.733267993086
 20
188.3644891152701
 30
0.0
 11
232.8030779930859
 21
188.3644891152701
 31
0.0
  0
LINE
  5
3D3B
330
1F
100
AcDbEntity
  8
HEWI
 62
     7
100
AcDbLine
 10
232.7611059930859
 20
189.16950311527
 30
0.0
 11
232.733267993086
 21
189.16950311527
 31
0.0
  0
LINE
  5
3D3C
330
1F
100
AcDbEntity
  8
HEWI
 62
     7
100
AcDbLine
 10
232.8030779930859
 20
191.58950311527
 30
0.0
 11
232.733267993086
 21
191.58950311527
 31
0.0
  0
LINE
  5
3D3D
330
1F
100
AcDbEntity
  8
HEWI
 62
     7
100
AcDbLine
 10
232.733267993086
 20
190.78448911527
 30
0.0
 11
232.7611059930859
 21
190.78448911527
 31
0.0
  0
LINE
  5
3D3E
330
1F
100
AcDbEntity
  8
HEWI
 62
     7
100
AcDbLine
 10
232.8030779930859
 20
188.3644891152701
 30
0.0
 11
232.8030779930859
 21
189.16950311527
 31
0.0
  0
LINE
  5
3D3F
330
1F
100
AcDbEntity
  8
HEWI
 62
     7
100
AcDbLine
 10
232.8030779930859
 20
189.16950311527
 30
0.0
 11
232.7721879930859
 21
189.16950311527
 31
0.0
  0
LINE
  5
3D40
330
1F
100
AcDbEntity
  8
HEWI
 62
     7
100
AcDbLine
 10
232.7721879930859
 20
189.16950311527
 30
0.0
 11
232.7721879930859
 21
190.78448911527
 31
0.0
  0
LINE
  5
3D41
330
1F
100
AcDbEntity
  8
HEWI
 62
     7
100
AcDbLine
 10
232.7721879930859
 20
190.78448911527
 30
0.0
 11
232.8030779930859
 21
190.78448911527
 31
0.0
  0
LINE
  5
3D42
330
1F
100
AcDbEntity
  8
HEWI
 62
     7
100
AcDbLine
 10
232.8030779930859
 20
190.78448911527
 30
0.0
 11
232.8030779930859
 21
191.58950311527
 31
0.0
  0
LINE
  5
3D43
330
1F
100
AcDbEntity
  8
HEWI
 62
     7
100
AcDbLine
 10
232.7611059930859
 20
190.78448911527
 30
0.0
 11
232.7611059930859
 21
189.16950311527
 31
0.0
  0
LINE
  5
3D44
330
1F
100
AcDbEntity
  8
HEWI
 62
     7
100
AcDbLine
 10
232.713271993086
 20
191.58950311527
 30
0.0
 11
232.733267993086
 21
191.58950311527
 31
0.0
  0
LINE
  5
3D45
330
1F
100
AcDbEntity
  8
HEWI
 62
     7
100
AcDbLine
 10
232.713271993086
 20
190.78448911527
 30
0.0
 11
232.733267993086
 21
190.78448911527
 31
0.0
  0
LINE
  5
3D46
330
1F
100
AcDbEntity
  8
HEWI
 62
     7
100
AcDbLine
 10
232.733267993086
 20
191.58950311527
 30
0.0
 11
232.733267993086
 21
190.78448911527
 31
0.0
  0
LINE
  5
3D47
330
1F
100
AcDbEntity
  8
HEWI
 62
     7
100
AcDbLine
 10
232.713271993086
 20
200.9795031152701
 30
0.0
 11
232.733267993086
 21
200.9795031152701
 31
0.0
  0
LINE
  5
3D48
330
1F
100
AcDbEntity
  8
HEWI
 62
     7
100
AcDbLine
 10
232.713271993086
 20
200.1495031152701
 30
0.0
 11
232.733267993086
 21
200.1495031152701
 31
0.0
  0
LINE
  5
3D49
330
1F
100
AcDbEntity
  8
HEWI
 62
     7
100
AcDbLine
 10
232.733267993086
 20
200.1495031152701
 30
0.0
 11
232.8030779930859
 21
200.1495031152701
 31
0.0
  0
LINE
  5
3D4A
330
1F
100
AcDbEntity
  8
HEWI
 62
     7
100
AcDbLine
 10
232.8030779930859
 20
200.1495031152701
 30
0.0
 11
232.8030779930859
 21
200.9795031152701
 31
0.0
  0
LINE
  5
3D4B
330
1F
100
AcDbEntity
  8
HEWI
 62
     7
100
AcDbLine
 10
232.8030779930859
 20
200.9795031152701
 30
0.0
 11
232.733267993086
 21
200.9795031152701
 31
0.0
  0
LINE
  5
3D4C
330
1F
100
AcDbEntity
  8
HEWI
 62
     7
100
AcDbLine
 10
232.733267993086
 20
200.9795031152701
 30
0.0
 11
232.733267993086
 21
200.1495031152701
 31
0.0
  0
LINE
  5
3D4D
330
1F
100
AcDbEntity
  8
HEWI
 62
     7
100
AcDbLine
 10
232.713271993086
 20
188.3644891152701
 30
0.0
 11
232.733267993086
 21
188.3644891152701
 31
0.0
  0
LINE
  5
3D4E
330
1F
100
AcDbEntity
  8
HEWI
 62
     7
100
AcDbLine
 10
232.713271993086
 20
189.16950311527
 30
0.0
 11
232.733267993086
 21
189.16950311527
 31
0.0
  0
LINE
  5
3D4F
330
1F
100
AcDbEntity
  8
HEWI
 62
     7
100
AcDbLine
 10
232.733267993086
 20
189.16950311527
 30
0.0
 11
232.733267993086
 21
188.3644891152701
 31
0.0
  0
LINE
  5
3D50
330
1F
100
AcDbEntity
  8
HEWI
 62
     7
100
AcDbLine
 10
232.713271993086
 20
192.12950311527
 30
0.0
 11
232.733267993086
 21
192.12950311527
 31
0.0
  0
LINE
  5
3D51
330
1F
100
AcDbEntity
  8
HEWI
 62
     7
100
AcDbLine
 10
232.713271993086
 20
194.62950311527
 30
0.0
 11
232.733267993086
 21
194.62950311527
 31
0.0
  0
LINE
  5
3D52
330
1F
100
AcDbEntity
  8
HEWI
 62
     7
100
AcDbLine
 10
232.7616159930858
 20
196.29448911527
 30
0.0
 11
232.7816119930858
 21
196.29448911527
 31
0.0
  0
LINE
  5
3D53
330
1F
100
AcDbEntity
  8
HEWI
 62
     7
100
AcDbLine
 10
232.7619639930858
 20
198.33451511527
 30
0.0
 11
232.781961993086
 21
198.33451511527
 31
0.0
  0
LINE
  5
3D54
330
1F
100
AcDbEntity
  8
HEWI
 62
     7
100
AcDbLine
 10
232.733267993086
 20
192.12950311527
 30
0.0
 11
232.8030779930859
 21
192.12950311527
 31
0.0
  0
LINE
  5
3D55
330
1F
100
AcDbEntity
  8
HEWI
 62
     7
100
AcDbLine
 10
232.8030779930859
 20
192.12950311527
 30
0.0
 11
232.8030779930859
 21
194.62950311527
 31
0.0
  0
LINE
  5
3D56
330
1F
100
AcDbEntity
  8
HEWI
 62
     7
100
AcDbLine
 10
232.8030779930859
 20
194.62950311527
 30
0.0
 11
232.7913859930859
 21
194.62950311527
 31
0.0
  0
LINE
  5
3D57
330
1F
100
AcDbEntity
  8
HEWI
 62
     7
100
AcDbLine
 10
232.7913859930859
 20
194.62950311527
 30
0.0
 11
232.7913859930859
 21
192.9345151152701
 31
0.0
  0
LINE
  5
3D58
330
1F
100
AcDbEntity
  8
HEWI
 62
     7
100
AcDbLine
 10
232.7913859930859
 20
192.9345151152701
 30
0.0
 11
232.7721879930859
 21
192.9345151152701
 31
0.0
  0
LINE
  5
3D59
330
1F
100
AcDbEntity
  8
HEWI
 62
     7
100
AcDbLine
 10
232.7721879930859
 20
192.9345151152701
 30
0.0
 11
232.7721879930859
 21
194.49451511527
 31
0.0
  0
LINE
  5
3D5A
330
1F
100
AcDbEntity
  8
HEWI
 62
     7
100
AcDbLine
 10
232.7721879930859
 20
194.49451511527
 30
0.0
 11
232.7611059930859
 21
194.49451511527
 31
0.0
  0
LINE
  5
3D5B
330
1F
100
AcDbEntity
  8
HEWI
 62
     7
100
AcDbLine
 10
232.7611059930859
 20
194.49451511527
 30
0.0
 11
232.7611059930859
 21
192.9345151152701
 31
0.0
  0
LINE
  5
3D5C
330
1F
100
AcDbEntity
  8
HEWI
 62
     7
100
AcDbLine
 10
232.7611059930859
 20
192.9345151152701
 30
0.0
 11
232.7454859930858
 21
192.9345151152701
 31
0.0
  0
LINE
  5
3D5D
330
1F
100
AcDbEntity
  8
HEWI
 62
     7
100
AcDbLine
 10
232.7454859930858
 20
192.9345151152701
 30
0.0
 11
232.7454859930858
 21
194.62950311527
 31
0.0
  0
LINE
  5
3D5E
330
1F
100
AcDbEntity
  8
HEWI
 62
     7
100
AcDbLine
 10
232.7454859930858
 20
194.62950311527
 30
0.0
 11
232.733267993086
 21
194.62950311527
 31
0.0
  0
LINE
  5
3D5F
330
1F
100
AcDbEntity
  8
HEWI
 62
     7
100
AcDbLine
 10
232.733267993086
 20
194.62950311527
 30
0.0
 11
232.733267993086
 21
192.12950311527
 31
0.0
  0
LINE
  5
3D60
330
1F
100
AcDbEntity
  8
HEWI
 62
     7
100
AcDbLine
 10
232.713271993086
 20
197.72448911527
 30
0.0
 11
232.733267993086
 21
197.72448911527
 31
0.0
  0
LINE
  5
3D61
330
1F
100
AcDbEntity
  8
HEWI
 62
     7
100
AcDbLine
 10
232.713271993086
 20
196.90950311527
 30
0.0
 11
232.733267993086
 21
196.90950311527
 31
0.0
  0
LINE
  5
3D62
330
1F
100
AcDbEntity
  8
HEWI
 62
     7
100
AcDbLine
 10
232.713271993086
 20
195.5995031152701
 30
0.0
 11
232.733267993086
 21
195.5995031152701
 31
0.0
  0
LINE
  5
3D63
330
1F
100
AcDbEntity
  8
HEWI
 62
     7
100
AcDbLine
 10
232.713271993086
 20
194.74950311527
 30
0.0
 11
232.733267993086
 21
194.74950311527
 31
0.0
  0
LINE
  5
3D64
330
1F
100
AcDbEntity
  8
HEWI
 62
     7
100
AcDbLine
 10
232.733267993086
 20
195.5995031152701
 30
0.0
 11
232.733267993086
 21
194.74950311527
 31
0.0
  0
LINE
  5
3D65
330
1F
100
AcDbEntity
  8
HEWI
 62
     7
100
AcDbLine
 10
232.733267993086
 20
194.74950311527
 30
0.0
 11
232.8030779930859
 21
195.8744891152701
 31
0.0
  0
LINE
  5
3D66
330
1F
100
AcDbEntity
  8
HEWI
 62
     7
100
AcDbLine
 10
232.8030779930859
 20
195.8744891152701
 30
0.0
 11
232.8030779930859
 21
196.65950311527
 31
0.0
  0
LINE
  5
3D67
330
1F
100
AcDbEntity
  8
HEWI
 62
     7
100
AcDbLine
 10
232.8030779930859
 20
196.65950311527
 30
0.0
 11
232.7554339930862
 21
197.3095031152701
 31
0.0
  0
LINE
  5
3D68
330
1F
100
AcDbEntity
  8
HEWI
 62
     7
100
AcDbLine
 10
232.7554339930862
 20
197.3095031152701
 30
0.0
 11
232.8030779930859
 21
197.9495031152701
 31
0.0
  0
LINE
  5
3D69
330
1F
100
AcDbEntity
  8
HEWI
 62
     7
100
AcDbLine
 10
232.8030779930859
 20
197.9495031152701
 30
0.0
 11
232.8030779930859
 21
198.73451511527
 31
0.0
  0
LINE
  5
3D6A
330
1F
100
AcDbEntity
  8
HEWI
 62
     7
100
AcDbLine
 10
232.8030779930859
 20
198.73451511527
 30
0.0
 11
232.733267993086
 21
199.93451511527
 31
0.0
  0
LINE
  5
3D6B
330
1F
100
AcDbEntity
  8
HEWI
 62
     7
100
AcDbLine
 10
232.733267993086
 20
199.0495031152701
 30
0.0
 11
232.781961993086
 21
198.33451511527
 31
0.0
  0
LINE
  5
3D6C
330
1F
100
AcDbEntity
  8
HEWI
 62
     7
100
AcDbLine
 10
232.781961993086
 20
198.33451511527
 30
0.0
 11
232.733267993086
 21
197.72448911527
 31
0.0
  0
LINE
  5
3D6D
330
1F
100
AcDbEntity
  8
HEWI
 62
     7
100
AcDbLine
 10
232.733267993086
 20
197.72448911527
 30
0.0
 11
232.733267993086
 21
196.90950311527
 31
0.0
  0
LINE
  5
3D6E
330
1F
100
AcDbEntity
  8
HEWI
 62
     7
100
AcDbLine
 10
232.733267993086
 20
196.90950311527
 30
0.0
 11
232.7816119930858
 21
196.29448911527
 31
0.0
  0
LINE
  5
3D6F
330
1F
100
AcDbEntity
  8
HEWI
 62
     7
100
AcDbLine
 10
232.7816119930858
 20
196.29448911527
 30
0.0
 11
232.733267993086
 21
195.5995031152701
 31
0.0
  0
LINE
  5
3D70
330
1F
100
AcDbEntity
  8
HEWI
 62
     7
100
AcDbLine
 10
232.713271993086
 20
199.93451511527
 30
0.0
 11
232.733267993086
 21
199.93451511527
 31
0.0
  0
LINE
  5
3D71
330
1F
100
AcDbEntity
  8
HEWI
 62
     7
100
AcDbLine
 10
232.713271993086
 20
199.0495031152701
 30
0.0
 11
232.733267993086
 21
199.0495031152701
 31
0.0
  0
LINE
  5
3D72
330
1F
100
AcDbEntity
  8
HEWI
 62
     7
100
AcDbLine
 10
232.733267993086
 20
199.93451511527
 30
0.0
 11
232.733267993086
 21
199.0495031152701
 31
0.0
  0
LINE
  5
3D73
330
1F
100
AcDbEntity
  8
HEWI
 62
     7
100
AcDbLine
 10
71.88037999308608
 20
205.4795791152701
 30
0.0
 11
71.88037999308608
 21
99.98838311527004
 31
0.0
  0
LINE
  5
3D74
330
1F
100
AcDbEntity
  8
HEWI
 62
     7
100
AcDbLine
 10
71.88037999308608
 20
99.98838311527004
 30
0.0
 11
72.13484999308594
 21
99.98838311527004
 31
0.0
  0
LINE
  5
3D75
330
1F
100
AcDbEntity
  8
HEWI
 62
     7
100
AcDbLine
 10
106.871501993086
 20
65.25173111527005
 30
0.0
 11
106.871501993086
 21
64.99726111527007
 31
0.0
  0
LINE
  5
3D76
330
1F
100
AcDbEntity
  8
HEWI
 62
     7
100
AcDbLine
 10
106.871501993086
 20
64.99726111527007
 30
0.0
 11
135.074391993086
 21
64.99726111527007
 31
0.0
  0
LINE
  5
3D77
330
1F
100
AcDbEntity
  8
HEWI
 62
     7
100
AcDbLine
 10
169.6686099930862
 20
64.99726111527007
 30
0.0
 11
197.871501993086
 21
64.99726111527007
 31
0.0
  0
LINE
  5
3D78
330
1F
100
AcDbEntity
  8
HEWI
 62
     7
100
AcDbLine
 10
197.871501993086
 20
64.99726111527007
 30
0.0
 11
197.871501993086
 21
65.25173111527005
 31
0.0
  0
LINE
  5
3D79
330
1F
100
AcDbEntity
  8
HEWI
 62
     7
100
AcDbLine
 10
232.713271993086
 20
200.9795031152701
 30
0.0
 11
232.713271993086
 21
200.1495031152701
 31
0.0
  0
LINE
  5
3D7A
330
1F
100
AcDbEntity
  8
HEWI
 62
     7
100
AcDbLine
 10
232.713271993086
 20
195.5995031152701
 30
0.0
 11
232.713271993086
 21
194.74950311527
 31
0.0
  0
LINE
  5
3D7B
330
1F
100
AcDbEntity
  8
HEWI
 62
     7
100
AcDbLine
 10
232.7616159930858
 20
196.29448911527
 30
0.0
 11
232.713271993086
 21
195.5995031152701
 31
0.0
  0
LINE
  5
3D7C
330
1F
100
AcDbEntity
  8
HEWI
 62
     7
100
AcDbLine
 10
232.713271993086
 20
196.90950311527
 30
0.0
 11
232.7616159930858
 21
196.29448911527
 31
0.0
  0
LINE
  5
3D7D
330
1F
100
AcDbEntity
  8
HEWI
 62
     7
100
AcDbLine
 10
232.713271993086
 20
197.72448911527
 30
0.0
 11
232.713271993086
 21
196.90950311527
 31
0.0
  0
LINE
  5
3D7E
330
1F
100
AcDbEntity
  8
HEWI
 62
     7
100
AcDbLine
 10
232.7619639930858
 20
198.33451511527
 30
0.0
 11
232.713271993086
 21
197.72448911527
 31
0.0
  0
LINE
  5
3D7F
330
1F
100
AcDbEntity
  8
HEWI
 62
     7
100
AcDbLine
 10
232.713271993086
 20
199.0495031152701
 30
0.0
 11
232.7619639930858
 21
198.33451511527
 31
0.0
  0
LINE
  5
3D80
330
1F
100
AcDbEntity
  8
HEWI
 62
     7
100
AcDbLine
 10
232.713271993086
 20
199.93451511527
 30
0.0
 11
232.713271993086
 21
199.0495031152701
 31
0.0
  0
LINE
  5
3D81
330
1F
100
AcDbEntity
  8
HEWI
 62
     7
100
AcDbLine
 10
232.713271993086
 20
194.62950311527
 30
0.0
 11
232.713271993086
 21
192.12950311527
 31
0.0
  0
LINE
  5
3D82
330
1F
100
AcDbEntity
  8
HEWI
 62
     7
100
AcDbLine
 10
232.7713879930861
 20
194.62950311527
 30
0.0
 11
232.7713879930861
 21
194.49451311527
 31
0.0
  0
LINE
  5
3D83
330
1F
100
AcDbEntity
  8
HEWI
 62
     7
100
AcDbLine
 10
232.713271993086
 20
189.16950311527
 30
0.0
 11
232.713271993086
 21
188.3644891152701
 31
0.0
  0
LINE
  5
3D84
330
1F
100
AcDbEntity
  8
HEWI
 62
     7
100
AcDbLine
 10
232.7411079930862
 20
190.78448911527
 30
0.0
 11
232.7411079930862
 21
189.16950311527
 31
0.0
  0
LINE
  5
3D85
330
1F
100
AcDbEntity
  8
HEWI
 62
     7
100
AcDbLine
 10
232.713271993086
 20
191.58950311527
 30
0.0
 11
232.713271993086
 21
190.78448911527
 31
0.0
  0
LINE
  5
3D86
330
1F
100
AcDbEntity
  8
HEWI
 62
     7
100
AcDbLine
 10
232.8626219930861
 20
99.98838311527004
 30
0.0
 11
232.8626219930861
 21
205.4795791152701
 31
0.0
  0
LINE
  5
3D87
330
1F
100
AcDbEntity
  8
HEWI
 62
     7
100
AcDbLine
 10
232.6081519930858
 20
99.98838311527004
 30
0.0
 11
232.8626219930861
 21
99.98838311527004
 31
0.0
  0
LINE
  5
3D88
330
1F
100
AcDbEntity
  8
HEWI
 62
     7
100
AcDbLine
 10
72.13484999308594
 20
205.22510911527
 30
0.0
 11
71.88037999308608
 21
205.4795791152701
 31
0.0
  0
LINE
  5
3D89
330
1F
100
AcDbEntity
  8
HEWI
 62
     7
100
AcDbLine
 10
232.8626219930861
 20
205.4795791152701
 30
0.0
 11
232.6081519930858
 21
205.22510911527
 31
0.0
  0
LINE
  5
3D8A
330
1F
100
AcDbEntity
  8
HEWI
 62
     7
100
AcDbLine
 10
232.1082279930861
 20
205.7250331152701
 30
0.0
 11
232.3626979930859
 21
205.9795031152701
 31
0.0
  0
LINE
  5
3D8B
330
1F
100
AcDbEntity
  8
HEWI
 62
     7
100
AcDbLine
 10
232.3626979930859
 20
205.9795031152701
 30
0.0
 11
72.38030399308581
 21
205.9795031152701
 31
0.0
  0
LINE
  5
3D8C
330
1F
100
AcDbEntity
  8
HEWI
 62
     7
100
AcDbLine
 10
72.38030399308581
 20
205.9795031152701
 30
0.0
 11
72.63477399308612
 21
205.7250331152701
 31
0.0
  0
LINE
  5
3D8D
330
1F
100
AcDbEntity
  8
HEWI
 62
     7
100
AcDbLine
 10
86.83598199308608
 20
190.5239771152701
 30
0.0
 11
86.83598199308608
 21
99.98838311527004
 31
0.0
  0
LINE
  5
3D8E
330
1F
100
AcDbEntity
  8
HEWI
 62
     7
100
AcDbLine
 10
227.608913993086
 20
205.6478551152701
 30
0.0
 11
227.608913993086
 21
205.1479331152701
 31
0.0
  0
LINE
  5
3D8F
330
1F
100
AcDbEntity
  8
HEWI
 62
     7
100
AcDbLine
 10
77.13408799308581
 20
205.6478551152701
 30
0.0
 11
227.608913993086
 21
205.6478551152701
 31
0.0
  0
LINE
  5
3D90
330
1F
100
AcDbEntity
  8
HEWI
 62
     7
100
AcDbLine
 10
77.13408799308581
 20
205.6478551152701
 30
0.0
 11
77.13408799308581
 21
205.1479331152701
 31
0.0
  0
LINE
  5
3D91
330
1F
100
AcDbEntity
  8
HEWI
 62
     7
100
AcDbLine
 10
197.871501993086
 20
79.95316711527005
 30
0.0
 11
197.871501993086
 21
77.95316711527005
 31
0.0
  0
LINE
  5
3D92
330
1F
100
AcDbEntity
  8
HEWI
 62
     7
100
AcDbLine
 10
169.6714539930858
 20
79.95286311527007
 30
0.0
 11
197.871501993086
 21
79.95286311527007
 31
0.0
  0
LINE
  5
3D93
330
1F
100
AcDbEntity
  8
HEWI
 62
     7
100
AcDbLine
 10
106.871501993086
 20
79.95316711527005
 30
0.0
 11
106.871501993086
 21
77.95316711527005
 31
0.0
  0
LINE
  5
3D94
330
1F
100
AcDbEntity
  8
HEWI
 62
     7
100
AcDbLine
 10
84.83628599308577
 20
99.98838311527004
 30
0.0
 11
86.83628599308576
 21
99.98838311527004
 31
0.0
  0
LINE
  5
3D95
330
1F
100
AcDbEntity
  8
HEWI
 62
     7
100
AcDbLine
 10
217.4070959930859
 20
191.02390111527
 30
0.0
 11
87.33590599308582
 21
191.02390111527
 31
0.0
  0
LINE
  5
3D96
330
1F
100
AcDbEntity
  8
HEWI
 62
     7
100
AcDbLine
 10
217.4070959930859
 20
193.02359711527
 30
0.0
 11
217.4070959930859
 21
191.02359711527
 31
0.0
  0
LINE
  5
3D97
330
1F
100
AcDbEntity
  8
HEWI
 62
     7
100
AcDbLine
 10
84.83628599308577
 20
190.5239771152701
 30
0.0
 11
86.83628599308576
 21
190.5239771152701
 31
0.0
  0
LINE
  5
3D98
330
1F
100
AcDbEntity
  8
HEWI
 62
     7
100
AcDbLine
 10
87.33590599308582
 20
193.02359711527
 30
0.0
 11
87.33590599308582
 21
191.02359711527
 31
0.0
  0
LINE
  5
3D99
330
1F
100
AcDbEntity
  8
HEWI
 62
     7
100
AcDbLine
 10
106.871501993086
 20
70.25096911527009
 30
0.0
 11
106.871501993086
 21
65.25173111527005
 31
0.0
  0
LINE
  5
3D9A
330
1F
100
AcDbEntity
  8
HEWI
 62
     7
100
AcDbLine
 10
197.871501993086
 20
65.25173111527005
 30
0.0
 11
169.6686099930862
 21
65.25173111527005
 31
0.0
  0
LINE
  5
3D9B
330
1F
100
AcDbEntity
  8
HEWI
 62
     7
100
AcDbLine
 10
135.074391993086
 20
65.25173111527005
 30
0.0
 11
106.871501993086
 21
65.25173111527005
 31
0.0
  0
LINE
  5
3D9C
330
1F
100
AcDbEntity
  8
HEWI
 62
     7
100
AcDbLine
 10
232.6081519930858
 20
205.22510911527
 30
0.0
 11
232.6081519930858
 21
99.98838311527004
 31
0.0
  0
LINE
  5
3D9D
330
1F
100
AcDbEntity
  8
HEWI
 62
     7
100
AcDbLine
 10
72.13484999308594
 20
99.98838311527004
 30
0.0
 11
72.13484999308594
 21
205.22510911527
 31
0.0
  0
LINE
  5
3D9E
330
1F
100
AcDbEntity
  8
HEWI
 62
     7
100
AcDbLine
 10
77.13408799308581
 20
99.98838311527004
 30
0.0
 11
72.13484999308594
 21
99.98838311527004
 31
0.0
  0
LINE
  5
3D9F
330
1F
100
AcDbEntity
  8
HEWI
 62
     7
100
AcDbLine
 10
87.33590599308582
 20
193.02359711527
 30
0.0
 11
217.4070959930859
 21
193.02359711527
 31
0.0
  0
LINE
  5
3DA0
330
1F
100
AcDbEntity
  8
HEWI
 62
     7
100
AcDbLine
 10
197.871501993086
 20
77.95316711527005
 30
0.0
 11
169.6686099930862
 21
77.95316711527005
 31
0.0
  0
LINE
  5
3DA1
330
1F
100
AcDbEntity
  8
HEWI
 62
     7
100
AcDbLine
 10
135.074391993086
 20
77.95316711527005
 30
0.0
 11
106.871501993086
 21
77.95316711527005
 31
0.0
  0
LINE
  5
3DA2
330
1F
100
AcDbEntity
  8
HEWI
 62
     7
100
AcDbLine
 10
84.83628599308577
 20
99.98838311527004
 30
0.0
 11
84.83628599308577
 21
190.5239771152701
 31
0.0
  0
LINE
  5
3DA3
330
1F
100
AcDbEntity
  8
HEWI
 62
     7
100
AcDbLine
 10
227.608913993086
 20
99.98838311527004
 30
0.0
 11
227.608913993086
 21
205.1479331152701
 31
0.0
  0
LINE
  5
3DA4
330
1F
100
AcDbEntity
  8
HEWI
 62
     7
100
AcDbLine
 10
227.608913993086
 20
205.1479331152701
 30
0.0
 11
77.13408799308581
 21
205.1479331152701
 31
0.0
  0
LINE
  5
3DA5
330
1F
100
AcDbEntity
  8
HEWI
 62
     7
100
AcDbLine
 10
77.13408799308581
 20
205.1479331152701
 30
0.0
 11
77.13408799308581
 21
99.98838311527004
 31
0.0
  0
LINE
  5
3DA6
330
1F
100
AcDbEntity
  8
HEWI
 62
     7
100
AcDbLine
 10
106.871501993086
 20
70.25096911527009
 30
0.0
 11
135.074391993086
 21
70.25096911527009
 31
0.0
  0
LINE
  5
3DA7
330
1F
100
AcDbEntity
  8
HEWI
 62
     7
100
AcDbLine
 10
169.6686099930862
 20
70.25096911527009
 30
0.0
 11
197.871501993086
 21
70.25096911527009
 31
0.0
  0
LINE
  5
3DA8
330
1F
100
AcDbEntity
  8
HEWI
 62
     7
100
AcDbLine
 10
197.871501993086
 20
70.25096911527009
 30
0.0
 11
197.871501993086
 21
65.25173111527005
 31
0.0
  0
LINE
  5
3DA9
330
1F
100
AcDbEntity
  8
HEWI
 62
     7
100
AcDbLine
 10
227.608913993086
 20
99.98838311527004
 30
0.0
 11
232.6081519930858
 21
99.98838311527004
 31
0.0
  0
LINE
  5
3DAA
330
1F
100
AcDbEntity
  8
HEWI
 62
     7
100
AcDbLine
 10
217.906715993086
 20
99.98838311527004
 30
0.0
 11
219.906715993086
 21
99.98838311527004
 31
0.0
  0
LINE
  5
3DAB
330
1F
100
AcDbEntity
  8
HEWI
 62
     7
100
AcDbLine
 10
219.906715993086
 20
190.5239771152701
 30
0.0
 11
219.906715993086
 21
99.98838311527004
 31
0.0
  0
LINE
  5
3DAC
330
1F
100
AcDbEntity
  8
HEWI
 62
     7
100
AcDbLine
 10
217.906715993086
 20
190.5239771152701
 30
0.0
 11
219.906715993086
 21
190.5239771152701
 31
0.0
  0
LINE
  5
3DAD
330
1F
100
AcDbEntity
  8
HEWI
 62
     7
100
AcDbLine
 10
217.9070199930861
 20
99.98838311527004
 30
0.0
 11
217.9070199930861
 21
190.5239771152701
 31
0.0
  0
LINE
  5
3DAE
330
1F
100
AcDbEntity
  8
HEWI
 62
     7
100
AcDbLine
 10
135.0743459930859
 20
79.15950711527006
 30
0.0
 11
135.0743459930859
 21
61.98838311527009
 31
0.0
  0
LINE
  5
3DAF
330
1F
100
AcDbEntity
  8
HEWI
 62
     7
100
AcDbLine
 10
139.8715019930859
 20
57.19122711527006
 30
0.0
 11
164.8715019930859
 21
57.19122711527006
 31
0.0
  0
LINE
  5
3DB0
330
1F
100
AcDbEntity
  8
HEWI
 62
     7
100
AcDbLine
 10
169.6686559930858
 20
61.98838311527009
 30
0.0
 11
169.6686559930858
 21
79.15950711527006
 31
0.0
  0
LINE
  5
3DB1
330
1F
100
AcDbEntity
  8
HEWI
 62
     7
100
AcDbLine
 10
576.9333279930861
 20
249.3935311152701
 30
0.0
 11
573.479071993086
 21
477.9194551152699
 31
0.0
  0
LINE
  5
3DB2
330
1F
100
AcDbEntity
  8
HEWI
 62
     7
100
AcDbLine
 10
576.9333279930861
 20
249.3935311152701
 30
0.0
 11
647.7237419930861
 21
208.52266711527
 31
0.0
  0
LINE
  5
3DB3
330
1F
100
AcDbEntity
  8
HEWI
 62
     7
100
AcDbLine
 10
697.2193319930856
 20
208.52266711527
 30
0.0
 11
757.404085993086
 21
243.2703511152701
 31
0.0
  0
LINE
  5
3DB4
330
1F
100
AcDbEntity
  8
HEWI
 62
     7
100
AcDbLine
 10
757.404085993086
 20
243.2703511152701
 30
0.0
 11
760.858341993086
 21
471.7962751152701
 31
0.0
  0
LINE
  5
3DB5
330
1F
100
AcDbEntity
  8
HEWI
 62
     7
100
AcDbLine
 10
647.7237419930861
 20
208.52266711527
 30
0.0
 11
647.7237419930861
 21
435.0542751152699
 31
0.0
  0
LINE
  5
3DB6
330
1F
100
AcDbEntity
  8
HEWI
 62
     7
100
AcDbLine
 10
697.2193319930856
 20
435.0542751152699
 30
0.0
 11
697.2193319930856
 21
208.52266711527
 31
0.0
  0
LINE
  5
3DB7
330
1F
100
AcDbEntity
  8
HEWI
 62
     7
100
AcDbLine
 10
741.083297993086
 20
298.4925651152701
 30
0.0
 11
740.8764959930858
 21
271.2488871152701
 31
0.0
  0
LINE
  5
3DB8
330
1F
100
AcDbEntity
  8
HEWI
 62
     7
100
AcDbLine
 10
726.0680039930857
 20
461.9327271152701
 30
0.0
 11
743.7456739930857
 21
472.1389351152699
 31
0.0
  0
LINE
  5
3DB9
330
1F
100
AcDbEntity
  8
HEWI
 62
     7
100
AcDbLine
 10
743.7456739930857
 20
472.1389351152699
 30
0.0
 11
743.696287993086
 21
473.80044111527
 31
0.0
  0
LINE
  5
3DBA
330
1F
100
AcDbEntity
  8
HEWI
 62
     7
100
AcDbLine
 10
703.808281993086
 20
466.35973111527
 30
0.0
 11
703.9421839930859
 21
466.2824231152701
 31
0.0
  0
LINE
  5
3DBB
330
1F
100
AcDbEntity
  8
HEWI
 62
     7
100
AcDbLine
 10
705.2818539930858
 20
467.05588311527
 30
0.0
 11
705.3135219930859
 21
467.9046331152701
 31
0.0
  0
LINE
  5
3DBC
330
1F
100
AcDbEntity
  8
HEWI
 62
     7
100
AcDbLine
 10
707.1424139930859
 20
468.94280911527
 30
0.0
 11
719.2842339930857
 21
461.9327271152701
 31
0.0
  0
LINE
  5
3DBD
330
1F
100
AcDbEntity
  8
HEWI
 62
     7
100
AcDbLine
 10
703.8782839930859
 20
468.7148331152699
 30
0.0
 11
703.808281993086
 21
466.35973111527
 31
0.0
  0
LINE
  5
3DBE
330
1F
100
AcDbEntity
  8
HEWI
 62
     7
100
AcDbLine
 10
743.696287993086
 20
473.80044111527
 30
0.0
 11
726.0186179930861
 21
463.5942331152699
 31
0.0
  0
LINE
  5
3DBF
330
1F
100
AcDbEntity
  8
HEWI
 62
     7
100
AcDbLine
 10
719.3336179930857
 20
463.5942331152699
 30
0.0
 11
707.171381993086
 21
470.61610311527
 31
0.0
  0
LINE
  5
3DC0
330
1F
100
AcDbEntity
  8
HEWI
 62
     7
100
AcDbLine
 10
731.1807139930861
 20
484.87189911527
 30
0.0
 11
707.5247199930859
 21
471.2141051152699
 31
0.0
  0
LINE
  5
3DC1
330
1F
100
AcDbEntity
  8
HEWI
 62
     7
100
AcDbLine
 10
707.5247199930859
 20
471.2141051152699
 30
0.0
 11
719.686955993086
 21
464.19223311527
 31
0.0
  0
LINE
  5
3DC2
330
1F
100
AcDbEntity
  8
HEWI
 62
     7
100
AcDbLine
 10
725.6652799930861
 20
464.19223311527
 30
0.0
 11
743.3429499930862
 21
474.39844111527
 31
0.0
  0
LINE
  5
3DC3
330
1F
100
AcDbEntity
  8
HEWI
 62
     7
100
AcDbLine
 10
743.3429499930862
 20
477.8500271152699
 30
0.0
 11
731.1807139930861
 21
484.87189911527
 31
0.0
  0
LINE
  5
3DC4
330
1F
100
AcDbEntity
  8
HEWI
 62
     7
100
AcDbLine
 10
707.3373739930858
 20
468.64706111527
 30
0.0
 11
706.0203999930859
 21
467.88670711527
 31
0.0
  0
LINE
  5
3DC5
330
1F
100
AcDbEntity
  8
HEWI
 62
     7
100
AcDbLine
 10
706.0203999930859
 20
467.88670711527
 30
0.0
 11
706.0049759930862
 21
467.47335711527
 31
0.0
  0
LINE
  5
3DC6
330
1F
100
AcDbEntity
  8
HEWI
 62
     7
100
AcDbLine
 10
719.2842339930857
 20
461.9327271152701
 30
0.0
 11
719.3336179930857
 21
463.5942331152699
 31
0.0
  0
LINE
  5
3DC7
330
1F
100
AcDbEntity
  8
HEWI
 62
     7
100
AcDbLine
 10
726.0186179930861
 20
463.5942331152699
 30
0.0
 11
726.0680039930857
 21
461.9327271152701
 31
0.0
  0
LINE
  5
3DC8
330
1F
100
AcDbEntity
  8
HEWI
 62
     7
100
AcDbLine
 10
703.4553759930859
 20
466.57847711527
 30
0.0
 11
703.665895993086
 21
466.7000211152701
 31
0.0
  0
LINE
  5
3DC9
330
1F
100
AcDbEntity
  8
HEWI
 62
     7
100
AcDbLine
 10
749.7552099930858
 20
505.8020951152699
 30
0.0
 11
688.7318479930859
 21
541.0339491152702
 31
0.0
  0
LINE
  5
3DCA
330
1F
100
AcDbEntity
  8
HEWI
 62
     7
100
AcDbLine
 10
686.616907993086
 20
541.0339491152702
 30
0.0
 11
599.0728939930859
 21
490.49038911527
 31
0.0
  0
LINE
  5
3DCB
330
1F
100
AcDbEntity
  8
HEWI
 62
     7
100
AcDbLine
 10
686.9671719930856
 20
546.0576991152702
 30
0.0
 11
686.9671719930856
 21
541.28328311527
 31
0.0
  0
LINE
  5
3DCC
330
1F
100
AcDbEntity
  8
HEWI
 62
     7
100
AcDbLine
 10
750.985505993086
 20
509.0966971152699
 30
0.0
 11
686.9671719930856
 21
546.0576991152702
 31
0.0
  0
LINE
  5
3DCD
330
1F
100
AcDbEntity
  8
HEWI
 62
     7
100
AcDbLine
 10
686.260173993086
 20
540.99688911527
 30
0.0
 11
686.260173993086
 21
546.0576991152702
 31
0.0
  0
LINE
  5
3DCE
330
1F
100
AcDbEntity
  8
HEWI
 62
     7
100
AcDbLine
 10
751.0455199930857
 20
505.1611891152699
 30
0.0
 11
750.985505993086
 21
509.0966971152699
 31
0.0
  0
LINE
  5
3DCF
330
1F
100
AcDbEntity
  8
HEWI
 62
     7
100
AcDbLine
 10
686.260173993086
 20
546.0576991152702
 30
0.0
 11
594.5431919930861
 21
493.1048751152699
 31
0.0
  0
LINE
  5
3DD0
330
1F
100
AcDbEntity
  8
HEWI
 62
     7
100
AcDbLine
 10
697.2139959930859
 20
435.22850511527
 30
0.0
 11
761.5607119930859
 21
472.3791011152699
 31
0.0
  0
LINE
  5
3DD1
330
1F
100
AcDbEntity
  8
HEWI
 62
     7
100
AcDbLine
 10
761.5607119930859
 20
472.3791011152699
 30
0.0
 11
761.380775993086
 21
484.3863111152699
 31
0.0
  0
LINE
  5
3DD2
330
1F
100
AcDbEntity
  8
HEWI
 62
     7
100
AcDbLine
 10
573.4954119930858
 20
490.19843111527
 30
0.0
 11
573.1355379930859
 21
478.2951071152701
 31
0.0
  0
LINE
  5
3DD3
330
1F
100
AcDbEntity
  8
HEWI
 62
     7
100
AcDbLine
 10
573.1355379930859
 20
478.2951071152701
 30
0.0
 11
647.7290779930858
 21
435.22850511527
 31
0.0
  0
LINE
  5
3DD4
330
1F
100
AcDbEntity
  8
HEWI
 62
     7
100
AcDbLine
 10
761.380775993086
 20
484.3863111152699
 30
0.0
 11
745.1131219930857
 21
474.99417711527
 31
0.0
  0
LINE
  5
3DD5
330
1F
100
AcDbEntity
  8
HEWI
 62
     7
100
AcDbLine
 10
721.0142699930856
 20
461.08069911527
 30
0.0
 11
697.0340579930862
 21
447.23571711527
 31
0.0
  0
LINE
  5
3DD6
330
1F
100
AcDbEntity
  8
HEWI
 62
     7
100
AcDbLine
 10
647.9090159930856
 20
447.23571711527
 30
0.0
 11
573.4954119930858
 21
490.19843111527
 31
0.0
  0
LINE
  5
3DD7
330
1F
100
AcDbEntity
  8
HEWI
 62
     7
100
AcDbLine
 10
592.8719539930861
 20
495.4342231152701
 30
0.0
 11
684.8461739930858
 21
548.5355651152701
 31
0.0
  0
LINE
  5
3DD8
330
1F
100
AcDbEntity
  8
HEWI
 62
     7
100
AcDbLine
 10
688.3811699930856
 20
548.5355651152701
 30
0.0
 11
752.3995039930859
 21
511.5745631152701
 31
0.0
  0
LINE
  5
3DD9
330
1F
100
AcDbEntity
  8
HEWI
 62
     7
100
AcDbLine
 10
752.3995039930859
 20
493.58288511527
 30
0.0
 11
734.3924779930858
 21
483.1865231152701
 31
0.0
  0
LINE
  5
3DDA
330
1F
100
AcDbEntity
  8
HEWI
 62
     7
100
AcDbLine
 10
708.2737419930858
 20
468.1068651152702
 30
0.0
 11
688.0527859930857
 21
456.43229111527
 31
0.0
  0
LINE
  5
3DDB
330
1F
100
AcDbEntity
  8
HEWI
 62
     7
100
AcDbLine
 10
656.8902879930861
 20
456.43229111527
 30
0.0
 11
592.8719539930861
 21
493.3932931152701
 31
0.0
  0
LINE
  5
3DDC
330
1F
100
AcDbEntity
  8
HEWI
 62
     7
100
AcDbLine
 10
757.8457799930856
 20
514.71897111527
 30
0.0
 11
683.486749993086
 21
557.65017711527
 31
0.0
  0
LINE
  5
3DDD
330
1F
100
AcDbEntity
  8
HEWI
 62
     7
100
AcDbLine
 10
683.486749993086
 20
557.65017711527
 30
0.0
 11
577.0849799930861
 21
496.2190871152701
 31
0.0
  0
LINE
  5
3DDE
330
1F
100
AcDbEntity
  8
HEWI
 62
     7
100
AcDbLine
 10
577.0849799930861
 20
496.2190871152701
 30
0.0
 11
651.4440119930859
 21
453.2878811152699
 31
0.0
  0
LINE
  5
3DDF
330
1F
100
AcDbEntity
  8
HEWI
 62
     7
100
AcDbLine
 10
693.4990619930858
 20
453.2878811152699
 30
0.0
 11
713.720017993086
 21
464.96245511527
 31
0.0
  0
LINE
  5
3DE0
330
1F
100
AcDbEntity
  8
HEWI
 62
     7
100
AcDbLine
 10
739.8387539930858
 20
480.0421151152701
 30
0.0
 11
757.8457799930856
 21
490.4384751152701
 31
0.0
  0
LINE
  5
3DE1
330
1F
100
AcDbEntity
  8
HEWI
 62
     7
100
AcDbLine
 10
647.7290779930858
 20
435.22850511527
 30
0.0
 11
647.9090159930856
 21
447.23571711527
 31
0.0
  0
LINE
  5
3DE2
330
1F
100
AcDbEntity
  8
HEWI
 62
     7
100
AcDbLine
 10
697.0340579930862
 20
447.23571711527
 30
0.0
 11
697.2139959930859
 21
435.22850511527
 31
0.0
  0
LINE
  5
3DE3
330
1F
100
AcDbEntity
  8
HEWI
 62
     7
100
AcDbLine
 10
695.1485339930859
 20
204.01599311527
 30
0.0
 11
755.3332879930858
 21
238.7636771152701
 31
0.0
  0
LINE
  5
3DE4
330
1F
100
AcDbEntity
  8
HEWI
 62
     7
100
AcDbLine
 10
579.0472219930861
 20
244.8619751152701
 30
0.0
 11
649.7945399930858
 21
204.01599311527
 31
0.0
  0
LINE
  5
3DE5
330
1F
100
AcDbEntity
  8
HEWI
 62
     7
100
AcDbLine
 10
767.6534099930859
 20
257.35266511527
 30
0.0
 11
771.0557119930858
 21
482.4415391152698
 31
0.0
  0
LINE
  5
3DE6
330
1F
100
AcDbEntity
  8
HEWI
 62
     7
100
AcDbLine
 10
750.0052099930858
 20
505.8268611152699
 30
0.0
 11
688.9818479930859
 21
541.0587151152701
 31
0.0
  0
LINE
  5
3DE7
330
1F
100
AcDbEntity
  8
HEWI
 62
     7
100
AcDbLine
 10
755.6080619930858
 20
497.34594311527
 30
0.0
 11
755.6134939930857
 21
497.8541671152699
 31
0.0
  0
LINE
  5
3DE8
330
1F
100
AcDbEntity
  8
HEWI
 62
     7
100
AcDbLine
 10
686.3669079930859
 20
541.0587151152701
 30
0.0
 11
598.926143993086
 21
490.57476511527
 31
0.0
  0
LINE
  5
3DE9
330
1F
100
AcDbEntity
  8
HEWI
 62
     7
100
AcDbLine
 10
743.5929499930862
 20
477.8747931152699
 30
0.0
 11
731.4307139930861
 21
484.8966631152699
 31
0.0
  0
LINE
  5
3DEA
330
1F
100
AcDbEntity
  8
HEWI
 62
     7
100
AcDbLine
 10
703.7318419930861
 20
468.9194411152699
 30
0.0
 11
703.662103993086
 21
466.5731791152699
 31
0.0
  0
LINE
  5
3DEB
330
1F
100
AcDbEntity
  8
HEWI
 62
     7
100
AcDbLine
 10
745.1491759930859
 20
474.1656271152701
 30
0.0
 11
745.0793559930858
 21
475.7976231152701
 31
0.0
  0
LINE
  5
3DEC
330
1F
100
AcDbEntity
  8
HEWI
 62
     7
100
AcDbLine
 10
728.7132579930857
 20
485.1383331152701
 30
0.0
 11
704.992173993086
 21
471.44295911527
 31
0.0
  0
LINE
  5
3DED
330
1F
100
AcDbEntity
  8
HEWI
 62
     7
100
AcDbLine
 10
725.9646659930858
 20
461.6894671152701
 30
0.0
 11
743.6423359930858
 21
471.8956751152699
 31
0.0
  0
LINE
  5
3DEE
330
1F
100
AcDbEntity
  8
HEWI
 62
     7
100
AcDbLine
 10
707.2457519930858
 20
468.6995491152701
 30
0.0
 11
719.3875719930856
 21
461.6894671152701
 31
0.0
  0
LINE
  5
3DEF
330
1F
100
AcDbEntity
  8
HEWI
 62
     7
100
AcDbLine
 10
760.3457799930857
 20
514.96661511527
 30
0.0
 11
685.9704819930857
 21
557.9072151152701
 31
0.0
  0
LINE
  5
3DF0
330
1F
100
AcDbEntity
  8
HEWI
 62
     7
100
AcDbLine
 10
683.236749993086
 20
557.67494311527
 30
0.0
 11
576.834979993086
 21
496.2438531152701
 31
0.0
  0
LINE
  5
3DF1
330
1F
100
AcDbEntity
  8
HEWI
 62
     7
100
AcDbLine
 10
573.3491399930858
 20
490.4105091152699
 30
0.0
 11
572.9892659930856
 21
478.5071831152701
 31
0.0
  0
LINE
  5
3DF2
330
1F
100
AcDbEntity
  8
HEWI
 62
     7
100
AcDbLine
 10
593.8719539930862
 20
493.4923511152701
 30
0.0
 11
593.8581059930856
 21
493.5011711152701
 31
0.0
  0
LINE
  5
3DF3
330
1F
100
AcDbEntity
  8
HEWI
 62
     7
100
AcDbLine
 10
771.8067079930861
 20
486.9135111152702
 30
0.0
 11
771.5522579930857
 21
498.81502311527
 31
0.0
  0
LINE
  5
3DF4
330
1F
100
AcDbEntity
  8
HEWI
 62
     7
100
AcDbLine
 10
697.1104959930857
 20
434.99246111527
 30
0.0
 11
761.4572119930858
 21
472.14305511527
 31
0.0
  0
LINE
  5
3DF5
330
1F
100
AcDbEntity
  8
HEWI
 62
     7
100
AcDbLine
 10
573.2390379930857
 20
478.0590611152701
 30
0.0
 11
647.832577993086
 21
434.99246111527
 31
0.0
  0
LINE
  5
3DF6
330
1F
100
AcDbEntity
  8
HEWI
 62
     7
100
AcDbLine
 10
657.890287993086
 20
456.53134711527
 30
0.0
 11
593.8719539930862
 21
493.4923511152701
 31
0.0
  0
LINE
  5
3DF7
330
1F
100
AcDbEntity
  8
HEWI
 62
     7
100
AcDbLine
 10
751.3995039930859
 20
493.68194311527
 30
0.0
 11
733.8067099930858
 21
483.5247371152699
 31
0.0
  0
LINE
  5
3DF8
330
1F
100
AcDbEntity
  8
HEWI
 62
     7
100
AcDbLine
 10
707.6879739930859
 20
468.44507911527
 30
0.0
 11
687.0527859930858
 21
456.53134711527
 31
0.0
  0
ARC
  5
3DF9
330
1F
100
AcDbEntity
  8
HEWI
 62
     7
100
AcDbCircle
 10
84.81540399308597
 20
271.24045311527
 30
0.0
 40
10.0
100
AcDbArc
 50
180.4999999999997
 51
270.0
  0
ARC
  5
3DFA
330
1F
100
AcDbEntity
  8
HEWI
 62
     7
100
AcDbCircle
 10
219.9275979930858
 20
271.24045311527
 30
0.0
 40
10.0
100
AcDbArc
 50
270.0
 51
359.5000000000003
  0
ARC
  5
3DFB
330
1F
100
AcDbEntity
  8
HEWI
 62
     7
100
AcDbCircle
 10
135.6441879930857
 20
573.84045311527
 30
0.0
 40
0.5
100
AcDbArc
 50
90.0
 51
177.9999999999998
  0
ARC
  5
3DFC
330
1F
100
AcDbEntity
  8
HEWI
 62
     7
100
AcDbCircle
 10
169.0988139930859
 20
573.84045311527
 30
0.0
 40
0.5
100
AcDbArc
 50
2.000000000000243
 51
90.0
  0
ARC
  5
3DFD
330
1F
100
AcDbEntity
  8
HEWI
 62
     7
100
AcDbCircle
 10
135.5743459930859
 20
571.84045311527
 30
0.0
 40
0.5
100
AcDbArc
 50
177.9999999999998
 51
270.0
  0
ARC
  5
3DFE
330
1F
100
AcDbEntity
  8
HEWI
 62
     7
100
AcDbCircle
 10
169.1686559930858
 20
571.84045311527
 30
0.0
 40
0.5
100
AcDbArc
 50
270.0
 51
2.000000000000243
  0
ARC
  5
3DFF
330
1F
100
AcDbEntity
  8
HEWI
 62
     7
100
AcDbCircle
 10
77.13408799308581
 20
566.2404531152701
 30
0.0
 40
5.0
100
AcDbArc
 50
90.0
 51
178.9999999999999
  0
ARC
  5
3E00
330
1F
100
AcDbEntity
  8
HEWI
 62
     7
100
AcDbCircle
 10
227.608913993086
 20
566.2404531152701
 30
0.0
 40
5.0
100
AcDbArc
 50
1.000000000000133
 51
90.0
  0
ARC
  5
3E01
330
1F
100
AcDbEntity
  8
HEWI
 62
     7
100
AcDbCircle
 10
72.38030399308581
 20
551.7404531152701
 30
0.0
 40
0.5
100
AcDbArc
 50
178.9999999999999
 51
270.0
  0
CIRCLE
  5
3E02
330
1F
100
AcDbEntity
  8
HEWI
 62
     7
100
AcDbCircle
 10
152.3715019930859
 20
331.24045311527
 30
0.0
 40
27.50000000000002
  0
ARC
  5
3E03
330
1F
100
AcDbEntity
  8
HEWI
 62
     7
100
AcDbCircle
 10
232.3626979930859
 20
551.7404531152701
 30
0.0
 40
0.5
100
AcDbArc
 50
270.0
 51
1.000000000000133
  0
ARC
  5
3E04
330
1F
100
AcDbEntity
  8
HEWI
 62
     7
100
AcDbCircle
 10
429.9781719930861
 20
271.24045311527
 30
0.0
 40
10.0
100
AcDbArc
 50
270.0
 51
359.5000000000003
  0
ARC
  5
3E05
330
1F
100
AcDbEntity
  8
HEWI
 62
     7
100
AcDbCircle
 10
450.1493879930858
 20
573.84045311527
 30
0.0
 40
0.5
100
AcDbArc
 50
2.000000000000243
 51
90.0
  0
ARC
  5
3E06
330
1F
100
AcDbEntity
  8
HEWI
 62
     7
100
AcDbCircle
 10
450.2192299930861
 20
571.84045311527
 30
0.0
 40
0.5
100
AcDbArc
 50
270.0
 51
2.000000000000243
  0
ARC
  5
3E07
330
1F
100
AcDbEntity
  8
HEWI
 62
     7
100
AcDbCircle
 10
428.7509499930861
 20
569.34045311527
 30
0.0
 40
1.999999999999944
100
AcDbArc
 50
90.0
 51
108.1950769999954
  0
ARC
  5
3E08
330
1F
100
AcDbEntity
  8
HEWI
 62
     7
100
AcDbCircle
 10
428.722075993086
 20
569.34045311527
 30
0.0
 40
5.000000000000006
100
AcDbArc
 50
90.0
 51
157.665948999998
  0
ARC
  5
3E09
330
1F
100
AcDbEntity
  8
HEWI
 62
     7
100
AcDbCircle
 10
428.7509499930861
 20
569.3579031152701
 30
0.0
 40
2.500000000000421
100
AcDbArc
 50
90.0
 51
131.1476289999974
  0
ARC
  5
3E0A
330
1F
100
AcDbEntity
  8
HEWI
 62
     7
100
AcDbCircle
 10
428.722075993086
 20
569.3579031152701
 30
0.0
 40
4.500000000001771
100
AcDbArc
 50
90.0
 51
155.2696970000024
  0
ARC
  5
3E0B
330
1F
100
AcDbEntity
  8
HEWI
 62
     7
100
AcDbCircle
 10
437.6594879930862
 20
566.2404531152701
 30
0.0
 40
5.0
100
AcDbArc
 50
1.000000000000133
 51
90.0
  0
ARC
  5
3E0C
330
1F
100
AcDbEntity
  8
HEWI
 62
     7
100
AcDbCircle
 10
302.762525993086
 20
570.7404531152701
 30
0.0
 40
0.5
100
AcDbArc
 50
90.0
 51
178.9999999999999
  0
ARC
  5
3E0D
330
1F
100
AcDbEntity
  8
HEWI
 62
     7
100
AcDbCircle
 10
302.4308799930859
 20
551.7404531152701
 30
0.0
 40
0.5
100
AcDbArc
 50
178.9999999999999
 51
270.0
  0
ARC
  5
3E0E
330
1F
100
AcDbEntity
  8
HEWI
 62
     7
100
AcDbCircle
 10
442.4132719930858
 20
551.7404531152701
 30
0.0
 40
0.5
100
AcDbArc
 50
270.0
 51
1.000000000000133
  0
ARC
  5
3E0F
330
1F
100
AcDbEntity
  8
HEWI
 62
     7
100
AcDbCircle
 10
106.871501993086
 20
99.98838311527004
 30
0.0
 40
18.79559848844383
100
AcDbArc
 50
180.0
 51
270.0
  0
ARC
  5
3E10
330
1F
100
AcDbEntity
  8
HEWI
 62
     7
100
AcDbCircle
 10
214.6716299930858
 20
186.28844711527
 30
0.0
 40
1.995469034255435
100
AcDbArc
 50
0.0
 51
90.0
  0
ARC
  5
3E11
330
1F
100
AcDbEntity
  8
HEWI
 62
     7
100
AcDbCircle
 10
90.07137199308591
 20
186.28844711527
 30
0.0
 40
1.995469034255403
100
AcDbArc
 50
90.0
 51
180.0
  0
ARC
  5
3E12
330
1F
100
AcDbEntity
  8
HEWI
 62
     7
100
AcDbCircle
 10
214.6716299930858
 20
186.28844711527
 30
0.0
 40
1.49548807272334
100
AcDbArc
 50
0.0
 51
90.0
  0
ARC
  5
3E13
330
1F
100
AcDbEntity
  8
HEWI
 62
     7
100
AcDbCircle
 10
90.07137199308591
 20
186.28844711527
 30
0.0
 40
1.49548807272334
100
AcDbArc
 50
90.0
 51
180.0
  0
ARC
  5
3E14
330
1F
100
AcDbEntity
  8
HEWI
 62
     7
100
AcDbCircle
 10
106.871501993086
 20
99.98838311527004
 30
0.0
 40
18.29561752691175
100
AcDbArc
 50
180.0
 51
270.0
  0
ARC
  5
3E15
330
1F
100
AcDbEntity
  8
HEWI
 62
     7
100
AcDbCircle
 10
197.871501993086
 20
99.98838311527004
 30
0.0
 40
18.29561752691175
100
AcDbArc
 50
270.0
 51
0.0
  0
ARC
  5
3E16
330
1F
100
AcDbEntity
  8
HEWI
 62
     7
100
AcDbCircle
 10
197.871501993086
 20
99.98838311527004
 30
0.0
 40
18.79559848844383
100
AcDbArc
 50
270.0
 51
0.0
  0
ARC
  5
3E17
330
1F
100
AcDbEntity
  8
HEWI
 62
     7
100
AcDbCircle
 10
164.8715019930859
 20
61.98838311527009
 30
0.0
 40
4.796850178308002
100
AcDbArc
 50
270.0
 51
0.0
  0
ARC
  5
3E18
330
1F
100
AcDbEntity
  8
HEWI
 62
     7
100
AcDbCircle
 10
139.8715019930859
 20
61.98838311527009
 30
0.0
 40
4.796850178308002
100
AcDbArc
 50
180.0
 51
270.0
  0
ARC
  5
3E19
330
1F
100
AcDbEntity
  8
HEWI
 62
     7
100
AcDbCircle
 10
139.8715019930859
 20
61.98838311527009
 30
0.0
 40
4.727008639324504
100
AcDbArc
 50
180.0
 51
270.0
  0
ARC
  5
3E1A
330
1F
100
AcDbEntity
  8
HEWI
 62
     7
100
AcDbCircle
 10
139.8715019930859
 20
61.98838311527009
 30
0.0
 40
4.227313225814955
100
AcDbArc
 50
180.0
 51
270.0
  0
ARC
  5
3E1B
330
1F
100
AcDbEntity
  8
HEWI
 62
     7
100
AcDbCircle
 10
164.8715019930859
 20
61.98838311527009
 30
0.0
 40
4.727008639324504
100
AcDbArc
 50
270.0
 51
0.0
  0
ARC
  5
3E1C
330
1F
100
AcDbEntity
  8
HEWI
 62
     7
100
AcDbCircle
 10
164.8715019930859
 20
61.98838311527009
 30
0.0
 40
4.227313225814955
100
AcDbArc
 50
270.0
 51
0.0
  0
ARC
  5
3E1D
330
1F
100
AcDbEntity
  8
HEWI
 62
     7
100
AcDbCircle
 10
106.871501993086
 20
99.98838311527004
 30
0.0
 40
34.99112015109214
100
AcDbArc
 50
180.0
 51
270.0
  0
ARC
  5
3E1E
330
1F
100
AcDbEntity
  8
HEWI
 62
     7
100
AcDbCircle
 10
197.871501993086
 20
99.98838311527004
 30
0.0
 40
34.99112015109214
100
AcDbArc
 50
270.0
 51
0.0
  0
ARC
  5
3E1F
330
1F
100
AcDbEntity
  8
HEWI
 62
     7
100
AcDbCircle
 10
106.871501993086
 20
99.98838311527004
 30
0.0
 40
34.73665086163916
100
AcDbArc
 50
180.0
 51
270.0
  0
ARC
  5
3E20
330
1F
100
AcDbEntity
  8
HEWI
 62
     7
100
AcDbCircle
 10
197.871501993086
 20
99.98838311527004
 30
0.0
 40
20.03551939563146
100
AcDbArc
 50
270.0
 51
0.0
  0
ARC
  5
3E21
330
1F
100
AcDbEntity
  8
HEWI
 62
     7
100
AcDbCircle
 10
106.871501993086
 20
99.98838311527004
 30
0.0
 40
20.03551939563148
100
AcDbArc
 50
180.0
 51
270.0
  0
ARC
  5
3E22
330
1F
100
AcDbEntity
  8
HEWI
 62
     7
100
AcDbCircle
 10
197.871501993086
 20
99.98838311527004
 30
0.0
 40
22.03521478594424
100
AcDbArc
 50
270.0
 51
0.0
  0
ARC
  5
3E23
330
1F
100
AcDbEntity
  8
HEWI
 62
     7
100
AcDbCircle
 10
106.871501993086
 20
99.98838311527004
 30
0.0
 40
22.03521478594424
100
AcDbArc
 50
180.0
 51
270.0
  0
ARC
  5
3E24
330
1F
100
AcDbEntity
  8
HEWI
 62
     7
100
AcDbCircle
 10
106.871501993086
 20
99.98838311527004
 30
0.0
 40
29.7374123858572
100
AcDbArc
 50
180.0
 51
270.0
  0
ARC
  5
3E25
330
1F
100
AcDbEntity
  8
HEWI
 62
     7
100
AcDbCircle
 10
197.871501993086
 20
99.98838311527004
 30
0.0
 40
34.73665086163916
100
AcDbArc
 50
270.0
 51
0.0
  0
ARC
  5
3E26
330
1F
100
AcDbEntity
  8
HEWI
 62
     7
100
AcDbCircle
 10
197.871501993086
 20
99.98838311527004
 30
0.0
 40
29.7374123858572
100
AcDbArc
 50
270.0
 51
0.0
  0
ARC
  5
3E27
330
1F
100
AcDbEntity
  8
HEWI
 62
     7
100
AcDbCircle
 10
72.38030399308581
 20
205.4795791152701
 30
0.0
 40
0.5
100
AcDbArc
 50
90.0
 51
180.0
  0
ARC
  5
3E28
330
1F
100
AcDbEntity
  8
HEWI
 62
     7
100
AcDbCircle
 10
232.3626979930859
 20
205.4795791152701
 30
0.0
 40
0.5
100
AcDbArc
 50
0.0
 51
90.0
  0
ARC
  5
3E29
330
1F
100
AcDbEntity
  8
HEWI
 62
     7
100
AcDbCircle
 10
573.4890379930857
 20
478.4920751152701
 30
0.0
 40
0.5
100
AcDbArc
 50
178.2683010000003
 51
239.9999999999998
  0
ELLIPSE
  5
3E2A
330
1F
100
AcDbEntity
  8
HEWI
 62
     7
100
AcDbEllipse
 10
194.9266459930859
 20
271.24045311527
 30
0.0
 11
-35.00057119772912
 21
0.0872639989020207
 31
0.0
210
0.0
220
0.0
230
1.0
 40
0.002493
 41
1.57085693840874
 42
3.141577112787058
  0
ELLIPSE
  5
3E2B
330
1F
100
AcDbEntity
  8
HEWI
 62
     7
100
AcDbEllipse
 10
109.8163559930858
 20
271.24045311527
 30
0.0
 11
35.00057119772982
 21
0.0872639989020239
 31
0.0
210
0.0
220
0.0
230
1.0
 40
0.002493
 41
3.141608194392533
 42
4.712328368770824
  0
ELLIPSE
  5
3E2C
330
1F
100
AcDbEntity
  8
HEWI
 62
     7
100
AcDbEllipse
 10
404.9772199930857
 20
271.24045311527
 30
0.0
 11
-35.00057119772902
 21
0.0872639989020204
 31
0.0
210
0.0
220
0.0
230
1.0
 40
0.002493
 41
1.570856938408739
 42
3.14157711278706
  0
ELLIPSE
  5
3E2D
330
1F
100
AcDbEntity
  8
HEWI
 62
     7
100
AcDbEllipse
 10
302.685347993086
 20
566.3189891152701
 30
0.0
 11
0.4999238475781957
 21
-0.0087262032186423
 31
0.0
210
0.0
220
0.0
230
1.0
 40
0.01745
 41
1.571100913290063
 42
3.141592653589792
  0
ELLIPSE
  5
3E2E
330
1F
100
AcDbEntity
  8
HEWI
 62
     7
100
AcDbEllipse
 10
329.0623379930857
 20
559.0411951152701
 30
0.0
 11
0.000000000000003
 21
2.552269374447251
 31
0.0
210
0.0
220
0.0
230
1.0
 40
1.0
 41
0.0
 42
6.283185307179585
  0
ELLIPSE
  5
3E2F
330
1F
100
AcDbEntity
  8
HEWI
 62
     7
100
AcDbEllipse
 10
302.4308799930859
 20
551.7404531152701
 30
0.0
 11
0.4999238475781957
 21
-0.0087262032186423
 31
0.0
210
0.0
220
0.0
230
1.0
 40
0.01745
 41
1.571100913290055
 42
3.141592653583277
  0
ELLIPSE
  5
3E30
330
1F
100
AcDbEntity
  8
HEWI
 62
     7
100
AcDbEllipse
 10
135.3543459930861
 20
81.69276511527005
 30
0.0
 11
0.9656851263455326
 21
0.0059611425727733
 31
0.0
210
0.0
220
0.0
230
1.0
 40
0.5177300000000001
 41
3.138092180543808
 42
4.345163453520584
  0
ELLIPSE
  5
3E31
330
1F
100
AcDbEntity
  8
HEWI
 62
     7
100
AcDbEllipse
 10
169.3886559930861
 20
81.69276511527005
 30
0.0
 11
0.965685126346414
 21
-0.0059611425732555
 31
0.0
210
0.0
220
0.0
230
1.0
 40
0.5177300000000001
 41
5.081773965313341
 42
6.286685780225687
  0
ELLIPSE
  5
3E32
330
1F
100
AcDbEntity
  8
HEWI
 62
     7
100
AcDbEllipse
 10
134.3886559930861
 20
81.68434311527006
 30
0.0
 11
0.4999999783743906
 21
-0.0001470564819995
 31
0.0
210
0.0
220
0.0
230
1.0
 40
0.008422
 41
0.0349078235712222
 42
1.570798803812811
  0
ELLIPSE
  5
3E33
330
1F
100
AcDbEntity
  8
HEWI
 62
     7
100
AcDbEllipse
 10
170.3543459930861
 20
81.68434311527006
 30
0.0
 11
-0.4999999783743908
 21
-0.0001470564819999
 31
0.0
210
0.0
220
0.0
230
1.0
 40
0.008422
 41
4.712386503366773
 42
6.248277483608363
  0
ELLIPSE
  5
3E34
330
1F
100
AcDbEntity
  8
HEWI
 62
     7
100
AcDbEllipse
 10
169.353735993086
 20
83.68838311527008
 30
0.0
 11
1.000609544298821
 21
0.0
 31
0.0
210
0.0
220
0.0
230
1.0
 40
0.9993909999999999
 41
0.0
 42
1.570796326794897
  0
ELLIPSE
  5
3E35
330
1F
100
AcDbEntity
  8
HEWI
 62
     7
100
AcDbEllipse
 10
135.3892659930861
 20
83.68838311527008
 30
0.0
 11
-1.000609544298821
 21
-0.0000000000000004
 31
-0.0000000000000006
210
-0.0000000000000006
220
0.0000000000000001
230
1.0
 40
0.9993909999999999
 41
4.71238898038469
 42
6.283185307179585
  0
ELLIPSE
  5
3E36
330
1F
100
AcDbEntity
  8
HEWI
 62
     7
100
AcDbEllipse
 10
135.3892659930861
 20
83.68838311527008
 30
0.0
 11
0.5009141307888908
 21
-0.0000000000000006
 31
0.0
210
0.0
220
0.0
230
1.0
 40
0.9981749999999999
 41
1.570796326794897
 42
3.141592653589792
  0
ELLIPSE
  5
3E37
330
1F
100
AcDbEntity
  8
HEWI
 62
     7
100
AcDbEllipse
 10
169.353735993086
 20
83.68838311527008
 30
0.0
 11
0.5009141307892016
 21
-0.0000000000000006
 31
0.0
210
0.0
220
0.0
230
1.0
 40
0.9981749999999999
 41
0.0
 42
1.570796326794897
  0
ELLIPSE
  5
3E38
330
1F
100
AcDbEntity
  8
HEWI
 62
     7
100
AcDbEllipse
 10
135.3543459930861
 20
81.69276511527005
 30
0.0
 11
0.05948566173158
 21
0.4969850872313996
 31
0.0
210
0.0
220
0.0
230
1.0
 40
0.929972
 41
1.698494141565564
 42
2.482669681793169
  0
ELLIPSE
  5
3E39
330
1F
100
AcDbEntity
  8
HEWI
 62
     7
100
AcDbEllipse
 10
169.3886559930861
 20
81.69276511527005
 30
0.0
 11
0.0594856617206721
 21
-0.4969850872304815
 31
0.0
210
0.0
220
0.0
230
1.0
 40
0.929972
 41
0.6756171884814375
 42
1.443098512048099
  0
ELLIPSE
  5
3E3A
330
1F
100
AcDbEntity
  8
HEWI
 62
     7
100
AcDbEllipse
 10
135.4878059930861
 20
81.65941311527006
 30
0.0
 11
0.1212243470406398
 21
0.48508211437299
 31
0.0
210
0.0
220
0.0
230
1.0
 40
0.9993529999999999
 41
1.815533152193238
 42
2.100640354427705
  0
ELLIPSE
  5
3E3B
330
1F
100
AcDbEntity
  8
HEWI
 62
     7
100
AcDbEllipse
 10
169.2551959930861
 20
81.65941311527006
 30
0.0
 11
0.1212243470406647
 21
-0.4850821143729839
 31
0.0
210
0.0
220
0.0
230
1.0
 40
0.9993529999999999
 41
1.085707140316614
 42
1.326059501396514
  0
ELLIPSE
  5
3E3C
330
1F
100
AcDbEntity
  8
HEWI
 62
     7
100
AcDbEllipse
 10
169.755653993086
 20
79.15950711527006
 30
0.0
 11
0.0
 21
-2.500000000016781
 31
0.0
210
0.0
220
0.0
230
1.0
 40
0.034921
 41
3.830771855501281
 42
4.71238898038469
  0
ELLIPSE
  5
3E3D
330
1F
100
AcDbEntity
  8
HEWI
 62
     7
100
AcDbEllipse
 10
169.755653993086
 20
79.15950711527006
 30
0.0
 11
0.0
 21
-2.500000000016781
 31
0.0
210
0.0
220
0.0
230
1.0
 40
0.034921
 41
3.150319299854606
 42
3.705513042688398
  0
ELLIPSE
  5
3E3E
330
1F
100
AcDbEntity
  8
HEWI
 62
     7
100
AcDbEllipse
 10
134.9873479930861
 20
79.15950711527006
 30
0.0
 11
0.0
 21
-2.500000000009505
 31
0.0
210
0.0
220
0.0
230
1.0
 40
0.034921
 41
2.57430375853448
 42
3.132866007327749
  0
ELLIPSE
  5
3E3F
330
1F
100
AcDbEntity
  8
HEWI
 62
     7
100
AcDbEllipse
 10
134.9873479930861
 20
79.15950711527006
 30
0.0
 11
0.0
 21
-2.500000000009505
 31
0.0
210
0.0
220
0.0
230
1.0
 40
0.034921
 41
1.570796326794897
 42
2.574304155907579
  0
ELLIPSE
  5
3E40
330
1F
100
AcDbEntity
  8
HEWI
 62
     7
100
AcDbEllipse
 10
169.755653993086
 20
79.18838311527008
 30
0.0
 11
0.0
 21
-4.500000000005679
 31
0.0
210
0.0
220
0.0
230
1.0
 40
0.034921
 41
3.141592653589792
 42
3.230953953218116
  0
ELLIPSE
  5
3E41
330
1F
100
AcDbEntity
  8
HEWI
 62
     7
100
AcDbEllipse
 10
169.755653993086
 20
79.18838311527008
 30
0.0
 11
0.0
 21
-4.500000000005679
 31
0.0
210
0.0
220
0.0
230
1.0
 40
0.034921
 41
3.230956036927886
 42
4.71238898038469
  0
ELLIPSE
  5
3E42
330
1F
100
AcDbEntity
  8
HEWI
 62
     7
100
AcDbEllipse
 10
169.2559579930857
 20
83.68838311527008
 30
0.0
 11
0.0
 21
0.5
 31
0.0
210
0.0
220
0.0
230
1.0
 40
0.9993909999999999
 41
4.71238898038469
 42
6.283185307179585
  0
ELLIPSE
  5
3E43
330
1F
100
AcDbEntity
  8
HEWI
 62
     7
100
AcDbEllipse
 10
169.2559579930857
 20
79.18838311527008
 30
0.0
 11
0.0
 21
-5.000000000006427
 31
0.0
210
0.0
220
0.0
230
1.0
 40
0.031429
 41
3.141592653589792
 42
4.71238898038469
  0
ELLIPSE
  5
3E44
330
1F
100
AcDbEntity
  8
HEWI
 62
     7
100
AcDbEllipse
 10
135.487043993086
 20
83.68838311527008
 30
0.0
 11
0.0
 21
0.5
 31
0.0
210
0.0
220
0.0
230
1.0
 40
0.9993909999999999
 41
0.0
 42
1.570796326794868
  0
ELLIPSE
  5
3E45
330
1F
100
AcDbEntity
  8
HEWI
 62
     7
100
AcDbEllipse
 10
134.9873479930861
 20
79.18838311527008
 30
0.0
 11
0.0
 21
-4.500000000005972
 31
0.0
210
0.0
220
0.0
230
1.0
 40
0.034921
 41
1.570796326794897
 42
3.026533585942643
  0
ELLIPSE
  5
3E46
330
1F
100
AcDbEntity
  8
HEWI
 62
     7
100
AcDbEllipse
 10
134.9873479930861
 20
79.18838311527008
 30
0.0
 11
0.0
 21
-4.500000000005972
 31
0.0
210
0.0
220
0.0
230
1.0
 40
0.034921
 41
3.026531544275438
 42
3.141592653589792
  0
ELLIPSE
  5
3E47
330
1F
100
AcDbEntity
  8
HEWI
 62
     7
100
AcDbEllipse
 10
135.487043993086
 20
79.18838311527008
 30
0.0
 11
0.0
 21
-5.000000000006584
 31
0.0
210
0.0
220
0.0
230
1.0
 40
0.031429
 41
1.570796326794897
 42
3.141592653589792
  0
ELLIPSE
  5
3E48
330
1F
100
AcDbEntity
  8
HEWI
 62
     7
100
AcDbEllipse
 10
72.00766399308577
 20
178.84811911527
 30
0.0
 11
0.0
 21
-2.55226926644399
 31
0.0
210
0.0
220
0.0
230
1.0
 40
0.017455
 41
0.0
 42
6.283185307179585
  0
ELLIPSE
  5
3E49
330
1F
100
AcDbEntity
  8
HEWI
 62
     7
100
AcDbEllipse
 10
232.735337993086
 20
178.84811911527
 30
0.0
 11
0.0
 21
-2.55226926644349
 31
0.0
210
0.0
220
0.0
230
1.0
 40
0.017455
 41
0.0
 42
6.283185307179585
  0
ELLIPSE
  5
3E4A
330
1F
100
AcDbEntity
  8
HEWI
 62
     7
100
AcDbEllipse
 10
72.38030399308581
 20
205.4795791152701
 30
0.0
 11
-0.3535533905932561
 21
-0.3535533905932914
 31
0.0
210
0.0
220
0.0
230
1.0
 40
0.9996950000000001
 41
3.927143110234761
 42
5.497634850534516
  0
ELLIPSE
  5
3E4B
330
1F
100
AcDbEntity
  8
HEWI
 62
     7
100
AcDbEllipse
 10
232.3626979930859
 20
205.4795791152701
 30
0.0
 11
-0.3535533905932752
 21
0.3535533905932724
 31
0.0
210
0.0
220
0.0
230
1.0
 40
0.9996950000000001
 41
3.927143110234822
 42
5.497634850534557
  0
ELLIPSE
  5
3E4C
330
1F
100
AcDbEntity
  8
HEWI
 62
     7
100
AcDbEllipse
 10
232.1082279930861
 20
205.22510911527
 30
0.0
 11
-0.3535533905932752
 21
0.3535533905932724
 31
0.0
210
0.0
220
0.0
230
1.0
 40
0.9996950000000001
 41
3.927143110234741
 42
5.497634850534557
  0
ELLIPSE
  5
3E4D
330
1F
100
AcDbEntity
  8
HEWI
 62
     7
100
AcDbEllipse
 10
227.608913993086
 20
205.72640311527
 30
0.0
 11
4.499999999999875
 21
-0.0000000000000053
 31
0.0
210
0.0
220
0.0
230
1.0
 40
0.017455
 41
4.71238898038469
 42
6.265732014659726
  0
ELLIPSE
  5
3E4E
330
1F
100
AcDbEntity
  8
HEWI
 62
     7
100
AcDbEllipse
 10
72.63477399308612
 20
205.22510911527
 30
0.0
 11
-0.3535533905932561
 21
-0.3535533905932914
 31
0.0
210
0.0
220
0.0
230
1.0
 40
0.9996950000000001
 41
3.927143110234801
 42
5.497634850534557
  0
ELLIPSE
  5
3E4F
330
1F
100
AcDbEntity
  8
HEWI
 62
     7
100
AcDbEllipse
 10
77.13408799308581
 20
205.72640311527
 30
0.0
 11
4.499999999999863
 21
-0.0000000000000053
 31
0.0
210
0.0
220
0.0
230
1.0
 40
0.017455
 41
3.159045946109761
 42
4.71238898038469
  0
ELLIPSE
  5
3E50
330
1F
100
AcDbEntity
  8
HEWI
 62
     7
100
AcDbEllipse
 10
217.4063339930858
 20
190.5232171152701
 30
0.0
 11
0.3545225953142122
 21
0.354522595314212
 31
0.0
210
0.0
220
0.0
230
1.0
 40
0.9972659999999999
 41
5.497939437027448
 42
7.068431177331687
  0
ELLIPSE
  5
3E51
330
1F
100
AcDbEntity
  8
HEWI
 62
     7
100
AcDbEllipse
 10
87.33666799308593
 20
190.5232171152701
 30
0.0
 11
0.3545225953168033
 21
-0.3545225953168033
 31
0.0
210
0.0
220
0.0
230
1.0
 40
0.9972660000000001
 41
2.356346783440587
 42
3.926838523739001
  0
ELLIPSE
  5
3E52
330
1F
100
AcDbEntity
  8
HEWI
 62
     7
100
AcDbEllipse
 10
227.608913993086
 20
205.2264791152701
 30
0.0
 11
4.999999999998795
 21
-0.0000000000000059
 31
0.0
210
0.0
220
0.0
230
1.0
 40
0.01571
 41
4.71238898038469
 42
6.265732014659879
  0
ELLIPSE
  5
3E53
330
1F
100
AcDbEntity
  8
HEWI
 62
     7
100
AcDbEllipse
 10
77.13408799308581
 20
205.2264791152701
 30
0.0
 11
4.99999999999795
 21
-0.0000000000000059
 31
0.0
210
0.0
220
0.0
230
1.0
 40
0.01571
 41
3.159045946109543
 42
4.71238898038469
  0
ELLIPSE
  5
3E54
330
1F
100
AcDbEntity
  8
HEWI
 62
     7
100
AcDbEllipse
 10
217.4063339930858
 20
190.5232171152701
 30
0.0
 11
1.768305472923952
 21
1.768305472923953
 31
0.0
210
0.0
220
0.0000000000000001
230
1.0
 40
0.9996950000000001
 41
5.497939437029696
 42
7.068431177329454
  0
ELLIPSE
  5
3E55
330
1F
100
AcDbEntity
  8
HEWI
 62
     7
100
AcDbEllipse
 10
87.33666799308593
 20
190.5232171152701
 30
0.0
 11
-1.768305472923959
 21
1.768305472923945
 31
0.0
210
0.0
220
0.0
230
1.0
 40
0.9996950000000001
 41
5.497939437029696
 42
7.068431177329455
  0
ELLIPSE
  5
3E56
330
1F
100
AcDbEntity
  8
HEWI
 62
     7
100
AcDbEllipse
 10
750.3332879930858
 20
247.4239311152701
 30
0.0
 11
-5.0
 21
8.660254037844389
 31
0.0
210
0.0
220
0.0
230
1.0
 40
0.5773500000000001
 41
3.141573775252861
 42
3.918264170727263
  0
ELLIPSE
  5
3E57
330
1F
100
AcDbEntity
  8
HEWI
 62
     7
100
AcDbEllipse
 10
584.003587993086
 20
253.54742111527
 30
0.0
 11
4.933922405410742
 21
8.698290131053719
 31
0.0
210
0.0
220
0.0
230
1.0
 40
0.582366
 41
2.360480990581345
 42
3.137171197624055
  0
ELLIPSE
  5
3E58
330
1F
100
AcDbEntity
  8
HEWI
 62
     7
100
AcDbEllipse
 10
654.7945399930859
 20
212.67624711527
 30
0.0
 11
5.0
 21
8.660254037844389
 31
0.0
210
0.0
220
0.0
230
1.0
 40
0.5773500000000001
 41
2.364921136452326
 42
3.141489595550238
  0
ELLIPSE
  5
3E59
330
1F
100
AcDbEntity
  8
HEWI
 62
     7
100
AcDbEllipse
 10
690.1485339930859
 20
212.67624711527
 30
0.0
 11
-5.0
 21
8.660254037844389
 31
0.0
210
0.0
220
0.0
230
1.0
 40
0.5773500000000001
 41
3.140621840434011
 42
3.918264170727267
  0
ELLIPSE
  5
3E5A
330
1F
100
AcDbEntity
  8
HEWI
 62
     7
100
AcDbEllipse
 10
725.5610959930859
 20
275.9682731152701
 30
0.0
 11
13.92830988900448
 21
23.71245943338347
 31
0.0
210
0.0
220
0.0
230
1.0
 40
0.57229
 41
3.931278646419181
 42
6.209620512537266
  0
ELLIPSE
  5
3E5B
330
1F
100
AcDbEntity
  8
HEWI
 62
     7
100
AcDbEllipse
 10
725.5610959930859
 20
275.9682731152701
 30
0.0
 11
13.92830988900448
 21
23.71245943338347
 31
0.0
210
0.0
220
0.0
230
1.0
 40
0.57229
 41
3.223733060988523
 42
3.93127864641918
  0
ELLIPSE
  5
3E5C
330
1F
100
AcDbEntity
  8
HEWI
 62
     7
100
AcDbEllipse
 10
732.6535999930861
 20
257.6297491152701
 30
0.0
 11
-35.00103362923986
 21
0.151135932033847
 31
0.0
210
0.0
220
0.0
230
1.0
 40
0.577324
 41
2.358725471572469
 42
3.135372948692957
  0
ELLIPSE
  5
3E5D
330
1F
100
AcDbEntity
  8
HEWI
 62
     7
100
AcDbEllipse
 10
727.6824979930861
 20
274.74348111527
 30
0.0
 11
13.92830988900446
 21
23.71245943338348
 31
0.0
210
0.0
220
0.0
230
1.0
 40
0.57229
 41
0.0
 42
6.283185307179585
  0
ELLIPSE
  5
3E5E
330
1F
100
AcDbEntity
  8
HEWI
 62
     7
100
AcDbEllipse
 10
672.471535993086
 20
222.8836191152701
 30
0.0
 11
34.9999999999992
 21
0.0
 31
0.0
210
0.0
220
0.0
230
1.0
 40
0.580248
 41
3.927028893198154
 42
5.497749067571219
  0
ELLIPSE
  5
3E5F
330
1F
100
AcDbEntity
  8
HEWI
 62
     7
100
AcDbEllipse
 10
688.7318479930859
 20
540.62570111527
 30
0.0
 11
0.25
 21
0.4330127018922194
 31
0.0
210
0.0
220
0.0
230
1.0
 40
0.5773500000000001
 41
6.283162461760686
 42
7.068583470577106
  0
ELLIPSE
  5
3E60
330
1F
100
AcDbEntity
  8
HEWI
 62
     7
100
AcDbEllipse
 10
749.7552099930858
 20
505.39384711527
 30
0.0
 11
0.25
 21
0.4330127018922194
 31
0.0
210
0.0
220
0.0
230
1.0
 40
0.5773500000000001
 41
0.0000810776294795
 42
0.7853981633975904
  0
ELLIPSE
  5
3E61
330
1F
100
AcDbEntity
  8
HEWI
 62
     7
100
AcDbEllipse
 10
736.8182539930858
 20
497.92113111527
 30
0.0
 11
18.79559848844383
 21
0.0
 31
0.0
210
0.0
220
0.0
230
1.0
 40
0.5773500000000001
 41
6.219887131502088
 42
6.491438505541465
  0
ELLIPSE
  5
3E62
330
1F
100
AcDbEntity
  8
HEWI
 62
     7
100
AcDbEllipse
 10
686.616907993086
 20
540.62570111527
 30
0.0
 11
-0.25
 21
0.4330127018922194
 31
0.0
210
0.0
220
0.0
230
1.0
 40
0.5773500000000001
 41
5.497787143782216
 42
6.283208152598687
  0
ELLIPSE
  5
3E63
330
1F
100
AcDbEntity
  8
HEWI
 62
     7
100
AcDbEllipse
 10
731.1807139930861
 20
484.46364911527
 30
0.0
 11
-0.25
 21
-0.4330127018922194
 31
0.0
210
0.0
220
0.0
230
1.0
 40
0.5773500000000001
 41
3.141597520983388
 42
3.926990816987013
  0
ELLIPSE
  5
3E64
330
1F
100
AcDbEntity
  8
HEWI
 62
     7
100
AcDbEllipse
 10
703.4553759930859
 20
466.9867251152699
 30
0.0
 11
-0.25
 21
0.4330127018922194
 31
0.0
210
0.0
220
0.0
230
1.0
 40
0.5773500000000001
 41
2.356194490192423
 42
2.962077696937767
  0
ELLIPSE
  5
3E65
330
1F
100
AcDbEntity
  8
HEWI
 62
     7
100
AcDbEllipse
 10
703.454943993086
 20
466.16997911527
 30
0.0
 11
0.25
 21
0.4330127018922194
 31
0.0
210
0.0
220
0.0
230
1.0
 40
0.5773500000000001
 41
5.071398468637964
 42
5.462880558742464
  0
ELLIPSE
  5
3E66
330
1F
100
AcDbEntity
  8
HEWI
 62
     7
100
AcDbEllipse
 10
704.1624819930857
 20
466.57847711527
 30
0.0
 11
0.5003603930342752
 21
0.0164926441665865
 31
0.0
210
0.0
220
0.0
230
1.0
 40
0.5970439999999999
 41
3.104162574734671
 42
3.906400562436187
  0
ELLIPSE
  5
3E67
330
1F
100
AcDbEntity
  8
HEWI
 62
     7
100
AcDbEllipse
 10
740.3537879930858
 20
474.0972411152701
 30
0.0
 11
-4.796850178308002
 21
-0.0000000000000019
 31
-0.0000000000000028
210
-0.0000000000000006
220
0.0000000000000001
230
1.0
 40
0.5773500000000001
 41
2.356194490192351
 42
3.166283950207616
  0
ELLIPSE
  5
3E68
330
1F
100
AcDbEntity
  8
HEWI
 62
     7
100
AcDbEllipse
 10
740.3537879930858
 20
475.73023311527
 30
0.0
 11
4.727008639324504
 21
0.0
 31
0.0
210
0.0
220
0.0
230
1.0
 40
0.5773500000000001
 41
0.0246908636292549
 42
0.0430004521890428
  0
ELLIPSE
  5
3E69
330
1F
100
AcDbEntity
  8
HEWI
 62
     7
100
AcDbEllipse
 10
740.3537879930858
 20
475.73023311527
 30
0.0
 11
4.727008639324504
 21
0.0
 31
0.0
210
0.0
220
0.0
230
1.0
 40
0.5773500000000001
 41
5.49778714378213
 42
6.307876532821847
  0
ELLIPSE
  5
3E6A
330
1F
100
AcDbEntity
  8
HEWI
 62
     7
100
AcDbEllipse
 10
743.3429499930862
 20
477.4417791152699
 30
0.0
 11
-0.25
 21
-0.4330127018922194
 31
0.0
210
0.0
220
0.0
230
1.0
 40
0.5773500000000001
 41
3.141410459498573
 42
3.926990816987292
  0
ELLIPSE
  5
3E6B
330
1F
100
AcDbEntity
  8
HEWI
 62
     7
100
AcDbEllipse
 10
705.6668599930858
 20
468.0943851152701
 30
0.0
 11
-0.4996523297121883
 21
0.0186426771999871
 31
0.0
210
0.0
220
0.0
230
1.0
 40
0.561863
 41
0.8064923958980408
 42
2.377593274394492
  0
ELLIPSE
  5
3E6C
330
1F
100
AcDbEntity
  8
HEWI
 62
     7
100
AcDbEllipse
 10
707.4340199930857
 20
467.05567911527
 30
0.0
 11
-0.9312417891518085
 21
1.771094348802042
 31
0.0
210
0.0
220
0.0
230
1.0
 40
0.601952
 41
0.0260271560086975
 42
0.8004713826226552
  0
ELLIPSE
  5
3E6D
330
1F
100
AcDbEntity
  8
HEWI
 62
     7
100
AcDbEllipse
 10
731.2918299930861
 20
480.8535691152701
 30
0.0
 11
-2.614011726146405
 21
4.263674076349095
 31
0.0
210
0.0
220
0.0
230
1.0
 40
0.5589370000000001
 41
5.483034744389308
 42
6.268433237048414
  0
ELLIPSE
  5
3E6E
330
1F
100
AcDbEntity
  8
HEWI
 62
     7
100
AcDbEllipse
 10
704.2316219930857
 20
468.9045851152699
 30
0.0
 11
-0.4997792776990117
 21
0.0148550860870698
 31
0.0
210
0.0
220
0.0
230
1.0
 40
0.5568489999999999
 41
0.0003334936844475
 42
0.8022527274865334
  0
ELLIPSE
  5
3E6F
330
1F
100
AcDbEntity
  8
HEWI
 62
     7
100
AcDbEllipse
 10
707.4136019930856
 20
467.06746711527
 30
0.0
 11
-2.377957369746264
 21
4.399780603222986
 31
0.0
210
0.0
220
0.0
230
1.0
 40
0.5951920000000001
 41
0.0167277806443007
 42
0.0503282249318175
  0
ELLIPSE
  5
3E70
330
1F
100
AcDbEntity
  8
HEWI
 62
     7
100
AcDbEllipse
 10
707.4136019930856
 20
467.06746711527
 30
0.0
 11
-2.377957369746264
 21
4.399780603222986
 31
0.0
210
0.0
220
0.0
230
1.0
 40
0.5951920000000001
 41
5.514515060252872
 42
6.299912941705589
  0
ELLIPSE
  5
3E71
330
1F
100
AcDbEntity
  8
HEWI
 62
     7
100
AcDbEllipse
 10
743.3923359930859
 20
472.3286871152701
 30
0.0
 11
0.25
 21
-0.4330127018922194
 31
0.0
210
0.0
220
0.0
230
1.0
 40
0.5773500000000001
 41
0.00001924068596
 42
0.8203047484372305
  0
ELLIPSE
  5
3E72
330
1F
100
AcDbEntity
  8
HEWI
 62
     7
100
AcDbEllipse
 10
707.4957519930858
 20
469.13256111527
 30
0.0
 11
-0.25
 21
-0.4330127018922194
 31
0.0
210
0.0
220
0.0
230
1.0
 40
0.5773500000000001
 41
5.462880558742396
 42
6.283166066493683
  0
ELLIPSE
  5
3E73
330
1F
100
AcDbEntity
  8
HEWI
 62
     7
100
AcDbEllipse
 10
707.0806819930858
 20
466.86592711527
 30
0.0
 11
-1.181928220963672
 21
2.203859227908173
 31
0.0
210
0.0
220
0.0
230
1.0
 40
0.5971340000000001
 41
5.516502368896638
 42
7.078572049431658
  0
ELLIPSE
  5
3E74
330
1F
100
AcDbEntity
  8
HEWI
 62
     7
100
AcDbEllipse
 10
707.0602639930857
 20
466.87771511527
 30
0.0
 11
-2.127470797735939
 21
3.966946610237339
 31
0.0
210
0.0
220
0.0
230
1.0
 40
0.5971340000000001
 41
5.516502368896873
 42
7.087298695691364
  0
ELLIPSE
  5
3E75
330
1F
100
AcDbEntity
  8
HEWI
 62
     7
100
AcDbEllipse
 10
743.3429499930862
 20
473.99019311527
 30
0.0
 11
-0.25
 21
0.4330127018922194
 31
0.0
210
0.0
220
0.0
230
1.0
 40
0.5773500000000001
 41
3.961897402027198
 42
5.497787143782156
  0
ELLIPSE
  5
3E76
330
1F
100
AcDbEntity
  8
HEWI
 62
     7
100
AcDbEllipse
 10
707.5247199930859
 20
470.80585511527
 30
0.0
 11
0.25
 21
0.4330127018922194
 31
0.0
210
0.0
220
0.0
230
1.0
 40
0.5773500000000001
 41
0.7853981633973943
 42
2.32128790515242
  0
ELLIPSE
  5
3E77
330
1F
100
AcDbEntity
  8
HEWI
 62
     7
100
AcDbEllipse
 10
725.7146659930858
 20
462.1224791152701
 30
0.0
 11
0.25
 21
-0.4330127018922194
 31
0.0
210
0.0
220
0.0
230
1.0
 40
0.5773500000000001
 41
0.0001924457645339
 42
0.8203047484373646
  0
ELLIPSE
  5
3E78
330
1F
100
AcDbEntity
  8
HEWI
 62
     7
100
AcDbEllipse
 10
719.6375719930856
 20
462.1224791152701
 30
0.0
 11
-0.25
 21
-0.4330127018922194
 31
0.0
210
0.0
220
0.0
230
1.0
 40
0.5773500000000001
 41
5.462880558742315
 42
6.282992861415177
  0
ELLIPSE
  5
3E79
330
1F
100
AcDbEntity
  8
HEWI
 62
     7
100
AcDbEllipse
 10
740.3537879930858
 20
476.12423511527
 30
0.0
 11
-4.227313225814955
 21
-0.0000000000000017
 31
-0.0000000000000024
210
-0.0000000000000006
220
0.0000000000000001
230
1.0
 40
0.5773500000000001
 41
2.356194490192344
 42
3.926990816987251
  0
ELLIPSE
  5
3E7A
330
1F
100
AcDbEntity
  8
HEWI
 62
     7
100
AcDbEllipse
 10
722.6761179930859
 20
463.89103311527
 30
0.0
 11
-4.796850178308002
 21
-0.0000000000000019
 31
-0.0000000000000028
210
-0.0000000000000006
220
0.0000000000000001
230
1.0
 40
0.5773500000000001
 41
0.7853981633974377
 42
2.35619449019234
  0
ELLIPSE
  5
3E7B
330
1F
100
AcDbEntity
  8
HEWI
 62
     7
100
AcDbEllipse
 10
719.686955993086
 20
463.7839851152699
 30
0.0
 11
0.25
 21
0.4330127018922194
 31
0.0
210
0.0
220
0.0
230
1.0
 40
0.5773500000000001
 41
0.7853981633974399
 42
2.321287905152304
  0
ELLIPSE
  5
3E7C
330
1F
100
AcDbEntity
  8
HEWI
 62
     7
100
AcDbEllipse
 10
722.6761179930859
 20
465.5240271152699
 30
0.0
 11
4.727008639324504
 21
0.0
 31
0.0
210
0.0
220
0.0
230
1.0
 40
0.5773500000000001
 41
3.926990816987224
 42
5.497787143782125
  0
ELLIPSE
  5
3E7D
330
1F
100
AcDbEntity
  8
HEWI
 62
     7
100
AcDbEllipse
 10
725.6652799930861
 20
463.7839851152699
 30
0.0
 11
-0.25
 21
0.4330127018922194
 31
0.0
210
0.0
220
0.0
230
1.0
 40
0.5773500000000001
 41
3.961897402027198
 42
5.497787143782216
  0
ELLIPSE
  5
3E7E
330
1F
100
AcDbEntity
  8
HEWI
 62
     7
100
AcDbEllipse
 10
722.6761179930859
 20
465.9180271152699
 30
0.0
 11
-4.227313225814955
 21
-0.0000000000000017
 31
-0.0000000000000024
210
-0.0000000000000006
220
0.0000000000000001
230
1.0
 40
0.5773500000000001
 41
0.7853981633974536
 42
2.356194490192349
  0
ELLIPSE
  5
3E7F
330
1F
100
AcDbEntity
  8
HEWI
 62
     7
100
AcDbEllipse
 10
704.1624819930857
 20
466.17022911527
 30
0.0
 11
1.00030477214812
 21
0.0005278806515506
 31
0.0
210
0.0
220
0.0
230
1.0
 40
0.5773500000000001
 41
2.35558513185358
 42
3.628789637802193
  0
ELLIPSE
  5
3E80
330
1F
100
AcDbEntity
  8
HEWI
 62
     7
100
AcDbEllipse
 10
736.8182539930858
 20
498.3329411152701
 30
0.0
 11
-18.29561752691175
 21
-0.0000000000000072
 31
-0.0000000000000105
210
-0.0000000000000006
220
0.0000000000000001
230
1.0
 40
0.5773500000000001
 41
2.938002802866417
 42
3.926990816987241
  0
ELLIPSE
  5
3E81
330
1F
100
AcDbEntity
  8
HEWI
 62
     7
100
AcDbEllipse
 10
687.6743779930857
 20
540.4234191152702
 30
0.0
 11
-1.49548807272334
 21
-0.0000000000000006
 31
-0.0000000000000009
210
-0.0000000000000006
220
0.0000000000000001
230
1.0
 40
0.5773500000000001
 41
3.926990816987214
 42
5.497787143782205
  0
ELLIPSE
  5
3E82
330
1F
100
AcDbEntity
  8
HEWI
 62
     7
100
AcDbEllipse
 10
686.6136719930859
 20
545.8814851152701
 30
0.0
 11
0.4999999999965011
 21
0.0
 31
0.0
210
0.0
220
0.0
230
1.0
 40
0.498336
 41
0.7855504566380509
 42
2.356042196951774
  0
ELLIPSE
  5
3E83
330
1F
100
AcDbEntity
  8
HEWI
 62
     7
100
AcDbEllipse
 10
683.4312079930859
 20
553.5997611152701
 30
0.0
 11
2.557929287650565
 21
4.296514298558529
 31
0.0
210
0.0
220
0.0
230
1.0
 40
0.568211
 41
0.0076247117677681
 42
0.7930093814394157
  0
ELLIPSE
  5
3E84
330
1F
100
AcDbEntity
  8
HEWI
 62
     7
100
AcDbEllipse
 10
688.3811699930856
 20
546.9025711152701
 30
0.0
 11
-0.9999999999999998
 21
-1.732050807568877
 31
0.0
210
0.0
220
0.0
230
1.0
 40
0.5773500000000001
 41
3.926990816987233
 42
5.515240436302053
  0
ELLIPSE
  5
3E85
330
1F
100
AcDbEntity
  8
HEWI
 62
     7
100
AcDbEllipse
 10
683.486749993086
 20
557.2419291152701
 30
0.0
 11
-0.25
 21
0.4330127018922194
 31
0.0
210
0.0
220
0.0
230
1.0
 40
0.5773500000000001
 41
5.497787143782076
 42
6.283173511582348
  0
ELLIPSE
  5
3E86
330
1F
100
AcDbEntity
  8
HEWI
 62
     7
100
AcDbEllipse
 10
573.4890379930857
 20
478.4920751152701
 30
0.0
 11
0.4997716470617713
 21
-0.015109625844619
 31
0.0
210
0.0
220
0.0
230
1.0
 40
0.577174
 41
3.141592567092759
 42
3.944286502110546
  0
ELLIPSE
  5
3E87
330
1F
100
AcDbEntity
  8
HEWI
 62
     7
100
AcDbEllipse
 10
684.8461739930858
 20
546.9025711152701
 30
0.0
 11
-0.9999999999999998
 21
1.732050807568877
 31
0.0
210
0.0
220
0.0
230
1.0
 40
0.5773500000000001
 41
3.909537524467324
 42
5.497787143782111
  0
ELLIPSE
  5
3E88
330
1F
100
AcDbEntity
  8
HEWI
 62
     7
100
AcDbEllipse
 10
573.8489119930859
 20
490.3953991152699
 30
0.0
 11
0.4997716470617713
 21
-0.015109625844619
 31
0.0
210
0.0
220
0.0
230
1.0
 40
0.577174
 41
3.141620288347747
 42
3.944286502110428
  0
ELLIPSE
  5
3E89
330
1F
100
AcDbEntity
  8
HEWI
 62
     7
100
AcDbEllipse
 10
577.0849799930861
 20
495.8108391152699
 30
0.0
 11
-0.25
 21
0.4330127018922194
 31
0.0
210
0.0
220
0.0
230
1.0
 40
0.5773500000000001
 41
5.497787143782357
 42
6.282834029638903
  0
ELLIPSE
  5
3E8A
330
1F
100
AcDbEntity
  8
HEWI
 62
     7
100
AcDbEllipse
 10
752.3995039930859
 20
509.94156911527
 30
0.0
 11
-0.9999999999999998
 21
-1.732050807568877
 31
0.0
210
0.0
220
0.0
230
1.0
 40
0.5773500000000001
 41
3.926990816987233
 42
5.515240436302132
  0
ELLIPSE
  5
3E8B
330
1F
100
AcDbEntity
  8
HEWI
 62
     7
100
AcDbEllipse
 10
736.8182539930858
 20
500.9172311152701
 30
0.0
 11
-20.03551939563146
 21
-0.0000000000000079
 31
-0.0000000000000116
210
-0.0000000000000006
220
0.0000000000000001
230
1.0
 40
0.5773500000000001
 41
3.153594500806899
 42
3.926990816987241
  0
ELLIPSE
  5
3E8C
330
1F
100
AcDbEntity
  8
HEWI
 62
     7
100
AcDbEllipse
 10
592.8719539930861
 20
493.8012291152701
 30
0.0
 11
-0.9999999999999998
 21
1.732050807568877
 31
0.0
210
0.0
220
0.0
230
1.0
 40
0.5773500000000001
 41
4.092161691731416
 42
5.497787143782056
  0
ELLIPSE
  5
3E8D
330
1F
100
AcDbEntity
  8
HEWI
 62
     7
100
AcDbEllipse
 10
736.8182539930858
 20
486.6641651152701
 30
0.0
 11
-34.99112015109214
 21
-0.0000000000000138
 31
-0.0000000000000202
210
-0.0000000000000006
220
0.0000000000000001
230
1.0
 40
0.5773500000000001
 41
2.356194490192343
 42
2.949980034310808
  0
ELLIPSE
  5
3E8E
330
1F
100
AcDbEntity
  8
HEWI
 62
     7
100
AcDbEllipse
 10
736.8182539930858
 20
486.6641651152701
 30
0.0
 11
-34.99112015109214
 21
-0.0000000000000138
 31
-0.0000000000000202
210
-0.0000000000000006
220
0.0000000000000001
230
1.0
 40
0.5773500000000001
 41
2.949980021099879
 42
3.153913593756838
  0
ELLIPSE
  5
3E8F
330
1F
100
AcDbEntity
  8
HEWI
 62
     7
100
AcDbEllipse
 10
736.8182539930858
 20
498.56748911527
 30
0.0
 11
34.73665086163916
 21
0.0
 31
0.0
210
0.0
220
0.0
230
1.0
 40
0.5773500000000001
 41
5.497787143782136
 42
6.295727100228423
  0
ELLIPSE
  5
3E90
330
1F
100
AcDbEntity
  8
HEWI
 62
     7
100
AcDbEllipse
 10
757.8457799930856
 20
510.63648911527
 30
0.0
 11
-2.5
 21
-4.330127018922194
 31
0.0
210
0.0
220
0.0
230
1.0
 40
0.5773500000000001
 41
3.141873263464911
 42
3.92699081698724
  0
ELLIPSE
  5
3E91
330
1F
100
AcDbEntity
  8
HEWI
 62
     7
100
AcDbEllipse
 10
761.2072119930858
 20
472.5760691152701
 30
0.0
 11
-0.25
 21
0.4330127018922194
 31
0.0
210
0.0
220
0.0
230
1.0
 40
0.5773500000000001
 41
3.141605397431088
 42
3.944444109507147
  0
ELLIPSE
  5
3E92
330
1F
100
AcDbEntity
  8
HEWI
 62
     7
100
AcDbEllipse
 10
573.4890379930857
 20
478.4920751152701
 30
0.0
 11
0.25
 21
0.4330127018922194
 31
0.0
210
0.0
220
0.0
230
1.0
 40
0.5773500000000001
 41
2.338741197672261
 42
3.141579909748239
  0
ELLIPSE
  5
3E93
330
1F
100
AcDbEntity
  8
HEWI
 62
     7
100
AcDbEllipse
 10
592.8719539930861
 20
491.7602991152699
 30
0.0
 11
-0.9999999999999998
 21
-1.732050807568877
 31
0.0
210
0.0
220
0.0
230
1.0
 40
0.5773500000000001
 41
3.141576736374005
 42
3.926990816987233
  0
ELLIPSE
  5
3E94
330
1F
100
AcDbEntity
  8
HEWI
 62
     7
100
AcDbEllipse
 10
752.3995039930859
 20
491.9498911152699
 30
0.0
 11
-0.9999999999999998
 21
1.732050807568877
 31
0.0
210
0.0
220
0.0
230
1.0
 40
0.5773500000000001
 41
5.49778714378209
 42
6.283201224395284
  0
ELLIPSE
  5
3E95
330
1F
100
AcDbEntity
  8
HEWI
 62
     7
100
AcDbEllipse
 10
592.056825993086
 20
473.4287291152699
 30
0.0
 11
-1.242075265866965
 21
2.229873937880828
 31
0.0
210
0.0
220
0.0
230
1.0
 40
0.587337
 41
0.0
 42
6.283185307179585
  0
ELLIPSE
  5
3E96
330
1F
100
AcDbEntity
  8
HEWI
 62
     7
100
AcDbEllipse
 10
757.8457799930856
 20
486.3559931152701
 30
0.0
 11
-2.5
 21
4.330127018922194
 31
0.0
210
0.0
220
0.0
230
1.0
 40
0.5773500000000001
 41
3.94444410950718
 42
5.497787143782145
  0
ELLIPSE
  5
3E97
330
1F
100
AcDbEntity
  8
HEWI
 62
     7
100
AcDbEllipse
 10
577.029437993086
 20
492.1686711152701
 30
0.0
 11
2.55792928765056
 21
4.296514298558546
 31
0.0
210
0.0
220
0.0
230
1.0
 40
0.568211
 41
0.7930093814397267
 42
2.346352415714243
  0
ELLIPSE
  5
3E98
330
1F
100
AcDbEntity
  8
HEWI
 62
     7
100
AcDbEllipse
 10
688.0527859930857
 20
454.79929711527
 30
0.0
 11
-0.9999999999999998
 21
1.732050807568877
 31
0.0
210
0.0
220
0.0
230
1.0
 40
0.5773500000000001
 41
5.49778714378209
 42
6.283150994921877
  0
ELLIPSE
  5
3E99
330
1F
100
AcDbEntity
  8
HEWI
 62
     7
100
AcDbEllipse
 10
656.8902879930861
 20
454.79929711527
 30
0.0
 11
-0.9999999999999998
 21
-1.732050807568877
 31
0.0
210
0.0
220
0.0
230
1.0
 40
0.5773500000000001
 41
3.14207210286818
 42
3.926990816987196
  0
ELLIPSE
  5
3E9A
330
1F
100
AcDbEntity
  8
HEWI
 62
     7
100
AcDbEllipse
 10
648.082577993086
 20
435.42547311527
 30
0.0
 11
0.25
 21
0.4330127018922194
 31
0.0
210
0.0
220
0.0
230
1.0
 40
0.5773500000000001
 41
2.338741197672261
 42
3.141552196935343
  0
ELLIPSE
  5
3E9B
330
1F
100
AcDbEntity
  8
HEWI
 62
     7
100
AcDbEllipse
 10
696.8604959930858
 20
435.42547311527
 30
0.0
 11
-0.25
 21
0.4330127018922194
 31
0.0
210
0.0
220
0.0
230
1.0
 40
0.5773500000000001
 41
3.14163311024432
 42
3.944444109507379
  0
ELLIPSE
  5
3E9C
330
1F
100
AcDbEntity
  8
HEWI
 62
     7
100
AcDbEllipse
 10
686.6136719930859
 20
547.51447711527
 30
0.0
 11
2.500000000000784
 21
0.0
 31
0.0
210
0.0
220
0.0
230
1.0
 40
0.577526
 41
0.7855504566453191
 42
2.356042196944464
  0
ELLIPSE
  5
3E9D
330
1F
100
AcDbEntity
  8
HEWI
 62
     7
100
AcDbEllipse
 10
736.8182539930858
 20
502.57872311527
 30
0.0
 11
22.03521478594424
 21
0.0
 31
0.0
210
0.0
220
0.0
230
1.0
 40
0.5773500000000001
 41
5.497787143782138
 42
7.068583470577033
  0
ELLIPSE
  5
3E9E
330
1F
100
AcDbEntity
  8
HEWI
 62
     7
100
AcDbEllipse
 10
672.471535993086
 20
465.4281291152701
 30
0.0
 11
22.03521478594424
 21
0.0
 31
0.0
210
0.0
220
0.0
230
1.0
 40
0.5773500000000001
 41
3.926990816987246
 42
5.497787143782131
  0
ELLIPSE
  5
3E9F
330
1F
100
AcDbEntity
  8
HEWI
 62
     7
100
AcDbEllipse
 10
594.6405279930859
 20
494.41375711527
 30
0.0
 11
2.500761582229626
 21
0.0
 31
0.0
210
0.0
220
0.0
230
1.0
 40
0.577174
 41
2.356346783440231
 42
3.926838523739342
  0
ELLIPSE
  5
3EA0
330
1F
100
AcDbEntity
  8
HEWI
 62
     7
100
AcDbEllipse
 10
736.8182539930858
 20
502.57872311527
 30
0.0
 11
-29.7374123858572
 21
-0.0000000000000117
 31
-0.0000000000000171
210
-0.0000000000000006
220
0.0000000000000001
230
1.0
 40
0.5773500000000001
 41
2.356194490192349
 42
3.926990816987241
  0
ELLIPSE
  5
3EA1
330
1F
100
AcDbEntity
  8
HEWI
 62
     7
100
AcDbEllipse
 10
672.471535993086
 20
449.5135711152699
 30
0.0
 11
-34.99112015109214
 21
-0.0000000000000138
 31
-0.0000000000000202
210
-0.0000000000000006
220
0.0000000000000001
230
1.0
 40
0.5773500000000001
 41
0.7853981633974473
 42
2.356194490192346
  0
ELLIPSE
  5
3EA2
330
1F
100
AcDbEntity
  8
HEWI
 62
     7
100
AcDbEllipse
 10
651.4440119930859
 20
449.2053991152701
 30
0.0
 11
2.5
 21
4.330127018922194
 31
0.0
210
0.0
220
0.0
230
1.0
 40
0.5773500000000001
 41
0.785398163397463
 42
2.338741197672403
  0
ELLIPSE
  5
3EA3
330
1F
100
AcDbEntity
  8
HEWI
 62
     7
100
AcDbEllipse
 10
672.471535993086
 20
461.41689511527
 30
0.0
 11
34.73665086163916
 21
0.0
 31
0.0
210
0.0
220
0.0
230
1.0
 40
0.5773500000000001
 41
3.926990816987241
 42
5.497787143782135
  0
ELLIPSE
  5
3EA4
330
1F
100
AcDbEntity
  8
HEWI
 62
     7
100
AcDbEllipse
 10
693.4990619930858
 20
449.2053991152701
 30
0.0
 11
-2.5
 21
4.330127018922194
 31
0.0
210
0.0
220
0.0
230
1.0
 40
0.5773500000000001
 41
3.944444109507168
 42
5.497787143782134
  0
ELLIPSE
  5
3EA5
330
1F
100
AcDbEntity
  8
HEWI
 62
     7
100
AcDbEllipse
 10
672.471535993086
 20
465.4281291152701
 30
0.0
 11
-29.7374123858572
 21
-0.0000000000000117
 31
-0.0000000000000171
210
-0.0000000000000006
220
0.0000000000000001
230
1.0
 40
0.5773500000000001
 41
0.7853981633974496
 42
2.356194490192344
  0
SPLINE
  5
3EA6
330
1F
100
AcDbEntity
  8
HEWI
 62
     7
100
AcDbSpline
210
0.0
220
0.0
230
1.0
 70
    12
 71
     2
 72
     6
 73
     3
 74
     0
 42
0.000000001
 43
0.0000000001
 40
0.0
 40
0.0
 40
0.0
 40
1.0
 40
1.0
 40
1.0
 10
134.3886553896391
 20
81.68855362699014
 30
0.0000000000000076
 41
0.5000022169403576
 10
134.3886566281262
 20
81.69065908840048
 30
0.0000000000000076
 41
0.4999977830596425
 10
134.3886566281262
 20
81.69276462448676
 30
0.0000000000000076
 41
0.5000022169403576
  0
SPLINE
  5
3EA7
330
1F
100
AcDbEntity
  8
HEWI
 62
     7
100
AcDbSpline
210
0.0
220
0.0
230
1.0
 70
    12
 71
     2
 72
     6
 73
     3
 74
     0
 42
0.000000001
 43
0.0000000001
 40
0.0
 40
0.0
 40
0.0
 40
1.0
 40
1.0
 40
1.0
 10
170.3543454029336
 20
81.69276462448681
 30
0.0000000000000076
 41
0.5000022198758254
 10
170.3543454029336
 20
81.69065908840162
 30
0.0000000000000076
 41
0.4999977801241747
 10
170.3543466414203
 20
81.68855362699019
 30
0.0000000000000076
 41
0.5000022198758254
  0
SPLINE
  5
3EA8
330
1F
100
AcDbEntity
  8
HEWI
 62
     7
100
AcDbSpline
210
0.0
220
0.0
230
1.0
 70
    12
 71
     2
 72
     6
 73
     3
 74
     0
 42
0.000000001
 43
0.0000000001
 40
0.0
 40
0.0
 40
0.0
 40
1.0
 40
1.0
 40
1.0
 10
169.8546512279108
 20
81.68434262949352
 30
0.0000000000000076
 41
0.5000022162102368
 10
169.8546499894237
 20
81.68855355231306
 30
0.0000000000000076
 41
0.4999977837897632
 10
169.8546499894237
 20
81.69276462448676
 30
0.0000000000000076
 41
0.5000022162102368
  0
SPLINE
  5
3EA9
330
1F
100
AcDbEntity
  8
HEWI
 62
     7
100
AcDbSpline
210
0.0
220
0.0
230
1.0
 70
    12
 71
     2
 72
     6
 73
     3
 74
     0
 42
0.000000001
 43
0.0000000001
 40
0.0
 40
0.0
 40
0.0
 40
1.0
 40
1.0
 40
1.0
 10
134.8883520416357
 20
81.69276462448676
 30
0.0000000000000076
 41
0.5000022155173008
 10
134.8883520416357
 20
81.68855355231887
 30
0.0000000000000076
 41
0.4999977844826994
 10
134.888350803149
 20
81.68434262949352
 30
0.0000000000000076
 41
0.5000022155173008
  0
SPLINE
  5
3EAA
330
1F
100
AcDbEntity
  8
HEWI
 62
     7
100
AcDbSpline
210
0.0
220
0.0
230
1.0
 70
     8
 71
     3
 72
    11
 73
     7
 74
     0
 42
0.000000001
 43
0.0000000001
 40
0.0
 40
0.0
 40
0.0
 40
0.0
 40
0.1193641642867689
 40
0.4689576190525755
 40
0.9446239321571995
 40
1.0
 40
1.0
 40
1.0
 40
1.0
 10
135.0115423133557
 20
81.52532194476549
 30
0.0000000000000076
 10
135.0115242703973
 20
81.52539661280014
 30
0.0000000000000076
 10
135.0133070614388
 20
81.51590273941554
 30
0.0000000000000076
 10
135.0212630820538
 20
81.444038696446
 30
0.0000000000000076
 10
135.029625456707
 20
81.34624715471074
 30
0.0000000000000076
 10
135.0340518473185
 20
81.24882227405203
 30
0.0000000000000076
 10
135.0345117722145
 20
81.23838102439378
 30
0.0000000000000076
  0
SPLINE
  5
3EAB
330
1F
100
AcDbEntity
  8
HEWI
 62
     7
100
AcDbSpline
210
0.0
220
0.0
230
1.0
 70
     8
 71
     3
 72
    11
 73
     7
 74
     0
 42
0.000000001
 43
0.0000000001
 40
0.0
 40
0.0
 40
0.0
 40
0.0
 40
0.3075831191244157
 40
0.6990215302960592
 40
0.949392143370186
 40
1.0
 40
1.0
 40
1.0
 40
1.0
 10
169.7003852694556
 20
81.05902623289603
 30
0.0000000000000076
 10
169.7037007156073
 20
81.14426294835864
 30
0.0000000000000076
 10
169.7112894384413
 20
81.31258359035474
 30
0.0000000000000076
 10
169.723238516598
 20
81.46338623868734
 30
0.0000000000000076
 10
169.7303000849433
 20
81.52021491577636
 30
0.0000000000000076
 10
169.7315413616516
 20
81.52536050846663
 30
0.0000000000000076
 10
169.7315876800767
 20
81.52543279846055
 30
0.0000000000000076
  0
SPLINE
  5
3EAC
330
1F
100
AcDbEntity
  8
HEWI
 62
     7
100
AcDbSpline
210
-0.0000000000000039
220
0.0000000000000026
230
1.0
 70
     8
 71
     3
 72
    21
 73
    17
 74
     0
 42
0.000000001
 43
0.0000000001
 40
0.0
 40
0.0
 40
0.0
 40
0.0
 40
0.0453810480308052
 40
0.1263896613965055
 40
0.2072896045836949
 40
0.2874959498915117
 40
0.3666588165546453
 40
0.4444838031540468
 40
0.5207758299137691
 40
0.5954582829468523
 40
0.6685646568775235
 40
0.7402136893148917
 40
0.8105809792448845
 40
0.8798753719586176
 40
0.9483228567469586
 40
1.0
 40
1.0
 40
1.0
 40
1.0
 10
755.3332880894649
 20
238.7636766447265
 30
-0.0000000000000142
 10
755.6546027748567
 20
238.9490722639763
 30
-0.0000000000000142
 10
756.5366019434163
 20
239.4782656913685
 30
-0.0000000000000142
 10
757.9264299708033
 20
240.4047486719699
 30
-0.0000000000000142
 10
759.4566878300893
 20
241.5750646751143
 30
-0.0000000000000284
 10
760.8768865470637
 20
242.8242773372204
 30
0.0
 10
762.1750682982797
 20
244.1436422255344
 30
-0.0000000000000142
 10
763.3429091083971
 20
245.5243345448705
 30
-0.0000000000000142
 10
764.3745004603406
 20
246.9569972138527
 30
0.0
 10
765.2663478410832
 20
248.4323679696903
 30
0.0000000000000142
 10
766.0170286486532
 20
249.941661487835
 30
-0.0000000000000142
 10
766.626324441917
 20
251.4766471432951
 30
-0.0000000000000284
 10
767.0958243780751
 20
253.0296570678061
 30
-0.0000000000000426
 10
767.4245277871104
 20
254.5931811378923
 30
0.0000000000000284
 10
767.6077644496144
 20
256.0376512215068
 30
0.0
 10
767.6411174739614
 20
256.9583983980059
 30
0.0
 10
767.6413906018687
 20
257.3558482827502
 30
-0.0000000000000142
  0
SPLINE
  5
3EAD
330
1F
100
AcDbEntity
  8
HEWI
 62
     7
100
AcDbSpline
210
-0.0000000000000003
220
-0.0000000000000064
230
1.0
 70
     8
 71
     3
 72
    31
 73
    27
 74
     0
 42
0.000000001
 43
0.0000000001
 40
0.0
 40
0.0
 40
0.0
 40
0.0
 40
0.0251194703732284
 40
0.0695673164776227
 40
0.1140009247527909
 40
0.1584115095843308
 40
0.2027328690240135
 40
0.246929727972254
 40
0.2909906467425304
 40
0.3349213723704157
 40
0.3787393576207803
 40
0.4224697021933162
 40
0.4661423501038441
 40
0.5097902408701459
 40
0.5534481083481598
 40
0.5971430612255646
 40
0.640907945706923
 40
0.6847786734081835
 40
0.7287900139259863
 40
0.7729741684207277
 40
0.8173585279720514
 40
0.8619622287574173
 40
0.9067910984208548
 40
0.9518307290586504
 40
0.9942469162497435
 40
1.0
 40
1.0
 40
1.0
 40
1.0
 10
649.7945405733275
 20
204.0159923292403
 30
-0.0000000000000284
 10
650.1139504481916
 20
203.8316799860838
 30
-0.0000000000000284
 10
651.0097357240802
 20
203.3337314597178
 30
-0.0000000000000142
 10
652.5304193985452
 20
202.5744321776964
 30
-0.0000000000000568
 10
654.3797562550821
 20
201.7714111018007
 30
-0.0000000000000142
 10
656.2930670607674
 20
201.0539571022815
 30
-0.0000000000000568
 10
658.262170217461
 20
200.4227905980715
 30
-0.0000000000000284
 10
660.2784875760066
 20
199.8784927523427
 30
-0.0000000000000284
 10
662.3340739533787
 20
199.4212272593853
 30
-0.0000000000000426
 10
664.4215292875879
 20
199.0509340072364
 30
0.0000000000000142
 10
666.5338397833598
 20
198.7674623243683
 30
0.0
 10
668.6642583517377
 20
198.5706497386782
 30
-0.0000000000000284
 10
670.8062125314868
 20
198.4603656768573
 30
-0.0000000000000284
 10
672.9532437823873
 20
198.4365346640452
 30
-0.0000000000000568
 10
675.0988285917474
 20
198.4991462005321
 30
-0.0000000000000142
 10
677.2364461755964
 20
198.6482415209564
 30
-0.0000000000000142
 10
679.3596254990371
 20
198.8839218690667
 30
-0.0000000000000284
 10
681.4620684062893
 20
199.2063957138473
 30
-0.0000000000000284
 10
683.5375268889038
 20
199.6160064224592
 30
-0.0000000000000426
 10
685.5796906685991
 20
200.1132415162419
 30
-0.0000000000000426
 10
687.5820962541801
 20
200.6987309545524
 30
-0.0000000000000568
 10
689.5379827165575
 20
201.3732091987862
 30
-0.0000000000000142
 10
691.4401314497626
 20
202.1374324421555
 30
-0.0000000000000142
 10
693.2425140315845
 20
202.974301664681
 30
-0.0000000000000426
 10
694.4613635848595
 20
203.6223205302048
 30
0.0
 10
695.0754120392721
 20
203.9737793129033
 30
-0.0000000000000426
 10
695.1485334096787
 20
204.0159923292403
 30
-0.0000000000000142
  0
SPLINE
  5
3EAE
330
1F
100
AcDbEntity
  8
HEWI
 62
     7
100
AcDbSpline
210
0.0000000000000217
220
-0.0000000000001781
230
1.0
 70
     8
 71
     3
 72
    13
 73
     9
 74
     0
 42
0.000000001
 43
0.0000000001
 40
0.0
 40
0.0
 40
0.0
 40
0.0
 40
0.1004606433483377
 40
0.2815561435115235
 40
0.4620860672989647
 40
0.6426160348177211
 40
0.8248096209160522
 40
1.0
 40
1.0
 40
1.0
 40
1.0
 10
688.9818483177442
 20
541.0587142595743
 30
-0.0000000000001136
 10
688.9083005140073
 20
541.1008742727154
 30
-0.0000000000000568
 10
688.6935687266168
 20
541.2074344066843
 30
-0.0000000000000568
 10
688.2927886185379
 20
541.3302476187461
 30
-0.0000000000000284
 10
687.7835361853749
 20
541.3909337825548
 30
-0.0000000000000284
 10
687.2661258517796
 20
541.3661001748066
 30
-0.0000000000000284
 10
686.7786194204968
 20
541.2570736160214
 30
-0.0000000000000852
 10
686.4969470584314
 20
541.1325384977208
 30
-0.0000000000000284
 10
686.3669088029318
 20
541.0587142595743
 30
-0.0000000000000568
  0
SPLINE
  5
3EAF
330
1F
100
AcDbEntity
  8
HEWI
 62
     7
100
AcDbSpline
210
0.0000000000000134
220
0.0000000000000176
230
1.0
 70
     8
 71
     3
 72
    15
 73
    11
 74
     0
 42
0.000000001
 43
0.0000000001
 40
0.0
 40
0.0
 40
0.0
 40
0.0
 40
0.0822246181504225
 40
0.2252657354497234
 40
0.3691164770904319
 40
0.5137289555179413
 40
0.6589438525779329
 40
0.8045664407604775
 40
0.9504208332356565
 40
1.0
 40
1.0
 40
1.0
 40
1.0
 10
755.1724307463859
 20
500.2785345298268
 30
-0.0000000000000568
 10
755.1153868342043
 20
500.45454452405
 30
0.0
 10
754.9364643132557
 20
500.9321227358715
 30
-0.0000000000000568
 10
754.5232223718617
 20
501.6930699665699
 30
-0.0000000000001136
 10
753.9319800937555
 20
502.5536849467305
 30
-0.0000000000000852
 10
753.2159573431131
 20
503.3815818351057
 30
-0.0000000000000852
 10
752.3845917922926
 20
504.1713225387652
 30
-0.0000000000000852
 10
751.4427261670602
 20
504.9166985559051
 30
-0.0000000000000568
 10
750.6275986468467
 20
505.4592018909095
 30
-0.0000000000000852
 10
750.132641527899
 20
505.7532907318302
 30
-0.0000000000000852
 10
750.0052092987535
 20
505.8268603703329
 30
-0.0000000000000852
  0
SPLINE
  5
3EB0
330
1F
100
AcDbEntity
  8
HEWI
 62
     7
100
AcDbSpline
210
-0.0000000000000737
220
-0.0000000000002133
230
1.0
 70
     8
 71
     3
 72
    13
 73
     9
 74
     0
 42
0.000000001
 43
0.0000000001
 40
0.0
 40
0.0
 40
0.0
 40
0.0
 40
0.1138910607044893
 40
0.3301088423541837
 40
0.5464771801009917
 40
0.7587905822405512
 40
0.9631040813892788
 40
1.0
 40
1.0
 40
1.0
 40
1.0
 10
731.4307131971763
 20
484.896662784429
 30
0.0
 10
731.3244314645235
 20
484.9581230052169
 30
-0.0000000000000284
 10
731.0164106692718
 20
485.1204535343512
 30
-0.0000000000000852
 10
730.5036777526502
 20
485.3156615028419
 30
0.0
 10
729.9058742609531
 20
485.423199414403
 30
0.0
 10
729.345785254286
 20
485.3857140294564
 30
-0.0000000000000284
 10
728.9569481802796
 20
485.2854707560199
 30
-0.0000000000000284
 10
728.7851267493087
 20
485.1709443754713
 30
-0.0000000000000284
 10
728.759328871155
 20
485.1524083082448
 30
-0.0000000000001422
  0
SPLINE
  5
3EB1
330
1F
100
AcDbEntity
  8
HEWI
 62
     7
100
AcDbSpline
210
0.0000000000004089
220
-0.0000000000012053
230
-1.0
 70
     8
 71
     3
 72
     9
 73
     5
 74
     0
 42
0.000000001
 43
0.0000000001
 40
0.0
 40
0.0
 40
0.0
 40
0.0
 40
0.6103963290810273
 40
1.0
 40
1.0
 40
1.0
 40
1.0
 10
703.6565127825733
 20
466.5810478763721
 30
-0.0000000000001136
 10
703.6537603234874
 20
466.5508483320338
 30
-0.0000000000000852
 10
703.6538085508632
 20
466.517407799406
 30
-0.000000000000038
 10
703.6452577710011
 20
466.5078698050415
 30
-0.00000000000003
 10
703.6455052101833
 20
466.5085015255851
 30
-0.000000000000029
  0
SPLINE
  5
3EB2
330
1F
100
AcDbEntity
  8
HEWI
 62
     7
100
AcDbSpline
210
-0.0000000000000622
220
0.0000000000000163
230
1.0
 70
     8
 71
     3
 72
    13
 73
     9
 74
     0
 42
0.000000001
 43
0.0000000001
 40
0.0
 40
0.0
 40
0.0
 40
0.0
 40
0.1129173624429674
 40
0.3262894064365723
 40
0.5392331070737693
 40
0.7474962041196834
 40
0.9480284114400252
 40
1.0
 40
1.0
 40
1.0
 40
1.0
 10
743.6423352594088
 20
471.8956741385285
 30
-0.0000000000001136
 10
743.7472319838607
 20
471.9561305996073
 30
-0.0000000000000852
 10
744.0365111821815
 20
472.1393260117096
 30
-0.0000000000001136
 10
744.4525278346527
 20
472.4841911520193
 30
0.0
 10
744.8311022815023
 20
472.9488450845771
 30
-0.0000000000000568
 10
745.0663723339267
 20
473.4541060227101
 30
-0.0000000000000852
 10
745.1625801302634
 20
473.8549356591936
 30
-0.0000000000000284
 10
745.1436363584084
 20
474.0740809543344
 30
-0.0000000000000852
 10
745.137549030122
 20
474.1193419002372
 30
-0.0000000000000568
  0
SPLINE
  5
3EB3
330
1F
100
AcDbEntity
  8
HEWI
 62
     7
100
AcDbSpline
210
0.0000000000000273
220
0.0000000000000339
230
1.0
 70
     8
 71
     3
 72
    13
 73
     9
 74
     0
 42
0.000000001
 43
0.0000000001
 40
0.0
 40
0.0
 40
0.0
 40
0.0
 40
0.1168267083460128
 40
0.3244887427308459
 40
0.5350358490752772
 40
0.7523181481965575
 40
0.9696186171340396
 40
1.0
 40
1.0
 40
1.0
 40
1.0
 10
745.0593967885042
 20
475.857918281066
 30
-0.0000000000000284
 10
745.0595334927425
 20
475.9525268692147
 30
-0.0000000000000568
 10
745.0378707244281
 20
476.2112146656597
 30
-0.0000000000000568
 10
744.8787933127314
 20
476.6235199474309
 30
-0.0000000000001136
 10
744.5889197667956
 20
477.0738135994676
 30
-0.0000000000000568
 10
744.185047162648
 20
477.4817407750769
 30
-0.0000000000000852
 10
743.8269414417927
 20
477.7368919247648
 30
-0.0000000000000568
 10
743.618767684511
 20
477.859891206355
 30
-0.0000000000000568
 10
743.5929498335849
 20
477.8747921884504
 30
-0.0000000000000568
  0
SPLINE
  5
3EB4
330
1F
100
AcDbEntity
  8
HEWI
 62
     7
100
AcDbSpline
210
-0.0000000000001399
220
-0.0000000000004756
230
1.0
 70
     8
 71
     3
 72
    11
 73
     7
 74
     0
 42
0.000000001
 43
0.0000000001
 40
0.0
 40
0.0
 40
0.0
 40
0.0
 40
0.0821247253319377
 40
0.4085512561941621
 40
0.6974544331779794
 40
1.0
 40
1.0
 40
1.0
 40
1.0
 10
706.4785315295121
 20
468.8053353540428
 30
-0.0000000000001422
 10
706.4896793340813
 20
468.8152060471847
 30
-0.0000000000000852
 10
706.5492386788664
 20
468.8592454841111
 30
-0.0000000000000284
 10
706.6799606007752
 20
468.8789375082882
 30
-0.0000000000000568
 10
706.9353981153222
 20
468.8505401427955
 30
-0.0000000000000568
 10
707.1338499384405
 20
468.7608605625177
 30
-0.0000000000000284
 10
707.2457521267097
 20
468.6995493768119
 30
-0.0000000000000852
  0
SPLINE
  5
3EB5
330
1F
100
AcDbEntity
  8
HEWI
 62
     7
100
AcDbSpline
210
0.0000000000001133
220
-0.0000000000000425
230
1.0
 70
     8
 71
     3
 72
    13
 73
     9
 74
     0
 42
0.000000001
 43
0.0000000001
 40
0.0
 40
0.0
 40
0.0
 40
0.0
 40
0.0936143126993066
 40
0.2952094347645213
 40
0.4989272472079274
 40
0.707931789672093
 40
0.9223069281692509
 40
1.0
 40
1.0
 40
1.0
 40
1.0
 10
704.8996779805311
 20
471.3666716364093
 30
-0.0000000000000852
 10
704.827553460479
 20
471.3279446876221
 30
-0.0000000000000852
 10
704.611326881461
 20
471.1913074400326
 30
-0.0000000000000568
 10
704.3146822981853
 20
470.8583578866589
 30
-0.0000000000000284
 10
704.0281481090046
 20
470.3787220736209
 30
-0.0000000000000284
 10
703.8323823473633
 20
469.8109247687388
 30
-0.0000000000000852
 10
703.7514391671488
 20
469.3090866870311
 30
-0.0000000000001422
 10
703.7342748364245
 20
469.0022318403284
 30
-0.0000000000000568
 10
703.7318429700244
 20
468.9194402545412
 30
-0.0000000000000568
  0
SPLINE
  5
3EB6
330
1F
100
AcDbEntity
  8
HEWI
 62
     7
100
AcDbSpline
210
-0.0000000000000173
220
0.0000000000000353
230
1.0
 70
     8
 71
     3
 72
    17
 73
    13
 74
     0
 42
0.000000001
 43
0.0000000001
 40
0.0
 40
0.0
 40
0.0
 40
0.0
 40
0.0589249960336313
 40
0.1693891592210066
 40
0.2796083401129782
 40
0.3895381105382434
 40
0.4992762526278763
 40
0.608996636221236
 40
0.7188662473424574
 40
0.8290627676826694
 40
0.9397953944695981
 40
1.0
 40
1.0
 40
1.0
 40
1.0
 10
719.3875711817509
 20
461.6894668769322
 30
-0.0000000000001136
 10
719.4920650649783
 20
461.6292351400146
 30
-0.0000000000000568
 10
719.8027039254148
 20
461.4655022665217
 30
0.0
 10
720.3696722794229
 20
461.2382062514295
 30
-0.0000000000000852
 10
721.1019364005255
 20
461.0422432931763
 30
-0.0000000000000568
 10
721.8759860599138
 20
460.922910367262
 30
-0.0000000000001136
 10
722.6708108756615
 20
460.8825567356056
 30
-0.0000000000000284
 10
723.4656351450758
 20
460.9218477737021
 30
-0.0000000000001136
 10
724.2398898233018
 20
461.0400848587177
 30
-0.0000000000000852
 10
724.9733030147699
 20
461.2351143996101
 30
-0.0000000000000852
 10
725.5441684365646
 20
461.4628930992366
 30
-0.0000000000000852
 10
725.8578885557899
 20
461.6279224863767
 30
-0.0000000000000284
 10
725.9646657297452
 20
461.689466876932
 30
0.0
  0
SPLINE
  5
3EB7
330
1F
100
AcDbEntity
  8
HEWI
 62
     7
100
AcDbSpline
210
-0.0000000000000075
220
-0.0000000000000372
230
1.0
 70
     8
 71
     3
 72
    13
 73
     9
 74
     0
 42
0.000000001
 43
0.0000000001
 40
0.0
 40
0.0
 40
0.0
 40
0.0
 40
0.1678259712015429
 40
0.3554886668736409
 40
0.5458785896799043
 40
0.7423811312613648
 40
0.9447079066277169
 40
1.0
 40
1.0
 40
1.0
 40
1.0
 10
686.0040510397588
 20
557.8795646563585
 30
-0.0000000000000284
 10
685.8749770657104
 20
557.9609725647083
 30
-0.0000000000000568
 10
685.588559656453
 20
558.0985128356473
 30
-0.0000000000000284
 10
685.095123483145
 20
558.191800333881
 30
0.0
 10
684.5523351957053
 20
558.1722727005852
 30
-0.0000000000000284
 10
683.9816620547617
 20
558.0348062724509
 30
-0.0000000000000284
 10
683.5389141560117
 20
557.8430193095791
 30
-0.0000000000000284
 10
683.290110008309
 20
557.7057709982073
 30
-0.0000000000000284
 10
683.2367490715223
 20
557.6749423241365
 30
-0.0000000000000568
  0
SPLINE
  5
3EB8
330
1F
100
AcDbEntity
  8
HEWI
 62
     7
100
AcDbSpline
210
-0.0000000000000228
220
0.0000000000000236
230
1.0
 70
     8
 71
     3
 72
    18
 73
    14
 74
     0
 42
0.000000001
 43
0.0000000001
 40
0.0
 40
0.0
 40
0.0
 40
0.0
 40
0.0546194941849896
 40
0.1583249114104646
 40
0.2620556826270091
 40
0.3657756932919665
 40
0.4694612281463522
 40
0.5730805802398555
 40
0.6765942176339089
 40
0.77995696490615
 40
0.8831231149706322
 40
0.9860548429712688
 40
1.0
 40
1.0
 40
1.0
 40
1.0
 10
761.4572128769305
 20
472.1430556444404
 30
-0.0000000000000568
 10
761.7255225356744
 20
472.2979627133533
 30
0.0
 10
762.4902561211434
 20
472.7540651486212
 30
-0.0000000000000852
 10
763.6953545466894
 20
473.5439940848329
 30
0.0
 10
765.0249395214141
 20
474.5322341071248
 30
0.0
 10
766.2485458926966
 20
475.56754784356
 30
-0.0000000000000852
 10
767.3610100192886
 20
476.6460056849941
 30
-0.0000000000000284
 10
768.3581325932473
 20
477.7635152645377
 30
-0.0000000000000284
 10
769.2347223605352
 20
478.9158531404672
 30
-0.0000000000000284
 10
769.9911959001442
 20
480.0979027761547
 30
-0.0000000000000852
 10
770.6094927283393
 20
481.3066039883605
 30
-0.0000000000000568
 10
770.989700113033
 20
482.1785114014589
 30
-0.0000000000000284
 10
771.1284914712632
 20
482.6497713216719
 30
-0.0000000000000568
 10
771.1444539272815
 20
482.7060863108342
 30
-0.0000000000000852
  0
SPLINE
  5
3EB9
330
1F
100
AcDbEntity
  8
HEWI
 62
     7
100
AcDbSpline
210
0.0
220
0.0
230
1.0
 70
     8
 71
     3
 72
    17
 73
    13
 74
     0
 42
0.000000001
 43
0.0000000001
 40
0.0
 40
0.0
 40
0.0
 40
0.0
 40
0.0582000970663226
 40
0.1675675213698718
 40
0.2766579570551074
 40
0.3854457174751664
 40
0.4940371352110839
 40
0.6026001330360482
 40
0.7112938592247188
 40
0.8202832395822076
 40
0.929769121397606
 40
1.0
 40
1.0
 40
1.0
 40
1.0
 10
576.8349800775858
 20
496.2438523532347
 30
-0.0000000000000568
 10
576.7288423929366
 20
496.1824830307447
 30
-0.0000000000000568
 10
576.4259534744001
 20
495.9923308357369
 30
-0.0000000000000568
 10
575.9345174746822
 20
495.6105716118949
 30
-0.0000000000000852
 10
575.3828977198541
 20
495.0693904060221
 30
-0.0000000000000568
 10
574.8743754465103
 20
494.4537858181122
 30
-0.0000000000000568
 10
574.4214049283491
 20
493.7802183936693
 30
-0.0000000000000568
 10
574.034983536324
 20
493.0657775624307
 30
-0.0000000000000284
 10
573.7249266091176
 20
492.3280824423222
 30
-0.0000000000000284
 10
573.4997355144569
 20
491.5852868830747
 30
-0.0000000000000568
 10
573.3824502679608
 20
490.9423640705874
 30
-0.0000000000000284
 10
573.3537434531185
 20
490.5585637012651
 30
-0.0000000000000852
 10
573.349140205646
 20
490.4105087491477
 30
-0.0000000000000568
  0
SPLINE
  5
3EBA
330
1F
100
AcDbEntity
  8
HEWI
 62
     7
100
AcDbSpline
210
-0.0000000000000017
220
-0.0000000000000065
230
1.0
 70
     8
 71
     3
 72
    17
 73
    13
 74
     0
 42
0.000000001
 43
0.0000000001
 40
0.0
 40
0.0
 40
0.0
 40
0.0
 40
0.1012019910409802
 40
0.2135989657480915
 40
0.3234758807906201
 40
0.4298006654151538
 40
0.5330780658728013
 40
0.6342448651770159
 40
0.7341203170617656
 40
0.8332945008989607
 40
0.9321583571918349
 40
1.0
 40
1.0
 40
1.0
 40
1.0
 10
756.8469331111905
 20
501.0567007950971
 30
-0.0000000000000284
 10
756.855049282462
 20
500.8062736140661
 30
-0.0000000000000284
 10
756.8325953923867
 20
500.2758912743724
 30
-0.0000000000000284
 10
756.670798131809
 20
499.4689140076838
 30
-0.0000000000000852
 10
756.3752399335667
 20
498.6388233600407
 30
-0.0000000000000284
 10
755.9545461404182
 20
497.8242118074512
 30
0.0
 10
755.4157158470725
 20
497.0304996535539
 30
-0.0000000000000568
 10
754.7626463184078
 20
496.2601946254643
 30
-0.0000000000000852
 10
753.9980275815391
 20
495.5157256410877
 30
-0.0000000000000568
 10
753.1247277379793
 20
494.8008378817561
 30
-0.0000000000000568
 10
752.2477825331343
 20
494.1906366509132
 30
-0.0000000000000852
 10
751.6506173155485
 20
493.8270333048614
 30
0.0
 10
751.3995038795224
 20
493.681942480734
 30
-0.0000000000000852
  0
SPLINE
  5
3EBB
330
1F
100
AcDbEntity
  8
HEWI
 62
     7
100
AcDbSpline
210
0.0000000000000094
220
0.000000000000003
230
1.0
 70
     8
 71
     3
 72
    21
 73
    17
 74
     0
 42
0.000000001
 43
0.0000000001
 40
0.0
 40
0.0
 40
0.0
 40
0.0
 40
0.0213672499657085
 40
0.0934836570503481
 40
0.1656144237514615
 40
0.2380666717702976
 40
0.3111242144436196
 40
0.3850305781522945
 40
0.4599712269517278
 40
0.5360566732472862
 40
0.6133104621697667
 40
0.6916671866913246
 40
0.7709843052207847
 40
0.8510671028592774
 40
0.9317006750570479
 40
1.0
 40
1.0
 40
1.0
 40
1.0
 10
771.5383976679468
 20
498.8199609751183
 30
-0.0000000000000852
 10
771.5410193326724
 20
498.9583213741686
 30
-0.0000000000000852
 10
771.5408862673307
 20
499.5630266320953
 30
0.0
 10
771.4192161158121
 20
500.631599769381
 30
-0.0000000000000568
 10
771.1608842252172
 20
502.0141036129029
 30
-0.0000000000000284
 10
770.7665455840379
 20
503.3775986665011
 30
-0.0000000000000284
 10
770.247769527466
 20
504.7188201482774
 30
-0.0000000000000852
 10
769.6024991192589
 20
506.0345570809322
 30
-0.0000000000000568
 10
768.8320071975322
 20
507.3213540176968
 30
-0.0000000000000852
 10
767.9367505236796
 20
508.5752588397294
 30
-0.0000000000000568
 10
766.9180800111544
 20
509.7916784674695
 30
-0.0000000000000284
 10
765.7783896318782
 20
510.9654037469394
 30
-0.0000000000000568
 10
764.5214732673334
 20
512.0908407475501
 30
-0.0000000000000568
 10
763.1527913512591
 20
513.1623143001887
 30
-0.0000000000000568
 10
761.7557920586246
 20
514.1215350013704
 30
-0.0000000000000568
 10
760.7966198229155
 20
514.7064759138668
 30
-0.0000000000000284
 10
760.3457800324595
 20
514.9666154850151
 30
-0.0000000000000284
  0
SPLINE
  5
3EBC
330
1F
100
AcDbEntity
  8
HEWI
 62
     7
100
AcDbSpline
210
0.000000000000001
220
0.0000000000000203
230
1.0
 70
     8
 71
     3
 72
    28
 73
    24
 74
     0
 42
0.000000001
 43
0.0000000001
 40
0.0
 40
0.0
 40
0.0
 40
0.0
 40
0.0256908378506599
 40
0.0748756601313243
 40
0.1241479284021186
 40
0.1735123638041115
 40
0.2229730161624071
 40
0.2725248706767156
 40
0.322157471327237
 40
0.3718572207511899
 40
0.4216087921986264
 40
0.4713959578170651
 40
0.5212020424265363
 40
0.5710101475258039
 40
0.6207980149427858
 40
0.6705481442492156
 40
0.7202435059076054
 40
0.7698673475886243
 40
0.8194036580380547
 40
0.8688380126403114
 40
0.9181590102782827
 40
0.9673606009069459
 40
1.0
 40
1.0
 40
1.0
 40
1.0
 10
687.0527867915462
 20
456.5313480485226
 30
-0.0000000000000852
 10
686.8617879231342
 20
456.4210462895841
 30
-0.0000000000000568
 10
686.293197863914
 20
456.105877212065
 30
-0.0000000000000284
 10
685.2901631740087
 20
455.6120339957471
 30
-0.0000000000001136
 10
684.0119465510524
 20
455.0758646584294
 30
-0.0000000000000568
 10
682.6554178427236
 20
454.5949810003437
 30
-0.0000000000000568
 10
681.2295817983254
 20
454.1737826970574
 30
-0.0000000000000852
 10
679.7438093166033
 20
453.8159707400277
 30
-0.0000000000000568
 10
678.208078415857
 20
453.524719315299
 30
-0.0000000000000852
 10
676.6327911318221
 20
453.3025986094378
 30
-0.0000000000000852
 10
675.0286858958816
 20
453.1515702470693
 30
-0.0000000000000852
 10
673.4067366253202
 20
453.0729747690549
 30
-0.0000000000000852
 10
671.7780652868127
 20
453.0675276558057
 30
0.0
 10
670.1539147906105
 20
453.1353138219541
 30
-0.0000000000000852
 10
668.5455140298195
 20
453.2757757083968
 30
-0.0000000000000852
 10
666.9639873752507
 20
453.487710962667
 30
-0.0000000000000568
 10
665.4202186777807
 20
453.7692829350123
 30
-0.0000000000000852
 10
663.9248135959178
 20
454.1180208909302
 30
-0.0000000000000568
 10
662.488033423468
 20
454.5308037024414
 30
-0.0000000000000284
 10
661.1196188980829
 20
455.0039144936858
 30
-0.0000000000000568
 10
659.8289587094723
 20
455.5328514307138
 30
-0.0000000000000568
 10
658.7581729893895
 20
456.0484386230229
 30
-0.0000000000000568
 10
658.1330511541459
 20
456.3911421866841
 30
-0.0000000000000852
 10
657.8902871914597
 20
456.5313480485226
 30
-0.0000000000000568
  0
SPLINE
  5
3EBD
330
1F
100
AcDbEntity
  8
HEWI
 62
     7
100
AcDbSpline
210
0.0
220
0.0000000000000048
230
1.0
 70
     8
 71
     3
 72
    33
 73
    29
 74
     0
 42
0.000000001
 43
0.0000000001
 40
0.0
 40
0.0
 40
0.0
 40
0.0
 40
0.0207087185622616
 40
0.0600132156776676
 40
0.09931483808468
 40
0.1386094163822826
 40
0.177896040293813
 40
0.2171745407043722
 40
0.2564452564056876
 40
0.2957088653338028
 40
0.3349662658793838
 40
0.3742184957590342
 40
0.4134666782180389
 40
0.4527119876189586
 40
0.491955628402051
 40
0.5311988228896883
 40
0.5704426830311161
 40
0.6096881591494892
 40
0.6489364957156498
 40
0.6881889357710844
 40
0.7274467109757805
 40
0.7667110242081201
 40
0.8059830204304494
 40
0.8452637402434348
 40
0.8845540486911792
 40
0.9238545295608775
 40
0.9631653328511376
 40
1.0
 40
1.0
 40
1.0
 40
1.0
 10
647.8325781940521
 20
434.992461212229
 30
-0.0000000000000852
 10
648.1008487850631
 20
434.8375830471497
 30
-0.0000000000000852
 10
648.89005074654
 20
434.3964936312051
 30
-0.0000000000000284
 10
650.2544415520105
 20
433.7027145953729
 30
-0.0000000000000852
 10
651.9572607311929
 20
432.9391181410321
 30
-0.0000000000000284
 10
653.7369785800938
 20
432.2381316153898
 30
-0.0000000000000568
 10
655.5867207816199
 20
431.6023333124637
 30
-0.0000000000000568
 10
657.4995559968774
 20
431.0339711041241
 30
-0.0000000000000852
 10
659.4682981293486
 20
430.5350718157469
 30
-0.0000000000001136
 10
661.4855774177172
 20
430.1074095354366
 30
0.0
 10
663.5438503367695
 20
429.7525071543873
 30
-0.0000000000000284
 10
665.6354280540345
 20
429.4716290071058
 30
-0.0000000000000568
 10
667.7525018159622
 20
429.2657764455489
 30
-0.0000000000000852
 10
669.8871707280286
 20
429.1356835721542
 30
-0.0000000000000852
 10
672.0314701181382
 20
429.0818141501748
 30
-0.0000000000000568
 10
674.1773984127176
 20
429.1043595799144
 30
-0.0000000000001136
 10
676.3169435587478
 20
429.2032375569187
 30
-0.0000000000000568
 10
678.4421181657663
 20
429.3780919724325
 30
-0.0000000000000852
 10
680.5449915411818
 20
429.6282951288487
 30
-0.0000000000000568
 10
682.6177217268409
 20
429.952951869502
 30
-0.0000000000001422
 10
684.6525791332456
 20
430.3509038796816
 30
-0.0000000000000568
 10
686.641972898049
 20
430.8207345771092
 30
-0.0000000000000568
 10
688.5784823548642
 20
431.3607782245814
 30
-0.0000000000000284
 10
690.4548636419031
 20
431.9691181699781
 30
-0.0000000000000568
 10
692.2641418187445
 20
432.6436295617877
 30
-0.0000000000000852
 10
693.9993748839956
 20
433.381858359554
 30
-0.0000000000001136
 10
695.6197401706063
 20
434.1646551780467
 30
-0.0000000000001422
 10
696.6329467633818
 20
434.7167909903234
 30
-0.0000000000000852
 10
697.1104957889543
 20
434.992461212229
 30
-0.0000000000000852
  0
ENDSEC
  0
SECTION
  2
OBJECTS
  0
DICTIONARY
  5
C
330
0
100
AcDbDictionary
281
     1
  3
ACAD_CIP_PREVIOUS_PRODUCT_INFO
350
1421
  3
ACAD_COLOR
350
1406
  3
ACAD_DETAILVIEWSTYLE
350
141D
  3
ACAD_GROUP
350
D
  3
ACAD_LAYOUT
350
1A
  3
ACAD_MATERIAL
350
3B
  3
ACAD_MLEADERSTYLE
350
13F9
  3
ACAD_MLINESTYLE
350
17
  3
ACAD_PLOTSETTINGS
350
19
  3
ACAD_PLOTSTYLENAME
350
E
  3
ACAD_SCALELIST
350
1408
  3
ACAD_SECTIONVIEWSTYLE
350
141B
  3
ACAD_TABLESTYLE
350
13F8
  3
ACAD_VISUALSTYLE
350
2A
  3
ACDB_RECOMPOSE_DATA
350
3F75
  3
AcDbVariableDictionary
350
171F
  0
DICTIONARY
  5
1559
330
2
100
AcDbDictionary
280
     1
281
     1
  3
ACAD_LAYERSTATES
360
155A
  0
DICTIONARY
  5
14CA
330
10
100
AcDbDictionary
280
     1
281
     1
  3
ADSK_XREC_LAYER_RECONCILED
360
14CB
  0
DICTIONARY
  5
1666
330
1F
100
AcDbDictionary
280
     1
281
     1
  3
ACAD_SORTENTS
360
1667
  0
XRECORD
  5
1421
102
{ACAD_REACTORS
330
C
102
}
330
C
100
AcDbXrecord
280
     1
300
ACDLT
300
2021
300
ACDLT_F_S
  0
DICTIONARY
  5
1406
102
{ACAD_REACTORS
330
C
102
}
330
C
100
AcDbDictionary
281
     1
  0
DICTIONARY
  5
141D
102
{ACAD_REACTORS
330
C
102
}
330
C
100
AcDbDictionary
281
     1
  3
Imperial24
350
1424
  3
Metric50
350
141E
  0
DICTIONARY
  5
D
102
{ACAD_REACTORS
330
C
102
}
330
C
100
AcDbDictionary
281
     1
  0
DICTIONARY
  5
1A
102
{ACAD_REACTORS
330
C
102
}
330
C
100
AcDbDictionary
281
     1
  3
Layout1
350
1E
  3
Layout2
350
26
  3
Model
350
22
  0
DICTIONARY
  5
3B
102
{ACAD_REACTORS
330
C
102
}
330
C
100
AcDbDictionary
281
     1
  3
BYBLOCK
350
3D
  3
BYLAYER
350
3C
  3
Global
350
3E
  0
DICTIONARY
  5
13F9
102
{ACAD_REACTORS
330
C
102
}
330
C
100
AcDbDictionary
281
     1
  3
Standard
350
141A
  0
DICTIONARY
  5
17
102
{ACAD_REACTORS
330
C
102
}
330
C
100
AcDbDictionary
281
     1
  3
Standard
350
18
  0
DICTIONARY
  5
19
102
{ACAD_REACTORS
330
C
102
}
330
C
100
AcDbDictionary
281
     1
  0
ACDBDICTIONARYWDFLT
  5
E
102
{ACAD_REACTORS
330
C
102
}
330
C
100
AcDbDictionary
281
     1
  3
Normal
350
F
100
AcDbDictionaryWithDefault
340
F
  0
DICTIONARY
  5
1408
102
{ACAD_REACTORS
330
C
102
}
330
C
100
AcDbDictionary
281
     1
  3
A0
350
1409
  3
A1
350
140A
  3
A2
350
140B
  3
A3
350
140C
  3
A4
350
140D
  3
A5
350
140E
  3
A6
350
140F
  3
A7
350
1410
  3
A8
350
1411
  3
A9
350
1412
  3
B0
350
1413
  3
B1
350
1414
  3
B2
350
1415
  3
B3
350
1416
  3
B4
350
1417
  3
B5
350
1418
  3
B6
350
1419
  0
DICTIONARY
  5
141B
102
{ACAD_REACTORS
330
C
102
}
330
C
100
AcDbDictionary
281
     1
  3
Imperial24
350
1423
  3
Metric50
350
141C
  0
DICTIONARY
  5
13F8
102
{ACAD_REACTORS
330
C
102
}
330
C
100
AcDbDictionary
281
     1
  3
Standard
350
1407
  0
DICTIONARY
  5
2A
102
{ACAD_REACTORS
330
C
102
}
330
C
100
AcDbDictionary
281
     1
  3
2dWireframe
350
2F
  3
3D Hidden
350
31
  3
3dWireframe
350
30
  3
Basic
350
32
  3
Brighten
350
36
  3
ColorChange
350
3A
  3
Conceptual
350
34
  3
Dim
350
35
  3
EdgeColorOff
350
1405
  3
Facepattern
350
39
  3
Flat
350
2B
  3
FlatWithEdges
350
2C
  3
Gouraud
350
2D
  3
GouraudWithEdges
350
2E
  3
Hidden
350
13FD
  3
JitterOff
350
1403
  3
Linepattern
350
38
  3
OverhangOff
350
1404
  3
Realistic
350
33
  3
Shaded
350
1402
  3
Shaded with edges
350
1401
  3
Shades of Gray
350
13FE
  3
Sketchy
350
13FF
  3
Thicken
350
37
  3
Wireframe
350
13FC
  3
X-Ray
350
1400
  0
XRECORD
  5
3F75
102
{ACAD_REACTORS
330
C
102
}
330
C
100
AcDbXrecord
280
     1
 90
        1
330
1407
  0
DICTIONARY
  5
171F
102
{ACAD_REACTORS
330
C
102
}
330
C
100
AcDbDictionary
281
     1
  3
CANNOSCALE
350
1725
  3
CMLEADERSTYLE
350
1721
  3
CTABLESTYLE
350
1720
  3
CVIEWDETAILSTYLE
350
1722
  3
CVIEWSECTIONSTYLE
350
1723
  3
LAYEREVAL
350
1727
  3
LAYERNOTIFY
350
1728
  3
LIGHTINGUNITS
350
1726
  3
MSLTSCALE
350
1724
  0
DICTIONARY
  5
155A
102
{ACAD_REACTORS
330
1559
102
}
330
1559
100
AcDbDictionary
281
     1
  0
XRECORD
  5
14CB
102
{ACAD_REACTORS
330
14CA
102
}
330
14CA
100
AcDbXrecord
280
     1
290
     1
  0
SORTENTSTABLE
  5
1667
102
{ACAD_REACTORS
330
1666
102
}
330
1666
100
AcDbSortentsTable
330
1F
331
1671
  5
1670
331
1672
  5
166F
  0
ACDBDETAILVIEWSTYLE
  5
1424
102
{ACAD_XDICTIONARY
360
3F7C
102
}
102
{ACAD_REACTORS
330
141D
102
}
330
141D
100
AcDbModelDocViewStyle
 70
     0
  3
Imperial24
290
     0
100
AcDbDetailViewStyle
 70
     0
 71
     0
 90
        3
 71
     1
340
11
 62
   256
 40
0.24
340
0
 62
   256
 40
0.24
300

 40
0.36
280
     3
 71
     2
340
16
 90
       25
 62
   256
 71
     3
340
11
 62
   256
 40
0.24
 90
        1
 40
0.75
 90
        1
300
%<\AcVar ViewType \f "%tc1">% %<\AcVar ViewDetailId>%\PVARIA %<\AcVar ViewScale \f "%sn">%
 71
     4
340
16
 90
       25
 62
   256
340
16
 90
       25
 62
   256
280
     0
  0
ACDBDETAILVIEWSTYLE
  5
141E
102
{ACAD_XDICTIONARY
360
3F78
102
}
102
{ACAD_REACTORS
330
141D
102
}
330
141D
100
AcDbModelDocViewStyle
 70
     0
  3
Metric50
290
     0
100
AcDbDetailViewStyle
 70
     0
 71
     0
 90
        3
 71
     1
340
11
 62
   256
 40
5.0
340
0
 62
   256
 40
5.0
300

 40
0.0
280
     1
 71
     2
340
16
 90
       25
 62
   256
 71
     3
340
11
 62
   256
 40
5.0
 90
        0
 40
15.0
 90
        1
300
%<\AcVar ViewDetailId>% (%<\AcVar ViewScale \f "%sn">%)
 71
     4
340
16
 90
       25
 62
   256
340
16
 90
       25
 62
   256
280
     0
  0
LAYOUT
  5
1E
102
{ACAD_REACTORS
330
1A
102
}
330
1A
100
AcDbPlotSettings
  1

  2
none_device
  4

  6

 40
0.0
 41
0.0
 42
0.0
 43
0.0
 44
0.0
 45
0.0
 46
0.0
 47
0.0
 48
0.0
 49
0.0
140
0.0
141
0.0
142
1.0
143
1.0
 70
   688
 72
     0
 73
     0
 74
     5
  7

 75
    16
147
1.0
 76
     0
 77
     2
 78
   300
148
0.0
149
0.0
100
AcDbLayout
  1
Layout1
 70
     1
 71
     1
 10
-0.5
 20
-0.5
 11
5.0
 21
5.0
 12
0.0
 22
0.0
 32
0.0
 14
-0.5
 24
-0.5
 34
-0.5
 15
5.0
 25
5.0
 35
5.0
146
0.0
 13
0.0
 23
0.0
 33
0.0
 16
1.0
 26
0.0
 36
0.0
 17
0.0
 27
1.0
 37
0.0
 76
     0
330
1B
  0
LAYOUT
  5
26
102
{ACAD_REACTORS
330
1A
102
}
330
1A
100
AcDbPlotSettings
  1

  2
none_device
  4

  6

 40
0.0
 41
0.0
 42
0.0
 43
0.0
 44
0.0
 45
0.0
 46
0.0
 47
0.0
 48
0.0
 49
0.0
140
0.0
141
0.0
142
1.0
143
1.0
 70
   688
 72
     0
 73
     0
 74
     5
  7

 75
    16
147
1.0
 76
     0
 77
     2
 78
   300
148
0.0
149
0.0
100
AcDbLayout
  1
Layout2
 70
     1
 71
     2
 10
0.0
 20
0.0
 11
0.0
 21
0.0
 12
0.0
 22
0.0
 32
0.0
 14
0.0
 24
0.0
 34
0.0
 15
0.0
 25
0.0
 35
0.0
146
0.0
 13
0.0
 23
0.0
 33
0.0
 16
1.0
 26
0.0
 36
0.0
 17
0.0
 27
1.0
 37
0.0
 76
     0
330
23
  0
LAYOUT
  5
22
102
{ACAD_REACTORS
330
1A
102
}
330
1A
100
AcDbPlotSettings
  1

  2
none_device
  4

  6

 40
0.0
 41
0.0
 42
0.0
 43
0.0
 44
0.0
 45
0.0
 46
0.0
 47
0.0
 48
0.0
 49
0.0
140
0.0
141
0.0
142
1.0
143
1.0
 70
  1712
 72
     0
 73
     0
 74
     0
  7

 75
     0
147
1.0
 76
     0
 77
     2
 78
   300
148
0.0
149
0.0
100
AcDbLayout
  1
Model
 70
     1
 71
     0
 10
-0.5
 20
-0.5
 11
5.0
 21
5.0
 12
0.0
 22
0.0
 32
0.0
 14
-0.5
 24
-0.5
 34
-0.5
 15
5.0
 25
5.0
 35
5.0
146
0.0
 13
0.0
 23
0.0
 33
0.0
 16
1.0
 26
0.0
 36
0.0
 17
0.0
 27
1.0
 37
0.0
 76
     0
330
1F
331
13C2
  0
MATERIAL
  5
3D
102
{ACAD_XDICTIONARY
360
13F4
102
}
102
{ACAD_REACTORS
330
3B
102
}
330
3B
100
AcDbMaterial
  1
BYBLOCK
  0
MATERIAL
  5
3C
102
{ACAD_XDICTIONARY
360
13F2
102
}
102
{ACAD_REACTORS
330
3B
102
}
330
3B
100
AcDbMaterial
  1
BYLAYER
  0
MATERIAL
  5
3E
102
{ACAD_XDICTIONARY
360
13F6
102
}
102
{ACAD_REACTORS
330
3B
102
}
330
3B
100
AcDbMaterial
  1
Global
  0
MLEADERSTYLE
  5
141A
102
{ACAD_REACTORS
330
13F9
102
}
330
13F9
100
AcDbMLeaderStyle
179
     2
170
     2
171
     1
172
     0
 90
        2
 40
0.0
 41
0.0
173
     1
 91
-1056964608
340
14
 92
       -2
290
     1
 42
2.0
291
     1
 43
0.36
  3
Standard
 44
4.0
300

342
11
174
     1
178
     6
175
     1
176
     0
 93
-1056964608
 45
4.0
292
     0
297
     0
 46
4.0
 94
-1056964608
 47
1.0
 49
1.0
140
1.0
293
     1
141
0.0
294
     1
177
     0
142
1.0
295
     0
296
     0
143
0.125
271
     0
272
     9
273
     9
298
     0
  0
MLINESTYLE
  5
18
102
{ACAD_REACTORS
330
17
102
}
330
17
100
AcDbMlineStyle
  2
STANDARD
 70
     0
  3

 62
   256
 51
90.0
 52
90.0
 71
     2
 49
0.5
 62
   256
  6
BYLAYER
 49
-0.5
 62
   256
  6
BYLAYER
  0
ACDBPLACEHOLDER
  5
F
102
{ACAD_REACTORS
330
E
102
}
330
E
  0
SCALE
  5
1409
102
{ACAD_REACTORS
330
1408
102
}
330
1408
100
AcDbScale
 70
     0
300
1:1
140
1.0
141
1.0
290
     1
  0
SCALE
  5
140A
102
{ACAD_REACTORS
330
1408
102
}
330
1408
100
AcDbScale
 70
     0
300
1:2
140
1.0
141
2.0
290
     0
  0
SCALE
  5
140B
102
{ACAD_REACTORS
330
1408
102
}
330
1408
100
AcDbScale
 70
     0
300
1:4
140
1.0
141
4.0
290
     0
  0
SCALE
  5
140C
102
{ACAD_REACTORS
330
1408
102
}
330
1408
100
AcDbScale
 70
     0
300
1:5
140
1.0
141
5.0
290
     0
  0
SCALE
  5
140D
102
{ACAD_REACTORS
330
1408
102
}
330
1408
100
AcDbScale
 70
     0
300
1:8
140
1.0
141
8.0
290
     0
  0
SCALE
  5
140E
102
{ACAD_REACTORS
330
1408
102
}
330
1408
100
AcDbScale
 70
     0
300
1:10
140
1.0
141
10.0
290
     0
  0
SCALE
  5
140F
102
{ACAD_REACTORS
330
1408
102
}
330
1408
100
AcDbScale
 70
     0
300
1:16
140
1.0
141
16.0
290
     0
  0
SCALE
  5
1410
102
{ACAD_REACTORS
330
1408
102
}
330
1408
100
AcDbScale
 70
     0
300
1:20
140
1.0
141
20.0
290
     0
  0
SCALE
  5
1411
102
{ACAD_REACTORS
330
1408
102
}
330
1408
100
AcDbScale
 70
     0
300
1:30
140
1.0
141
30.0
290
     0
  0
SCALE
  5
1412
102
{ACAD_REACTORS
330
1408
102
}
330
1408
100
AcDbScale
 70
     0
300
1:40
140
1.0
141
40.0
290
     0
  0
SCALE
  5
1413
102
{ACAD_REACTORS
330
1408
102
}
330
1408
100
AcDbScale
 70
     0
300
1:50
140
1.0
141
50.0
290
     0
  0
SCALE
  5
1414
102
{ACAD_REACTORS
330
1408
102
}
330
1408
100
AcDbScale
 70
     0
300
1:100
140
1.0
141
100.0
290
     0
  0
SCALE
  5
1415
102
{ACAD_REACTORS
330
1408
102
}
330
1408
100
AcDbScale
 70
     0
300
2:1
140
2.0
141
1.0
290
     0
  0
SCALE
  5
1416
102
{ACAD_REACTORS
330
1408
102
}
330
1408
100
AcDbScale
 70
     0
300
4:1
140
4.0
141
1.0
290
     0
  0
SCALE
  5
1417
102
{ACAD_REACTORS
330
1408
102
}
330
1408
100
AcDbScale
 70
     0
300
8:1
140
8.0
141
1.0
290
     0
  0
SCALE
  5
1418
102
{ACAD_REACTORS
330
1408
102
}
330
1408
100
AcDbScale
 70
     0
300
10:1
140
10.0
141
1.0
290
     0
  0
SCALE
  5
1419
102
{ACAD_REACTORS
330
1408
102
}
330
1408
100
AcDbScale
 70
     0
300
100:1
140
100.0
141
1.0
290
     0
  0
ACDBSECTIONVIEWSTYLE
  5
1423
102
{ACAD_XDICTIONARY
360
3F7A
102
}
102
{ACAD_REACTORS
330
141B
102
}
330
141B
100
AcDbModelDocViewStyle
 70
     0
  3
Imperial24
290
     0
100
AcDbSectionViewStyle
 70
     0
 71
     0
 90
       78
 71
     1
340
11
 62
   256
 40
0.24
340
0
340
0
 62
   256
 40
0.24
300
I, O, Q, S, X, Z
 40
0.48
 90
        3
 40
0.18
 90
        1
 71
     2
340
16
 90
       25
 62
   256
340
16
 90
       50
 62
   256
 40
0.24
 40
0.0
 40
0.24
 71
     3
340
11
 62
   256
 40
0.24
 90
        1
 40
0.75
 90
        1
300
%<\AcVar ViewType \f "%tc1">% %<\AcVar ViewSectionStartId>%-%<\AcVar ViewSectionEndId>%\PVARIA %<\AcVar ViewScale \f "%sn">%
 71
     4
 62
   256
 62
   257
300
ANSI31
 40
1.0
 90
        0
290
     0
290
     0
 90
        6
 40
0.0
 40
1.570796326794896
 40
0.2617993877991494
 40
1.308996938995747
 40
-0.2617993877991494
 40
1.832595714594044
  0
ACDBSECTIONVIEWSTYLE
  5
141C
102
{ACAD_XDICTIONARY
360
3F76
102
}
102
{ACAD_REACTORS
330
141B
102
}
330
141B
100
AcDbModelDocViewStyle
 70
     0
  3
Metric50
290
     0
100
AcDbSectionViewStyle
 70
     0
 71
     0
 90
      102
 71
     1
340
11
 62
   256
 40
5.0
340
0
340
0
 62
   256
 40
5.0
300
I, O, Q, S, X, Z
 40
10.0
 90
        0
 40
2.5
 90
        0
 71
     2
340
16
 90
       25
 62
   256
340
16
 90
       50
 62
   256
 40
5.0
 40
2.5
 40
5.0
 71
     3
340
11
 62
   256
 40
5.0
 90
        0
 40
15.0
 90
        1
300
%<\AcVar ViewSectionStartId>%-%<\AcVar ViewSectionEndId>% (%<\AcVar ViewScale \f "%sn">%)
 71
     4
 62
   256
 62
   257
300
ANSI31
 40
1.0
 90
        0
290
     0
290
     0
 90
        6
 40
0.0
 40
1.570796326794896
 40
0.2617993877991494
 40
1.308996938995747
 40
-0.2617993877991494
 40
1.832595714594044
  0
TABLESTYLE
  5
1407
102
{ACAD_XDICTIONARY
360
1749
102
}
102
{ACAD_REACTORS
330
13F8
102
}
330
13F8
100
AcDbTableStyle
280
     0
  3
Standard
 70
     0
 71
     0
 40
1.5
 41
1.5
280
     0
281
     0
  7
Standard
140
4.5
170
     2
 62
     0
 63
     7
283
     0
 90
      512
 91
        0
  1

274
    -2
284
     1
 64
     0
275
    -2
285
     1
 65
     0
276
    -2
286
     1
 66
     0
277
    -2
287
     1
 67
     0
278
    -2
288
     1
 68
     0
279
    -2
289
     1
 69
     0
  7
Standard
140
6.0
170
     5
 62
     0
 63
     7
283
     0
 90
      512
 91
        0
  1

274
    -2
284
     1
 64
     0
275
    -2
285
     1
 65
     0
276
    -2
286
     1
 66
     0
277
    -2
287
     1
 67
     0
278
    -2
288
     1
 68
     0
279
    -2
289
     1
 69
     0
  7
Standard
140
4.5
170
     5
 62
     0
 63
     7
283
     0
 90
      512
 91
        0
  1

274
    -2
284
     1
 64
     0
275
    -2
285
     1
 65
     0
276
    -2
286
     1
 66
     0
277
    -2
287
     1
 67
     0
278
    -2
288
     1
 68
     0
279
    -2
289
     1
 69
     0
  0
VISUALSTYLE
  5
2F
102
{ACAD_REACTORS
330
2A
102
}
330
2A
100
AcDbVisualStyle
  2

 70
     4
177
     3
291
     0
 70
    58
 90
        0
176
     1
 90
        2
176
     1
 90
        0
176
     1
 90
        0
176
     1
 40
0.6
176
     1
 40
30.0
176
     1
 62
     7
420
 16777215
176
     1
 90
        1
176
     1
 90
        4
176
     1
 62
     7
176
     1
 62
   257
176
     1
 90
        1
176
     1
 90
        1
176
     1
 40
1.0
176
     1
 90
        0
176
     1
 62
   257
176
     1
 40
1.0
176
     1
 90
        1
176
     1
 90
        6
176
     1
 90
        2
176
     1
 62
     7
176
     1
 90
        5
176
     1
 90
        0
176
     1
 90
        0
176
     1
290
     0
176
     1
 90
        1
176
     1
 40
0.0
176
     1
 90
        0
176
     1
290
     1
176
     1
290
     1
176
     1
290
     0
176
     1
290
     0
176
     1
290
     0
176
     1
290
     0
176
     1
290
     0
176
     1
290
     0
176
     1
290
     0
176
     1
 90
       50
176
     1
 40
0.0
176
     1
 40
1.0
176
     1
 90
        0
176
     1
 62
    18
176
     1
 90
       50
176
     1
 90
        3
176
     1
 62
     5
420
      255
176
     1
290
     0
176
     1
 90
       50
176
     1
 90
       50
176
     1
 90
       50
176
     1
290
     0
176
     1
 90
       50
176
     1
 62
   256
176
     0
 40
1.0
176
     0
 90
        2
176
     1
  1
strokes_ogs.tif
176
     1
290
     0
176
     1
 40
1.0
176
     1
 40
1.0
176
     1
1001
ACAD
1000
AcDbSavedByObjectVersion
1070
     0
  0
VISUALSTYLE
  5
31
102
{ACAD_REACTORS
330
2A
102
}
330
2A
100
AcDbVisualStyle
  2

 70
     6
177
     3
291
     0
 70
    58
 90
        1
176
     1
 90
        2
176
     1
 90
        2
176
     1
 90
        0
176
     1
 40
0.6
176
     1
 40
30.0
176
     1
 62
     7
420
 16777215
176
     1
 90
        2
176
     1
 90
        2
176
     1
 62
     7
176
     1
 62
   257
176
     1
 90
        2
176
     1
 90
        1
176
     1
 40
40.0
176
     1
 90
        0
176
     1
 62
   257
176
     1
 40
1.0
176
     1
 90
        1
176
     1
 90
        6
176
     1
 90
        2
176
     1
 62
     7
176
     1
 90
        3
176
     1
 90
        0
176
     1
 90
        0
176
     1
290
     0
176
     1
 90
        1
176
     1
 40
0.0
176
     1
 90
        0
176
     1
290
     0
176
     1
290
     1
176
     1
290
     1
176
     1
290
     0
176
     1
290
     0
176
     1
290
     0
176
     1
290
     0
176
     1
290
     0
176
     1
290
     0
176
     1
 90
       50
176
     1
 40
0.0
176
     1
 40
1.0
176
     1
 90
        0
176
     1
 62
    18
176
     1
 90
       50
176
     1
 90
        3
176
     1
 62
     5
420
      255
176
     1
290
     0
176
     1
 90
       50
176
     1
 90
       50
176
     1
 90
       50
176
     1
290
     0
176
     1
 90
       50
176
     1
 62
   256
176
     0
 40
1.0
176
     0
 90
        2
176
     1
  1
strokes_ogs.tif
176
     1
290
     0
176
     1
 40
1.0
176
     1
 40
1.0
176
     1
1001
ACAD
1000
AcDbSavedByObjectVersion
1070
     0
  0
VISUALSTYLE
  5
30
102
{ACAD_REACTORS
330
2A
102
}
330
2A
100
AcDbVisualStyle
  2

 70
     5
177
     3
291
     0
 70
    58
 90
        0
176
     1
 90
        2
176
     1
 90
        0
176
     1
 90
        0
176
     1
 40
0.6
176
     1
 40
30.0
176
     1
 62
     7
420
 16777215
176
     1
 90
        1
176
     1
 90
        4
176
     1
 62
     7
176
     1
 62
   257
176
     1
 90
        1
176
     1
 90
        1
176
     1
 40
1.0
176
     1
 90
        0
176
     1
 62
   257
176
     1
 40
1.0
176
     1
 90
        1
176
     1
 90
        6
176
     1
 90
        2
176
     1
 62
     7
176
     1
 90
        5
176
     1
 90
        0
176
     1
 90
        0
176
     1
290
     0
176
     1
 90
        1
176
     1
 40
0.0
176
     1
 90
        0
176
     1
290
     0
176
     1
290
     1
176
     1
290
     1
176
     1
290
     0
176
     1
290
     0
176
     1
290
     0
176
     1
290
     0
176
     1
290
     0
176
     1
290
     0
176
     1
 90
       50
176
     1
 40
0.0
176
     1
 40
1.0
176
     1
 90
        0
176
     1
 62
    18
176
     1
 90
       50
176
     1
 90
        3
176
     1
 62
     5
420
      255
176
     1
290
     0
176
     1
 90
       50
176
     1
 90
       50
176
     1
 90
       50
176
     1
290
     0
176
     1
 90
       50
176
     1
 62
   256
176
     0
 40
1.0
176
     0
 90
        2
176
     1
  1
strokes_ogs.tif
176
     1
290
     0
176
     1
 40
1.0
176
     1
 40
1.0
176
     1
1001
ACAD
1000
AcDbSavedByObjectVersion
1070
     0
  0
VISUALSTYLE
  5
32
102
{ACAD_REACTORS
330
2A
102
}
330
2A
100
AcDbVisualStyle
  2

 70
     7
177
     3
291
     1
 70
    58
 90
        1
176
     1
 90
        0
176
     1
 90
        1
176
     1
 90
        0
176
     1
 40
0.6
176
     1
 40
30.0
176
     1
 62
     7
420
 16777215
176
     1
 90
        0
176
     1
 90
        4
176
     1
 62
     7
176
     1
 62
   257
176
     1
 90
        1
176
     1
 90
        1
176
     1
 40
1.0
176
     1
 90
        8
176
     1
 62
     7
176
     1
 40
1.0
176
     1
 90
        1
176
     1
 90
        6
176
     1
 90
        2
176
     1
 62
     7
176
     1
 90
        5
176
     1
 90
        0
176
     1
 90
        0
176
     1
290
     0
176
     1
 90
        1
176
     1
 40
0.0
176
     1
 90
        0
176
     1
290
     0
176
     1
290
     1
176
     1
290
     1
176
     1
290
     0
176
     1
290
     0
176
     1
290
     0
176
     1
290
     0
176
     1
290
     0
176
     1
290
     0
176
     1
 90
       50
176
     1
 40
0.0
176
     1
 40
1.0
176
     1
 90
        0
176
     1
 62
    18
176
     1
 90
       50
176
     1
 90
        3
176
     1
 62
     5
420
      255
176
     1
290
     0
176
     1
 90
       50
176
     1
 90
       50
176
     1
 90
       50
176
     1
290
     0
176
     1
 90
       50
176
     1
 62
   256
176
     0
 40
1.0
176
     0
 90
        2
176
     1
  1
strokes_ogs.tif
176
     1
290
     0
176
     1
 40
1.0
176
     1
 40
1.0
176
     1
1001
ACAD
1000
AcDbSavedByObjectVersion
1070
     0
  0
VISUALSTYLE
  5
36
102
{ACAD_REACTORS
330
2A
102
}
330
2A
100
AcDbVisualStyle
  2

 70
    12
177
     3
291
     1
 70
    58
 90
        2
176
     1
 90
        2
176
     1
 90
        0
176
     1
 90
        0
176
     1
 40
0.6
176
     1
 40
30.0
176
     1
 62
     7
420
 16777215
176
     1
 90
        1
176
     1
 90
        4
176
     1
 62
     7
176
     1
 62
   257
176
     1
 90
        1
176
     1
 90
        1
176
     1
 40
1.0
176
     1
 90
        8
176
     1
 62
     7
176
     1
 40
1.0
176
     1
 90
        1
176
     1
 90
        6
176
     1
 90
        2
176
     1
 62
     7
176
     1
 90
        5
176
     1
 90
        0
176
     1
 90
        0
176
     1
290
     0
176
     1
 90
        1
176
     1
 40
50.0
176
     1
 90
        0
176
     1
290
     0
176
     1
290
     1
176
     1
290
     1
176
     1
290
     0
176
     1
290
     0
176
     1
290
     0
176
     1
290
     0
176
     1
290
     0
176
     1
290
     0
176
     1
 90
       50
176
     1
 40
0.0
176
     1
 40
1.0
176
     1
 90
        0
176
     1
 62
    18
176
     1
 90
       50
176
     1
 90
        3
176
     1
 62
     5
420
      255
176
     1
290
     0
176
     1
 90
       50
176
     1
 90
       50
176
     1
 90
       50
176
     1
290
     0
176
     1
 90
       50
176
     1
 62
   256
176
     0
 40
1.0
176
     0
 90
        2
176
     1
  1
strokes_ogs.tif
176
     1
290
     0
176
     1
 40
1.0
176
     1
 40
1.0
176
     1
1001
ACAD
1000
AcDbSavedByObjectVersion
1070
     0
  0
VISUALSTYLE
  5
3A
102
{ACAD_REACTORS
330
2A
102
}
330
2A
100
AcDbVisualStyle
  2

 70
    16
177
     3
291
     1
 70
    58
 90
        2
176
     1
 90
        2
176
     1
 90
        3
176
     1
 90
        0
176
     1
 40
0.6
176
     1
 40
30.0
176
     1
 62
     8
420
  8421504
176
     1
 90
        1
176
     1
 90
        4
176
     1
 62
     7
176
     1
 62
   257
176
     1
 90
        1
176
     1
 90
        1
176
     1
 40
1.0
176
     1
 90
        8
176
     1
 62
     8
420
  8421504
176
     1
 40
1.0
176
     1
 90
        1
176
     1
 90
        6
176
     1
 90
        2
176
     1
 62
     7
176
     1
 90
        5
176
     1
 90
        0
176
     1
 90
        0
176
     1
290
     0
176
     1
 90
        1
176
     1
 40
0.0
176
     1
 90
        0
176
     1
290
     0
176
     1
290
     1
176
     1
290
     1
176
     1
290
     0
176
     1
290
     0
176
     1
290
     0
176
     1
290
     0
176
     1
290
     0
176
     1
290
     0
176
     1
 90
       50
176
     1
 40
0.0
176
     1
 40
1.0
176
     1
 90
        0
176
     1
 62
    18
176
     1
 90
       50
176
     1
 90
        3
176
     1
 62
     5
420
      255
176
     1
290
     0
176
     1
 90
       50
176
     1
 90
       50
176
     1
 90
       50
176
     1
290
     0
176
     1
 90
       50
176
     1
 62
   256
176
     0
 40
1.0
176
     0
 90
        2
176
     1
  1
strokes_ogs.tif
176
     1
290
     0
176
     1
 40
1.0
176
     1
 40
1.0
176
     1
1001
ACAD
1000
AcDbSavedByObjectVersion
1070
     0
  0
VISUALSTYLE
  5
34
102
{ACAD_REACTORS
330
2A
102
}
330
2A
100
AcDbVisualStyle
  2

 70
     9
177
     3
291
     0
 70
    58
 90
        3
176
     1
 90
        2
176
     1
 90
        0
176
     1
 90
        0
176
     1
 40
0.6
176
     1
 40
30.0
176
     1
 62
     7
420
 16777215
176
     1
 90
        2
176
     1
 90
        2
176
     1
 62
     7
176
     1
 62
   257
176
     1
 90
        1
176
     1
 90
        1
176
     1
 40
40.0
176
     1
 90
        8
176
     1
 62
     7
176
     1
 40
1.0
176
     1
 90
        1
176
     1
 90
        6
176
     1
 90
        2
176
     1
 62
     7
176
     1
 90
        3
176
     1
 90
        0
176
     1
 90
        0
176
     1
290
     0
176
     1
 90
        1
176
     1
 40
0.0
176
     1
 90
        0
176
     1
290
     0
176
     1
290
     1
176
     1
290
     1
176
     1
290
     0
176
     1
290
     0
176
     1
290
     0
176
     1
290
     0
176
     1
290
     0
176
     1
290
     0
176
     1
 90
       50
176
     1
 40
0.0
176
     1
 40
1.0
176
     1
 90
        0
176
     1
 62
    18
176
     1
 90
       50
176
     1
 90
        3
176
     1
 62
     5
420
      255
176
     1
290
     0
176
     1
 90
       50
176
     1
 90
       50
176
     1
 90
       50
176
     1
290
     0
176
     1
 90
       50
176
     1
 62
   256
176
     0
 40
1.0
176
     0
 90
        2
176
     1
  1
strokes_ogs.tif
176
     1
290
     0
176
     1
 40
1.0
176
     1
 40
1.0
176
     1
1001
ACAD
1000
AcDbSavedByObjectVersion
1070
     0
  0
VISUALSTYLE
  5
35
102
{ACAD_REACTORS
330
2A
102
}
330
2A
100
AcDbVisualStyle
  2

 70
    11
177
     3
291
     1
 70
    58
 90
        2
176
     1
 90
        2
176
     1
 90
        0
176
     1
 90
        0
176
     1
 40
0.6
176
     1
 40
30.0
176
     1
 62
     7
420
 16777215
176
     1
 90
        1
176
     1
 90
        4
176
     1
 62
     7
176
     1
 62
   257
176
     1
 90
        1
176
     1
 90
        1
176
     1
 40
1.0
176
     1
 90
        8
176
     1
 62
     7
176
     1
 40
1.0
176
     1
 90
        1
176
     1
 90
        6
176
     1
 90
        2
176
     1
 62
     7
176
     1
 90
        5
176
     1
 90
        0
176
     1
 90
        0
176
     1
290
     0
176
     1
 90
        1
176
     1
 40
-50.0
176
     1
 90
        0
176
     1
290
     0
176
     1
290
     1
176
     1
290
     1
176
     1
290
     0
176
     1
290
     0
176
     1
290
     0
176
     1
290
     0
176
     1
290
     0
176
     1
290
     0
176
     1
 90
       50
176
     1
 40
0.0
176
     1
 40
1.0
176
     1
 90
        0
176
     1
 62
    18
176
     1
 90
       50
176
     1
 90
        3
176
     1
 62
     5
420
      255
176
     1
290
     0
176
     1
 90
       50
176
     1
 90
       50
176
     1
 90
       50
176
     1
290
     0
176
     1
 90
       50
176
     1
 62
   256
176
     0
 40
1.0
176
     0
 90
        2
176
     1
  1
strokes_ogs.tif
176
     1
290
     0
176
     1
 40
1.0
176
     1
 40
1.0
176
     1
1001
ACAD
1000
AcDbSavedByObjectVersion
1070
     0
  0
VISUALSTYLE
  5
1405
102
{ACAD_REACTORS
330
2A
102
}
330
2A
100
AcDbVisualStyle
  2
EdgeColorOff
 70
    22
177
     3
291
     1
 70
    58
 90
        2
176
     0
 90
        2
176
     0
 90
        0
176
     0
 90
        0
176
     0
 40
0.6
176
     0
 40
30.0
176
     0
 62
     7
420
 16777215
176
     0
 90
        1
176
     0
 90
        4
176
     0
 62
     7
176
     0
 62
   257
176
     0
 90
        1
176
     0
 90
        1
176
     0
 40
1.0
176
     0
 90
        8
176
     2
 62
     7
176
     0
 40
1.0
176
     0
 90
        1
176
     0
 90
        6
176
     0
 90
        2
176
     0
 62
     7
176
     0
 90
        5
176
     0
 90
        0
176
     0
 90
        0
176
     0
290
     0
176
     0
 90
        1
176
     0
 40
0.0
176
     0
 90
        0
176
     0
290
     0
176
     1
290
     1
176
     1
290
     1
176
     1
290
     0
176
     1
290
     0
176
     1
290
     0
176
     1
290
     0
176
     1
290
     0
176
     1
290
     0
176
     1
 90
       50
176
     0
 40
0.0
176
     0
 40
1.0
176
     0
 90
        0
176
     0
 62
    18
176
     0
 90
       50
176
     0
 90
        3
176
     0
 62
     5
420
      255
176
     0
290
     0
176
     1
 90
       50
176
     0
 90
       50
176
     0
 90
       50
176
     0
290
     0
176
     1
 90
       50
176
     0
 62
   256
176
     0
 40
1.0
176
     0
 90
        2
176
     0
  1
strokes_ogs.tif
176
     0
290
     0
176
     1
 40
1.0
176
     0
 40
1.0
176
     0
1001
ACAD
1000
AcDbSavedByObjectVersion
1070
     0
  0
VISUALSTYLE
  5
39
102
{ACAD_REACTORS
330
2A
102
}
330
2A
100
AcDbVisualStyle
  2

 70
    15
177
     3
291
     1
 70
    58
 90
        2
176
     1
 90
        2
176
     1
 90
        0
176
     1
 90
        0
176
     1
 40
0.6
176
     1
 40
30.0
176
     1
 62
     7
420
 16777215
176
     1
 90
        1
176
     1
 90
        4
176
     1
 62
     7
176
     1
 62
   257
176
     1
 90
        1
176
     1
 90
        1
176
     1
 40
1.0
176
     1
 90
        8
176
     1
 62
     7
176
     1
 40
1.0
176
     1
 90
        1
176
     1
 90
        6
176
     1
 90
        2
176
     1
 62
     7
176
     1
 90
        5
176
     1
 90
        0
176
     1
 90
        0
176
     1
290
     0
176
     1
 90
        1
176
     1
 40
0.0
176
     1
 90
        0
176
     1
290
     0
176
     1
290
     1
176
     1
290
     1
176
     1
290
     0
176
     1
290
     0
176
     1
290
     0
176
     1
290
     0
176
     1
290
     0
176
     1
290
     0
176
     1
 90
       50
176
     1
 40
0.0
176
     1
 40
1.0
176
     1
 90
        0
176
     1
 62
    18
176
     1
 90
       50
176
     1
 90
        3
176
     1
 62
     5
420
      255
176
     1
290
     0
176
     1
 90
       50
176
     1
 90
       50
176
     1
 90
       50
176
     1
290
     0
176
     1
 90
       50
176
     1
 62
   256
176
     0
 40
1.0
176
     0
 90
        2
176
     1
  1
strokes_ogs.tif
176
     1
290
     0
176
     1
 40
1.0
176
     1
 40
1.0
176
     1
1001
ACAD
1000
AcDbSavedByObjectVersion
1070
     0
  0
VISUALSTYLE
  5
2B
102
{ACAD_REACTORS
330
2A
102
}
330
2A
100
AcDbVisualStyle
  2

 70
     0
177
     3
291
     1
 70
    58
 90
        2
176
     1
 90
        1
176
     1
 90
        1
176
     1
 90
        2
176
     1
 40
0.6
176
     1
 40
30.0
176
     1
 62
     7
420
 16777215
176
     1
 90
        0
176
     1
 90
        4
176
     1
 62
     7
176
     1
 62
   257
176
     1
 90
        1
176
     1
 90
        1
176
     1
 40
1.0
176
     1
 90
        8
176
     1
 62
     7
176
     1
 40
1.0
176
     1
 90
        1
176
     1
 90
        6
176
     1
 90
        2
176
     1
 62
     7
176
     1
 90
        5
176
     1
 90
        0
176
     1
 90
        0
176
     1
290
     0
176
     1
 90
       13
176
     1
 40
0.0
176
     1
 90
        0
176
     1
290
     0
176
     1
290
     1
176
     1
290
     1
176
     1
290
     0
176
     1
290
     0
176
     1
290
     0
176
     1
290
     0
176
     1
290
     0
176
     1
290
     0
176
     1
 90
       50
176
     1
 40
0.0
176
     1
 40
1.0
176
     1
 90
        0
176
     1
 62
    18
176
     1
 90
       50
176
     1
 90
        3
176
     1
 62
     5
420
      255
176
     1
290
     0
176
     1
 90
       50
176
     1
 90
       50
176
     1
 90
       50
176
     1
290
     0
176
     1
 90
       50
176
     1
 62
   256
176
     0
 40
1.0
176
     0
 90
        2
176
     1
  1
strokes_ogs.tif
176
     1
290
     0
176
     1
 40
1.0
176
     1
 40
1.0
176
     1
1001
ACAD
1000
AcDbSavedByObjectVersion
1070
     0
  0
VISUALSTYLE
  5
2C
102
{ACAD_REACTORS
330
2A
102
}
330
2A
100
AcDbVisualStyle
  2

 70
     1
177
     3
291
     1
 70
    58
 90
        2
176
     1
 90
        1
176
     1
 90
        1
176
     1
 90
        2
176
     1
 40
0.6
176
     1
 40
30.0
176
     1
 62
     7
420
 16777215
176
     1
 90
        1
176
     1
 90
        4
176
     1
 62
     7
176
     1
 62
   257
176
     1
 90
        1
176
     1
 90
        1
176
     1
 40
1.0
176
     1
 90
        0
176
     1
 62
   257
176
     1
 40
1.0
176
     1
 90
        1
176
     1
 90
        6
176
     1
 90
        2
176
     1
 62
     7
176
     1
 90
        5
176
     1
 90
        0
176
     1
 90
        0
176
     1
290
     0
176
     1
 90
       13
176
     1
 40
0.0
176
     1
 90
        0
176
     1
290
     0
176
     1
290
     1
176
     1
290
     1
176
     1
290
     0
176
     1
290
     0
176
     1
290
     0
176
     1
290
     0
176
     1
290
     0
176
     1
290
     0
176
     1
 90
       50
176
     1
 40
0.0
176
     1
 40
1.0
176
     1
 90
        0
176
     1
 62
    18
176
     1
 90
       50
176
     1
 90
        3
176
     1
 62
     5
420
      255
176
     1
290
     0
176
     1
 90
       50
176
     1
 90
       50
176
     1
 90
       50
176
     1
290
     0
176
     1
 90
       50
176
     1
 62
   256
176
     0
 40
1.0
176
     0
 90
        2
176
     1
  1
strokes_ogs.tif
176
     1
290
     0
176
     1
 40
1.0
176
     1
 40
1.0
176
     1
1001
ACAD
1000
AcDbSavedByObjectVersion
1070
     0
  0
VISUALSTYLE
  5
2D
102
{ACAD_REACTORS
330
2A
102
}
330
2A
100
AcDbVisualStyle
  2

 70
     2
177
     3
291
     1
 70
    58
 90
        2
176
     1
 90
        2
176
     1
 90
        1
176
     1
 90
        2
176
     1
 40
0.6
176
     1
 40
30.0
176
     1
 62
     7
420
 16777215
176
     1
 90
        0
176
     1
 90
        4
176
     1
 62
     7
176
     1
 62
   257
176
     1
 90
        1
176
     1
 90
        1
176
     1
 40
1.0
176
     1
 90
        0
176
     1
 62
     7
176
     1
 40
1.0
176
     1
 90
        1
176
     1
 90
        6
176
     1
 90
        2
176
     1
 62
     7
176
     1
 90
        5
176
     1
 90
        0
176
     1
 90
        0
176
     1
290
     0
176
     1
 90
       13
176
     1
 40
0.0
176
     1
 90
        0
176
     1
290
     0
176
     1
290
     1
176
     1
290
     1
176
     1
290
     0
176
     1
290
     0
176
     1
290
     0
176
     1
290
     0
176
     1
290
     0
176
     1
290
     0
176
     1
 90
       50
176
     1
 40
0.0
176
     1
 40
1.0
176
     1
 90
        0
176
     1
 62
    18
176
     1
 90
       50
176
     1
 90
        3
176
     1
 62
     5
420
      255
176
     1
290
     0
176
     1
 90
       50
176
     1
 90
       50
176
     1
 90
       50
176
     1
290
     0
176
     1
 90
       50
176
     1
 62
   256
176
     0
 40
1.0
176
     0
 90
        2
176
     1
  1
strokes_ogs.tif
176
     1
290
     0
176
     1
 40
1.0
176
     1
 40
1.0
176
     1
1001
ACAD
1000
AcDbSavedByObjectVersion
1070
     0
  0
VISUALSTYLE
  5
2E
102
{ACAD_REACTORS
330
2A
102
}
330
2A
100
AcDbVisualStyle
  2

 70
     3
177
     3
291
     1
 70
    58
 90
        2
176
     1
 90
        2
176
     1
 90
        1
176
     1
 90
        2
176
     1
 40
0.6
176
     1
 40
30.0
176
     1
 62
     7
420
 16777215
176
     1
 90
        1
176
     1
 90
        4
176
     1
 62
     7
176
     1
 62
   257
176
     1
 90
        1
176
     1
 90
        1
176
     1
 40
1.0
176
     1
 90
        0
176
     1
 62
   257
176
     1
 40
1.0
176
     1
 90
        1
176
     1
 90
        6
176
     1
 90
        2
176
     1
 62
     7
176
     1
 90
        5
176
     1
 90
        0
176
     1
 90
        0
176
     1
290
     0
176
     1
 90
       13
176
     1
 40
0.0
176
     1
 90
        0
176
     1
290
     0
176
     1
290
     1
176
     1
290
     1
176
     1
290
     0
176
     1
290
     0
176
     1
290
     0
176
     1
290
     0
176
     1
290
     0
176
     1
290
     0
176
     1
 90
       50
176
     1
 40
0.0
176
     1
 40
1.0
176
     1
 90
        0
176
     1
 62
    18
176
     1
 90
       50
176
     1
 90
        3
176
     1
 62
     5
420
      255
176
     1
290
     0
176
     1
 90
       50
176
     1
 90
       50
176
     1
 90
       50
176
     1
290
     0
176
     1
 90
       50
176
     1
 62
   256
176
     0
 40
1.0
176
     0
 90
        2
176
     1
  1
strokes_ogs.tif
176
     1
290
     0
176
     1
 40
1.0
176
     1
 40
1.0
176
     1
1001
ACAD
1000
AcDbSavedByObjectVersion
1070
     0
  0
VISUALSTYLE
  5
13FD
102
{ACAD_REACTORS
330
2A
102
}
330
2A
100
AcDbVisualStyle
  2
Hidden
 70
     6
177
     3
291
     0
 70
    58
 90
        1
176
     1
 90
        2
176
     1
 90
        2
176
     1
 90
        0
176
     1
 40
0.6
176
     1
 40
30.0
176
     1
 62
     7
420
 16777215
176
     1
 90
        2
176
     1
 90
        2
176
     1
 62
     7
176
     1
 62
   257
176
     1
 90
        2
176
     1
 90
        1
176
     1
 40
40.0
176
     1
 90
        0
176
     1
 62
   257
176
     1
 40
1.0
176
     1
 90
        1
176
     1
 90
        6
176
     1
 90
        2
176
     1
 62
     7
176
     1
 90
        3
176
     1
 90
        0
176
     1
 90
        0
176
     1
290
     0
176
     1
 90
        1
176
     1
 40
0.0
176
     1
 90
        0
176
     1
290
     0
176
     1
290
     1
176
     1
290
     1
176
     1
290
     0
176
     1
290
     0
176
     1
290
     0
176
     1
290
     0
176
     1
290
     0
176
     1
290
     0
176
     1
 90
       50
176
     1
 40
0.0
176
     1
 40
1.0
176
     1
 90
        0
176
     1
 62
    18
176
     1
 90
       50
176
     1
 90
        3
176
     1
 62
     5
420
      255
176
     1
290
     0
176
     1
 90
       50
176
     1
 90
       50
176
     1
 90
       50
176
     1
290
     0
176
     1
 90
       50
176
     1
 62
   256
176
     0
 40
1.0
176
     0
 90
        2
176
     1
  1
strokes_ogs.tif
176
     1
290
     0
176
     1
 40
1.0
176
     1
 40
1.0
176
     1
1001
ACAD
1000
AcDbSavedByObjectVersion
1070
     0
  0
VISUALSTYLE
  5
1403
102
{ACAD_REACTORS
330
2A
102
}
330
2A
100
AcDbVisualStyle
  2
JitterOff
 70
    20
177
     3
291
     1
 70
    58
 90
        2
176
     0
 90
        2
176
     0
 90
        0
176
     0
 90
        0
176
     0
 40
0.6
176
     0
 40
30.0
176
     0
 62
     7
420
 16777215
176
     0
 90
        1
176
     0
 90
        4
176
     0
 62
     7
176
     0
 62
   257
176
     0
 90
        1
176
     0
 90
        1
176
     0
 40
1.0
176
     0
 90
       10
176
     2
 62
     7
176
     0
 40
1.0
176
     0
 90
        1
176
     0
 90
        6
176
     0
 90
        2
176
     0
 62
     7
176
     0
 90
        5
176
     0
 90
        0
176
     0
 90
        0
176
     0
290
     0
176
     0
 90
        1
176
     0
 40
0.0
176
     0
 90
        0
176
     0
290
     0
176
     1
290
     1
176
     1
290
     1
176
     1
290
     0
176
     1
290
     0
176
     1
290
     0
176
     1
290
     0
176
     1
290
     0
176
     1
290
     0
176
     1
 90
       50
176
     0
 40
0.0
176
     0
 40
1.0
176
     0
 90
        0
176
     0
 62
    18
176
     0
 90
       50
176
     0
 90
        3
176
     0
 62
     5
420
      255
176
     0
290
     0
176
     1
 90
       50
176
     0
 90
       50
176
     0
 90
       50
176
     0
290
     0
176
     1
 90
       50
176
     0
 62
   256
176
     0
 40
1.0
176
     0
 90
        2
176
     0
  1
strokes_ogs.tif
176
     0
290
     0
176
     1
 40
1.0
176
     0
 40
1.0
176
     0
1001
ACAD
1000
AcDbSavedByObjectVersion
1070
     0
  0
VISUALSTYLE
  5
38
102
{ACAD_REACTORS
330
2A
102
}
330
2A
100
AcDbVisualStyle
  2

 70
    14
177
     3
291
     1
 70
    58
 90
        2
176
     1
 90
        2
176
     1
 90
        0
176
     1
 90
        0
176
     1
 40
0.6
176
     1
 40
30.0
176
     1
 62
     7
420
 16777215
176
     1
 90
        1
176
     1
 90
        4
176
     1
 62
     7
176
     1
 62
   257
176
     1
 90
        7
176
     1
 90
        7
176
     1
 40
1.0
176
     1
 90
        8
176
     1
 62
     7
176
     1
 40
1.0
176
     1
 90
        1
176
     1
 90
        6
176
     1
 90
        2
176
     1
 62
     7
176
     1
 90
        5
176
     1
 90
        0
176
     1
 90
        0
176
     1
290
     0
176
     1
 90
        1
176
     1
 40
0.0
176
     1
 90
        0
176
     1
290
     0
176
     1
290
     1
176
     1
290
     1
176
     1
290
     0
176
     1
290
     0
176
     1
290
     0
176
     1
290
     0
176
     1
290
     0
176
     1
290
     0
176
     1
 90
       50
176
     1
 40
0.0
176
     1
 40
1.0
176
     1
 90
        0
176
     1
 62
    18
176
     1
 90
       50
176
     1
 90
        3
176
     1
 62
     5
420
      255
176
     1
290
     0
176
     1
 90
       50
176
     1
 90
       50
176
     1
 90
       50
176
     1
290
     0
176
     1
 90
       50
176
     1
 62
   256
176
     0
 40
1.0
176
     0
 90
        2
176
     1
  1
strokes_ogs.tif
176
     1
290
     0
176
     1
 40
1.0
176
     1
 40
1.0
176
     1
1001
ACAD
1000
AcDbSavedByObjectVersion
1070
     0
  0
VISUALSTYLE
  5
1404
102
{ACAD_REACTORS
330
2A
102
}
330
2A
100
AcDbVisualStyle
  2
OverhangOff
 70
    21
177
     3
291
     1
 70
    58
 90
        2
176
     0
 90
        2
176
     0
 90
        0
176
     0
 90
        0
176
     0
 40
0.6
176
     0
 40
30.0
176
     0
 62
     7
420
 16777215
176
     0
 90
        1
176
     0
 90
        4
176
     0
 62
     7
176
     0
 62
   257
176
     0
 90
        1
176
     0
 90
        1
176
     0
 40
1.0
176
     0
 90
        9
176
     2
 62
     7
176
     0
 40
1.0
176
     0
 90
        1
176
     0
 90
        6
176
     0
 90
        2
176
     0
 62
     7
176
     0
 90
        5
176
     0
 90
        0
176
     0
 90
        0
176
     0
290
     0
176
     0
 90
        1
176
     0
 40
0.0
176
     0
 90
        0
176
     0
290
     0
176
     1
290
     1
176
     1
290
     1
176
     1
290
     0
176
     1
290
     0
176
     1
290
     0
176
     1
290
     0
176
     1
290
     0
176
     1
290
     0
176
     1
 90
       50
176
     0
 40
0.0
176
     0
 40
1.0
176
     0
 90
        0
176
     0
 62
    18
176
     0
 90
       50
176
     0
 90
        3
176
     0
 62
     5
420
      255
176
     0
290
     0
176
     1
 90
       50
176
     0
 90
       50
176
     0
 90
       50
176
     0
290
     0
176
     1
 90
       50
176
     0
 62
   256
176
     0
 40
1.0
176
     0
 90
        2
176
     0
  1
strokes_ogs.tif
176
     0
290
     0
176
     1
 40
1.0
176
     0
 40
1.0
176
     0
1001
ACAD
1000
AcDbSavedByObjectVersion
1070
     0
  0
VISUALSTYLE
  5
33
102
{ACAD_REACTORS
330
2A
102
}
330
2A
100
AcDbVisualStyle
  2

 70
     8
177
     3
291
     0
 70
    58
 90
        2
176
     1
 90
        2
176
     1
 90
        0
176
     1
 90
        0
176
     1
 40
0.6
176
     1
 40
30.0
176
     1
 62
     7
420
 16777215
176
     1
 90
        1
176
     1
 90
        0
176
     1
 62
     7
176
     1
 62
   257
176
     1
 90
        1
176
     1
 90
        1
176
     1
 40
1.0
176
     1
 90
        8
176
     1
 62
     8
420
  7895160
176
     1
 40
1.0
176
     1
 90
        1
176
     1
 90
        6
176
     1
 90
        2
176
     1
 62
     7
176
     1
 90
        5
176
     1
 90
        0
176
     1
 90
        0
176
     1
290
     0
176
     1
 90
       13
176
     1
 40
0.0
176
     1
 90
        0
176
     1
290
     0
176
     1
290
     1
176
     1
290
     1
176
     1
290
     0
176
     1
290
     0
176
     1
290
     0
176
     1
290
     0
176
     1
290
     0
176
     1
290
     0
176
     1
 90
       50
176
     1
 40
0.0
176
     1
 40
1.0
176
     1
 90
        0
176
     1
 62
    18
176
     1
 90
       50
176
     1
 90
        3
176
     1
 62
     5
420
      255
176
     1
290
     0
176
     1
 90
       50
176
     1
 90
       50
176
     1
 90
       50
176
     1
290
     0
176
     1
 90
       50
176
     1
 62
   256
176
     0
 40
1.0
176
     0
 90
        2
176
     1
  1
strokes_ogs.tif
176
     1
290
     0
176
     1
 40
1.0
176
     1
 40
1.0
176
     1
1001
ACAD
1000
AcDbSavedByObjectVersion
1070
     0
  0
VISUALSTYLE
  5
1402
102
{ACAD_REACTORS
330
2A
102
}
330
2A
100
AcDbVisualStyle
  2
Shaded
 70
    27
177
     3
291
     0
 70
    58
 90
        2
176
     1
 90
        2
176
     1
 90
        1
176
     1
 90
        2
176
     1
 40
0.6
176
     1
 40
30.0
176
     1
 62
     7
420
 16777215
176
     1
 90
        0
176
     1
 90
        4
176
     1
 62
     7
176
     1
 62
   257
176
     1
 90
        1
176
     1
 90
        1
176
     1
 40
1.0
176
     1
 90
        8
176
     1
 62
   257
176
     1
 40
1.0
176
     1
 90
        1
176
     1
 90
        6
176
     1
 90
        2
176
     1
 62
     8
420
  7895160
176
     1
 90
        3
176
     1
 90
        0
176
     1
 90
        0
176
     1
290
     0
176
     1
 90
        5
176
     1
 40
0.0
176
     1
 90
        0
176
     1
290
     0
176
     1
290
     1
176
     1
290
     1
176
     1
290
     0
176
     1
290
     0
176
     1
290
     0
176
     1
290
     0
176
     1
290
     0
176
     1
290
     0
176
     1
 90
       50
176
     1
 40
0.0
176
     1
 40
1.0
176
     1
 90
        0
176
     1
 62
    18
176
     1
 90
       50
176
     1
 90
        3
176
     1
 62
     5
420
      255
176
     1
290
     0
176
     1
 90
       50
176
     1
 90
       50
176
     1
 90
       50
176
     1
290
     0
176
     1
 90
       50
176
     1
 62
   256
176
     0
 40
1.0
176
     0
 90
        2
176
     1
  1
strokes_ogs.tif
176
     1
290
     0
176
     1
 40
1.0
176
     1
 40
1.0
176
     1
1001
ACAD
1000
AcDbSavedByObjectVersion
1070
     0
  0
VISUALSTYLE
  5
1401
102
{ACAD_REACTORS
330
2A
102
}
330
2A
100
AcDbVisualStyle
  2
Shaded with edges
 70
    26
177
     3
291
     0
 70
    58
 90
        2
176
     1
 90
        2
176
     1
 90
        1
176
     1
 90
        2
176
     1
 40
0.6
176
     1
 40
30.0
176
     1
 62
     7
420
 16777215
176
     1
 90
        1
176
     1
 90
        2
176
     1
 62
     7
176
     1
 62
   257
176
     1
 90
        2
176
     1
 90
        1
176
     1
 40
1.0
176
     1
 90
        8
176
     1
 62
   257
176
     1
 40
1.0
176
     1
 90
        1
176
     1
 90
        6
176
     1
 90
        2
176
     1
 62
     7
176
     1
 90
        3
176
     1
 90
        0
176
     1
 90
        0
176
     1
290
     0
176
     1
 90
        5
176
     1
 40
0.0
176
     1
 90
        0
176
     1
290
     0
176
     1
290
     1
176
     1
290
     1
176
     1
290
     0
176
     1
290
     0
176
     1
290
     0
176
     1
290
     0
176
     1
290
     0
176
     1
290
     0
176
     1
 90
       50
176
     1
 40
0.0
176
     1
 40
1.0
176
     1
 90
        0
176
     1
 62
    18
176
     1
 90
       50
176
     1
 90
        3
176
     1
 62
     5
420
      255
176
     1
290
     0
176
     1
 90
       50
176
     1
 90
       50
176
     1
 90
       50
176
     1
290
     0
176
     1
 90
       50
176
     1
 62
   256
176
     0
 40
1.0
176
     0
 90
        2
176
     1
  1
strokes_ogs.tif
176
     1
290
     0
176
     1
 40
1.0
176
     1
 40
1.0
176
     1
1001
ACAD
1000
AcDbSavedByObjectVersion
1070
     0
  0
VISUALSTYLE
  5
13FE
102
{ACAD_REACTORS
330
2A
102
}
330
2A
100
AcDbVisualStyle
  2
Shades of Gray
 70
    23
177
     3
291
     0
 70
    58
 90
        2
176
     1
 90
        2
176
     1
 90
        3
176
     1
 90
        0
176
     1
 40
0.6
176
     1
 40
30.0
176
     1
 62
     7
420
 16777215
176
     1
 90
        2
176
     1
 90
        2
176
     1
 62
     7
176
     1
 62
     7
176
     1
 90
        1
176
     1
 90
        1
176
     1
 40
40.0
176
     1
 90
        8
176
     1
 62
     7
176
     1
 40
1.0
176
     1
 90
        1
176
     1
 90
        6
176
     1
 90
        2
176
     1
 62
     7
176
     1
 90
        3
176
     1
 90
        0
176
     1
 90
        0
176
     1
290
     0
176
     1
 90
        1
176
     1
 40
0.0
176
     1
 90
        0
176
     1
290
     0
176
     1
290
     1
176
     1
290
     1
176
     1
290
     0
176
     1
290
     0
176
     1
290
     0
176
     1
290
     0
176
     1
290
     0
176
     1
290
     0
176
     1
 90
       50
176
     1
 40
0.0
176
     1
 40
1.0
176
     1
 90
        0
176
     1
 62
    18
176
     1
 90
       50
176
     1
 90
        3
176
     1
 62
     5
420
      255
176
     1
290
     0
176
     1
 90
       50
176
     1
 90
       50
176
     1
 90
       50
176
     1
290
     0
176
     1
 90
       50
176
     1
 62
   256
176
     0
 40
1.0
176
     0
 90
        2
176
     1
  1
strokes_ogs.tif
176
     1
290
     0
176
     1
 40
1.0
176
     1
 40
1.0
176
     1
1001
ACAD
1000
AcDbSavedByObjectVersion
1070
     0
  0
VISUALSTYLE
  5
13FF
102
{ACAD_REACTORS
330
2A
102
}
330
2A
100
AcDbVisualStyle
  2
Sketchy
 70
    24
177
     3
291
     0
 70
    58
 90
        1
176
     1
 90
        2
176
     1
 90
        2
176
     1
 90
        0
176
     1
 40
0.6
176
     1
 40
30.0
176
     1
 62
     7
420
 16777215
176
     1
 90
        2
176
     1
 90
        2
176
     1
 62
     7
176
     1
 62
     7
176
     1
 90
        1
176
     1
 90
        1
176
     1
 40
40.0
176
     1
 90
       11
176
     1
 62
     7
176
     1
 40
1.0
176
     1
 90
        1
176
     1
 90
        6
176
     1
 90
        2
176
     1
 62
     7
176
     1
 90
        6
176
     1
 90
        0
176
     1
 90
        0
176
     1
290
     0
176
     1
 90
        1
176
     1
 40
0.0
176
     1
 90
        0
176
     1
290
     0
176
     1
290
     1
176
     1
290
     1
176
     1
290
     0
176
     1
290
     0
176
     1
290
     0
176
     1
290
     0
176
     1
290
     0
176
     1
290
     0
176
     1
 90
       50
176
     1
 40
0.0
176
     1
 40
1.0
176
     1
 90
        0
176
     1
 62
    18
176
     1
 90
       50
176
     1
 90
        3
176
     1
 62
     5
420
      255
176
     1
290
     0
176
     1
 90
       50
176
     1
 90
       50
176
     1
 90
       50
176
     1
290
     0
176
     1
 90
       50
176
     1
 62
   256
176
     0
 40
1.0
176
     0
 90
        2
176
     1
  1
strokes_ogs.tif
176
     1
290
     0
176
     1
 40
1.0
176
     1
 40
1.0
176
     1
1001
ACAD
1000
AcDbSavedByObjectVersion
1070
     0
  0
VISUALSTYLE
  5
37
102
{ACAD_REACTORS
330
2A
102
}
330
2A
100
AcDbVisualStyle
  2

 70
    13
177
     3
291
     1
 70
    58
 90
        2
176
     1
 90
        2
176
     1
 90
        0
176
     1
 90
        0
176
     1
 40
0.6
176
     1
 40
30.0
176
     1
 62
     7
420
 16777215
176
     1
 90
        1
176
     1
 90
        4
176
     1
 62
     7
176
     1
 62
   257
176
     1
 90
        1
176
     1
 90
        1
176
     1
 40
1.0
176
     1
 90
       12
176
     1
 62
     7
176
     1
 40
1.0
176
     1
 90
        1
176
     1
 90
        6
176
     1
 90
        2
176
     1
 62
     7
176
     1
 90
        5
176
     1
 90
        0
176
     1
 90
        0
176
     1
290
     0
176
     1
 90
        1
176
     1
 40
0.0
176
     1
 90
        0
176
     1
290
     0
176
     1
290
     1
176
     1
290
     1
176
     1
290
     0
176
     1
290
     0
176
     1
290
     0
176
     1
290
     0
176
     1
290
     0
176
     1
290
     0
176
     1
 90
       50
176
     1
 40
0.0
176
     1
 40
1.0
176
     1
 90
        0
176
     1
 62
    18
176
     1
 90
       50
176
     1
 90
        3
176
     1
 62
     5
420
      255
176
     1
290
     0
176
     1
 90
       50
176
     1
 90
       50
176
     1
 90
       50
176
     1
290
     0
176
     1
 90
       50
176
     1
 62
   256
176
     0
 40
1.0
176
     0
 90
        2
176
     1
  1
strokes_ogs.tif
176
     1
290
     0
176
     1
 40
1.0
176
     1
 40
1.0
176
     1
1001
ACAD
1000
AcDbSavedByObjectVersion
1070
     0
  0
VISUALSTYLE
  5
13FC
102
{ACAD_REACTORS
330
2A
102
}
330
2A
100
AcDbVisualStyle
  2
Wireframe
 70
     5
177
     3
291
     0
 70
    58
 90
        0
176
     1
 90
        2
176
     1
 90
        0
176
     1
 90
        0
176
     1
 40
0.6
176
     1
 40
30.0
176
     1
 62
     7
420
 16777215
176
     1
 90
        1
176
     1
 90
        4
176
     1
 62
     7
176
     1
 62
   257
176
     1
 90
        1
176
     1
 90
        1
176
     1
 40
1.0
176
     1
 90
        0
176
     1
 62
   257
176
     1
 40
1.0
176
     1
 90
        1
176
     1
 90
        6
176
     1
 90
        2
176
     1
 62
     7
176
     1
 90
        3
176
     1
 90
        0
176
     1
 90
        0
176
     1
290
     0
176
     1
 90
        1
176
     1
 40
0.0
176
     1
 90
        0
176
     1
290
     0
176
     1
290
     1
176
     1
290
     1
176
     1
290
     0
176
     1
290
     0
176
     1
290
     0
176
     1
290
     0
176
     1
290
     0
176
     1
290
     0
176
     1
 90
       50
176
     1
 40
0.0
176
     1
 40
1.0
176
     1
 90
        0
176
     1
 62
    18
176
     1
 90
       50
176
     1
 90
        3
176
     1
 62
     5
420
      255
176
     1
290
     0
176
     1
 90
       50
176
     1
 90
       50
176
     1
 90
       50
176
     1
290
     0
176
     1
 90
       50
176
     1
 62
   256
176
     0
 40
1.0
176
     0
 90
        2
176
     1
  1
strokes_ogs.tif
176
     1
290
     0
176
     1
 40
1.0
176
     1
 40
1.0
176
     1
1001
ACAD
1000
AcDbSavedByObjectVersion
1070
     0
  0
VISUALSTYLE
  5
1400
102
{ACAD_REACTORS
330
2A
102
}
330
2A
100
AcDbVisualStyle
  2
X-Ray
 70
    25
177
     3
291
     0
 70
    58
 90
        2
176
     1
 90
        2
176
     1
 90
        1
176
     1
 90
        1
176
     1
 40
0.5
176
     1
 40
30.0
176
     1
 62
     7
420
 16777215
176
     1
 90
        1
176
     1
 90
        0
176
     1
 62
     7
176
     1
 62
   257
176
     1
 90
        1
176
     1
 90
        1
176
     1
 40
1.0
176
     1
 90
        8
176
     1
 62
     7
176
     1
 40
1.0
176
     1
 90
        1
176
     1
 90
        6
176
     1
 90
        2
176
     1
 62
     7
176
     1
 90
        3
176
     1
 90
        0
176
     1
 90
        0
176
     1
290
     0
176
     1
 90
       13
176
     1
 40
0.0
176
     1
 90
        0
176
     1
290
     0
176
     1
290
     1
176
     1
290
     1
176
     1
290
     0
176
     1
290
     0
176
     1
290
     0
176
     1
290
     0
176
     1
290
     0
176
     1
290
     0
176
     1
 90
       50
176
     1
 40
0.0
176
     1
 40
1.0
176
     1
 90
        0
176
     1
 62
    18
176
     1
 90
       50
176
     1
 90
        3
176
     1
 62
     5
420
      255
176
     1
290
     0
176
     1
 90
       50
176
     1
 90
       50
176
     1
 90
       50
176
     1
290
     0
176
     1
 90
       50
176
     1
 62
   256
176
     0
 40
1.0
176
     0
 90
        2
176
     1
  1
strokes_ogs.tif
176
     1
290
     0
176
     1
 40
1.0
176
     1
 40
1.0
176
     1
1001
ACAD
1000
AcDbSavedByObjectVersion
1070
     0
  0
DICTIONARYVAR
  5
1725
102
{ACAD_REACTORS
330
171F
102
}
330
171F
100
DictionaryVariables
280
     0
  1
1:1
  0
DICTIONARYVAR
  5
1721
102
{ACAD_REACTORS
330
171F
102
}
330
171F
100
DictionaryVariables
280
     0
  1
STANDARD
  0
DICTIONARYVAR
  5
1720
102
{ACAD_REACTORS
330
171F
102
}
330
171F
100
DictionaryVariables
280
     0
  1
STANDARD
  0
DICTIONARYVAR
  5
1722
102
{ACAD_REACTORS
330
171F
102
}
330
171F
100
DictionaryVariables
280
     0
  1
Metric50
  0
DICTIONARYVAR
  5
1723
102
{ACAD_REACTORS
330
171F
102
}
330
171F
100
DictionaryVariables
280
     0
  1
Metric50
  0
DICTIONARYVAR
  5
1727
102
{ACAD_REACTORS
330
171F
102
}
330
171F
100
DictionaryVariables
280
     0
  1
1
  0
DICTIONARYVAR
  5
1728
102
{ACAD_REACTORS
330
171F
102
}
330
171F
100
DictionaryVariables
280
     0
  1
15
  0
DICTIONARYVAR
  5
1726
102
{ACAD_REACTORS
330
171F
102
}
330
171F
100
DictionaryVariables
280
     0
  1
0
  0
DICTIONARYVAR
  5
1724
102
{ACAD_REACTORS
330
171F
102
}
330
171F
100
DictionaryVariables
280
     0
  1
0
  0
DICTIONARY
  5
3F7C
330
1424
100
AcDbDictionary
280
     1
281
     1
  3
ACAD_XREC_ROUNDTRIP
360
3F7D
  0
DICTIONARY
  5
3F78
330
141E
100
AcDbDictionary
280
     1
281
     1
  3
ACAD_XREC_ROUNDTRIP
360
3F79
  0
DICTIONARY
  5
13F4
330
3D
100
AcDbDictionary
280
     1
281
     1
  3
ACAD_XREC_ROUNDTRIP
360
13F5
  0
DICTIONARY
  5
13F2
330
3C
100
AcDbDictionary
280
     1
281
     1
  3
ACAD_XREC_ROUNDTRIP
360
13F3
  0
DICTIONARY
  5
13F6
330
3E
100
AcDbDictionary
280
     1
281
     1
  3
ACAD_XREC_ROUNDTRIP
360
13F7
  0
DICTIONARY
  5
3F7A
330
1423
100
AcDbDictionary
280
     1
281
     1
  3
ACAD_XREC_ROUNDTRIP
360
3F7B
  0
DICTIONARY
  5
3F76
330
141C
100
AcDbDictionary
280
     1
281
     1
  3
ACAD_XREC_ROUNDTRIP
360
3F77
  0
DICTIONARY
  5
1749
330
1407
100
AcDbDictionary
280
     1
281
     1
  3
ACAD_ROUNDTRIP_2008_TABLESTYLE_CELLSTYLEMAP
360
3F74
  0
XRECORD
  5
3F7D
102
{ACAD_REACTORS
330
3F7C
102
}
330
3F7C
100
AcDbXrecord
280
     1
102
DISPLAYNAME
  1
Imperial24
102
FLAGS
 90
        0
  0
XRECORD
  5
3F79
102
{ACAD_REACTORS
330
3F78
102
}
330
3F78
100
AcDbXrecord
280
     1
102
DISPLAYNAME
  1
Metric50
102
FLAGS
 90
        0
  0
XRECORD
  5
13F5
102
{ACAD_REACTORS
330
13F4
102
}
330
13F4
100
AcDbXrecord
280
     1
102
MATERIAL
148
0.0
149
0.0
149
0.0
 93
        0
 94
      127
282
     0
 72
     1
 77
     1
171
     1
175
     1
179
     1
273
     0
  0
XRECORD
  5
13F3
102
{ACAD_REACTORS
330
13F2
102
}
330
13F2
100
AcDbXrecord
280
     1
102
MATERIAL
148
0.0
149
0.0
149
0.0
 93
        0
 94
      127
282
     0
 72
     1
 77
     1
171
     1
175
     1
179
     1
273
     0
  0
XRECORD
  5
13F7
102
{ACAD_REACTORS
330
13F6
102
}
330
13F6
100
AcDbXrecord
280
     1
102
MATERIAL
148
0.0
149
0.0
149
0.0
 93
        0
 94
      127
282
     0
 72
     1
 77
     1
171
     1
175
     1
179
     1
273
     0
  0
XRECORD
  5
3F7B
102
{ACAD_REACTORS
330
3F7A
102
}
330
3F7A
100
AcDbXrecord
280
     1
102
DISPLAYNAME
  1
Imperial24
102
FLAGS
 90
        0
  0
XRECORD
  5
3F77
102
{ACAD_REACTORS
330
3F76
102
}
330
3F76
100
AcDbXrecord
280
     1
102
DISPLAYNAME
  1
Metric50
102
FLAGS
 90
        0
  0
CELLSTYLEMAP
  5
3F74
102
{ACAD_REACTORS
330
1749
102
}
330
1749
100
AcDbCellStyleMap
 90
        3
300
CELLSTYLE
  1
TABLEFORMAT_BEGIN
 90
        5
170
     1
 91
        0
 92
    32768
 62
   257
 93
        1
300
CONTENTFORMAT
  1
CONTENTFORMAT_BEGIN
 90
        0
 91
        0
 92
      512
 93
        0
300

 40
0.0
140
1.0
 94
        5
 62
     0
340
11
144
6.0
309
CONTENTFORMAT_END
171
     1
301
MARGIN
  1
CELLMARGIN_BEGIN
 40
1.5
 40
1.5
 40
1.5
 40
1.5
 40
0.18
 40
0.18
309
CELLMARGIN_END
 94
        6
 95
        1
302
GRIDFORMAT
  1
GRIDFORMAT_BEGIN
 90
        0
 91
        1
 62
     0
 92
       -2
340
0
 93
        0
 40
1.125
309
GRIDFORMAT_END
 95
        2
302
GRIDFORMAT
  1
GRIDFORMAT_BEGIN
 90
        0
 91
        1
 62
     0
 92
       -2
340
0
 93
        0
 40
1.125
309
GRIDFORMAT_END
 95
        4
302
GRIDFORMAT
  1
GRIDFORMAT_BEGIN
 90
        0
 91
        1
 62
     0
 92
       -2
340
0
 93
        0
 40
1.125
309
GRIDFORMAT_END
 95
        8
302
GRIDFORMAT
  1
GRIDFORMAT_BEGIN
 90
        0
 91
        1
 62
     0
 92
       -2
340
0
 93
        0
 40
1.125
309
GRIDFORMAT_END
 95
       16
302
GRIDFORMAT
  1
GRIDFORMAT_BEGIN
 90
        0
 91
        1
 62
     0
 92
       -2
340
0
 93
        0
 40
1.125
309
GRIDFORMAT_END
 95
       32
302
GRIDFORMAT
  1
GRIDFORMAT_BEGIN
 90
        0
 91
        1
 62
     0
 92
       -2
340
0
 93
        0
 40
1.125
309
GRIDFORMAT_END
309
TABLEFORMAT_END
  1
CELLSTYLE_BEGIN
 90
        1
 91
        1
300
_TITLE
309
CELLSTYLE_END
300
CELLSTYLE
  1
TABLEFORMAT_BEGIN
 90
        5
170
     1
 91
        0
 92
        0
 62
   257
 93
        1
300
CONTENTFORMAT
  1
CONTENTFORMAT_BEGIN
 90
        0
 91
        0
 92
      512
 93
        0
300

 40
0.0
140
1.0
 94
        5
 62
     0
340
11
144
4.5
309
CONTENTFORMAT_END
171
     1
301
MARGIN
  1
CELLMARGIN_BEGIN
 40
1.5
 40
1.5
 40
1.5
 40
1.5
 40
0.18
 40
0.18
309
CELLMARGIN_END
 94
        6
 95
        1
302
GRIDFORMAT
  1
GRIDFORMAT_BEGIN
 90
        0
 91
        1
 62
     0
 92
       -2
340
0
 93
        0
 40
1.125
309
GRIDFORMAT_END
 95
        2
302
GRIDFORMAT
  1
GRIDFORMAT_BEGIN
 90
        0
 91
        1
 62
     0
 92
       -2
340
0
 93
        0
 40
1.125
309
GRIDFORMAT_END
 95
        4
302
GRIDFORMAT
  1
GRIDFORMAT_BEGIN
 90
        0
 91
        1
 62
     0
 92
       -2
340
0
 93
        0
 40
1.125
309
GRIDFORMAT_END
 95
        8
302
GRIDFORMAT
  1
GRIDFORMAT_BEGIN
 90
        0
 91
        1
 62
     0
 92
       -2
340
0
 93
        0
 40
1.125
309
GRIDFORMAT_END
 95
       16
302
GRIDFORMAT
  1
GRIDFORMAT_BEGIN
 90
        0
 91
        1
 62
     0
 92
       -2
340
0
 93
        0
 40
1.125
309
GRIDFORMAT_END
 95
       32
302
GRIDFORMAT
  1
GRIDFORMAT_BEGIN
 90
        0
 91
        1
 62
     0
 92
       -2
340
0
 93
        0
 40
1.125
309
GRIDFORMAT_END
309
TABLEFORMAT_END
  1
CELLSTYLE_BEGIN
 90
        2
 91
        1
300
_HEADER
309
CELLSTYLE_END
300
CELLSTYLE
  1
TABLEFORMAT_BEGIN
 90
        5
170
     1
 91
        0
 92
        0
 62
   257
 93
        1
300
CONTENTFORMAT
  1
CONTENTFORMAT_BEGIN
 90
        0
 91
        0
 92
      512
 93
        0
300

 40
0.0
140
1.0
 94
        2
 62
     0
340
11
144
4.5
309
CONTENTFORMAT_END
171
     1
301
MARGIN
  1
CELLMARGIN_BEGIN
 40
1.5
 40
1.5
 40
1.5
 40
1.5
 40
0.18
 40
0.18
309
CELLMARGIN_END
 94
        6
 95
        1
302
GRIDFORMAT
  1
GRIDFORMAT_BEGIN
 90
        0
 91
        1
 62
     0
 92
       -2
340
0
 93
        0
 40
1.125
309
GRIDFORMAT_END
 95
        2
302
GRIDFORMAT
  1
GRIDFORMAT_BEGIN
 90
        0
 91
        1
 62
     0
 92
       -2
340
0
 93
        0
 40
1.125
309
GRIDFORMAT_END
 95
        4
302
GRIDFORMAT
  1
GRIDFORMAT_BEGIN
 90
        0
 91
        1
 62
     0
 92
       -2
340
0
 93
        0
 40
1.125
309
GRIDFORMAT_END
 95
        8
302
GRIDFORMAT
  1
GRIDFORMAT_BEGIN
 90
        0
 91
        1
 62
     0
 92
       -2
340
0
 93
        0
 40
1.125
309
GRIDFORMAT_END
 95
       16
302
GRIDFORMAT
  1
GRIDFORMAT_BEGIN
 90
        0
 91
        1
 62
     0
 92
       -2
340
0
 93
        0
 40
1.125
309
GRIDFORMAT_END
 95
       32
302
GRIDFORMAT
  1
GRIDFORMAT_BEGIN
 90
        0
 91
        1
 62
     0
 92
       -2
340
0
 93
        0
 40
1.125
309
GRIDFORMAT_END
309
TABLEFORMAT_END
  1
CELLSTYLE_BEGIN
 90
        3
 91
        2
300
_DATA
309
CELLSTYLE_END
  0
ENDSEC
  0
EOF
