  0
SECTION
  2
HEADER
  9
$ACADVER
  1
AC1014
  9
$ACADMAINTVER
 70
     9
  9
$DWGCODEPAGE
  3
ANSI_1252
  9
$INSBASE
 10
0.0
 20
0.0
 30
0.0
  9
$EXTMIN
 10
-302.000000014
 20
-188.9086399322268
 30
-0.00000001
  9
$EXTMAX
 10
302.000000014
 20
36.1203532746883
 30
0.00000001
  9
$LIMMIN
 10
0.0
 20
0.0
  9
$LIMMAX
 10
12.0
 20
9.0
  9
$ORTHOMODE
 70
     0
  9
$REGENMODE
 70
     1
  9
$FILLMODE
 70
     1
  9
$QTEXTMODE
 70
     0
  9
$MIRRTEXT
 70
     1
  9
$DRAGMODE
 70
     2
  9
$LTSCALE
 40
1.0
  9
$OSMODE
 70
    37
  9
$ATTMODE
 70
     1
  9
$TEXTSIZE
 40
0.2
  9
$TRACEWID
 40
0.05
  9
$TEXTSTYLE
  7
STANDARD
  9
$CLAYER
  8
0
  9
$CELTYPE
  6
BYLAYER
  9
$CECOLOR
 62
   256
  9
$CELTSCALE
 40
1.0
  9
$DELOBJ
 70
     1
  9
$DISPSILH
 70
     0
  9
$DIMSCALE
 40
1.0
  9
$DIMASZ
 40
0.18
  9
$DIMEXO
 40
0.0625
  9
$DIMDLI
 40
0.38
  9
$DIMRND
 40
0.0
  9
$DIMDLE
 40
0.0
  9
$DIMEXE
 40
0.18
  9
$DIMTP
 40
0.0
  9
$DIMTM
 40
0.0
  9
$DIMTXT
 40
0.18
  9
$DIMCEN
 40
0.09
  9
$DIMTSZ
 40
0.0
  9
$DIMTOL
 70
     0
  9
$DIMLIM
 70
     0
  9
$DIMTIH
 70
     1
  9
$DIMTOH
 70
     1
  9
$DIMSE1
 70
     0
  9
$DIMSE2
 70
     0
  9
$DIMTAD
 70
     0
  9
$DIMZIN
 70
     0
  9
$DIMBLK
  1

  9
$DIMASO
 70
     1
  9
$DIMSHO
 70
     1
  9
$DIMPOST
  1

  9
$DIMAPOST
  1

  9
$DIMALT
 70
     0
  9
$DIMALTD
 70
     2
  9
$DIMALTF
 40
25.4
  9
$DIMLFAC
 40
1.0
  9
$DIMTOFL
 70
     0
  9
$DIMTVP
 40
0.0
  9
$DIMTIX
 70
     0
  9
$DIMSOXD
 70
     0
  9
$DIMSAH
 70
     0
  9
$DIMBLK1
  1

  9
$DIMBLK2
  1

  9
$DIMSTYLE
  2
STANDARD
  9
$DIMCLRD
 70
     0
  9
$DIMCLRE
 70
     0
  9
$DIMCLRT
 70
     0
  9
$DIMTFAC
 40
1.0
  9
$DIMGAP
 40
0.09
  9
$DIMJUST
 70
     0
  9
$DIMSD1
 70
     0
  9
$DIMSD2
 70
     0
  9
$DIMTOLJ
 70
     1
  9
$DIMTZIN
 70
     0
  9
$DIMALTZ
 70
     0
  9
$DIMALTTZ
 70
     0
  9
$DIMFIT
 70
     3
  9
$DIMUPT
 70
     0
  9
$DIMUNIT
 70
     2
  9
$DIMDEC
 70
     4
  9
$DIMTDEC
 70
     4
  9
$DIMALTU
 70
     2
  9
$DIMALTTD
 70
     2
  9
$DIMTXSTY
  7
STANDARD
  9
$DIMAUNIT
 70
     0
  9
$LUNITS
 70
     2
  9
$LUPREC
 70
     4
  9
$SKETCHINC
 40
0.1
  9
$FILLETRAD
 40
0.5
  9
$AUNITS
 70
     0
  9
$AUPREC
 70
     0
  9
$MENU
  1
.
  9
$ELEVATION
 40
0.0
  9
$PELEVATION
 40
0.0
  9
$THICKNESS
 40
0.0
  9
$LIMCHECK
 70
     0
  9
$BLIPMODE
 70
     0
  9
$CHAMFERA
 40
0.5
  9
$CHAMFERB
 40
0.5
  9
$CHAMFERC
 40
1.0
  9
$CHAMFERD
 40
0.0
  9
$SKPOLY
 70
     0
  9
$TDCREATE
 40
2451762.569820139
  9
$TDUPDATE
 40
2452856.625896990
  9
$TDINDWG
 40
0.0005708333
  9
$TDUSRTIMER
 40
0.0005708333
  9
$USRTIMER
 70
     1
  9
$ANGBASE
 50
0.0
  9
$ANGDIR
 70
     0
  9
$PDMODE
 70
     0
  9
$PDSIZE
 40
0.0
  9
$PLINEWID
 40
0.0
  9
$COORDS
 70
     1
  9
$SPLFRAME
 70
     0
  9
$SPLINETYPE
 70
     6
  9
$SPLINESEGS
 70
     8
  9
$ATTDIA
 70
     0
  9
$ATTREQ
 70
     1
  9
$HANDLING
 70
  4097
  9
$HANDSEED
  5
120
  9
$SURFTAB1
 70
     6
  9
$SURFTAB2
 70
     6
  9
$SURFTYPE
 70
     6
  9
$SURFU
 70
     6
  9
$SURFV
 70
     6
  9
$UCSNAME
  2

  9
$UCSORG
 10
0.0
 20
0.0
 30
0.0
  9
$UCSXDIR
 10
1.0
 20
0.0
 30
0.0
  9
$UCSYDIR
 10
0.0
 20
1.0
 30
0.0
  9
$PUCSNAME
  2

  9
$PUCSORG
 10
0.0
 20
0.0
 30
0.0
  9
$PUCSXDIR
 10
1.0
 20
0.0
 30
0.0
  9
$PUCSYDIR
 10
0.0
 20
1.0
 30
0.0
  9
$USERI1
 70
     0
  9
$USERI2
 70
     0
  9
$USERI3
 70
     0
  9
$USERI4
 70
     0
  9
$USERI5
 70
     0
  9
$USERR1
 40
0.0
  9
$USERR2
 40
0.0
  9
$USERR3
 40
0.0
  9
$USERR4
 40
0.0
  9
$USERR5
 40
0.0
  9
$WORLDVIEW
 70
     1
  9
$SHADEDGE
 70
     3
  9
$SHADEDIF
 70
    70
  9
$TILEMODE
 70
     1
  9
$MAXACTVP
 70
    64
  9
$PINSBASE
 10
0.0
 20
0.0
 30
0.0
  9
$PLIMCHECK
 70
     0
  9
$PEXTMIN
 10
1.000000000000000E+20
 20
1.000000000000000E+20
 30
1.000000000000000E+20
  9
$PEXTMAX
 10
-1.000000000000000E+20
 20
-1.000000000000000E+20
 30
-1.000000000000000E+20
  9
$PLIMMIN
 10
0.0
 20
0.0
  9
$PLIMMAX
 10
12.0
 20
9.0
  9
$UNITMODE
 70
     0
  9
$VISRETAIN
 70
     1
  9
$PLINEGEN
 70
     0
  9
$PSLTSCALE
 70
     1
  9
$TREEDEPTH
 70
  3020
  9
$PICKSTYLE
 70
     1
  9
$CMLSTYLE
  2
STANDARD
  9
$CMLJUST
 70
     0
  9
$CMLSCALE
 40
1.0
  9
$PROXYGRAPHICS
 70
     1
  9
$MEASUREMENT
 70
     0
  0
ENDSEC
  0
SECTION
  2
CLASSES
  0
CLASS
  1
ACDBDICTIONARYWDFLT
  2
AcDbDictionaryWithDefault
  3
AutoCAD 2000
 90
        0
280
     0
281
     0
  0
CLASS
  1
ACDBPLACEHOLDER
  2
AcDbPlaceHolder
  3
AutoCAD 2000
 90
        0
280
     0
281
     0
  0
CLASS
  1
LAYOUT
  2
AcDbLayout
  3
AutoCAD 2000
 90
        0
280
     0
281
     0
  0
CLASS
  1
LONG_TRANSACTION
  2
AcDbLongTransaction
  3
AutoCAD 2000
 90
        0
280
     0
281
     0
  0
CLASS
  1
LWPOLYLINE
  2
AcDbPolyline
  3
AutoCAD 2000
 90
        0
280
     0
281
     1
  0
CLASS
  1
HATCH
  2
AcDbHatch
  3
AutoCAD 2000
 90
        0
280
     0
281
     1
  0
CLASS
  1
XRECORD
  2
AcDbXrecord
  3
AutoCAD 2000
 90
        0
280
     0
281
     0
  0
CLASS
  1
LONG_TRANSACTION
  2
AcDbLongTransaction
  3
AutoCAD 2000
 90
        0
280
     0
281
     0
  0
CLASS
  1
LWPOLYLINE
  2
AcDbPolyline
  3
AutoCAD 2000
 90
        0
280
     0
281
     1
  0
CLASS
  1
HATCH
  2
AcDbHatch
  3
AutoCAD 2000
 90
        0
280
     0
281
     1
  0
CLASS
  1
XRECORD
  2
AcDbXrecord
  3
AutoCAD 2000
 90
        0
280
     0
281
     0
  0
ENDSEC
  0
SECTION
  2
TABLES
  0
TABLE
  2
VPORT
  5
8
330
0
100
AcDbSymbolTable
 70
     2
  0
VPORT
  5
FD
330
8
100
AcDbSymbolTableRecord
100
AcDbViewportTableRecord
  2
*ACTIVE
 70
     0
 10
0.0
 20
0.0
 11
1.0
 21
1.0
 12
0.0
 22
-25.70961944629522
 13
0.0
 23
0.0
 14
0.5
 24
0.5
 15
0.5
 25
0.5
 16
0.0
 26
0.0
 36
1.0
 17
0.0
 27
0.0
 37
0.0
 40
334.2003857119599
 41
1.818713450292397
 42
50.0
 43
0.0
 44
0.0
 50
0.0
 51
0.0
 71
     0
 72
   100
 73
     1
 74
     3
 75
     0
 76
     0
 77
     0
 78
     0
  0
ENDTAB
  0
TABLE
  2
LTYPE
  5
5
330
0
100
AcDbSymbolTable
 70
     1
  0
LTYPE
  5
14
330
5
100
AcDbSymbolTableRecord
100
AcDbLinetypeTableRecord
  2
BYBLOCK
 70
     0
  3

 72
    65
 73
     0
 40
0.0
  0
LTYPE
  5
15
330
5
100
AcDbSymbolTableRecord
100
AcDbLinetypeTableRecord
  2
BYLAYER
 70
     0
  3

 72
    65
 73
     0
 40
0.0
  0
LTYPE
  5
16
330
5
100
AcDbSymbolTableRecord
100
AcDbLinetypeTableRecord
  2
CONTINUOUS
 70
     0
  3
Solid line
 72
    65
 73
     0
 40
0.0
  0
ENDTAB
  0
TABLE
  2
LAYER
  5
2
330
0
100
AcDbSymbolTable
 70
     2
  0
LAYER
  5
10
330
2
100
AcDbSymbolTableRecord
100
AcDbLayerTableRecord
  2
0
 70
     0
 62
     7
  6
CONTINUOUS
  0
LAYER
  5
5A
330
2
100
AcDbSymbolTableRecord
100
AcDbLayerTableRecord
  2
PV-C2
 70
     2
 62
     7
  6
CONTINUOUS
  0
ENDTAB
  0
TABLE
  2
STYLE
  5
3
330
0
100
AcDbSymbolTable
 70
     1
  0
STYLE
  5
11
330
3
100
AcDbSymbolTableRecord
100
AcDbTextStyleTableRecord
  2
STANDARD
 70
     0
 40
0.0
 41
1.0
 50
0.0
 71
     0
 42
0.2
  3
txt
  4

  0
ENDTAB
  0
TABLE
  2
VIEW
  5
6
330
0
100
AcDbSymbolTable
 70
     0
  0
ENDTAB
  0
TABLE
  2
UCS
  5
7
330
0
100
AcDbSymbolTable
 70
     0
  0
ENDTAB
  0
TABLE
  2
APPID
  5
9
330
0
100
AcDbSymbolTable
 70
     1
  0
APPID
  5
12
330
9
100
AcDbSymbolTableRecord
100
AcDbRegAppTableRecord
  2
ACAD
 70
     0
  0
ENDTAB
  0
TABLE
  2
DIMSTYLE
  5
A
330
0
100
AcDbSymbolTable
 70
     1
  0
DIMSTYLE
105
27
330
A
100
AcDbSymbolTableRecord
100
AcDbDimStyleTableRecord
  2
STANDARD
 70
     0
  3

  4

  5

  6

  7

 40
1.0
 41
0.18
 42
0.0625
 43
0.38
 44
0.18
 45
0.0
 46
0.0
 47
0.0
 48
0.0
140
0.18
141
0.09
142
0.0
143
25.4
144
1.0
145
0.0
146
1.0
147
0.09
 71
     0
 72
     0
 73
     1
 74
     1
 75
     0
 76
     0
 77
     0
 78
     0
170
     0
171
     2
172
     0
173
     0
174
     0
175
     0
176
     0
177
     0
178
     0
270
     2
271
     4
272
     4
273
     2
274
     2
340
11
275
     0
280
     0
281
     0
282
     0
283
     1
284
     0
285
     0
286
     0
287
     3
288
     0
  0
ENDTAB
  0
TABLE
  2
BLOCK_RECORD
  5
1
330
0
100
AcDbSymbolTable
 70
     8
  0
BLOCK_RECORD
  5
1F
102
{ACAD_XDICTIONARY
360
AD
102
}
330
1
100
AcDbSymbolTableRecord
100
AcDbBlockTableRecord
  2
*MODEL_SPACE
  0
BLOCK_RECORD
  5
1B
102
{ACAD_XDICTIONARY
360
AB
102
}
330
1
100
AcDbSymbolTableRecord
100
AcDbBlockTableRecord
  2
*PAPER_SPACE
  0
BLOCK_RECORD
  5
48
330
1
100
AcDbSymbolTableRecord
100
AcDbBlockTableRecord
  2
*U0
  0
BLOCK_RECORD
  5
5B
330
1
100
AcDbSymbolTableRecord
100
AcDbBlockTableRecord
  2
FRONT
  0
BLOCK_RECORD
  5
60
330
1
100
AcDbSymbolTableRecord
100
AcDbBlockTableRecord
  2
*U2
  0
BLOCK_RECORD
  5
6E
330
1
100
AcDbSymbolTableRecord
100
AcDbBlockTableRecord
  2
LEFT
  0
BLOCK_RECORD
  5
73
330
1
100
AcDbSymbolTableRecord
100
AcDbBlockTableRecord
  2
*U4
  0
BLOCK_RECORD
  5
83
330
1
100
AcDbSymbolTableRecord
100
AcDbBlockTableRecord
  2
RIGHT
  0
BLOCK_RECORD
  5
88
330
1
100
AcDbSymbolTableRecord
100
AcDbBlockTableRecord
  2
*U6
  0
BLOCK_RECORD
  5
A5
330
1
100
AcDbSymbolTableRecord
100
AcDbBlockTableRecord
  2
TOP
  0
ENDTAB
  0
ENDSEC
  0
SECTION
  2
BLOCKS
  0
BLOCK
  5
20
330
1F
100
AcDbEntity
  8
0
100
AcDbBlockBegin
  2
*MODEL_SPACE
 70
     0
 10
0.0
 20
0.0
 30
0.0
  3
*MODEL_SPACE
  1

  0
ENDBLK
  5
21
330
1F
100
AcDbEntity
  8
0
100
AcDbBlockEnd
  0
BLOCK
  5
1C
330
1B
100
AcDbEntity
 67
     1
  8
0
100
AcDbBlockBegin
  2
*PAPER_SPACE
 70
     0
 10
0.0
 20
0.0
 30
0.0
  3
*PAPER_SPACE
  1

  0
ENDBLK
  5
1D
330
1B
100
AcDbEntity
 67
     1
  8
0
100
AcDbBlockEnd
  0
BLOCK
  5
57
330
48
100
AcDbEntity
  8
0
100
AcDbBlockBegin
  2
*U0
 70
     1
 10
0.0
 20
0.0
 30
0.0
  3
*U0
  1
*ANON
  0
ARC
  5
49
330
48
100
AcDbEntity
  8
PV-C2
100
AcDbCircle
 10
0.0
 20
0.0
 30
0.0
 40
14.0
210
0.0
220
-1.0
230
0.0
100
AcDbArc
 50
89.9999999999992
 51
270.0
  0
ARC
  5
4A
330
48
100
AcDbEntity
  8
PV-C2
100
AcDbCircle
 10
250.0
 20
0.0
 30
0.0
 40
14.0
210
0.0
220
-1.0
230
0.0
100
AcDbArc
 50
270.0000000000001
 51
90.00000000000079
  0
ARC
  5
4B
330
48
100
AcDbEntity
  8
PV-C2
100
AcDbCircle
 10
0.0
 20
0.0000000000000024
 30
0.0
 40
14.5
210
0.0
220
-1.0
230
0.0
100
AcDbArc
 50
74.90981482056266
 51
285.090185179438
  0
ARC
  5
4C
330
48
100
AcDbEntity
  8
PV-C2
100
AcDbCircle
 10
0.0
 20
0.0000000000000024
 30
0.0
 40
30.0
210
0.0
220
-1.0
230
0.0
100
AcDbArc
 50
27.81813928465393
 51
332.1818607153467
  0
ARC
  5
4D
330
48
100
AcDbEntity
  8
PV-C2
100
AcDbCircle
 10
250.0
 20
0.0000000000000024
 30
0.0
 40
14.5
210
0.0
220
-1.0
230
0.0
100
AcDbArc
 50
0.0
 51
105.0901851794372
  0
ARC
  5
4E
330
48
100
AcDbEntity
  8
PV-C2
100
AcDbCircle
 10
250.0
 20
0.0000000000000024
 30
0.0
 40
14.5
210
0.0
220
-1.0
230
0.0
100
AcDbArc
 50
254.9098148205635
 51
0.0000000000008002
  0
ARC
  5
4F
330
48
100
AcDbEntity
  8
PV-C2
100
AcDbCircle
 10
250.0
 20
0.0000000000000024
 30
0.0
 40
30.0
210
0.0
220
-1.0
230
0.0
100
AcDbArc
 50
0.0
 51
152.181860715346
  0
ARC
  5
50
330
48
100
AcDbEntity
  8
PV-C2
100
AcDbCircle
 10
250.0
 20
0.0000000000000024
 30
0.0
 40
30.0
210
0.0
220
-1.0
230
0.0
100
AcDbArc
 50
207.8181392846547
 51
0.0000000000008002
  0
LINE
  5
51
330
48
100
AcDbEntity
  8
PV-C2
100
AcDbLine
 10
43.49999999999996
 20
0.0
 30
-14.0
 11
206.4999999999999
 21
0.0
 31
-14.0
  0
LINE
  5
52
330
48
100
AcDbEntity
  8
PV-C2
100
AcDbLine
 10
43.49999999999996
 20
0.0
 30
14.0
 11
206.4999999999999
 21
0.0
 31
14.0
  0
LINE
  5
53
330
48
100
AcDbEntity
  8
PV-C2
100
AcDbLine
 10
250.0
 20
0.0
 30
14.0
 11
206.4999999999999
 21
0.0
 31
14.0
  0
LINE
  5
54
330
48
100
AcDbEntity
  8
PV-C2
100
AcDbLine
 10
206.4999999999999
 20
0.0
 30
-14.0
 11
250.0
 21
0.0
 31
-14.0
  0
LINE
  5
55
330
48
100
AcDbEntity
  8
PV-C2
100
AcDbLine
 10
43.49999999999996
 20
0.0
 30
14.0
 11
0.0
 21
0.0
 31
14.0
  0
LINE
  5
56
330
48
100
AcDbEntity
  8
PV-C2
100
AcDbLine
 10
0.0
 20
0.0
 30
-14.0
 11
43.49999999999996
 21
0.0
 31
-14.0
  0
ENDBLK
  5
58
330
48
100
AcDbEntity
  8
0
100
AcDbBlockEnd
  0
BLOCK
  5
5D
330
5B
100
AcDbEntity
  8
0
100
AcDbBlockBegin
  2
FRONT
 70
     0
 10
0.0
 20
0.0
 30
0.0
  3
FRONT
  1

  0
INSERT
  5
5C
330
5B
100
AcDbEntity
  8
PV-C2
100
AcDbBlockReference
  2
*U0
 10
0.0
 20
0.0
 30
0.0
 50
180.0
210
0.0
220
1.0
230
0.0
  0
ENDBLK
  5
5E
330
5B
100
AcDbEntity
  8
0
100
AcDbBlockEnd
  0
BLOCK
  5
6C
330
60
100
AcDbEntity
  8
0
100
AcDbBlockBegin
  2
*U2
 70
     1
 10
0.0
 20
0.0
 30
0.0
  3
*U2
  1
*ANON
  0
ARC
  5
61
330
60
100
AcDbEntity
  8
PV-C2
100
AcDbCircle
 10
66.00000000000001
 20
0.0
 30
0.0
 40
14.0
210
-1.0
220
0.0
230
0.0
100
AcDbArc
 50
270.0
 51
90.00000000000076
  0
LINE
  5
62
330
60
100
AcDbEntity
  8
PV-C2
100
AcDbLine
 10
0.0
 20
-6.0
 30
28.0
 11
0.0
 21
-6.0
 31
-27.99999999999998
  0
LINE
  5
63
330
60
100
AcDbEntity
  8
PV-C2
100
AcDbLine
 10
0.0
 20
5.0
 30
30.0
 11
0.0
 21
5.0
 31
-30.0
  0
LINE
  5
64
330
60
100
AcDbEntity
  8
PV-C2
100
AcDbLine
 10
0.0
 20
5.0
 30
-30.0
 11
0.0
 21
-4.0
 31
-30.0
  0
LINE
  5
65
330
60
100
AcDbEntity
  8
PV-C2
100
AcDbLine
 10
0.0
 20
5.0
 30
30.0
 11
0.0
 21
-4.0
 31
30.0
  0
LINE
  5
66
330
60
100
AcDbEntity
  8
PV-C2
100
AcDbLine
 10
0.0
 20
-6.0
 30
-14.0
 11
0.0
 21
-22.5
 31
-14.0
  0
LINE
  5
67
330
60
100
AcDbEntity
  8
PV-C2
100
AcDbLine
 10
0.0
 20
-6.0
 30
14.0
 11
0.0
 21
-22.50000000000001
 31
14.0
  0
ARC
  5
68
330
60
100
AcDbEntity
  8
PV-C2
100
AcDbCircle
 10
4.0
 20
28.0
 30
0.0
 40
1.999999999999999
210
-1.0
220
0.0
230
0.0
100
AcDbArc
 50
0.0
 51
90.00000000000019
  0
ARC
  5
69
330
60
100
AcDbEntity
  8
PV-C2
100
AcDbCircle
 10
4.0
 20
-27.99999999999998
 30
0.0
 40
1.999999999999999
210
-1.0
220
0.0
230
0.0
100
AcDbArc
 50
269.9999999999997
 51
0.0
  0
LINE
  5
6A
330
60
100
AcDbEntity
  8
PV-C2
100
AcDbLine
 10
0.0
 20
-66.00000000000003
 30
14.0
 11
0.0
 21
-22.50000000000001
 31
14.0
  0
LINE
  5
6B
330
60
100
AcDbEntity
  8
PV-C2
100
AcDbLine
 10
0.0
 20
-22.5
 30
-14.0
 11
0.0
 21
-66.00000000000003
 31
-14.0
  0
ENDBLK
  5
6D
330
60
100
AcDbEntity
  8
0
100
AcDbBlockEnd
  0
BLOCK
  5
70
330
6E
100
AcDbEntity
  8
0
100
AcDbBlockBegin
  2
LEFT
 70
     0
 10
0.0
 20
0.0
 30
0.0
  3
LEFT
  1

  0
INSERT
  5
6F
330
6E
100
AcDbEntity
  8
PV-C2
100
AcDbBlockReference
  2
*U2
 10
0.0
 20
0.0
 30
0.0
 50
270.0
210
0.0
220
1.0
230
0.0
  0
ENDBLK
  5
71
330
6E
100
AcDbEntity
  8
0
100
AcDbBlockEnd
  0
BLOCK
  5
81
330
73
100
AcDbEntity
  8
0
100
AcDbBlockBegin
  2
*U4
 70
     1
 10
0.0
 20
0.0
 30
0.0
  3
*U4
  1
*ANON
  0
ARC
  5
74
330
73
100
AcDbEntity
  8
PV-C2
100
AcDbCircle
 10
-65.99999999999998
 20
0.0
 30
0.0
 40
14.0
210
1.0
220
0.0
230
0.0
100
AcDbArc
 50
89.99999999999948
 51
269.9999999999997
  0
LINE
  5
75
330
73
100
AcDbEntity
  8
PV-C2
100
AcDbLine
 10
0.0
 20
-6.0
 30
0.0000000000000024
 11
0.0
 21
-6.0
 31
28.0
  0
LINE
  5
76
330
73
100
AcDbEntity
  8
PV-C2
100
AcDbLine
 10
0.0
 20
-6.0
 30
-27.99999999999998
 11
0.0
 21
-6.0
 31
0.0000000000003935
  0
LINE
  5
77
330
73
100
AcDbEntity
  8
PV-C2
100
AcDbLine
 10
0.0
 20
5.0
 30
0.0000000000000024
 11
0.0
 21
5.0
 31
30.0
  0
LINE
  5
78
330
73
100
AcDbEntity
  8
PV-C2
100
AcDbLine
 10
0.0
 20
5.0
 30
-30.0
 11
0.0
 21
5.0
 31
0.0000000000004214
  0
LINE
  5
79
330
73
100
AcDbEntity
  8
PV-C2
100
AcDbLine
 10
0.0
 20
5.0
 30
30.0
 11
0.0
 21
-4.0
 31
30.0
  0
LINE
  5
7A
330
73
100
AcDbEntity
  8
PV-C2
100
AcDbLine
 10
0.0
 20
5.0
 30
-30.0
 11
0.0
 21
-4.0
 31
-30.0
  0
LINE
  5
7B
330
73
100
AcDbEntity
  8
PV-C2
100
AcDbLine
 10
0.0
 20
-22.5
 30
-14.0
 11
0.0
 21
-6.0
 31
-14.0
  0
LINE
  5
7C
330
73
100
AcDbEntity
  8
PV-C2
100
AcDbLine
 10
0.0
 20
-22.49999999999999
 30
14.0
 11
0.0
 21
-6.0
 31
14.0
  0
ARC
  5
7D
330
73
100
AcDbEntity
  8
PV-C2
100
AcDbCircle
 10
-4.0
 20
-27.99999999999998
 30
0.0
 40
1.999999999999999
210
1.0
220
0.0
230
0.0
100
AcDbArc
 50
180.0
 51
270.0000000000001
  0
ARC
  5
7E
330
73
100
AcDbEntity
  8
PV-C2
100
AcDbCircle
 10
-4.0
 20
28.0
 30
0.0
 40
1.999999999999999
210
1.0
220
0.0
230
0.0
100
AcDbArc
 50
89.99999999999978
 51
180.0
  0
LINE
  5
7F
330
73
100
AcDbEntity
  8
PV-C2
100
AcDbLine
 10
0.0
 20
-22.49999999999999
 30
14.0
 11
0.0
 21
-65.99999999999998
 31
14.0
  0
LINE
  5
80
330
73
100
AcDbEntity
  8
PV-C2
100
AcDbLine
 10
0.0
 20
-65.99999999999998
 30
-14.0
 11
0.0
 21
-22.5
 31
-14.0
  0
ENDBLK
  5
82
330
73
100
AcDbEntity
  8
0
100
AcDbBlockEnd
  0
BLOCK
  5
85
330
83
100
AcDbEntity
  8
0
100
AcDbBlockBegin
  2
RIGHT
 70
     0
 10
0.0
 20
0.0
 30
0.0
  3
RIGHT
  1

  0
INSERT
  5
84
330
83
100
AcDbEntity
  8
PV-C2
100
AcDbBlockReference
  2
*U4
 10
0.0
 20
0.0
 30
0.0
 50
90.0
210
0.0
220
1.0
230
0.0
  0
ENDBLK
  5
86
330
83
100
AcDbEntity
  8
0
100
AcDbBlockEnd
  0
BLOCK
  5
A3
330
88
100
AcDbEntity
  8
0
100
AcDbBlockBegin
  2
*U6
 70
     1
 10
0.0
 20
0.0
 30
0.0
  3
*U6
  1
*ANON
  0
SPLINE
  5
89
330
88
100
AcDbEntity
  8
PV-C2
100
AcDbSpline
210
0.0
220
0.0
230
1.0
 70
     8
 71
     3
 72
    26
 73
    22
 74
     0
 42
0.0000000001
 43
0.0000000001
 40
-6.525344226947462
 40
-6.525344226947462
 40
-6.525344226947462
 40
-6.525344226947462
 40
-6.413108288718301
 40
-6.413108288718301
 40
-6.035864083154585
 40
-6.035864083154585
 40
-5.658619877590867
 40
-5.658619877590867
 40
-5.28137567202715
 40
-5.28137567202715
 40
-4.904131466463433
 40
-4.904131466463433
 40
-4.526887260899716
 40
-4.526887260899716
 40
-4.149648456069106
 40
-4.149648456069106
 40
-3.772409651238497
 40
-3.772409651238497
 40
-3.395170846407888
 40
-3.395170846407888
 40
-3.017932041577278
 40
-3.017932041577278
 40
-3.017932041577278
 40
-3.017932041577278
 10
13.86542462386205
 20
-22.5
 30
0.0
 10
13.86404718443078
 20
-22.46180243478387
 30
0.0
 10
13.86282094435624
 20
-22.42341669300462
 30
0.0
 10
13.85816410745999
 20
-22.25573542871455
 30
0.0
 10
13.856406460551
 20
-22.12574806852123
 30
0.0
 10
13.856406460551
 20
-21.87425193147876
 30
0.0
 10
13.85816410745999
 20
-21.74426457128542
 30
0.0
 10
13.86534219121942
 20
-21.48579939700948
 30
0.0
 10
13.87075757020808
 20
-21.35731919532309
 30
0.0
 10
13.88435134961271
 20
-21.1109918182582
 30
0.0
 10
13.89252773143408
 20
-20.99294517526696
 30
0.0
 10
13.91005267658322
 20
-20.77468448263755
 30
0.0
 10
13.91938327095914
 20
-20.67447546344099
 30
0.0
 10
13.93739315449092
 20
-20.49709868150957
 30
0.0
 10
13.94670509458534
 20
-20.41384293079687
 30
0.0
 10
13.96416210415074
 20
-20.26704456953055
 30
0.0
 10
13.97228966950547
 20
-20.20349240000999
 30
0.0
 10
13.98578486149451
 20
-20.10138493883915
 30
0.0
 10
13.99115126702211
 20
-20.06274841184321
 30
0.0
 10
13.99826111996717
 20
-20.01205022148148
 30
0.0
 10
14.0
 20
-20.0
 30
0.0
 10
14.0
 20
-20.0
 30
0.0
  0
SPLINE
  5
8A
330
88
100
AcDbEntity
  8
PV-C2
100
AcDbSpline
210
0.0
220
0.0
230
1.0
 70
     8
 71
     3
 72
    18
 73
    14
 74
     0
 42
0.0000000001
 43
0.0000000001
 40
0.0
 40
0.0
 40
0.0
 40
0.0
 40
0.4802530069808128
 40
0.4802530069808128
 40
0.960506013961625
 40
0.960506013961625
 40
1.402826647049301
 40
1.402826647049301
 40
1.84514728013698
 40
1.84514728013698
 40
2.170921270738358
 40
2.170921270738358
 40
2.496695261339735
 40
2.496695261339735
 40
2.496695261339735
 40
2.496695261339735
 10
14.03816027468751
 20
-24.0
 30
0.0
 10
14.03816027468751
 20
-24.0
 30
0.0
 10
14.03411126584551
 20
-23.97952065516094
 30
0.0
 10
14.01783095890397
 20
-23.89258343163791
 30
0.0
 10
14.00570613564525
 20
-23.8261375098715
 30
0.0
 10
13.98077021333079
 20
-23.67739018300728
 30
0.0
 10
13.96603983522717
 20
-23.5847313275509
 30
0.0
 10
13.93611851269277
 20
-23.36968073132117
 30
0.0
 10
13.92109143345028
 20
-23.24727950157559
 30
0.0
 10
13.89955140334421
 20
-23.03641769866793
 30
0.0
 10
13.89035488047857
 20
-22.93325442692437
 30
0.0
 10
13.8751600061528
 20
-22.71758776081861
 30
0.0
 10
13.86921387207975
 20
-22.60507907108749
 30
0.0
 10
13.86542462386205
 20
-22.5
 30
0.0
  0
SPLINE
  5
8B
330
88
100
AcDbEntity
  8
PV-C2
100
AcDbSpline
210
0.0
220
0.0
230
1.0
 70
     8
 71
     3
 72
    24
 73
    20
 74
     0
 42
0.0000000001
 43
0.0000000001
 40
3.45054618094139
 40
3.45054618094139
 40
3.45054618094139
 40
3.45054618094139
 40
3.513383656329934
 40
3.513383656329934
 40
3.904393369388403
 40
3.904393369388403
 40
4.201964205937908
 40
4.201964205937908
 40
4.499535042487416
 40
4.499535042487416
 40
4.724786882692251
 40
4.724786882692251
 40
4.950038722897089
 40
4.950038722897089
 40
5.242786692255646
 40
5.242786692255646
 40
5.589504249774712
 40
5.589504249774712
 40
5.93622180729378
 40
5.93622180729378
 40
5.93622180729378
 40
5.93622180729378
 10
236.134575376138
 20
-22.50000000000003
 30
0.0
 10
236.1337810360145
 20
-22.52202772621573
 30
0.0
 10
236.1329115431789
 20
-22.54400087741726
 30
0.0
 10
236.1261184964068
 20
-22.70188265350129
 30
0.0
 10
236.1173759429231
 20
-22.83329575787776
 30
0.0
 10
236.1005704899048
 20
-23.03487214125348
 30
0.0
 10
236.0916377679282
 20
-23.12647901557203
 30
0.0
 10
236.0725093020494
 20
-23.29838161084075
 30
0.0
 10
236.0623631589723
 20
-23.37868237771725
 30
0.0
 10
236.0460778987516
 20
-23.49847413462913
 30
0.0
 10
236.0383668860873
 20
-23.55186545454845
 30
0.0
 10
236.0234153376096
 20
-23.65013935227237
 30
0.0
 10
236.0161961291778
 20
-23.69502240751692
 30
0.0
 10
236.0019287010444
 20
-23.78100654536578
 30
0.0
 10
235.993130187536
 20
-23.8313275674964
 30
0.0
 10
235.9793703091086
 20
-23.90778594727176
 30
0.0
 10
235.9727137870247
 20
-23.9432088886868
 30
0.0
 10
235.9639333928134
 20
-23.98931800155703
 30
0.0
 10
235.9618397253125
 20
-23.99999999999999
 30
0.0
 10
235.9618397253125
 20
-23.99999999999999
 30
0.0
  0
SPLINE
  5
8C
330
88
100
AcDbEntity
  8
PV-C2
100
AcDbSpline
210
0.0
220
0.0
230
1.0
 70
     8
 71
     3
 72
    27
 73
    23
 74
     0
 42
0.0000000001
 43
0.0000000001
 40
-3.017932041577276
 40
-3.017932041577276
 40
-3.017932041577276
 40
-3.017932041577276
 40
-2.640693236746666
 40
-2.640693236746666
 40
-2.263454431916058
 40
-2.263454431916058
 40
-1.88621562708545
 40
-1.88621562708545
 40
-1.508976822254841
 40
-1.508976822254841
 40
-1.13173261669113
 40
-1.13173261669113
 40
-0.7544884111274222
 40
-0.7544884111274222
 40
-0.3772442055637111
 40
-0.3772442055637111
 40
0.0
 40
0.0
 40
0.0
 40
0.377244205563716
 40
0.377244205563716
 40
0.4894801437929095
 40
0.4894801437929095
 40
0.4894801437929095
 40
0.4894801437929095
 10
236.0
 20
-20.0
 30
0.0
 10
236.0
 20
-20.0
 30
0.0
 10
236.0017388800327
 20
-20.01205022148148
 30
0.0
 10
236.0088487329778
 20
-20.06274841184322
 30
0.0
 10
236.0142151385054
 20
-20.10138493883915
 30
0.0
 10
236.0277103304945
 20
-20.20349240001
 30
0.0
 10
236.0358378958493
 20
-20.26704456953056
 30
0.0
 10
236.0532949054146
 20
-20.41384293079688
 30
0.0
 10
236.0626068455089
 20
-20.4970986815096
 30
0.0
 10
236.0806167290409
 20
-20.67447546344101
 30
0.0
 10
236.0899473234168
 20
-20.77468448263757
 30
0.0
 10
236.1074722685659
 20
-20.99294517526697
 30
0.0
 10
236.1156486503872
 20
-21.11099181825823
 30
0.0
 10
236.129242429792
 20
-21.35731919532311
 30
0.0
 10
236.1346578087805
 20
-21.48579939700948
 30
0.0
 10
236.1418358925399
 20
-21.74426457128542
 30
0.0
 10
236.143593539449
 20
-21.87425193147876
 30
0.0
 10
236.143593539449
 20
-22.0
 30
0.0
 10
236.143593539449
 20
-22.12574806852123
 30
0.0
 10
236.1418358925399
 20
-22.25573542871455
 30
0.0
 10
236.1371790556438
 20
-22.42341669300464
 30
0.0
 10
236.1359528155691
 20
-22.46180243478389
 30
0.0
 10
236.134575376138
 20
-22.50000000000003
 30
0.0
  0
LINE
  5
8D
330
88
100
AcDbEntity
  8
PV-C2
100
AcDbLine
 10
28.0
 20
-6.0
 30
0.0
 11
-28.0
 21
-6.0
 31
0.0
  0
LINE
  5
8E
330
88
100
AcDbEntity
  8
PV-C2
100
AcDbLine
 10
30.0
 20
5.0
 30
0.0
 11
-30.0
 21
5.0
 31
0.0
  0
LINE
  5
8F
330
88
100
AcDbEntity
  8
PV-C2
100
AcDbLine
 10
278.0
 20
-6.0
 30
0.0
 11
222.0
 21
-6.0
 31
0.0
  0
LINE
  5
90
330
88
100
AcDbEntity
  8
PV-C2
100
AcDbLine
 10
280.0
 20
5.0
 30
0.0
 11
220.0
 21
5.0
 31
0.0
  0
LINE
  5
91
330
88
100
AcDbEntity
  8
PV-C2
100
AcDbLine
 10
220.0
 20
5.0
 30
0.0
 11
220.0
 21
-4.0
 31
0.0
  0
LINE
  5
92
330
88
100
AcDbEntity
  8
PV-C2
100
AcDbLine
 10
280.0
 20
5.0
 30
0.0
 11
280.0
 21
-4.0
 31
0.0
  0
LINE
  5
93
330
88
100
AcDbEntity
  8
PV-C2
100
AcDbLine
 10
-30.0
 20
5.0
 30
0.0
 11
-30.0
 21
-4.0
 31
0.0
  0
LINE
  5
94
330
88
100
AcDbEntity
  8
PV-C2
100
AcDbLine
 10
30.0
 20
5.0
 30
0.0
 11
30.0
 21
-4.0
 31
0.0
  0
LINE
  5
95
330
88
100
AcDbEntity
  8
PV-C2
100
AcDbLine
 10
-14.0
 20
-6.0
 30
0.0
 11
-14.0
 21
-22.5
 31
0.0
  0
LINE
  5
96
330
88
100
AcDbEntity
  8
PV-C2
100
AcDbLine
 10
14.0
 20
-6.0
 30
0.0
 11
14.0
 21
-20.0
 31
0.0
  0
LINE
  5
97
330
88
100
AcDbEntity
  8
PV-C2
100
AcDbLine
 10
264.0
 20
-22.49999999999996
 30
0.0
 11
264.0
 21
-6.0
 31
0.0
  0
LINE
  5
98
330
88
100
AcDbEntity
  8
PV-C2
100
AcDbLine
 10
236.0
 20
-20.0
 30
0.0
 11
236.0
 21
-6.0
 31
0.0
  0
LINE
  5
99
330
88
100
AcDbEntity
  8
PV-C2
100
AcDbLine
 10
43.49999999999996
 20
-80.00000000000001
 30
0.0
 11
206.4999999999999
 21
-79.99999999999999
 31
0.0
  0
LINE
  5
9A
330
88
100
AcDbEntity
  8
PV-C2
100
AcDbLine
 10
43.49999999999996
 20
-52.00000000000001
 30
0.0
 11
206.4999999999999
 21
-51.99999999999999
 31
0.0
  0
ARC
  5
9B
330
88
100
AcDbEntity
  8
PV-C2
100
AcDbCircle
 10
278.0
 20
-4.0
 30
0.0
 40
1.999999999999999
100
AcDbArc
 50
270.0
 51
0.0000000000002036
  0
ARC
  5
9C
330
88
100
AcDbEntity
  8
PV-C2
100
AcDbCircle
 10
222.0
 20
-4.0
 30
0.0
 40
1.999999999999999
100
AcDbArc
 50
179.9999999999998
 51
270.0
  0
ARC
  5
9D
330
88
100
AcDbEntity
  8
PV-C2
100
AcDbCircle
 10
28.0
 20
-4.0
 30
0.0
 40
1.999999999999999
100
AcDbArc
 50
270.0
 51
0.0000000000002036
  0
ARC
  5
9E
330
88
100
AcDbEntity
  8
PV-C2
100
AcDbCircle
 10
-28.0
 20
-4.0
 30
0.0
 40
1.999999999999999
100
AcDbArc
 50
179.9999999999998
 51
270.0
  0
ARC
  5
9F
330
88
100
AcDbEntity
  8
PV-C2
100
AcDbCircle
 10
206.4999999999999
 20
-22.50000000000003
 30
0.0
 40
57.49999999999996
100
AcDbArc
 50
269.999999999999
 51
0.0000000000000636
  0
ARC
  5
A0
330
88
100
AcDbEntity
  8
PV-C2
100
AcDbCircle
 10
206.4999999999999
 20
-22.50000000000003
 30
0.0
 40
29.49999999999994
100
AcDbArc
 50
269.9999999999998
 51
357.0853984248577
  0
ARC
  5
A1
330
88
100
AcDbEntity
  8
PV-C2
100
AcDbCircle
 10
43.49999999999997
 20
-22.50000000000003
 30
0.0
 40
57.5
100
AcDbArc
 50
179.9999999999983
 51
269.9999999999992
  0
ARC
  5
A2
330
88
100
AcDbEntity
  8
PV-C2
100
AcDbCircle
 10
43.49999999999997
 20
-22.50000000000003
 30
0.0
 40
29.49999999999998
100
AcDbArc
 50
182.9146015751421
 51
270.0
  0
ENDBLK
  5
A4
330
88
100
AcDbEntity
  8
0
100
AcDbBlockEnd
  0
BLOCK
  5
A7
330
A5
100
AcDbEntity
  8
0
100
AcDbBlockBegin
  2
TOP
 70
     0
 10
0.0
 20
0.0
 30
0.0
  3
TOP
  1

  0
INSERT
  5
A6
330
A5
100
AcDbEntity
  8
PV-C2
100
AcDbBlockReference
  2
*U6
 10
0.0
 20
0.0
 30
0.0
  0
ENDBLK
  5
A8
330
A5
100
AcDbEntity
  8
0
100
AcDbBlockEnd
  0
ENDSEC
  0
SECTION
  2
ENTITIES
  0
ARC
  5
BA
330
1F
100
AcDbEntity
  8
PV-C2
100
AcDbCircle
 10
-288.000000014
 20
-0.0000000000000036
 30
-0.000000000000004
 40
14.0
100
AcDbArc
 50
90.0
 51
270.0
  0
LINE
  5
BB
330
1F
100
AcDbEntity
  8
PV-C2
100
AcDbLine
 10
-228.000000014
 20
-0.0000000000000012
 30
-0.0000000000000004
 11
-228.000000014
 21
27.99999999999999
 31
-0.0000000000000004
210
0.0
220
1.0
230
0.0
  0
LINE
  5
BC
330
1F
100
AcDbEntity
  8
PV-C2
100
AcDbLine
 10
-228.000000014
 20
-27.99999999999999
 30
-0.0000000000000004
 11
-228.000000014
 21
0.0000000000003899
 31
-0.0000000000000004
210
0.0
220
1.0
230
0.0
  0
LINE
  5
BD
330
1F
100
AcDbEntity
  8
PV-C2
100
AcDbLine
 10
-217.000000014
 20
-0.0000000000000012
 30
0.0000000000000003
 11
-217.000000014
 21
30.0
 31
0.0000000000000003
210
0.0
220
1.0
230
0.0
  0
LINE
  5
BE
330
1F
100
AcDbEntity
  8
PV-C2
100
AcDbLine
 10
-217.000000014
 20
-30.0
 30
0.0000000000000003
 11
-217.000000014
 21
0.0000000000004178
 31
0.0000000000000003
210
0.0
220
1.0
230
0.0
  0
LINE
  5
BF
330
1F
100
AcDbEntity
  8
PV-C2
100
AcDbLine
 10
-217.000000014
 20
30.0
 30
0.0000000000000003
 11
-226.000000014
 21
30.0
 31
-0.0000000000000002
210
0.0
220
1.0
230
0.0
  0
LINE
  5
C0
330
1F
100
AcDbEntity
  8
PV-C2
100
AcDbLine
 10
-217.000000014
 20
-30.0
 30
0.0000000000000003
 11
-226.000000014
 21
-30.0
 31
-0.0000000000000002
210
0.0
220
1.0
230
0.0
  0
LINE
  5
C1
330
1F
100
AcDbEntity
  8
PV-C2
100
AcDbLine
 10
-244.500000014
 20
-14.0
 30
-0.0000000000000014
 11
-228.000000014
 21
-14.0
 31
-0.0000000000000004
210
0.0
220
1.0
230
0.0
  0
LINE
  5
C2
330
1F
100
AcDbEntity
  8
PV-C2
100
AcDbLine
 10
-244.500000014
 20
13.99999999999999
 30
-0.0000000000000014
 11
-228.000000014
 21
13.99999999999999
 31
-0.0000000000000004
210
0.0
220
1.0
230
0.0
  0
ARC
  5
C3
330
1F
100
AcDbEntity
  8
PV-C2
100
AcDbCircle
 10
-226.000000014
 20
-27.99999999999999
 30
-0.0000000000000002
 40
1.999999999999999
100
AcDbArc
 50
180.0
 51
270.0
  0
ARC
  5
C4
330
1F
100
AcDbEntity
  8
PV-C2
100
AcDbCircle
 10
-226.000000014
 20
27.99999999999999
 30
-0.0000000000000002
 40
1.999999999999999
100
AcDbArc
 50
90.0
 51
180.0
  0
LINE
  5
C5
330
1F
100
AcDbEntity
  8
PV-C2
100
AcDbLine
 10
-244.500000014
 20
13.99999999999999
 30
-0.0000000000000014
 11
-288.000000014
 21
13.99999999999999
 31
-0.000000000000004
210
0.0
220
1.0
230
0.0
  0
LINE
  5
C6
330
1F
100
AcDbEntity
  8
PV-C2
100
AcDbLine
 10
-288.000000014
 20
-14.0
 30
-0.000000000000004
 11
-244.500000014
 21
-14.0
 31
-0.0000000000000014
210
0.0
220
1.0
230
0.0
  0
ARC
  5
C8
330
1F
100
AcDbEntity
  8
PV-C2
100
AcDbCircle
 10
-125.0
 20
-0.0000000000000036
 30
0.0
 40
14.0
100
AcDbArc
 50
89.9999999999992
 51
270.0
  0
ARC
  5
C9
330
1F
100
AcDbEntity
  8
PV-C2
100
AcDbCircle
 10
125.0
 20
-0.0000000000000036
 30
0.0000000000000306
 40
14.0
100
AcDbArc
 50
270.0
 51
90.00000000000081
  0
ARC
  5
CA
330
1F
100
AcDbEntity
  8
PV-C2
100
AcDbCircle
 10
-125.0
 20
-0.0000000000000012
 30
0.0
 40
14.5
100
AcDbArc
 50
74.9098148205629
 51
285.0901851794379
  0
ARC
  5
CB
330
1F
100
AcDbEntity
  8
PV-C2
100
AcDbCircle
 10
-125.0
 20
-0.0000000000000012
 30
0.0
 40
30.0
100
AcDbArc
 50
27.81813928465407
 51
332.1818607153468
  0
ARC
  5
CC
330
1F
100
AcDbEntity
  8
PV-C2
100
AcDbCircle
 10
125.0
 20
-0.0000000000000012
 30
0.0000000000000306
 40
14.5
100
AcDbArc
 50
0.0
 51
105.0901851794371
  0
ARC
  5
CD
330
1F
100
AcDbEntity
  8
PV-C2
100
AcDbCircle
 10
125.0
 20
-0.0000000000000012
 30
0.0000000000000306
 40
14.5
100
AcDbArc
 50
254.9098148205637
 51
0.0000000000008002
  0
ARC
  5
CE
330
1F
100
AcDbEntity
  8
PV-C2
100
AcDbCircle
 10
125.0
 20
-0.0000000000000012
 30
0.0000000000000306
 40
30.0
100
AcDbArc
 50
0.0
 51
152.1818607153458
  0
ARC
  5
CF
330
1F
100
AcDbEntity
  8
PV-C2
100
AcDbCircle
 10
125.0
 20
-0.0000000000000012
 30
0.0000000000000306
 40
30.0
100
AcDbArc
 50
207.8181392846546
 51
0.0000000000008002
  0
LINE
  5
D0
330
1F
100
AcDbEntity
  8
PV-C2
100
AcDbLine
 10
-81.50000000000003
 20
-14.0
 30
0.0000000000000053
 11
81.49999999999991
 21
-14.0
 31
0.0000000000000253
210
0.0
220
1.0
230
0.0
  0
LINE
  5
D1
330
1F
100
AcDbEntity
  8
PV-C2
100
AcDbLine
 10
-81.50000000000003
 20
13.99999999999999
 30
0.0000000000000053
 11
81.49999999999991
 21
13.99999999999999
 31
0.0000000000000253
210
0.0
220
1.0
230
0.0
  0
LINE
  5
D2
330
1F
100
AcDbEntity
  8
PV-C2
100
AcDbLine
 10
125.0
 20
13.99999999999999
 30
0.0000000000000306
 11
81.49999999999991
 21
13.99999999999999
 31
0.0000000000000253
210
0.0
220
1.0
230
0.0
  0
LINE
  5
D3
330
1F
100
AcDbEntity
  8
PV-C2
100
AcDbLine
 10
81.49999999999991
 20
-14.0
 30
0.0000000000000253
 11
125.0
 21
-14.0
 31
0.0000000000000306
210
0.0
220
1.0
230
0.0
  0
LINE
  5
D4
330
1F
100
AcDbEntity
  8
PV-C2
100
AcDbLine
 10
-81.50000000000003
 20
13.99999999999999
 30
0.0000000000000053
 11
-125.0
 21
13.99999999999999
 31
0.0
210
0.0
220
1.0
230
0.0
  0
LINE
  5
D5
330
1F
100
AcDbEntity
  8
PV-C2
100
AcDbLine
 10
-125.0
 20
-14.0
 30
0.0
 11
-81.50000000000003
 21
-14.0
 31
0.0000000000000053
210
0.0
220
1.0
230
0.0
  0
ARC
  5
D7
330
1F
100
AcDbEntity
  8
PV-C2
100
AcDbCircle
 10
288.000000014
 20
-0.0000000000000036
 30
0.0000000000000121
 40
14.0
100
AcDbArc
 50
270.0
 51
90.0
  0
LINE
  5
D8
330
1F
100
AcDbEntity
  8
PV-C2
100
AcDbLine
 10
228.000000014
 20
27.99999999999999
 30
0.0000000000000011
 11
228.000000014
 21
-27.99999999999999
 31
0.0000000000000011
210
0.0
220
1.0
230
0.0
  0
LINE
  5
D9
330
1F
100
AcDbEntity
  8
PV-C2
100
AcDbLine
 10
217.000000014
 20
30.0
 30
-0.0000000000000009
 11
217.000000014
 21
-30.0
 31
-0.0000000000000009
210
0.0
220
1.0
230
0.0
  0
LINE
  5
DA
330
1F
100
AcDbEntity
  8
PV-C2
100
AcDbLine
 10
217.000000014
 20
-30.0
 30
-0.0000000000000009
 11
226.000000014
 21
-30.0
 31
0.0000000000000007
210
0.0
220
1.0
230
0.0
  0
LINE
  5
DB
330
1F
100
AcDbEntity
  8
PV-C2
100
AcDbLine
 10
217.000000014
 20
30.0
 30
-0.0000000000000009
 11
226.000000014
 21
30.0
 31
0.0000000000000007
210
0.0
220
1.0
230
0.0
  0
LINE
  5
DC
330
1F
100
AcDbEntity
  8
PV-C2
100
AcDbLine
 10
228.000000014
 20
-14.0
 30
0.0000000000000011
 11
244.500000014
 21
-14.0
 31
0.0000000000000041
210
0.0
220
1.0
230
0.0
  0
LINE
  5
DD
330
1F
100
AcDbEntity
  8
PV-C2
100
AcDbLine
 10
228.000000014
 20
13.99999999999999
 30
0.0000000000000011
 11
244.500000014
 21
13.99999999999999
 31
0.0000000000000041
210
0.0
220
1.0
230
0.0
  0
ARC
  5
DE
330
1F
100
AcDbEntity
  8
PV-C2
100
AcDbCircle
 10
226.000000014
 20
27.99999999999999
 30
0.0000000000000007
 40
1.999999999999999
100
AcDbArc
 50
0.0
 51
90.0
  0
ARC
  5
DF
330
1F
100
AcDbEntity
  8
PV-C2
100
AcDbCircle
 10
226.000000014
 20
-27.99999999999999
 30
0.0000000000000007
 40
1.999999999999999
100
AcDbArc
 50
270.0
 51
0.0
  0
LINE
  5
E0
330
1F
100
AcDbEntity
  8
PV-C2
100
AcDbLine
 10
288.000000014
 20
13.99999999999999
 30
0.0000000000000121
 11
244.500000014
 21
13.99999999999999
 31
0.0000000000000041
210
0.0
220
1.0
230
0.0
  0
LINE
  5
E1
330
1F
100
AcDbEntity
  8
PV-C2
100
AcDbLine
 10
244.500000014
 20
-14.0
 30
0.0000000000000041
 11
288.000000014
 21
-14.0
 31
0.0000000000000121
210
0.0
220
1.0
230
0.0
  0
SPLINE
  5
E3
330
1F
100
AcDbEntity
  8
PV-C2
100
AcDbSpline
210
0.0
220
0.0
230
1.0
 70
     8
 71
     3
 72
    26
 73
    22
 74
     0
 42
0.0000000001
 43
0.0000000001
 40
-6.525344226947462
 40
-6.525344226947462
 40
-6.525344226947462
 40
-6.525344226947462
 40
-6.413108288718301
 40
-6.413108288718301
 40
-6.035864083154585
 40
-6.035864083154585
 40
-5.658619877590867
 40
-5.658619877590867
 40
-5.28137567202715
 40
-5.28137567202715
 40
-4.904131466463433
 40
-4.904131466463433
 40
-4.526887260899716
 40
-4.526887260899716
 40
-4.149648456069106
 40
-4.149648456069106
 40
-3.772409651238497
 40
-3.772409651238497
 40
-3.395170846407888
 40
-3.395170846407888
 40
-3.017932041577278
 40
-3.017932041577278
 40
-3.017932041577278
 40
-3.017932041577278
 10
-111.1345753761379
 20
-119.500000014
 30
0.0
 10
-111.1359528155692
 20
-119.4618024487838
 30
0.0
 10
-111.1371790556437
 20
-119.4234167070046
 30
0.0
 10
-111.14183589254
 20
-119.2557354427145
 30
0.0
 10
-111.1435935394489
 20
-119.1257480825212
 30
0.0
 10
-111.1435935394489
 20
-118.8742519454787
 30
0.0
 10
-111.14183589254
 20
-118.7442645852854
 30
0.0
 10
-111.1346578087805
 20
-118.4857994110094
 30
0.0
 10
-111.1292424297919
 20
-118.357319209323
 30
0.0
 10
-111.1156486503872
 20
-118.1109918322582
 30
0.0
 10
-111.1074722685659
 20
-117.9929451892669
 30
0.0
 10
-111.0899473234167
 20
-117.7746844966375
 30
0.0
 10
-111.0806167290408
 20
-117.6744754774409
 30
0.0
 10
-111.062606845509
 20
-117.4970986955095
 30
0.0
 10
-111.0532949054146
 20
-117.4138429447968
 30
0.0
 10
-111.0358378958492
 20
-117.2670445835305
 30
0.0
 10
-111.0277103304945
 20
-117.2034924140099
 30
0.0
 10
-111.0142151385054
 20
-117.1013849528391
 30
0.0
 10
-111.0088487329778
 20
-117.0627484258432
 30
0.0
 10
-111.0017388800328
 20
-117.0120502354814
 30
0.0
 10
-111.0
 20
-117.0000000139999
 30
0.0
 10
-111.0
 20
-117.0000000139999
 30
0.0
  0
SPLINE
  5
E4
330
1F
100
AcDbEntity
  8
PV-C2
100
AcDbSpline
210
0.0
220
0.0
230
1.0
 70
     8
 71
     3
 72
    18
 73
    14
 74
     0
 42
0.0000000001
 43
0.0000000001
 40
0.0
 40
0.0
 40
0.0
 40
0.0
 40
0.4802530069808128
 40
0.4802530069808128
 40
0.960506013961625
 40
0.960506013961625
 40
1.402826647049301
 40
1.402826647049301
 40
1.84514728013698
 40
1.84514728013698
 40
2.170921270738358
 40
2.170921270738358
 40
2.496695261339735
 40
2.496695261339735
 40
2.496695261339735
 40
2.496695261339735
 10
-110.9618397253124
 20
-121.0000000139999
 30
0.0
 10
-110.9618397253124
 20
-121.0000000139999
 30
0.0
 10
-110.9658887341544
 20
-120.9795206691609
 30
0.0
 10
-110.982169041096
 20
-120.8925834456379
 30
0.0
 10
-110.9942938643547
 20
-120.8261375238715
 30
0.0
 10
-111.0192297866692
 20
-120.6773901970072
 30
0.0
 10
-111.0339601647728
 20
-120.5847313415508
 30
0.0
 10
-111.0638814873072
 20
-120.3696807453211
 30
0.0
 10
-111.0789085665497
 20
-120.2472795155755
 30
0.0
 10
-111.1004485966557
 20
-120.0364177126679
 30
0.0
 10
-111.1096451195214
 20
-119.9332544409243
 30
0.0
 10
-111.1248399938472
 20
-119.7175877748186
 30
0.0
 10
-111.1307861279202
 20
-119.6050790850874
 30
0.0
 10
-111.1345753761379
 20
-119.500000014
 30
0.0
  0
SPLINE
  5
E5
330
1F
100
AcDbEntity
  8
PV-C2
100
AcDbSpline
210
0.0
220
0.0
230
1.0
 70
     8
 71
     3
 72
    24
 73
    20
 74
     0
 42
0.0000000001
 43
0.0000000001
 40
3.45054618094139
 40
3.45054618094139
 40
3.45054618094139
 40
3.45054618094139
 40
3.513383656329934
 40
3.513383656329934
 40
3.904393369388403
 40
3.904393369388403
 40
4.201964205937908
 40
4.201964205937908
 40
4.499535042487416
 40
4.499535042487416
 40
4.724786882692251
 40
4.724786882692251
 40
4.950038722897089
 40
4.950038722897089
 40
5.242786692255646
 40
5.242786692255646
 40
5.589504249774712
 40
5.589504249774712
 40
5.93622180729378
 40
5.93622180729378
 40
5.93622180729378
 40
5.93622180729378
 10
111.134575376138
 20
-119.500000014
 30
0.0
 10
111.1337810360145
 20
-119.5220277402157
 30
0.0
 10
111.1329115431789
 20
-119.5440008914172
 30
0.0
 10
111.1261184964068
 20
-119.7018826675013
 30
0.0
 10
111.117375942923
 20
-119.8332957718777
 30
0.0
 10
111.1005704899048
 20
-120.0348721552534
 30
0.0
 10
111.0916377679282
 20
-120.126479029572
 30
0.0
 10
111.0725093020495
 20
-120.2983816248407
 30
0.0
 10
111.0623631589723
 20
-120.3786823917172
 30
0.0
 10
111.0460778987516
 20
-120.4984741486291
 30
0.0
 10
111.0383668860873
 20
-120.5518654685484
 30
0.0
 10
111.0234153376096
 20
-120.6501393662723
 30
0.0
 10
111.0161961291778
 20
-120.6950224215169
 30
0.0
 10
111.0019287010443
 20
-120.7810065593657
 30
0.0
 10
110.993130187536
 20
-120.8313275814963
 30
0.0
 10
110.9793703091085
 20
-120.9077859612717
 30
0.0
 10
110.9727137870247
 20
-120.9432089026868
 30
0.0
 10
110.9639333928134
 20
-120.989318015557
 30
0.0
 10
110.9618397253125
 20
-121.0000000139999
 30
0.0
 10
110.9618397253125
 20
-121.0000000139999
 30
0.0
  0
SPLINE
  5
E6
330
1F
100
AcDbEntity
  8
PV-C2
100
AcDbSpline
210
0.0
220
0.0
230
1.0
 70
     8
 71
     3
 72
    27
 73
    23
 74
     0
 42
0.0000000001
 43
0.0000000001
 40
-3.017932041577276
 40
-3.017932041577276
 40
-3.017932041577276
 40
-3.017932041577276
 40
-2.640693236746666
 40
-2.640693236746666
 40
-2.263454431916058
 40
-2.263454431916058
 40
-1.88621562708545
 40
-1.88621562708545
 40
-1.508976822254841
 40
-1.508976822254841
 40
-1.13173261669113
 40
-1.13173261669113
 40
-0.7544884111274222
 40
-0.7544884111274222
 40
-0.3772442055637111
 40
-0.3772442055637111
 40
0.0
 40
0.0
 40
0.0
 40
0.377244205563716
 40
0.377244205563716
 40
0.4894801437929095
 40
0.4894801437929095
 40
0.4894801437929095
 40
0.4894801437929095
 10
111.0
 20
-117.0000000139999
 30
0.0
 10
111.0
 20
-117.0000000139999
 30
0.0
 10
111.0017388800327
 20
-117.0120502354814
 30
0.0
 10
111.0088487329778
 20
-117.0627484258432
 30
0.0
 10
111.0142151385055
 20
-117.1013849528391
 30
0.0
 10
111.0277103304945
 20
-117.20349241401
 30
0.0
 10
111.0358378958493
 20
-117.2670445835305
 30
0.0
 10
111.0532949054146
 20
-117.4138429447968
 30
0.0
 10
111.062606845509
 20
-117.4970986955095
 30
0.0
 10
111.0806167290409
 20
-117.674475477441
 30
0.0
 10
111.0899473234168
 20
-117.7746844966375
 30
0.0
 10
111.1074722685659
 20
-117.9929451892669
 30
0.0
 10
111.1156486503872
 20
-118.1109918322582
 30
0.0
 10
111.1292424297919
 20
-118.3573192093231
 30
0.0
 10
111.1346578087806
 20
-118.4857994110094
 30
0.0
 10
111.1418358925399
 20
-118.7442645852854
 30
0.0
 10
111.143593539449
 20
-118.8742519454787
 30
0.0
 10
111.143593539449
 20
-119.0000000139999
 30
0.0
 10
111.143593539449
 20
-119.1257480825212
 30
0.0
 10
111.1418358925399
 20
-119.2557354427145
 30
0.0
 10
111.1371790556437
 20
-119.4234167070046
 30
0.0
 10
111.1359528155692
 20
-119.4618024487838
 30
0.0
 10
111.134575376138
 20
-119.500000014
 30
0.0
  0
LINE
  5
E7
330
1F
100
AcDbEntity
  8
PV-C2
100
AcDbLine
 10
-97.0
 20
-103.000000014
 30
0.0
 11
-153.0
 21
-103.000000014
 31
0.0
  0
LINE
  5
E8
330
1F
100
AcDbEntity
  8
PV-C2
100
AcDbLine
 10
-95.0
 20
-92.00000001399999
 30
0.0
 11
-155.0
 21
-92.00000001399999
 31
0.0
  0
LINE
  5
E9
330
1F
100
AcDbEntity
  8
PV-C2
100
AcDbLine
 10
153.0
 20
-103.000000014
 30
0.0
 11
97.0
 21
-103.000000014
 31
0.0
  0
LINE
  5
EA
330
1F
100
AcDbEntity
  8
PV-C2
100
AcDbLine
 10
155.0
 20
-92.00000001399999
 30
0.0
 11
95.0
 21
-92.00000001399999
 31
0.0
  0
LINE
  5
EB
330
1F
100
AcDbEntity
  8
PV-C2
100
AcDbLine
 10
95.0
 20
-92.00000001399999
 30
0.0
 11
95.0
 21
-101.000000014
 31
0.0
  0
LINE
  5
EC
330
1F
100
AcDbEntity
  8
PV-C2
100
AcDbLine
 10
155.0
 20
-92.00000001399999
 30
0.0
 11
155.0
 21
-101.000000014
 31
0.0
  0
LINE
  5
ED
330
1F
100
AcDbEntity
  8
PV-C2
100
AcDbLine
 10
-155.0
 20
-92.00000001399999
 30
0.0
 11
-155.0
 21
-101.000000014
 31
0.0
  0
LINE
  5
EE
330
1F
100
AcDbEntity
  8
PV-C2
100
AcDbLine
 10
-95.0
 20
-92.00000001399999
 30
0.0
 11
-95.0
 21
-101.000000014
 31
0.0
  0
LINE
  5
EF
330
1F
100
AcDbEntity
  8
PV-C2
100
AcDbLine
 10
-139.0
 20
-103.000000014
 30
0.0
 11
-139.0
 21
-119.500000014
 31
0.0
  0
LINE
  5
F0
330
1F
100
AcDbEntity
  8
PV-C2
100
AcDbLine
 10
-111.0
 20
-103.000000014
 30
0.0
 11
-111.0
 21
-117.0000000139999
 31
0.0
  0
LINE
  5
F1
330
1F
100
AcDbEntity
  8
PV-C2
100
AcDbLine
 10
139.0
 20
-119.5000000139999
 30
0.0
 11
139.0
 21
-103.000000014
 31
0.0
  0
LINE
  5
F2
330
1F
100
AcDbEntity
  8
PV-C2
100
AcDbLine
 10
111.0
 20
-117.0000000139999
 30
0.0
 11
111.0
 21
-103.000000014
 31
0.0
  0
LINE
  5
F3
330
1F
100
AcDbEntity
  8
PV-C2
100
AcDbLine
 10
-81.50000000000003
 20
-177.000000014
 30
0.0
 11
81.49999999999991
 21
-177.0000000139999
 31
0.0
  0
LINE
  5
F4
330
1F
100
AcDbEntity
  8
PV-C2
100
AcDbLine
 10
-81.50000000000003
 20
-149.000000014
 30
0.0
 11
81.49999999999991
 21
-149.000000014
 31
0.0
  0
ARC
  5
F5
330
1F
100
AcDbEntity
  8
PV-C2
100
AcDbCircle
 10
153.0
 20
-101.000000014
 30
0.0
 40
1.999999999999999
100
AcDbArc
 50
270.0
 51
0.0
  0
ARC
  5
F6
330
1F
100
AcDbEntity
  8
PV-C2
100
AcDbCircle
 10
97.0
 20
-101.000000014
 30
0.0
 40
1.999999999999999
100
AcDbArc
 50
180.0
 51
270.0
  0
ARC
  5
F7
330
1F
100
AcDbEntity
  8
PV-C2
100
AcDbCircle
 10
-97.0
 20
-101.000000014
 30
0.0
 40
1.999999999999999
100
AcDbArc
 50
270.0
 51
0.0
  0
ARC
  5
F8
330
1F
100
AcDbEntity
  8
PV-C2
100
AcDbCircle
 10
-153.0
 20
-101.000000014
 30
0.0
 40
1.999999999999999
100
AcDbArc
 50
180.0
 51
270.0
  0
ARC
  5
F9
330
1F
100
AcDbEntity
  8
PV-C2
100
AcDbCircle
 10
81.5
 20
-119.500000014
 30
0.0
 40
57.49999999999996
100
AcDbArc
 50
269.9999999999992
 51
0.0
  0
ARC
  5
FA
330
1F
100
AcDbEntity
  8
PV-C2
100
AcDbCircle
 10
81.5
 20
-119.500000014
 30
0.0
 40
29.49999999999994
100
AcDbArc
 50
270.0
 51
357.085398424858
  0
ARC
  5
FB
330
1F
100
AcDbEntity
  8
PV-C2
100
AcDbCircle
 10
-81.50000000000003
 20
-119.500000014
 30
0.0
 40
57.5
100
AcDbArc
 50
179.9999999999983
 51
269.9999999999992
  0
ARC
  5
FC
330
1F
100
AcDbEntity
  8
PV-C2
100
AcDbCircle
 10
-81.50000000000003
 20
-119.500000014
 30
0.0
 40
29.49999999999998
100
AcDbArc
 50
182.914601575142
 51
270.0
  0
ENDSEC
  0
SECTION
  2
OBJECTS
  0
DICTIONARY
  5
C
330
0
100
AcDbDictionary
  3
ACAD_GROUP
350
D
  3
ACAD_LAYOUT
350
1A
  3
ACAD_MLINESTYLE
350
17
  3
ACAD_PLOTSETTINGS
350
19
  3
ACAD_PLOTSTYLENAME
350
B3
  3
ACDBHEADERROUNDTRIPXREC
350
FE
1001
ACAD
1000
TREAT_AS_HARD
1070
     0
  0
DICTIONARY
  5
AD
330
1F
100
AcDbDictionary
  3
ACAD_LAYOUTSELFREF
350
11F
  0
DICTIONARY
  5
AB
330
1B
100
AcDbDictionary
  3
ACAD_LAYOUTSELFREF
350
11E
  0
DICTIONARY
  5
D
102
{ACAD_REACTORS
330
C
102
}
330
C
100
AcDbDictionary
1001
ACAD
1000
TREAT_AS_HARD
1070
     0
  0
DICTIONARY
  5
1A
102
{ACAD_REACTORS
330
C
102
}
330
C
100
AcDbDictionary
1001
ACAD
1000
TREAT_AS_HARD
1070
     0
  0
DICTIONARY
  5
17
102
{ACAD_REACTORS
330
C
102
}
330
C
100
AcDbDictionary
  3
STANDARD
350
18
1001
ACAD
1000
TREAT_AS_HARD
1070
     0
  0
DICTIONARY
  5
19
102
{ACAD_REACTORS
330
C
102
}
330
C
100
AcDbDictionary
1001
ACAD
1000
TREAT_AS_HARD
1070
     0
  0
ACDBDICTIONARYWDFLT
  5
B3
102
{ACAD_REACTORS
330
C
102
}
330
C
100
AcDbDictionary
281
     1
  3
Normal
350
B4
100
AcDbDictionaryWithDefault
340
B4
  0
DICTIONARY
  5
FE
102
{ACAD_REACTORS
330
C
102
}
330
C
100
AcDbDictionary
  3
TSTACKALIGN
350
FF
  3
TSTACKSIZE
350
100
  3
HYPERLINKBASE
350
101
  3
STYLESHEET
350
102
  3
LAYOUTDICT
350
103
  3
PLOTSETDICT
350
104
  3
PLOTSTYLNAMDICT
350
105
  3
LWETCUNION
350
106
  3
INSUNITS
350
107
  3
CEPSNTYPE
350
108
  3
FINGERPRINTGUID
350
109
  3
VERSIONGUID
350
10A
  3
PSVPSCALE
350
10B
  3
PUCSORTHOREF
350
10C
  3
PUCSORTHOVIEW
350
10D
  3
PUCSBASE
350
10E
  3
PUCSORGTOP
350
10F
  3
PUCSORGBOTTOM
350
110
  3
PUCSORGLEFT
350
111
  3
PUCSORGRIGHT
350
112
  3
PUCSORGFRONT
350
113
  3
PUCSORGBACK
350
114
  3
UCSORTHOREF
350
115
  3
UCSORTHOVIEW
350
116
  3
UCSBASE
350
117
  3
UCSORGTOP
350
118
  3
UCSORGBOTTOM
350
119
  3
UCSORGLEFT
350
11A
  3
UCSORGRIGHT
350
11B
  3
UCSORGFRONT
350
11C
  3
UCSORGBACK
350
11D
  0
XRECORD
  5
11F
102
{ACAD_REACTORS
330
AD
102
}
330
AD
100
AcDbXrecord
340
1F
  0
XRECORD
  5
11E
102
{ACAD_REACTORS
330
AB
102
}
330
AB
100
AcDbXrecord
340
1B
  0
MLINESTYLE
  5
18
102
{ACAD_REACTORS
330
17
102
}
330
17
100
AcDbMlineStyle
  2
STANDARD
 70
     0
  3

 62
   256
 51
90.0
 52
90.0
 71
     2
 49
0.5
 62
   256
  6
BYLAYER
 49
-0.5
 62
   256
  6
BYLAYER
  0
ACDBPLACEHOLDER
  5
B4
102
{ACAD_REACTORS
330
B3
102
}
330
B3
100
AcDbPlaceHolder
280
     0
  0
XRECORD
  5
FF
102
{ACAD_REACTORS
330
FE
102
}
330
FE
100
AcDbXrecord
 90
        1
  0
XRECORD
  5
100
102
{ACAD_REACTORS
330
FE
102
}
330
FE
100
AcDbXrecord
 90
       70
  0
XRECORD
  5
101
102
{ACAD_REACTORS
330
FE
102
}
330
FE
100
AcDbXrecord
  1

  0
XRECORD
  5
102
102
{ACAD_REACTORS
330
FE
102
}
330
FE
100
AcDbXrecord
  1

  0
XRECORD
  5
103
102
{ACAD_REACTORS
330
FE
102
}
330
FE
100
AcDbXrecord
340
1A
  0
XRECORD
  5
104
102
{ACAD_REACTORS
330
FE
102
}
330
FE
100
AcDbXrecord
340
19
  0
XRECORD
  5
105
102
{ACAD_REACTORS
330
FE
102
}
330
FE
100
AcDbXrecord
340
B3
  0
XRECORD
  5
106
102
{ACAD_REACTORS
330
FE
102
}
330
FE
100
AcDbXrecord
 90
    10781
  0
XRECORD
  5
107
102
{ACAD_REACTORS
330
FE
102
}
330
FE
100
AcDbXrecord
 90
        0
  0
XRECORD
  5
108
102
{ACAD_REACTORS
330
FE
102
}
330
FE
100
AcDbXrecord
 90
        0
  0
XRECORD
  5
109
102
{ACAD_REACTORS
330
FE
102
}
330
FE
100
AcDbXrecord
  1
{184AF5F4-3946-460E-8CCC-45DB9C8C816A}
  0
XRECORD
  5
10A
102
{ACAD_REACTORS
330
FE
102
}
330
FE
100
AcDbXrecord
  1
{3198A464-D116-4C87-8A9C-12CAAB528C50}
  0
XRECORD
  5
10B
102
{ACAD_REACTORS
330
FE
102
}
330
FE
100
AcDbXrecord
 40
0.0
  0
XRECORD
  5
10C
102
{ACAD_REACTORS
330
FE
102
}
330
FE
100
AcDbXrecord
340
0
  0
XRECORD
  5
10D
102
{ACAD_REACTORS
330
FE
102
}
330
FE
100
AcDbXrecord
 70
     0
  0
XRECORD
  5
10E
102
{ACAD_REACTORS
330
FE
102
}
330
FE
100
AcDbXrecord
340
0
  0
XRECORD
  5
10F
102
{ACAD_REACTORS
330
FE
102
}
330
FE
100
AcDbXrecord
 10
0.0
 20
0.0
 30
0.0
  0
XRECORD
  5
110
102
{ACAD_REACTORS
330
FE
102
}
330
FE
100
AcDbXrecord
 10
0.0
 20
0.0
 30
0.0
  0
XRECORD
  5
111
102
{ACAD_REACTORS
330
FE
102
}
330
FE
100
AcDbXrecord
 10
0.0
 20
0.0
 30
0.0
  0
XRECORD
  5
112
102
{ACAD_REACTORS
330
FE
102
}
330
FE
100
AcDbXrecord
 10
0.0
 20
0.0
 30
0.0
  0
XRECORD
  5
113
102
{ACAD_REACTORS
330
FE
102
}
330
FE
100
AcDbXrecord
 10
0.0
 20
0.0
 30
0.0
  0
XRECORD
  5
114
102
{ACAD_REACTORS
330
FE
102
}
330
FE
100
AcDbXrecord
 10
0.0
 20
0.0
 30
0.0
  0
XRECORD
  5
115
102
{ACAD_REACTORS
330
FE
102
}
330
FE
100
AcDbXrecord
340
0
  0
XRECORD
  5
116
102
{ACAD_REACTORS
330
FE
102
}
330
FE
100
AcDbXrecord
 70
     0
  0
XRECORD
  5
117
102
{ACAD_REACTORS
330
FE
102
}
330
FE
100
AcDbXrecord
340
0
  0
XRECORD
  5
118
102
{ACAD_REACTORS
330
FE
102
}
330
FE
100
AcDbXrecord
 10
0.0
 20
0.0
 30
0.0
  0
XRECORD
  5
119
102
{ACAD_REACTORS
330
FE
102
}
330
FE
100
AcDbXrecord
 10
0.0
 20
0.0
 30
0.0
  0
XRECORD
  5
11A
102
{ACAD_REACTORS
330
FE
102
}
330
FE
100
AcDbXrecord
 10
0.0
 20
0.0
 30
0.0
  0
XRECORD
  5
11B
102
{ACAD_REACTORS
330
FE
102
}
330
FE
100
AcDbXrecord
 10
0.0
 20
0.0
 30
0.0
  0
XRECORD
  5
11C
102
{ACAD_REACTORS
330
FE
102
}
330
FE
100
AcDbXrecord
 10
0.0
 20
0.0
 30
0.0
  0
XRECORD
  5
11D
102
{ACAD_REACTORS
330
FE
102
}
330
FE
100
AcDbXrecord
 10
0.0
 20
0.0
 30
0.0
  0
ENDSEC
  0
EOF
