  0
SECTION
  2
HEADER
  9
$ACADVER
  1
AC1014
  9
$ACADMAINTVER
 70
     9
  9
$DWGCODEPAGE
  3
ANSI_1252
  9
$INSBASE
 10
0.0
 20
0.0
 30
0.0
  9
$EXTMIN
 10
-86.697241197229
 20
-18.8686478513293
 30
-0.0000000000000055
  9
$EXTMAX
 10
611.302758830771
 20
235.7942333051497
 30
0.000000000000041
  9
$LIMMIN
 10
0.0
 20
0.0
  9
$LIMMAX
 10
420.0
 20
297.0
  9
$ORTHOMODE
 70
     0
  9
$REGENMODE
 70
     1
  9
$FILLMODE
 70
     1
  9
$QTEXTMODE
 70
     0
  9
$MIRRTEXT
 70
     1
  9
$DRAGMODE
 70
     2
  9
$LTSCALE
 40
1.0
  9
$OSMODE
 70
    37
  9
$ATTMODE
 70
     1
  9
$TEXTSIZE
 40
2.5
  9
$TRACEWID
 40
1.0
  9
$TEXTSTYLE
  7
STANDARD
  9
$CLAYER
  8
0
  9
$CELTYPE
  6
BYLAYER
  9
$CECOLOR
 62
   256
  9
$CELTSCALE
 40
1.0
  9
$DELOBJ
 70
     1
  9
$DISPSILH
 70
     0
  9
$DIMSCALE
 40
1.0
  9
$DIMASZ
 40
2.5
  9
$DIMEXO
 40
0.625
  9
$DIMDLI
 40
3.75
  9
$DIMRND
 40
0.0
  9
$DIMDLE
 40
0.0
  9
$DIMEXE
 40
1.25
  9
$DIMTP
 40
0.0
  9
$DIMTM
 40
0.0
  9
$DIMTXT
 40
2.5
  9
$DIMCEN
 40
2.5
  9
$DIMTSZ
 40
0.0
  9
$DIMTOL
 70
     0
  9
$DIMLIM
 70
     0
  9
$DIMTIH
 70
     0
  9
$DIMTOH
 70
     0
  9
$DIMSE1
 70
     0
  9
$DIMSE2
 70
     0
  9
$DIMTAD
 70
     1
  9
$DIMZIN
 70
     8
  9
$DIMBLK
  1

  9
$DIMASO
 70
     1
  9
$DIMSHO
 70
     1
  9
$DIMPOST
  1

  9
$DIMAPOST
  1

  9
$DIMALT
 70
     0
  9
$DIMALTD
 70
     3
  9
$DIMALTF
 40
0.03937007874016
  9
$DIMLFAC
 40
1.0
  9
$DIMTOFL
 70
     1
  9
$DIMTVP
 40
0.0
  9
$DIMTIX
 70
     0
  9
$DIMSOXD
 70
     0
  9
$DIMSAH
 70
     0
  9
$DIMBLK1
  1

  9
$DIMBLK2
  1

  9
$DIMSTYLE
  2
ISO-25
  9
$DIMCLRD
 70
     0
  9
$DIMCLRE
 70
     0
  9
$DIMCLRT
 70
     0
  9
$DIMTFAC
 40
1.0
  9
$DIMGAP
 40
0.625
  9
$DIMJUST
 70
     0
  9
$DIMSD1
 70
     0
  9
$DIMSD2
 70
     0
  9
$DIMTOLJ
 70
     0
  9
$DIMTZIN
 70
     8
  9
$DIMALTZ
 70
     0
  9
$DIMALTTZ
 70
     0
  9
$DIMFIT
 70
     3
  9
$DIMUPT
 70
     0
  9
$DIMUNIT
 70
     2
  9
$DIMDEC
 70
     2
  9
$DIMTDEC
 70
     2
  9
$DIMALTU
 70
     2
  9
$DIMALTTD
 70
     3
  9
$DIMTXSTY
  7
STANDARD
  9
$DIMAUNIT
 70
     0
  9
$LUNITS
 70
     2
  9
$LUPREC
 70
     4
  9
$SKETCHINC
 40
1.0
  9
$FILLETRAD
 40
10.0
  9
$AUNITS
 70
     0
  9
$AUPREC
 70
     0
  9
$MENU
  1
.
  9
$ELEVATION
 40
0.0
  9
$PELEVATION
 40
0.0
  9
$THICKNESS
 40
0.0
  9
$LIMCHECK
 70
     0
  9
$BLIPMODE
 70
     0
  9
$CHAMFERA
 40
10.0
  9
$CHAMFERB
 40
10.0
  9
$CHAMFERC
 40
20.0
  9
$CHAMFERD
 40
0.0
  9
$SKPOLY
 70
     0
  9
$TDCREATE
 40
2452502.588081400
  9
$TDUPDATE
 40
2452856.629921504
  9
$TDINDWG
 40
0.0030060532
  9
$TDUSRTIMER
 40
0.0030055208
  9
$USRTIMER
 70
     1
  9
$ANGBASE
 50
0.0
  9
$ANGDIR
 70
     0
  9
$PDMODE
 70
     0
  9
$PDSIZE
 40
0.0
  9
$PLINEWID
 40
0.0
  9
$COORDS
 70
     1
  9
$SPLFRAME
 70
     0
  9
$SPLINETYPE
 70
     6
  9
$SPLINESEGS
 70
     8
  9
$ATTDIA
 70
     0
  9
$ATTREQ
 70
     1
  9
$HANDLING
 70
  4097
  9
$HANDSEED
  5
157
  9
$SURFTAB1
 70
     6
  9
$SURFTAB2
 70
     6
  9
$SURFTYPE
 70
     6
  9
$SURFU
 70
     6
  9
$SURFV
 70
     6
  9
$UCSNAME
  2

  9
$UCSORG
 10
0.0
 20
0.0
 30
0.0
  9
$UCSXDIR
 10
1.0
 20
0.0
 30
0.0
  9
$UCSYDIR
 10
0.0
 20
1.0
 30
0.0
  9
$PUCSNAME
  2

  9
$PUCSORG
 10
0.0
 20
0.0
 30
0.0
  9
$PUCSXDIR
 10
1.0
 20
0.0
 30
0.0
  9
$PUCSYDIR
 10
0.0
 20
1.0
 30
0.0
  9
$USERI1
 70
     0
  9
$USERI2
 70
     0
  9
$USERI3
 70
     0
  9
$USERI4
 70
     0
  9
$USERI5
 70
     0
  9
$USERR1
 40
0.0
  9
$USERR2
 40
0.0
  9
$USERR3
 40
0.0
  9
$USERR4
 40
0.0
  9
$USERR5
 40
0.0
  9
$WORLDVIEW
 70
     1
  9
$SHADEDGE
 70
     3
  9
$SHADEDIF
 70
    70
  9
$TILEMODE
 70
     1
  9
$MAXACTVP
 70
    64
  9
$PINSBASE
 10
0.0
 20
0.0
 30
0.0
  9
$PLIMCHECK
 70
     0
  9
$PEXTMIN
 10
1.000000000000000E+20
 20
1.000000000000000E+20
 30
1.000000000000000E+20
  9
$PEXTMAX
 10
-1.000000000000000E+20
 20
-1.000000000000000E+20
 30
-1.000000000000000E+20
  9
$PLIMMIN
 10
0.0
 20
0.0
  9
$PLIMMAX
 10
420.0
 20
297.0
  9
$UNITMODE
 70
     0
  9
$VISRETAIN
 70
     1
  9
$PLINEGEN
 70
     0
  9
$PSLTSCALE
 70
     1
  9
$TREEDEPTH
 70
  3020
  9
$PICKSTYLE
 70
     1
  9
$CMLSTYLE
  2
STANDARD
  9
$CMLJUST
 70
     0
  9
$CMLSCALE
 40
20.0
  9
$PROXYGRAPHICS
 70
     1
  9
$MEASUREMENT
 70
     1
  0
ENDSEC
  0
SECTION
  2
CLASSES
  0
CLASS
  1
ACDBDICTIONARYWDFLT
  2
AcDbDictionaryWithDefault
  3
AutoCAD 2000
 90
        0
280
     0
281
     0
  0
CLASS
  1
ACDBPLACEHOLDER
  2
AcDbPlaceHolder
  3
AutoCAD 2000
 90
        0
280
     0
281
     0
  0
CLASS
  1
LAYOUT
  2
AcDbLayout
  3
AutoCAD 2000
 90
        0
280
     0
281
     0
  0
CLASS
  1
LONG_TRANSACTION
  2
AcDbLongTransaction
  3
AutoCAD 2000
 90
        0
280
     0
281
     0
  0
CLASS
  1
LWPOLYLINE
  2
AcDbPolyline
  3
AutoCAD 2000
 90
        0
280
     0
281
     1
  0
CLASS
  1
HATCH
  2
AcDbHatch
  3
AutoCAD 2000
 90
        0
280
     0
281
     1
  0
CLASS
  1
XRECORD
  2
AcDbXrecord
  3
AutoCAD 2000
 90
        0
280
     0
281
     0
  0
CLASS
  1
LONG_TRANSACTION
  2
AcDbLongTransaction
  3
AutoCAD 2000
 90
        0
280
     0
281
     0
  0
CLASS
  1
LWPOLYLINE
  2
AcDbPolyline
  3
AutoCAD 2000
 90
        0
280
     0
281
     1
  0
CLASS
  1
HATCH
  2
AcDbHatch
  3
AutoCAD 2000
 90
        0
280
     0
281
     1
  0
CLASS
  1
XRECORD
  2
AcDbXrecord
  3
AutoCAD 2000
 90
        0
280
     0
281
     0
  0
CLASS
  1
LONG_TRANSACTION
  2
AcDbLongTransaction
  3
AutoCAD 2000
 90
        0
280
     0
281
     0
  0
CLASS
  1
LWPOLYLINE
  2
AcDbPolyline
  3
AutoCAD 2000
 90
        0
280
     0
281
     1
  0
CLASS
  1
HATCH
  2
AcDbHatch
  3
AutoCAD 2000
 90
        0
280
     0
281
     1
  0
CLASS
  1
XRECORD
  2
AcDbXrecord
  3
AutoCAD 2000
 90
        0
280
     0
281
     0
  0
ENDSEC
  0
SECTION
  2
TABLES
  0
TABLE
  2
VPORT
  5
8
330
0
100
AcDbSymbolTable
 70
     2
  0
VPORT
  5
133
330
8
100
AcDbSymbolTableRecord
100
AcDbViewportTableRecord
  2
*ACTIVE
 70
     0
 10
0.0
 20
0.0
 11
1.0
 21
1.0
 12
349.1619464373793
 22
148.4999996542464
 13
0.0
 23
0.0
 14
10.0
 24
10.0
 15
10.0
 25
10.0
 16
0.0
 26
0.0
 36
1.0
 17
0.0
 27
0.0
 37
0.0
 40
576.1799995519055
 41
1.818713450292397
 42
50.0
 43
0.0
 44
0.0
 50
0.0
 51
0.0
 71
     0
 72
   100
 73
     1
 74
     3
 75
     0
 76
     0
 77
     0
 78
     0
  0
ENDTAB
  0
TABLE
  2
LTYPE
  5
5
330
0
100
AcDbSymbolTable
 70
     1
  0
LTYPE
  5
14
330
5
100
AcDbSymbolTableRecord
100
AcDbLinetypeTableRecord
  2
BYBLOCK
 70
     0
  3

 72
    65
 73
     0
 40
0.0
  0
LTYPE
  5
15
330
5
100
AcDbSymbolTableRecord
100
AcDbLinetypeTableRecord
  2
BYLAYER
 70
     0
  3

 72
    65
 73
     0
 40
0.0
  0
LTYPE
  5
16
330
5
100
AcDbSymbolTableRecord
100
AcDbLinetypeTableRecord
  2
CONTINUOUS
 70
     0
  3
Solid line
 72
    65
 73
     0
 40
0.0
  0
ENDTAB
  0
TABLE
  2
LAYER
  5
2
330
0
100
AcDbSymbolTable
 70
     2
  0
LAYER
  5
10
330
2
100
AcDbSymbolTableRecord
100
AcDbLayerTableRecord
  2
0
 70
     0
 62
     7
  6
CONTINUOUS
  0
LAYER
  5
8D
330
2
100
AcDbSymbolTableRecord
100
AcDbLayerTableRecord
  2
PV-CB
 70
     2
 62
     7
  6
CONTINUOUS
  0
ENDTAB
  0
TABLE
  2
STYLE
  5
3
330
0
100
AcDbSymbolTable
 70
     1
  0
STYLE
  5
11
330
3
100
AcDbSymbolTableRecord
100
AcDbTextStyleTableRecord
  2
STANDARD
 70
     0
 40
0.0
 41
1.0
 50
0.0
 71
     0
 42
2.5
  3
txt
  4

  0
ENDTAB
  0
TABLE
  2
VIEW
  5
6
330
0
100
AcDbSymbolTable
 70
     0
  0
ENDTAB
  0
TABLE
  2
UCS
  5
7
330
0
100
AcDbSymbolTable
 70
     0
  0
ENDTAB
  0
TABLE
  2
APPID
  5
9
330
0
100
AcDbSymbolTable
 70
     1
  0
APPID
  5
12
330
9
100
AcDbSymbolTableRecord
100
AcDbRegAppTableRecord
  2
ACAD
 70
     0
  0
ENDTAB
  0
TABLE
  2
DIMSTYLE
  5
A
330
0
100
AcDbSymbolTable
 70
     2
  0
DIMSTYLE
105
27
330
A
100
AcDbSymbolTableRecord
100
AcDbDimStyleTableRecord
  2
ISO-25
 70
     0
  3

  4

  5

  6

  7

 40
1.0
 41
2.5
 42
0.625
 43
3.75
 44
1.25
 45
0.0
 46
0.0
 47
0.0
 48
0.0
140
2.5
141
2.5
142
0.0
143
0.03937007874016
144
1.0
145
0.0
146
1.0
147
0.625
 71
     0
 72
     0
 73
     0
 74
     0
 75
     0
 76
     0
 77
     1
 78
     8
170
     0
171
     3
172
     1
173
     0
174
     0
175
     0
176
     0
177
     0
178
     0
270
     2
271
     2
272
     2
273
     2
274
     3
340
11
275
     0
280
     0
281
     0
282
     0
283
     0
284
     8
285
     0
286
     0
287
     3
288
     0
  0
DIMSTYLE
105
8E
330
A
100
AcDbSymbolTableRecord
100
AcDbDimStyleTableRecord
  2
STANDARD
 70
     0
  3

  4

  5

  6

  7

 40
1.0
 41
0.18
 42
0.0625
 43
0.38
 44
0.18
 45
0.0
 46
0.0
 47
0.0
 48
0.0
140
0.18
141
0.09
142
0.0
143
25.4
144
1.0
145
0.0
146
1.0
147
0.09
 71
     0
 72
     0
 73
     1
 74
     1
 75
     0
 76
     0
 77
     0
 78
     0
170
     0
171
     2
172
     0
173
     0
174
     0
175
     0
176
     0
177
     0
178
     0
270
     2
271
     4
272
     4
273
     2
274
     2
340
11
275
     0
280
     0
281
     0
282
     0
283
     1
284
     0
285
     0
286
     0
287
     3
288
     0
  0
ENDTAB
  0
TABLE
  2
BLOCK_RECORD
  5
1
330
0
100
AcDbSymbolTable
 70
     9
  0
BLOCK_RECORD
  5
1F
102
{ACAD_XDICTIONARY
360
BB
102
}
330
1
100
AcDbSymbolTableRecord
100
AcDbBlockTableRecord
  2
*MODEL_SPACE
  0
BLOCK_RECORD
  5
1B
102
{ACAD_XDICTIONARY
360
B9
102
}
330
1
100
AcDbSymbolTableRecord
100
AcDbBlockTableRecord
  2
*PAPER_SPACE
  0
BLOCK_RECORD
  5
35
330
1
100
AcDbSymbolTableRecord
100
AcDbBlockTableRecord
  2
*U0
  0
BLOCK_RECORD
  5
46
330
1
100
AcDbSymbolTableRecord
100
AcDbBlockTableRecord
  2
FRONT
  0
BLOCK_RECORD
  5
4A
330
1
100
AcDbSymbolTableRecord
100
AcDbBlockTableRecord
  2
*U2
  0
BLOCK_RECORD
  5
5A
330
1
100
AcDbSymbolTableRecord
100
AcDbBlockTableRecord
  2
LEFT
  0
BLOCK_RECORD
  5
5E
330
1
100
AcDbSymbolTableRecord
100
AcDbBlockTableRecord
  2
*U4
  0
BLOCK_RECORD
  5
6C
330
1
100
AcDbSymbolTableRecord
100
AcDbBlockTableRecord
  2
RIGHT
  0
BLOCK_RECORD
  5
70
330
1
100
AcDbSymbolTableRecord
100
AcDbBlockTableRecord
  2
*U6
  0
BLOCK_RECORD
  5
89
330
1
100
AcDbSymbolTableRecord
100
AcDbBlockTableRecord
  2
TOP
  0
BLOCK_RECORD
  5
8F
330
1
100
AcDbSymbolTableRecord
100
AcDbBlockTableRecord
  2
801_36_100
  0
ENDTAB
  0
ENDSEC
  0
SECTION
  2
BLOCKS
  0
BLOCK
  5
20
330
1F
100
AcDbEntity
  8
0
100
AcDbBlockBegin
  2
*MODEL_SPACE
 70
     0
 10
0.0
 20
0.0
 30
0.0
  3
*MODEL_SPACE
  1

  0
ENDBLK
  5
21
330
1F
100
AcDbEntity
  8
0
100
AcDbBlockEnd
  0
BLOCK
  5
1C
330
1B
100
AcDbEntity
 67
     1
  8
0
100
AcDbBlockBegin
  2
*PAPER_SPACE
 70
     0
 10
0.0
 20
0.0
 30
0.0
  3
*PAPER_SPACE
  1

  0
ENDBLK
  5
1D
330
1B
100
AcDbEntity
 67
     1
  8
0
100
AcDbBlockEnd
  0
BLOCK
  5
44
330
35
100
AcDbEntity
  8
0
100
AcDbBlockBegin
  2
*U0
 70
     1
 10
0.0
 20
0.0
 30
0.0
  3
*U0
  1
*ANON
  0
ARC
  5
36
330
35
100
AcDbEntity
  8
PV-CB
100
AcDbCircle
 10
0.0
 20
0.0
 30
0.0
 40
16.5
210
0.0
220
-1.0
230
0.0
100
AcDbArc
 50
89.99999999999941
 51
269.9999999999997
  0
ARC
  5
37
330
35
100
AcDbEntity
  8
PV-CB
100
AcDbCircle
 10
300.0
 20
0.0
 30
0.0
 40
16.5
210
0.0
220
-1.0
230
0.0
100
AcDbArc
 50
270.0
 51
90.0000000000006
  0
ARC
  5
38
330
35
100
AcDbEntity
  8
PV-CB
100
AcDbCircle
 10
0.0
 20
0.0
 30
0.0
 40
35.0
210
0.0
220
-1.0
230
0.0
100
AcDbArc
 50
28.12706821860473
 51
180.0
  0
ARC
  5
39
330
35
100
AcDbEntity
  8
PV-CB
100
AcDbCircle
 10
0.0
 20
0.0
 30
0.0
 40
35.0
210
0.0
220
-1.0
230
0.0
100
AcDbArc
 50
179.9999999999992
 51
331.8729317813944
  0
ARC
  5
3A
330
35
100
AcDbEntity
  8
PV-CB
100
AcDbCircle
 10
0.0
 20
0.0
 30
0.0
 40
16.8
210
0.0
220
-1.0
230
0.0
100
AcDbArc
 50
79.15593743630314
 51
180.0000000000002
  0
ARC
  5
3B
330
35
100
AcDbEntity
  8
PV-CB
100
AcDbCircle
 10
0.0
 20
0.0
 30
0.0
 40
16.8
210
0.0
220
-1.0
230
0.0
100
AcDbArc
 50
179.999999999999
 51
280.8440625636959
  0
ARC
  5
3C
330
35
100
AcDbEntity
  8
PV-CB
100
AcDbCircle
 10
300.0
 20
0.0
 30
0.0
 40
35.0
210
0.0
220
-1.0
230
0.0
100
AcDbArc
 50
208.1270682186039
 51
151.8729317813949
  0
ARC
  5
3D
330
35
100
AcDbEntity
  8
PV-CB
100
AcDbCircle
 10
300.0
 20
0.0
 30
0.0
 40
16.8
210
0.0
220
-1.0
230
0.0
100
AcDbArc
 50
259.1559374363021
 51
100.8440625636968
  0
LINE
  5
3E
330
35
100
AcDbEntity
  8
PV-CB
100
AcDbLine
 10
48.5
 20
0.0
 30
-16.5
 11
251.5
 21
0.0
 31
-16.5
  0
LINE
  5
3F
330
35
100
AcDbEntity
  8
PV-CB
100
AcDbLine
 10
48.5
 20
0.0
 30
16.5
 11
251.5
 21
0.0
 31
16.5
  0
LINE
  5
40
330
35
100
AcDbEntity
  8
PV-CB
100
AcDbLine
 10
300.0
 20
0.0
 30
16.5
 11
251.4999999999997
 21
0.0
 31
16.5
  0
LINE
  5
41
330
35
100
AcDbEntity
  8
PV-CB
100
AcDbLine
 10
251.4999999999997
 20
0.0
 30
-16.5
 11
300.0
 21
0.0
 31
-16.5
  0
LINE
  5
42
330
35
100
AcDbEntity
  8
PV-CB
100
AcDbLine
 10
48.49999999999983
 20
0.0
 30
16.5
 11
0.0
 21
0.0
 31
16.5
  0
LINE
  5
43
330
35
100
AcDbEntity
  8
PV-CB
100
AcDbLine
 10
0.0
 20
0.0
 30
-16.5
 11
48.49999999999983
 21
0.0
 31
-16.5
  0
ENDBLK
  5
45
330
35
100
AcDbEntity
  8
0
100
AcDbBlockEnd
  0
BLOCK
  5
48
330
46
100
AcDbEntity
  8
0
100
AcDbBlockBegin
  2
FRONT
 70
     0
 10
0.0
 20
0.0
 30
0.0
  3
FRONT
  1

  0
INSERT
  5
47
330
46
100
AcDbEntity
  8
PV-CB
100
AcDbBlockReference
  2
*U0
 10
0.0
 20
0.0
 30
0.0
 50
180.0
210
0.0
220
1.0
230
0.0
  0
ENDBLK
  5
49
330
46
100
AcDbEntity
  8
0
100
AcDbBlockEnd
  0
BLOCK
  5
58
330
4A
100
AcDbEntity
  8
0
100
AcDbBlockBegin
  2
*U2
 70
     1
 10
0.0
 20
0.0
 30
0.0
  3
*U2
  1
*ANON
  0
ARC
  5
4B
330
4A
100
AcDbEntity
  8
PV-CB
100
AcDbCircle
 10
73.5
 20
0.0
 30
0.0
 40
16.5
210
-1.0
220
0.0
230
0.0
100
AcDbArc
 50
270.0
 51
90.0000000000006
  0
LINE
  5
4C
330
4A
100
AcDbEntity
  8
PV-CB
100
AcDbLine
 10
0.0
 20
0.0
 30
0.0
 11
0.0
 21
0.0
 31
35.0
  0
LINE
  5
4D
330
4A
100
AcDbEntity
  8
PV-CB
100
AcDbLine
 10
0.0
 20
0.0
 30
-35.0
 11
0.0
 21
0.0
 31
0.0000000000004888
  0
LINE
  5
4E
330
4A
100
AcDbEntity
  8
PV-CB
100
AcDbLine
 10
0.0
 20
-12.0
 30
0.0
 11
0.0
 21
-12.0
 31
33.0
  0
LINE
  5
4F
330
4A
100
AcDbEntity
  8
PV-CB
100
AcDbLine
 10
0.0
 20
-12.0
 30
-33.0
 11
0.0
 21
-12.0
 31
0.0000000000004609
  0
LINE
  5
50
330
4A
100
AcDbEntity
  8
PV-CB
100
AcDbLine
 10
0.0
 20
-10.0
 30
35.0
 11
0.0
 21
0.0
 31
35.0
  0
LINE
  5
51
330
4A
100
AcDbEntity
  8
PV-CB
100
AcDbLine
 10
0.0
 20
-10.0
 30
-35.0
 11
0.0
 21
0.0
 31
-35.0
  0
LINE
  5
52
330
4A
100
AcDbEntity
  8
PV-CB
100
AcDbLine
 10
0.0
 20
-12.0
 30
-16.5
 11
0.0
 21
-25.0
 31
-16.5
  0
LINE
  5
53
330
4A
100
AcDbEntity
  8
PV-CB
100
AcDbLine
 10
0.0
 20
-12.0
 30
16.5
 11
0.0
 21
-25.0
 31
16.5
  0
ARC
  5
54
330
4A
100
AcDbEntity
  8
PV-CB
100
AcDbCircle
 10
10.0
 20
-33.0
 30
0.0
 40
2.0
210
-1.0
220
0.0
230
0.0
100
AcDbArc
 50
270.0
 51
0.000000000001239
  0
ARC
  5
55
330
4A
100
AcDbEntity
  8
PV-CB
100
AcDbCircle
 10
10.0
 20
33.0
 30
0.0
 40
2.0
210
-1.0
220
0.0
230
0.0
100
AcDbArc
 50
359.999999999998
 51
89.99999999999978
  0
LINE
  5
56
330
4A
100
AcDbEntity
  8
PV-CB
100
AcDbLine
 10
0.0
 20
-73.5
 30
16.5
 11
0.0
 21
-25.0
 31
16.5
  0
LINE
  5
57
330
4A
100
AcDbEntity
  8
PV-CB
100
AcDbLine
 10
0.0
 20
-25.0
 30
-16.5
 11
0.0
 21
-73.5
 31
-16.5
  0
ENDBLK
  5
59
330
4A
100
AcDbEntity
  8
0
100
AcDbBlockEnd
  0
BLOCK
  5
5C
330
5A
100
AcDbEntity
  8
0
100
AcDbBlockBegin
  2
LEFT
 70
     0
 10
0.0
 20
0.0
 30
0.0
  3
LEFT
  1

  0
INSERT
  5
5B
330
5A
100
AcDbEntity
  8
PV-CB
100
AcDbBlockReference
  2
*U2
 10
0.0
 20
0.0
 30
0.0
 50
270.0
210
0.0
220
1.0
230
0.0
  0
ENDBLK
  5
5D
330
5A
100
AcDbEntity
  8
0
100
AcDbBlockEnd
  0
BLOCK
  5
6A
330
5E
100
AcDbEntity
  8
0
100
AcDbBlockBegin
  2
*U4
 70
     1
 10
0.0
 20
0.0
 30
0.0
  3
*U4
  1
*ANON
  0
ARC
  5
5F
330
5E
100
AcDbEntity
  8
PV-CB
100
AcDbCircle
 10
-73.5
 20
0.0
 30
0.0
 40
16.5
210
1.0
220
0.0
230
0.0
100
AcDbArc
 50
89.99999999999941
 51
269.9999999999997
  0
LINE
  5
60
330
5E
100
AcDbEntity
  8
PV-CB
100
AcDbLine
 10
0.0
 20
0.0
 30
35.0
 11
0.0
 21
0.0
 31
-35.0
  0
LINE
  5
61
330
5E
100
AcDbEntity
  8
PV-CB
100
AcDbLine
 10
0.0
 20
-12.0
 30
33.0
 11
0.0
 21
-12.0
 31
-33.0
  0
LINE
  5
62
330
5E
100
AcDbEntity
  8
PV-CB
100
AcDbLine
 10
0.0
 20
-10.0
 30
-35.0
 11
0.0
 21
0.0
 31
-35.0
  0
LINE
  5
63
330
5E
100
AcDbEntity
  8
PV-CB
100
AcDbLine
 10
0.0
 20
-10.0
 30
35.0
 11
0.0
 21
0.0
 31
35.0
  0
LINE
  5
64
330
5E
100
AcDbEntity
  8
PV-CB
100
AcDbLine
 10
0.0
 20
-25.0
 30
-16.5
 11
0.0
 21
-12.0
 31
-16.5
  0
LINE
  5
65
330
5E
100
AcDbEntity
  8
PV-CB
100
AcDbLine
 10
0.0
 20
-25.0
 30
16.5
 11
0.0
 21
-12.0
 31
16.5
  0
ARC
  5
66
330
5E
100
AcDbEntity
  8
PV-CB
100
AcDbCircle
 10
-10.0
 20
33.0
 30
0.0
 40
2.0
210
1.0
220
0.0
230
0.0
100
AcDbArc
 50
90.00000000000019
 51
180.0000000000012
  0
ARC
  5
67
330
5E
100
AcDbEntity
  8
PV-CB
100
AcDbCircle
 10
-10.0
 20
-33.0
 30
0.0
 40
2.0
210
1.0
220
0.0
230
0.0
100
AcDbArc
 50
179.9999999999978
 51
269.9999999999997
  0
LINE
  5
68
330
5E
100
AcDbEntity
  8
PV-CB
100
AcDbLine
 10
0.0
 20
-25.00000000000017
 30
16.5
 11
0.0
 21
-73.5
 31
16.5
  0
LINE
  5
69
330
5E
100
AcDbEntity
  8
PV-CB
100
AcDbLine
 10
0.0
 20
-73.5
 30
-16.5
 11
0.0
 21
-25.00000000000017
 31
-16.5
  0
ENDBLK
  5
6B
330
5E
100
AcDbEntity
  8
0
100
AcDbBlockEnd
  0
BLOCK
  5
6E
330
6C
100
AcDbEntity
  8
0
100
AcDbBlockBegin
  2
RIGHT
 70
     0
 10
0.0
 20
0.0
 30
0.0
  3
RIGHT
  1

  0
INSERT
  5
6D
330
6C
100
AcDbEntity
  8
PV-CB
100
AcDbBlockReference
  2
*U4
 10
0.0
 20
0.0
 30
0.0
 50
90.0
210
0.0
220
1.0
230
0.0
  0
ENDBLK
  5
6F
330
6C
100
AcDbEntity
  8
0
100
AcDbBlockEnd
  0
BLOCK
  5
87
330
70
100
AcDbEntity
  8
0
100
AcDbBlockBegin
  2
*U6
 70
     1
 10
0.0
 20
0.0
 30
0.0
  3
*U6
  1
*ANON
  0
LINE
  5
71
330
70
100
AcDbEntity
  8
PV-CB
100
AcDbLine
 10
-35.0
 20
0.0
 30
0.0
 11
35.0
 21
0.0
 31
0.0
  0
LINE
  5
72
330
70
100
AcDbEntity
  8
PV-CB
100
AcDbLine
 10
-33.0
 20
-12.0
 30
0.0
 11
33.0
 21
-12.0
 31
0.0
  0
LINE
  5
73
330
70
100
AcDbEntity
  8
PV-CB
100
AcDbLine
 10
265.0
 20
0.0
 30
0.0
 11
335.0
 21
0.0
 31
0.0
  0
LINE
  5
74
330
70
100
AcDbEntity
  8
PV-CB
100
AcDbLine
 10
267.0
 20
-12.0
 30
0.0
 11
333.0
 21
-12.0
 31
0.0
  0
LINE
  5
75
330
70
100
AcDbEntity
  8
PV-CB
100
AcDbLine
 10
335.0
 20
-10.0
 30
0.0
 11
335.0
 21
0.0
 31
0.0
  0
LINE
  5
76
330
70
100
AcDbEntity
  8
PV-CB
100
AcDbLine
 10
265.0
 20
-10.0
 30
0.0
 11
265.0
 21
0.0
 31
0.0
  0
LINE
  5
77
330
70
100
AcDbEntity
  8
PV-CB
100
AcDbLine
 10
35.0
 20
-10.0
 30
0.0
 11
35.0
 21
0.0
 31
0.0
  0
LINE
  5
78
330
70
100
AcDbEntity
  8
PV-CB
100
AcDbLine
 10
-35.0
 20
-10.0
 30
0.0
 11
-35.0
 21
0.0
 31
0.0
  0
LINE
  5
79
330
70
100
AcDbEntity
  8
PV-CB
100
AcDbLine
 10
316.5
 20
-25.0
 30
0.0
 11
316.5
 21
-12.0
 31
0.0
  0
LINE
  5
7A
330
70
100
AcDbEntity
  8
PV-CB
100
AcDbLine
 10
283.4999999999999
 20
-25.0
 30
0.0
 11
283.4999999999999
 21
-12.0
 31
0.0
  0
LINE
  5
7B
330
70
100
AcDbEntity
  8
PV-CB
100
AcDbLine
 10
48.5
 20
-90.0
 30
0.0
 11
251.5
 21
-90.0
 31
0.0
  0
LINE
  5
7C
330
70
100
AcDbEntity
  8
PV-CB
100
AcDbLine
 10
48.5
 20
-57.0
 30
0.0
 11
251.5
 21
-57.0
 31
0.0
  0
LINE
  5
7D
330
70
100
AcDbEntity
  8
PV-CB
100
AcDbLine
 10
-16.5
 20
-12.0
 30
0.0
 11
-16.5
 21
-25.0
 31
0.0
  0
LINE
  5
7E
330
70
100
AcDbEntity
  8
PV-CB
100
AcDbLine
 10
16.5
 20
-12.0
 30
0.0
 11
16.5
 21
-25.0
 31
0.0
  0
ARC
  5
7F
330
70
100
AcDbEntity
  8
PV-CB
100
AcDbCircle
 10
267.0
 20
-10.0
 30
0.0
 40
2.0
100
AcDbArc
 50
180.0000000000002
 51
269.9999999999996
  0
ARC
  5
80
330
70
100
AcDbEntity
  8
PV-CB
100
AcDbCircle
 10
333.0
 20
-10.0
 30
0.0
 40
2.0
100
AcDbArc
 50
269.9999999999996
 51
359.9999999999997
  0
ARC
  5
81
330
70
100
AcDbEntity
  8
PV-CB
100
AcDbCircle
 10
-33.0
 20
-10.0
 30
0.0
 40
2.0
100
AcDbArc
 50
180.0000000000002
 51
270.0000000000012
  0
ARC
  5
82
330
70
100
AcDbEntity
  8
PV-CB
100
AcDbCircle
 10
33.0
 20
-10.0
 30
0.0
 40
2.0
100
AcDbArc
 50
269.9999999999978
 51
359.9999999999997
  0
ARC
  5
83
330
70
100
AcDbEntity
  8
PV-CB
100
AcDbCircle
 10
251.5
 20
-25.0
 30
0.0
 40
65.0
100
AcDbArc
 50
269.9999999999997
 51
360.0
  0
ARC
  5
84
330
70
100
AcDbEntity
  8
PV-CB
100
AcDbCircle
 10
251.5
 20
-25.0
 30
0.0
 40
32.0
100
AcDbArc
 50
269.9999999999997
 51
0.0
  0
ARC
  5
85
330
70
100
AcDbEntity
  8
PV-CB
100
AcDbCircle
 10
48.5
 20
-25.0
 30
0.0
 40
65.0
100
AcDbArc
 50
179.9999999999974
 51
269.9999999999997
  0
ARC
  5
86
330
70
100
AcDbEntity
  8
PV-CB
100
AcDbCircle
 10
48.5
 20
-25.0
 30
0.0
 40
32.0
100
AcDbArc
 50
179.9999999999974
 51
269.9999999999997
  0
ENDBLK
  5
88
330
70
100
AcDbEntity
  8
0
100
AcDbBlockEnd
  0
BLOCK
  5
8B
330
89
100
AcDbEntity
  8
0
100
AcDbBlockBegin
  2
TOP
 70
     0
 10
0.0
 20
0.0
 30
0.0
  3
TOP
  1

  0
INSERT
  5
8A
330
89
100
AcDbEntity
  8
PV-CB
100
AcDbBlockReference
  2
*U6
 10
0.0
 20
0.0
 30
0.0
  0
ENDBLK
  5
8C
330
89
100
AcDbEntity
  8
0
100
AcDbBlockEnd
  0
BLOCK
  5
94
330
8F
100
AcDbEntity
  8
0
100
AcDbBlockBegin
  2
801_36_100
 70
     0
 10
0.0
 20
0.0
 30
0.0
  3
801_36_100
  1

  0
INSERT
  5
90
330
8F
100
AcDbEntity
  8
0
100
AcDbBlockReference
  2
FRONT
 10
-150.0
 20
0.0
 30
0.0
  0
INSERT
  5
91
330
8F
100
AcDbEntity
  8
0
100
AcDbBlockReference
  2
LEFT
 10
259.000000014
 20
0.0
 30
0.0
  0
INSERT
  5
92
330
8F
100
AcDbEntity
  8
0
100
AcDbBlockReference
  2
RIGHT
 10
-259.000000014
 20
0.0
 30
0.0
  0
INSERT
  5
93
330
8F
100
AcDbEntity
  8
0
100
AcDbBlockReference
  2
TOP
 10
-150.0
 20
-109.0000000139998
 30
0.0
  0
ENDBLK
  5
95
330
8F
100
AcDbEntity
  8
0
100
AcDbBlockEnd
  0
ENDSEC
  0
SECTION
  2
ENTITIES
  0
ARC
  5
F4
330
1F
100
AcDbEntity
  8
PV-CB
100
AcDbCircle
 10
-70.19724119722901
 20
193.5932929397965
 30
-0.0000000000000045
 40
16.5
100
AcDbArc
 50
89.99999999999939
 51
269.9999999999997
  0
LINE
  5
F5
330
1F
100
AcDbEntity
  8
PV-CB
100
AcDbLine
 10
3.302758802770995
 20
228.5932929397965
 30
0.0
 11
3.302758802770995
 21
158.5932929397964
 31
0.0
210
0.0
220
1.0
230
0.0
  0
LINE
  5
F6
330
1F
100
AcDbEntity
  8
PV-CB
100
AcDbLine
 10
-8.697241197229004
 20
226.5932929397965
 30
-0.0000000000000007
 11
-8.697241197229004
 21
160.5932929397964
 31
-0.0000000000000007
210
0.0
220
1.0
230
0.0
  0
LINE
  5
F7
330
1F
100
AcDbEntity
  8
PV-CB
100
AcDbLine
 10
-6.697241197229004
 20
158.5932929397964
 30
-0.0000000000000006
 11
3.302758802770995
 21
158.5932929397964
 31
0.0
210
0.0
220
1.0
230
0.0
  0
LINE
  5
F8
330
1F
100
AcDbEntity
  8
PV-CB
100
AcDbLine
 10
-6.697241197229004
 20
228.5932929397965
 30
-0.0000000000000006
 11
3.302758802770995
 21
228.5932929397965
 31
0.0
210
0.0
220
1.0
230
0.0
  0
LINE
  5
F9
330
1F
100
AcDbEntity
  8
PV-CB
100
AcDbLine
 10
-21.697241197229
 20
177.0932929397964
 30
-0.0000000000000015
 11
-8.697241197229004
 21
177.0932929397964
 31
-0.0000000000000007
210
0.0
220
1.0
230
0.0
  0
LINE
  5
FA
330
1F
100
AcDbEntity
  8
PV-CB
100
AcDbLine
 10
-21.697241197229
 20
210.0932929397965
 30
-0.0000000000000015
 11
-8.697241197229004
 21
210.0932929397965
 31
-0.0000000000000007
210
0.0
220
1.0
230
0.0
  0
ARC
  5
FB
330
1F
100
AcDbEntity
  8
PV-CB
100
AcDbCircle
 10
-6.697241197229004
 20
226.5932929397965
 30
-0.0000000000000006
 40
2.0
100
AcDbArc
 50
90.00000000000019
 51
180.0000000000016
  0
ARC
  5
FC
330
1F
100
AcDbEntity
  8
PV-CB
100
AcDbCircle
 10
-6.697241197229004
 20
160.5932929397964
 30
-0.0000000000000006
 40
2.0
100
AcDbArc
 50
179.9999999999983
 51
269.9999999999997
  0
LINE
  5
FD
330
1F
100
AcDbEntity
  8
PV-CB
100
AcDbLine
 10
-21.69724119722917
 20
210.0932929397965
 30
-0.0000000000000015
 11
-70.19724119722901
 21
210.0932929397965
 31
-0.0000000000000045
210
0.0
220
1.0
230
0.0
  0
LINE
  5
FE
330
1F
100
AcDbEntity
  8
PV-CB
100
AcDbLine
 10
-70.19724119722901
 20
177.0932929397964
 30
-0.0000000000000045
 11
-21.69724119722917
 21
177.0932929397964
 31
-0.0000000000000015
210
0.0
220
1.0
230
0.0
  0
ARC
  5
100
330
1F
100
AcDbEntity
  8
PV-CB
100
AcDbCircle
 10
112.302758816771
 20
193.5932929397965
 30
0.0
 40
16.5
100
AcDbArc
 50
89.9999999999992
 51
270.0
  0
ARC
  5
101
330
1F
100
AcDbEntity
  8
PV-CB
100
AcDbCircle
 10
412.302758816771
 20
193.5932929397965
 30
0.0000000000000367
 40
16.5
100
AcDbArc
 50
270.0
 51
90.00000000000081
  0
ARC
  5
102
330
1F
100
AcDbEntity
  8
PV-CB
100
AcDbCircle
 10
112.302758816771
 20
193.5932929397965
 30
0.0
 40
35.0
100
AcDbArc
 50
28.12706821860439
 51
180.0
  0
ARC
  5
103
330
1F
100
AcDbEntity
  8
PV-CB
100
AcDbCircle
 10
112.302758816771
 20
193.5932929397965
 30
0.0
 40
35.0
100
AcDbArc
 50
180.0
 51
331.8729317813942
  0
ARC
  5
104
330
1F
100
AcDbEntity
  8
PV-CB
100
AcDbCircle
 10
112.302758816771
 20
193.5932929397965
 30
0.0
 40
16.8
100
AcDbArc
 50
79.15593743630303
 51
180.0
  0
ARC
  5
105
330
1F
100
AcDbEntity
  8
PV-CB
100
AcDbCircle
 10
112.302758816771
 20
193.5932929397965
 30
0.0
 40
16.8
100
AcDbArc
 50
179.9999999999983
 51
280.8440625636961
  0
ARC
  5
106
330
1F
100
AcDbEntity
  8
PV-CB
100
AcDbCircle
 10
412.302758816771
 20
193.5932929397965
 30
0.0000000000000367
 40
35.0
100
AcDbArc
 50
208.127068218604
 51
151.8729317813956
  0
ARC
  5
107
330
1F
100
AcDbEntity
  8
PV-CB
100
AcDbCircle
 10
412.302758816771
 20
193.5932929397965
 30
0.0000000000000367
 40
16.8
100
AcDbArc
 50
259.1559374363022
 51
100.8440625636969
  0
LINE
  5
108
330
1F
100
AcDbEntity
  8
PV-CB
100
AcDbLine
 10
160.802758816771
 20
177.0932929397964
 30
0.0000000000000059
 11
363.802758816771
 21
177.0932929397964
 31
0.0000000000000308
210
0.0
220
1.0
230
0.0
  0
LINE
  5
109
330
1F
100
AcDbEntity
  8
PV-CB
100
AcDbLine
 10
160.802758816771
 20
210.0932929397965
 30
0.0000000000000059
 11
363.802758816771
 21
210.0932929397965
 31
0.0000000000000308
210
0.0
220
1.0
230
0.0
  0
LINE
  5
10A
330
1F
100
AcDbEntity
  8
PV-CB
100
AcDbLine
 10
412.302758816771
 20
210.0932929397965
 30
0.0000000000000367
 11
363.8027588167707
 21
210.0932929397965
 31
0.0000000000000308
210
0.0
220
1.0
230
0.0
  0
LINE
  5
10B
330
1F
100
AcDbEntity
  8
PV-CB
100
AcDbLine
 10
363.8027588167707
 20
177.0932929397964
 30
0.0000000000000308
 11
412.302758816771
 21
177.0932929397964
 31
0.0000000000000367
210
0.0
220
1.0
230
0.0
  0
LINE
  5
10C
330
1F
100
AcDbEntity
  8
PV-CB
100
AcDbLine
 10
160.8027588167708
 20
210.0932929397965
 30
0.0000000000000059
 11
112.302758816771
 21
210.0932929397965
 31
0.0
210
0.0
220
1.0
230
0.0
  0
LINE
  5
10D
330
1F
100
AcDbEntity
  8
PV-CB
100
AcDbLine
 10
112.302758816771
 20
177.0932929397964
 30
0.0
 11
160.8027588167708
 21
177.0932929397964
 31
0.0000000000000059
210
0.0
220
1.0
230
0.0
  0
ARC
  5
10F
330
1F
100
AcDbEntity
  8
PV-CB
100
AcDbCircle
 10
594.802758830771
 20
193.5932929397965
 30
0.0000000000000135
 40
16.5
100
AcDbArc
 50
270.0
 51
90.0
  0
LINE
  5
110
330
1F
100
AcDbEntity
  8
PV-CB
100
AcDbLine
 10
521.302758830771
 20
193.5932929397965
 30
0.0
 11
521.302758830771
 21
228.5932929397965
 31
0.0
210
0.0
220
1.0
230
0.0
  0
LINE
  5
111
330
1F
100
AcDbEntity
  8
PV-CB
100
AcDbLine
 10
521.302758830771
 20
158.5932929397964
 30
0.0
 11
521.302758830771
 21
193.5932929397969
 31
0.0
210
0.0
220
1.0
230
0.0
  0
LINE
  5
112
330
1F
100
AcDbEntity
  8
PV-CB
100
AcDbLine
 10
533.302758830771
 20
193.5932929397965
 30
0.0000000000000022
 11
533.302758830771
 21
226.5932929397965
 31
0.0000000000000022
210
0.0
220
1.0
230
0.0
  0
LINE
  5
113
330
1F
100
AcDbEntity
  8
PV-CB
100
AcDbLine
 10
533.302758830771
 20
160.5932929397964
 30
0.0000000000000022
 11
533.302758830771
 21
193.5932929397969
 31
0.0000000000000022
210
0.0
220
1.0
230
0.0
  0
LINE
  5
114
330
1F
100
AcDbEntity
  8
PV-CB
100
AcDbLine
 10
531.302758830771
 20
228.5932929397965
 30
0.0000000000000018
 11
521.302758830771
 21
228.5932929397965
 31
0.0
210
0.0
220
1.0
230
0.0
  0
LINE
  5
115
330
1F
100
AcDbEntity
  8
PV-CB
100
AcDbLine
 10
531.302758830771
 20
158.5932929397964
 30
0.0000000000000018
 11
521.302758830771
 21
158.5932929397964
 31
0.0
210
0.0
220
1.0
230
0.0
  0
LINE
  5
116
330
1F
100
AcDbEntity
  8
PV-CB
100
AcDbLine
 10
533.302758830771
 20
177.0932929397964
 30
0.0000000000000022
 11
546.302758830771
 21
177.0932929397964
 31
0.0000000000000046
210
0.0
220
1.0
230
0.0
  0
LINE
  5
117
330
1F
100
AcDbEntity
  8
PV-CB
100
AcDbLine
 10
533.302758830771
 20
210.0932929397965
 30
0.0000000000000022
 11
546.302758830771
 21
210.0932929397965
 31
0.0000000000000046
210
0.0
220
1.0
230
0.0
  0
ARC
  5
118
330
1F
100
AcDbEntity
  8
PV-CB
100
AcDbCircle
 10
531.302758830771
 20
160.5932929397964
 30
0.0000000000000018
 40
2.0
100
AcDbArc
 50
270.0
 51
0.0000000000016284
  0
ARC
  5
119
330
1F
100
AcDbEntity
  8
PV-CB
100
AcDbCircle
 10
531.302758830771
 20
226.5932929397965
 30
0.0000000000000018
 40
2.0
100
AcDbArc
 50
359.9999999999983
 51
90.0
  0
LINE
  5
11A
330
1F
100
AcDbEntity
  8
PV-CB
100
AcDbLine
 10
594.802758830771
 20
210.0932929397965
 30
0.0000000000000135
 11
546.302758830771
 21
210.0932929397965
 31
0.0000000000000046
210
0.0
220
1.0
230
0.0
  0
LINE
  5
11B
330
1F
100
AcDbEntity
  8
PV-CB
100
AcDbLine
 10
546.302758830771
 20
177.0932929397964
 30
0.0000000000000046
 11
594.802758830771
 21
177.0932929397964
 31
0.0000000000000135
210
0.0
220
1.0
230
0.0
  0
LINE
  5
11D
330
1F
100
AcDbEntity
  8
PV-CB
100
AcDbLine
 10
77.30275881677101
 20
84.59329292579669
 30
0.0
 11
147.302758816771
 21
84.59329292579669
 31
0.0
  0
LINE
  5
11E
330
1F
100
AcDbEntity
  8
PV-CB
100
AcDbLine
 10
79.30275881677101
 20
72.59329292579669
 30
0.0
 11
145.302758816771
 21
72.59329292579669
 31
0.0
  0
LINE
  5
11F
330
1F
100
AcDbEntity
  8
PV-CB
100
AcDbLine
 10
377.302758816771
 20
84.59329292579669
 30
0.0
 11
447.302758816771
 21
84.59329292579669
 31
0.0
  0
LINE
  5
120
330
1F
100
AcDbEntity
  8
PV-CB
100
AcDbLine
 10
379.302758816771
 20
72.59329292579669
 30
0.0
 11
445.302758816771
 21
72.59329292579669
 31
0.0
  0
LINE
  5
121
330
1F
100
AcDbEntity
  8
PV-CB
100
AcDbLine
 10
447.302758816771
 20
74.59329292579669
 30
0.0
 11
447.302758816771
 21
84.59329292579669
 31
0.0
  0
LINE
  5
122
330
1F
100
AcDbEntity
  8
PV-CB
100
AcDbLine
 10
377.302758816771
 20
74.59329292579669
 30
0.0
 11
377.302758816771
 21
84.59329292579669
 31
0.0
  0
LINE
  5
123
330
1F
100
AcDbEntity
  8
PV-CB
100
AcDbLine
 10
147.302758816771
 20
74.59329292579669
 30
0.0
 11
147.302758816771
 21
84.59329292579669
 31
0.0
  0
LINE
  5
124
330
1F
100
AcDbEntity
  8
PV-CB
100
AcDbLine
 10
77.30275881677101
 20
74.59329292579669
 30
0.0
 11
77.30275881677101
 21
84.59329292579669
 31
0.0
  0
LINE
  5
125
330
1F
100
AcDbEntity
  8
PV-CB
100
AcDbLine
 10
428.802758816771
 20
59.59329292579669
 30
0.0
 11
428.802758816771
 21
72.59329292579669
 31
0.0
  0
LINE
  5
126
330
1F
100
AcDbEntity
  8
PV-CB
100
AcDbLine
 10
395.8027588167709
 20
59.59329292579669
 30
0.0
 11
395.8027588167709
 21
72.59329292579669
 31
0.0
  0
LINE
  5
127
330
1F
100
AcDbEntity
  8
PV-CB
100
AcDbLine
 10
160.802758816771
 20
-5.40670707420331
 30
0.0
 11
363.802758816771
 21
-5.40670707420331
 31
0.0
  0
LINE
  5
128
330
1F
100
AcDbEntity
  8
PV-CB
100
AcDbLine
 10
160.802758816771
 20
27.59329292579669
 30
0.0
 11
363.802758816771
 21
27.59329292579669
 31
0.0
  0
LINE
  5
129
330
1F
100
AcDbEntity
  8
PV-CB
100
AcDbLine
 10
95.80275881677101
 20
72.59329292579669
 30
0.0
 11
95.80275881677101
 21
59.59329292579669
 31
0.0
  0
LINE
  5
12A
330
1F
100
AcDbEntity
  8
PV-CB
100
AcDbLine
 10
128.802758816771
 20
72.59329292579669
 30
0.0
 11
128.802758816771
 21
59.59329292579669
 31
0.0
  0
ARC
  5
12B
330
1F
100
AcDbEntity
  8
PV-CB
100
AcDbCircle
 10
379.302758816771
 20
74.59329292579669
 30
0.0
 40
2.0
100
AcDbArc
 50
180.0
 51
269.9999999999992
  0
ARC
  5
12C
330
1F
100
AcDbEntity
  8
PV-CB
100
AcDbCircle
 10
445.302758816771
 20
74.59329292579669
 30
0.0
 40
2.0
100
AcDbArc
 50
269.9999999999992
 51
0.0
  0
ARC
  5
12D
330
1F
100
AcDbEntity
  8
PV-CB
100
AcDbCircle
 10
79.30275881677101
 20
74.59329292579669
 30
0.0
 40
2.0
100
AcDbArc
 50
180.0
 51
270.0000000000008
  0
ARC
  5
12E
330
1F
100
AcDbEntity
  8
PV-CB
100
AcDbCircle
 10
145.302758816771
 20
74.59329292579669
 30
0.0
 40
2.0
100
AcDbArc
 50
269.9999999999975
 51
0.0
  0
ARC
  5
12F
330
1F
100
AcDbEntity
  8
PV-CB
100
AcDbCircle
 10
363.802758816771
 20
59.59329292579669
 30
0.0
 40
65.0
100
AcDbArc
 50
270.0
 51
0.0
  0
ARC
  5
130
330
1F
100
AcDbEntity
  8
PV-CB
100
AcDbCircle
 10
363.802758816771
 20
59.59329292579669
 30
0.0
 40
32.0
100
AcDbArc
 50
270.0
 51
0.0
  0
ARC
  5
131
330
1F
100
AcDbEntity
  8
PV-CB
100
AcDbCircle
 10
160.802758816771
 20
59.59329292579669
 30
0.0
 40
65.0
100
AcDbArc
 50
179.9999999999975
 51
270.0
  0
ARC
  5
132
330
1F
100
AcDbEntity
  8
PV-CB
100
AcDbCircle
 10
160.802758816771
 20
59.59329292579669
 30
0.0
 40
32.0
100
AcDbArc
 50
179.9999999999975
 51
270.0
  0
ENDSEC
  0
SECTION
  2
OBJECTS
  0
DICTIONARY
  5
C
330
0
100
AcDbDictionary
  3
ACAD_GROUP
350
D
  3
ACAD_PLOTSTYLENAME
350
E
  3
ACAD_MLINESTYLE
350
17
  3
ACAD_PLOTSETTINGS
350
19
  3
ACAD_LAYOUT
350
1A
  3
ACDBHEADERROUNDTRIPXREC
350
134
  0
DICTIONARY
  5
BB
330
1F
100
AcDbDictionary
280
     1
  3
ACAD_LAYOUTSELFREF
360
156
  0
DICTIONARY
  5
B9
330
1B
100
AcDbDictionary
280
     1
  3
ACAD_LAYOUTSELFREF
360
155
  0
DICTIONARY
  5
D
102
{ACAD_REACTORS
330
C
102
}
330
C
100
AcDbDictionary
  0
ACDBDICTIONARYWDFLT
  5
E
102
{ACAD_REACTORS
330
C
102
}
330
C
100
AcDbDictionary
281
     1
  3
Normal
350
F
100
AcDbDictionaryWithDefault
340
F
  0
DICTIONARY
  5
17
102
{ACAD_REACTORS
330
C
102
}
330
C
100
AcDbDictionary
  3
STANDARD
350
18
  0
DICTIONARY
  5
19
102
{ACAD_REACTORS
330
C
102
}
330
C
100
AcDbDictionary
  0
DICTIONARY
  5
1A
102
{ACAD_REACTORS
330
C
102
}
330
C
100
AcDbDictionary
  0
DICTIONARY
  5
134
102
{ACAD_REACTORS
330
C
102
}
330
C
100
AcDbDictionary
  3
TSTACKALIGN
350
135
  3
TSTACKSIZE
350
136
  3
HYPERLINKBASE
350
137
  3
STYLESHEET
350
138
  3
LAYOUTDICT
350
139
  3
PLOTSETDICT
350
13A
  3
PLOTSTYLNAMDICT
350
13B
  3
LWETCUNION
350
13C
  3
INSUNITS
350
13D
  3
CEPSNTYPE
350
13E
  3
FINGERPRINTGUID
350
13F
  3
VERSIONGUID
350
140
  3
PSVPSCALE
350
141
  3
DIMSTYLEDATA
350
142
  3
PUCSORTHOREF
350
143
  3
PUCSORTHOVIEW
350
144
  3
PUCSBASE
350
145
  3
PUCSORGTOP
350
146
  3
PUCSORGBOTTOM
350
147
  3
PUCSORGLEFT
350
148
  3
PUCSORGRIGHT
350
149
  3
PUCSORGFRONT
350
14A
  3
PUCSORGBACK
350
14B
  3
UCSORTHOREF
350
14C
  3
UCSORTHOVIEW
350
14D
  3
UCSBASE
350
14E
  3
UCSORGTOP
350
14F
  3
UCSORGBOTTOM
350
150
  3
UCSORGLEFT
350
151
  3
UCSORGRIGHT
350
152
  3
UCSORGFRONT
350
153
  3
UCSORGBACK
350
154
  0
XRECORD
  5
156
102
{ACAD_REACTORS
330
BB
102
}
330
BB
100
AcDbXrecord
340
1F
  0
XRECORD
  5
155
102
{ACAD_REACTORS
330
B9
102
}
330
B9
100
AcDbXrecord
340
1B
  0
ACDBPLACEHOLDER
  5
F
102
{ACAD_REACTORS
330
E
102
}
330
E
100
AcDbPlaceHolder
280
     0
  0
MLINESTYLE
  5
18
102
{ACAD_REACTORS
330
17
102
}
330
17
100
AcDbMlineStyle
  2
STANDARD
 70
     0
  3

 62
   256
 51
90.0
 52
90.0
 71
     2
 49
0.5
 62
   256
  6
BYLAYER
 49
-0.5
 62
   256
  6
BYLAYER
  0
XRECORD
  5
135
102
{ACAD_REACTORS
330
134
102
}
330
134
100
AcDbXrecord
 90
        1
  0
XRECORD
  5
136
102
{ACAD_REACTORS
330
134
102
}
330
134
100
AcDbXrecord
 90
       70
  0
XRECORD
  5
137
102
{ACAD_REACTORS
330
134
102
}
330
134
100
AcDbXrecord
  1

  0
XRECORD
  5
138
102
{ACAD_REACTORS
330
134
102
}
330
134
100
AcDbXrecord
  1

  0
XRECORD
  5
139
102
{ACAD_REACTORS
330
134
102
}
330
134
100
AcDbXrecord
340
1A
  0
XRECORD
  5
13A
102
{ACAD_REACTORS
330
134
102
}
330
134
100
AcDbXrecord
340
19
  0
XRECORD
  5
13B
102
{ACAD_REACTORS
330
134
102
}
330
134
100
AcDbXrecord
340
E
  0
XRECORD
  5
13C
102
{ACAD_REACTORS
330
134
102
}
330
134
100
AcDbXrecord
 90
    10781
  0
XRECORD
  5
13D
102
{ACAD_REACTORS
330
134
102
}
330
134
100
AcDbXrecord
 90
        4
  0
XRECORD
  5
13E
102
{ACAD_REACTORS
330
134
102
}
330
134
100
AcDbXrecord
 90
        0
  0
XRECORD
  5
13F
102
{ACAD_REACTORS
330
134
102
}
330
134
100
AcDbXrecord
  1
{4DB48C15-5A02-43A4-837D-76D9FA3CCD6A}
  0
XRECORD
  5
140
102
{ACAD_REACTORS
330
134
102
}
330
134
100
AcDbXrecord
  1
{80A00AA9-82EA-4A52-A960-EFAF6A41B6B4}
  0
XRECORD
  5
141
102
{ACAD_REACTORS
330
134
102
}
330
134
100
AcDbXrecord
 40
0.0
  0
XRECORD
  5
142
102
{ACAD_REACTORS
330
134
102
}
330
134
100
AcDbXrecord
1000
DSTYLE
1002
{
1070
   278
 70
    44
1002
}
  0
XRECORD
  5
143
102
{ACAD_REACTORS
330
134
102
}
330
134
100
AcDbXrecord
340
0
  0
XRECORD
  5
144
102
{ACAD_REACTORS
330
134
102
}
330
134
100
AcDbXrecord
 70
     0
  0
XRECORD
  5
145
102
{ACAD_REACTORS
330
134
102
}
330
134
100
AcDbXrecord
340
0
  0
XRECORD
  5
146
102
{ACAD_REACTORS
330
134
102
}
330
134
100
AcDbXrecord
 10
0.0
 20
0.0
 30
0.0
  0
XRECORD
  5
147
102
{ACAD_REACTORS
330
134
102
}
330
134
100
AcDbXrecord
 10
0.0
 20
0.0
 30
0.0
  0
XRECORD
  5
148
102
{ACAD_REACTORS
330
134
102
}
330
134
100
AcDbXrecord
 10
0.0
 20
0.0
 30
0.0
  0
XRECORD
  5
149
102
{ACAD_REACTORS
330
134
102
}
330
134
100
AcDbXrecord
 10
0.0
 20
0.0
 30
0.0
  0
XRECORD
  5
14A
102
{ACAD_REACTORS
330
134
102
}
330
134
100
AcDbXrecord
 10
0.0
 20
0.0
 30
0.0
  0
XRECORD
  5
14B
102
{ACAD_REACTORS
330
134
102
}
330
134
100
AcDbXrecord
 10
0.0
 20
0.0
 30
0.0
  0
XRECORD
  5
14C
102
{ACAD_REACTORS
330
134
102
}
330
134
100
AcDbXrecord
340
0
  0
XRECORD
  5
14D
102
{ACAD_REACTORS
330
134
102
}
330
134
100
AcDbXrecord
 70
     0
  0
XRECORD
  5
14E
102
{ACAD_REACTORS
330
134
102
}
330
134
100
AcDbXrecord
340
0
  0
XRECORD
  5
14F
102
{ACAD_REACTORS
330
134
102
}
330
134
100
AcDbXrecord
 10
0.0
 20
0.0
 30
0.0
  0
XRECORD
  5
150
102
{ACAD_REACTORS
330
134
102
}
330
134
100
AcDbXrecord
 10
0.0
 20
0.0
 30
0.0
  0
XRECORD
  5
151
102
{ACAD_REACTORS
330
134
102
}
330
134
100
AcDbXrecord
 10
0.0
 20
0.0
 30
0.0
  0
XRECORD
  5
152
102
{ACAD_REACTORS
330
134
102
}
330
134
100
AcDbXrecord
 10
0.0
 20
0.0
 30
0.0
  0
XRECORD
  5
153
102
{ACAD_REACTORS
330
134
102
}
330
134
100
AcDbXrecord
 10
0.0
 20
0.0
 30
0.0
  0
XRECORD
  5
154
102
{ACAD_REACTORS
330
134
102
}
330
134
100
AcDbXrecord
 10
0.0
 20
0.0
 30
0.0
  0
ENDSEC
  0
EOF
