  0
SECTION
  2
HEADER
  9
$ACADVER
  1
AC1014
  9
$ACADMAINTVER
 70
     9
  9
$DWGCODEPAGE
  3
ANSI_1252
  9
$INSBASE
 10
0.0
 20
0.0
 30
0.0
  9
$EXTMIN
 10
-1692.559501999999
 20
942.52655
 30
0.0
  9
$EXTMAX
 10
-219.9986124512797
 20
2409.550515388064
 30
0.0
  9
$LIMMIN
 10
0.0
 20
0.0
  9
$LIMMAX
 10
0.0
 20
0.0
  9
$ORTHOMODE
 70
     1
  9
$REGENMODE
 70
     1
  9
$FILLMODE
 70
     1
  9
$QTEXTMODE
 70
     0
  9
$MIRRTEXT
 70
     1
  9
$DRAGMODE
 70
     2
  9
$LTSCALE
 40
1.0
  9
$OSMODE
 70
   167
  9
$ATTMODE
 70
     1
  9
$TEXTSIZE
 40
0.0
  9
$TRACEWID
 40
0.05
  9
$TEXTSTYLE
  7
STANDARD
  9
$CLAYER
  8
0
  9
$CELTYPE
  6
CONTINUOUS
  9
$CECOLOR
 62
   256
  9
$CELTSCALE
 40
1.0
  9
$DELOBJ
 70
     1
  9
$DISPSILH
 70
     0
  9
$DIMSCALE
 40
1.0
  9
$DIMASZ
 40
0.18
  9
$DIMEXO
 40
0.0625
  9
$DIMDLI
 40
0.38
  9
$DIMRND
 40
0.0
  9
$DIMDLE
 40
0.0
  9
$DIMEXE
 40
0.18
  9
$DIMTP
 40
0.0
  9
$DIMTM
 40
0.0
  9
$DIMTXT
 40
0.18
  9
$DIMCEN
 40
0.09
  9
$DIMTSZ
 40
0.0
  9
$DIMTOL
 70
     0
  9
$DIMLIM
 70
     0
  9
$DIMTIH
 70
     1
  9
$DIMTOH
 70
     1
  9
$DIMSE1
 70
     0
  9
$DIMSE2
 70
     0
  9
$DIMTAD
 70
     0
  9
$DIMZIN
 70
     0
  9
$DIMBLK
  1

  9
$DIMASO
 70
     1
  9
$DIMSHO
 70
     1
  9
$DIMPOST
  1

  9
$DIMAPOST
  1

  9
$DIMALT
 70
     0
  9
$DIMALTD
 70
     2
  9
$DIMALTF
 40
25.4
  9
$DIMLFAC
 40
1.0
  9
$DIMTOFL
 70
     0
  9
$DIMTVP
 40
0.0
  9
$DIMTIX
 70
     0
  9
$DIMSOXD
 70
     0
  9
$DIMSAH
 70
     0
  9
$DIMBLK1
  1

  9
$DIMBLK2
  1

  9
$DIMSTYLE
  2
STANDARD
  9
$DIMCLRD
 70
     0
  9
$DIMCLRE
 70
     0
  9
$DIMCLRT
 70
     0
  9
$DIMTFAC
 40
1.0
  9
$DIMGAP
 40
0.09
  9
$DIMJUST
 70
     0
  9
$DIMSD1
 70
     0
  9
$DIMSD2
 70
     0
  9
$DIMTOLJ
 70
     1
  9
$DIMTZIN
 70
     0
  9
$DIMALTZ
 70
     0
  9
$DIMALTTZ
 70
     0
  9
$DIMFIT
 70
     3
  9
$DIMUPT
 70
     0
  9
$DIMUNIT
 70
     2
  9
$DIMDEC
 70
     4
  9
$DIMTDEC
 70
     4
  9
$DIMALTU
 70
     2
  9
$DIMALTTD
 70
     2
  9
$DIMTXSTY
  7
STANDARD
  9
$DIMAUNIT
 70
     0
  9
$LUNITS
 70
     2
  9
$LUPREC
 70
     4
  9
$SKETCHINC
 40
0.1
  9
$FILLETRAD
 40
0.0
  9
$AUNITS
 70
     0
  9
$AUPREC
 70
     0
  9
$MENU
  1
acad
  9
$ELEVATION
 40
0.0
  9
$PELEVATION
 40
0.0
  9
$THICKNESS
 40
0.0
  9
$LIMCHECK
 70
     0
  9
$BLIPMODE
 70
     0
  9
$CHAMFERA
 40
0.0
  9
$CHAMFERB
 40
0.0
  9
$CHAMFERC
 40
0.0
  9
$CHAMFERD
 40
0.0
  9
$SKPOLY
 70
     0
  9
$TDCREATE
 40
2311945.483411388
  9
$TDUPDATE
 40
2452718.369743333
  9
$TDINDWG
 40
0.0043538310
  9
$TDUSRTIMER
 40
0.0043522106
  9
$USRTIMER
 70
     1
  9
$ANGBASE
 50
0.0
  9
$ANGDIR
 70
     0
  9
$PDMODE
 70
     0
  9
$PDSIZE
 40
0.0
  9
$PLINEWID
 40
0.0
  9
$COORDS
 70
     1
  9
$SPLFRAME
 70
     0
  9
$SPLINETYPE
 70
     6
  9
$SPLINESEGS
 70
     8
  9
$ATTDIA
 70
     0
  9
$ATTREQ
 70
     1
  9
$HANDLING
 70
 10241
  9
$HANDSEED
  5
1F8
  9
$SURFTAB1
 70
     6
  9
$SURFTAB2
 70
     6
  9
$SURFTYPE
 70
     6
  9
$SURFU
 70
     6
  9
$SURFV
 70
     6
  9
$UCSNAME
  2

  9
$UCSORG
 10
0.0
 20
0.0
 30
0.0
  9
$UCSXDIR
 10
1.0
 20
0.0
 30
0.0
  9
$UCSYDIR
 10
0.0
 20
1.0
 30
0.0
  9
$PUCSNAME
  2

  9
$PUCSORG
 10
0.0
 20
0.0
 30
0.0
  9
$PUCSXDIR
 10
1.0
 20
0.0
 30
0.0
  9
$PUCSYDIR
 10
0.0
 20
1.0
 30
0.0
  9
$USERI1
 70
     0
  9
$USERI2
 70
     0
  9
$USERI3
 70
     0
  9
$USERI4
 70
     0
  9
$USERI5
 70
     0
  9
$USERR1
 40
0.0
  9
$USERR2
 40
0.0
  9
$USERR3
 40
0.0
  9
$USERR4
 40
0.0
  9
$USERR5
 40
0.0
  9
$WORLDVIEW
 70
     1
  9
$SHADEDGE
 70
     3
  9
$SHADEDIF
 70
    70
  9
$TILEMODE
 70
     1
  9
$MAXACTVP
 70
    16
  9
$PINSBASE
 10
0.0
 20
0.0
 30
0.0
  9
$PLIMCHECK
 70
     0
  9
$PEXTMIN
 10
1.000000000000000E+20
 20
1.000000000000000E+20
 30
1.000000000000000E+20
  9
$PEXTMAX
 10
-1.000000000000000E+20
 20
-1.000000000000000E+20
 30
-1.000000000000000E+20
  9
$PLIMMIN
 10
0.0
 20
0.0
  9
$PLIMMAX
 10
12.0
 20
9.0
  9
$UNITMODE
 70
     0
  9
$VISRETAIN
 70
     0
  9
$PLINEGEN
 70
     1
  9
$PSLTSCALE
 70
     0
  9
$TREEDEPTH
 70
  3020
  9
$PICKSTYLE
 70
     1
  9
$CMLSTYLE
  2
STANDARD
  9
$CMLJUST
 70
     0
  9
$CMLSCALE
 40
1.0
  9
$PROXYGRAPHICS
 70
     1
  9
$MEASUREMENT
 70
     0
  0
ENDSEC
  0
SECTION
  2
CLASSES
  0
CLASS
  1
LWPOLYLINE
  2
AcDbPolyline
  3
AutoCAD 2000
 90
        0
280
     0
281
     1
  0
CLASS
  1
IMAGE
  2
AcDbRasterImage
  3
ISM
 90
      127
280
     0
281
     1
  0
CLASS
  1
OLE2FRAME
  2
AcDbOle2Frame
  3
AutoCAD 2000
 90
        0
280
     0
281
     1
  0
CLASS
  1
HATCH
  2
AcDbHatch
  3
AutoCAD 2000
 90
        0
280
     0
281
     1
  0
CLASS
  1
DICTIONARYVAR
  2
AcDbDictionaryVar
  3
AutoCAD 2000
 90
        0
280
     0
281
     0
  0
CLASS
  1
RASTERVARIABLES
  2
AcDbRasterVariables
  3
ISM
 90
        0
280
     0
281
     0
  0
CLASS
  1
IMAGEDEF
  2
AcDbRasterImageDef
  3
ISM
 90
        0
280
     0
281
     0
  0
CLASS
  1
IMAGEDEF_REACTOR
  2
AcDbRasterImageDefReactor
  3
ISM
 90
        1
280
     0
281
     0
  0
CLASS
  1
IDBUFFER
  2
AcDbIdBuffer
  3
AutoCAD 2000
 90
        0
280
     0
281
     0
  0
CLASS
  1
SPATIAL_FILTER
  2
AcDbSpatialFilter
  3
AutoCAD 2000
 90
        0
280
     0
281
     0
  0
CLASS
  1
XRECORD
  2
AcDbXrecord
  3
AutoCAD 2000
 90
        0
280
     0
281
     0
  0
CLASS
  1
SORTENTSTABLE
  2
AcDbSortentsTable
  3
AutoCAD 2000
 90
        0
280
     0
281
     0
  0
CLASS
  1
LAYER_INDEX
  2
AcDbLayerIndex
  3
AutoCAD 2000
 90
        0
280
     0
281
     0
  0
CLASS
  1
SPATIAL_INDEX
  2
AcDbSpatialIndex
  3
AutoCAD 2000
 90
        0
280
     0
281
     0
  0
CLASS
  1
OBJECT_PTR
  2
CAseDLPNTableRecord
  3
"ASE-LPNTableRecord"
 90
        0
280
     0
281
     0
  0
CLASS
  1
LAYOUT
  2
AcDbLayout
  3
AutoCAD 2000
 90
        0
280
     0
281
     0
  0
CLASS
  1
PLOTSETTINGS
  2
AcDbPlotSettings
  3
AutoCAD 2000
 90
        0
280
     0
281
     0
  0
CLASS
  1
ACDBDICTIONARYWDFLT
  2
AcDbDictionaryWithDefault
  3
AutoCAD 2000
 90
        0
280
     0
281
     0
  0
CLASS
  1
ACDBPLACEHOLDER
  2
AcDbPlaceHolder
  3
AutoCAD 2000
 90
        0
280
     0
281
     0
  0
CLASS
  1
VBA_PROJECT
  2
AcDbVbaProject
  3
"acadvba"
 90
        0
280
     0
281
     0
  0
CLASS
  1
WIPEOUT
  2
AcDbWipeout
  3
WipeOut|AutoCAD Express Tool|expresstools@autodesk.com
 90
        0
280
     0
281
     1
  0
CLASS
  1
WIPEOUTVARIABLES
  2
AcDbWipeoutVariables
  3
WipeOut|AutoCAD Express Tool|expresstools@autodesk.com
 90
        0
280
     0
281
     0
  0
CLASS
  1
RTEXT
  2
RText
  3
RText|AutoCAD Express Tool|expresstools@autodesk.com
 90
        0
280
     0
281
     1
  0
CLASS
  1
ARCALIGNEDTEXT
  2
AcDbArcAlignedText
  3
ATEXT|AutoCAD Express Tool|expresstools@autodesk.com
 90
        0
280
     0
281
     1
  0
CLASS
  1
LONG_TRANSACTION
  2
AcDbLongTransaction
  3
AutoCAD 2000
 90
        0
280
     0
281
     0
  0
CLASS
  1
LWPOLYLINE
  2
AcDbPolyline
  3
AutoCAD 2000
 90
        0
280
     0
281
     1
  0
CLASS
  1
HATCH
  2
AcDbHatch
  3
AutoCAD 2000
 90
        0
280
     0
281
     1
  0
CLASS
  1
XRECORD
  2
AcDbXrecord
  3
AutoCAD 2000
 90
        0
280
     0
281
     0
  0
ENDSEC
  0
SECTION
  2
TABLES
  0
TABLE
  2
VPORT
  5
7
330
0
100
AcDbSymbolTable
 70
     3
  0
VPORT
  5
1D3
330
7
100
AcDbSymbolTableRecord
100
AcDbViewportTableRecord
  2
*ACTIVE
 70
     0
 10
0.0
 20
0.0
 11
1.0
 21
1.0
 12
-1442.947658465549
 22
1777.235621548831
 13
0.0
 23
0.0
 14
1.0
 24
1.0
 15
0.0
 25
0.0
 16
0.0
 26
0.0
 36
1.0
 17
0.0
 27
0.0
 37
0.0
 40
1747.732752973486
 41
1.471306471306471
 42
50.0
 43
0.0
 44
0.0
 50
0.0
 51
0.0
 71
     0
 72
 10000
 73
     1
 74
     1
 75
     0
 76
     0
 77
     0
 78
     0
  0
ENDTAB
  0
TABLE
  2
LTYPE
  5
4
330
0
100
AcDbSymbolTable
 70
     3
  0
LTYPE
  5
11
330
4
100
AcDbSymbolTableRecord
100
AcDbLinetypeTableRecord
  2
BYBLOCK
 70
     0
  3

 72
    65
 73
     0
 40
0.0
  0
LTYPE
  5
12
330
4
100
AcDbSymbolTableRecord
100
AcDbLinetypeTableRecord
  2
BYLAYER
 70
     0
  3

 72
    65
 73
     0
 40
0.0
  0
LTYPE
  5
13
330
4
100
AcDbSymbolTableRecord
100
AcDbLinetypeTableRecord
  2
CONTINUOUS
 70
     0
  3
Solid line
 72
    65
 73
     0
 40
0.0
  0
LTYPE
  5
1E
330
4
100
AcDbSymbolTableRecord
100
AcDbLinetypeTableRecord
  2
IMPORT
 70
     0
  3

 72
    65
 73
     0
 40
0.0
  0
LTYPE
  5
34
330
4
100
AcDbSymbolTableRecord
100
AcDbLinetypeTableRecord
  2
STANDARD
 70
     0
  3

 72
    65
 73
     0
 40
0.0
  0
ENDTAB
  0
TABLE
  2
LAYER
  5
2
330
0
100
AcDbSymbolTable
 70
     2
  0
LAYER
  5
14
330
2
100
AcDbSymbolTableRecord
100
AcDbLayerTableRecord
  2
0
 70
     0
 62
     7
  6
CONTINUOUS
  0
LAYER
  5
1D
330
2
100
AcDbSymbolTableRecord
100
AcDbLayerTableRecord
  2
STANDARD
 70
     0
 62
     7
  6
CONTINUOUS
  0
ENDTAB
  0
TABLE
  2
STYLE
  5
3
330
0
100
AcDbSymbolTable
 70
     1
  0
STYLE
  5
17
330
3
100
AcDbSymbolTableRecord
100
AcDbTextStyleTableRecord
  2
STANDARD
 70
     0
 40
0.0
 41
1.0
 50
0.0
 71
     0
 42
0.0
  3
txt
  4

  0
ENDTAB
  0
TABLE
  2
VIEW
  5
5
330
0
100
AcDbSymbolTable
 70
     0
  0
ENDTAB
  0
TABLE
  2
UCS
  5
6
330
0
100
AcDbSymbolTable
 70
     0
  0
ENDTAB
  0
TABLE
  2
APPID
  5
8
330
0
100
AcDbSymbolTable
 70
     1
  0
APPID
  5
16
330
8
100
AcDbSymbolTableRecord
100
AcDbRegAppTableRecord
  2
ACAD
 70
     0
  0
ENDTAB
  0
TABLE
  2
DIMSTYLE
  5
9
330
0
100
AcDbSymbolTable
 70
     1
  0
DIMSTYLE
105
18
330
9
100
AcDbSymbolTableRecord
100
AcDbDimStyleTableRecord
  2
STANDARD
 70
     0
  3

  4

  5

  6

  7

 40
1.0
 41
0.18
 42
0.0625
 43
0.38
 44
0.18
 45
0.0
 46
0.0
 47
0.0
 48
0.0
140
0.18
141
0.09
142
0.0
143
25.4
144
1.0
145
0.0
146
1.0
147
0.09
 71
     0
 72
     0
 73
     1
 74
     1
 75
     0
 76
     0
 77
     0
 78
     0
170
     0
171
     2
172
     0
173
     0
174
     0
175
     0
176
     0
177
     0
178
     0
270
     2
271
     4
272
     4
273
     2
274
     2
340
17
275
     0
280
     0
281
     0
282
     0
283
     1
284
     0
285
     0
286
     0
287
     3
288
     0
  0
ENDTAB
  0
TABLE
  2
BLOCK_RECORD
  5
1
330
0
100
AcDbSymbolTable
 70
     0
  0
BLOCK_RECORD
  5
A
102
{ACAD_XDICTIONARY
360
1F4
102
}
330
1
100
AcDbSymbolTableRecord
100
AcDbBlockTableRecord
  2
*MODEL_SPACE
  0
BLOCK_RECORD
  5
B
102
{ACAD_XDICTIONARY
360
1F6
102
}
330
1
100
AcDbSymbolTableRecord
100
AcDbBlockTableRecord
  2
*PAPER_SPACE
  0
ENDTAB
  0
ENDSEC
  0
SECTION
  2
BLOCKS
  0
BLOCK
  5
D
330
A
100
AcDbEntity
  8
0
100
AcDbBlockBegin
  2
*MODEL_SPACE
 70
     0
 10
0.0
 20
0.0
 30
0.0
  3
*MODEL_SPACE
  1

  0
ENDBLK
  5
E
330
A
100
AcDbEntity
  8
0
100
AcDbBlockEnd
  0
BLOCK
  5
F
330
B
100
AcDbEntity
 67
     1
  8
0
100
AcDbBlockBegin
  2
*PAPER_SPACE
 70
     0
 10
0.0
 20
0.0
 30
0.0
  3
*PAPER_SPACE
  1

  0
ENDBLK
  5
10
330
B
100
AcDbEntity
 67
     1
  8
0
100
AcDbBlockEnd
  0
ENDSEC
  0
SECTION
  2
ENTITIES
  0
LINE
  5
25
330
A
100
AcDbEntity
  8
STANDARD
  6
IMPORT
 62
     7
100
AcDbLine
 10
-1692.557587
 20
2409.356676999999
 30
0.0
 11
-1680.557589
 21
2409.356676999999
 31
0.0
  0
LINE
  5
26
330
A
100
AcDbEntity
  8
STANDARD
  6
IMPORT
 62
     7
100
AcDbLine
 10
-1680.557589
 20
2390.848833
 30
0.0
 11
-1668.337525
 21
2390.848833
 31
0.0
  0
LINE
  5
27
330
A
100
AcDbEntity
  8
STANDARD
  6
IMPORT
 62
     7
100
AcDbLine
 10
-1692.557587
 20
2339.356677
 30
0.0
 11
-1680.557589
 21
2339.356677
 31
0.0
  0
LINE
  5
28
330
A
100
AcDbEntity
  8
STANDARD
  6
IMPORT
 62
     7
100
AcDbLine
 10
-1637.057585
 20
2307.356669
 30
0.0
 11
-1604.065435999999
 21
2307.356669
 31
0.0
  0
LINE
  5
29
330
A
100
AcDbEntity
  8
STANDARD
  6
IMPORT
 62
     7
100
AcDbLine
 10
-1680.557589
 20
2357.856661
 30
0.0
 11
-1669.777997999999
 21
2357.856661
 31
0.0
  0
LINE
  5
2A
330
A
100
AcDbEntity
  8
STANDARD
  6
IMPORT
 62
     7
100
AcDbLine
 10
-1604.193477
 20
2232.356669
 30
0.0
 11
-1604.193477
 21
2307.356669
 31
0.0
  0
LINE
  5
2B
330
A
100
AcDbEntity
  8
STANDARD
  6
IMPORT
 62
     7
100
AcDbLine
 10
-1636.966795
 20
2232.356669
 30
0.0
 11
-1637.057585
 21
2325.136248
 31
0.0
  0
LINE
  5
2C
330
A
100
AcDbEntity
  8
STANDARD
  6
IMPORT
 62
     7
100
AcDbLine
 10
-1680.557589
 20
2339.356677
 30
0.0
 11
-1680.557589
 21
2409.356676999999
 31
0.0
  0
LINE
  5
2D
330
A
100
AcDbEntity
  8
STANDARD
  6
IMPORT
 62
     7
100
AcDbLine
 10
-1604.065435999999
 20
2307.356669
 30
0.0
 11
-1604.065435999999
 21
2326.576753999999
 31
0.0
  0
LINE
  5
2E
330
A
100
AcDbEntity
  8
STANDARD
  6
IMPORT
 62
     7
100
AcDbLine
 10
-1604.990777
 20
2337.153384
 30
0.0
 11
-1604.065435999999
 21
2326.576753999999
 31
0.0
  0
LINE
  5
2F
330
A
100
AcDbEntity
  8
STANDARD
  6
IMPORT
 62
     7
100
AcDbLine
 10
-1637.605803999999
 20
2331.402461
 30
0.0
 11
-1637.057585
 21
2325.136248
 31
0.0
  0
LINE
  5
30
330
A
100
AcDbEntity
  8
STANDARD
  6
IMPORT
 62
     7
100
AcDbLine
 10
-1668.337525
 20
2390.848833
 30
0.0
 11
-1657.760877
 21
2389.923502
 31
0.0
  0
LINE
  5
31
330
A
100
AcDbEntity
  8
STANDARD
  6
IMPORT
 62
     7
100
AcDbLine
 10
-1669.777997999999
 20
2357.856661
 30
0.0
 11
-1663.511786
 21
2357.308451
 31
0.0
  0
ARC
  5
32
330
A
100
AcDbEntity
  8
STANDARD
  6
IMPORT
 62
     7
100
AcDbCircle
 10
-1669.057598
 20
2325.856685
 30
0.0
 40
65.055154
100
AcDbArc
 50
9.999990999999999
 51
79.999988
  0
ARC
  5
33
330
A
100
AcDbEntity
  8
STANDARD
  6
IMPORT
 62
     7
100
AcDbCircle
 10
-1669.057526
 20
2325.856732
 30
0.0
 40
31.93690399999999
100
AcDbArc
 50
9.999897
 51
80.00008199999999
  0
LINE
  5
35
330
A
100
AcDbEntity
  8
STANDARD
  6
STANDARD
 62
     7
100
AcDbLine
 10
-1692.557587
 20
2409.356676999999
 30
0.0
 11
-1692.557587
 21
2339.356677
 31
0.0
  0
LINE
  5
36
330
A
100
AcDbEntity
  8
STANDARD
  6
IMPORT
 62
     7
100
AcDbLine
 10
-1641.044643999999
 20
2192.356669
 30
0.0
 11
-1575.002806
 21
2192.42972
 31
0.0
  0
LINE
  5
37
330
A
100
AcDbEntity
  8
STANDARD
  6
IMPORT
 62
     7
100
AcDbLine
 10
-1641.044643999999
 20
2232.356669
 30
0.0
 11
-1575.002806
 21
2232.283656
 31
0.0
  0
LINE
  5
38
330
A
100
AcDbEntity
  8
STANDARD
  6
IMPORT
 62
     7
100
AcDbLine
 10
-1584.042866
 20
2194.408747
 30
0.0
 11
-1583.920627
 21
2194.358107
 31
0.0
  0
LINE
  5
39
330
A
100
AcDbEntity
  8
STANDARD
  6
IMPORT
 62
     7
100
AcDbLine
 10
-1584.042866
 20
2230.304591
 30
0.0
 11
-1583.920627
 21
2230.35525
 31
0.0
  0
LINE
  5
3A
330
A
100
AcDbEntity
  8
STANDARD
  6
IMPORT
 62
     7
100
AcDbLine
 10
-1638.557586
 20
2124.356676999999
 30
0.0
 11
-1599.557587
 21
2124.356676999999
 31
0.0
  0
LINE
  5
3B
330
A
100
AcDbEntity
  8
STANDARD
  6
IMPORT
 62
     7
100
AcDbLine
 10
-1604.193477
 20
1841.356645
 30
0.0
 11
-1604.193477
 21
2124.356676999999
 31
0.0
  0
LINE
  5
3C
330
A
100
AcDbEntity
  8
STANDARD
  6
IMPORT
 62
     7
100
AcDbLine
 10
-1636.99888069974
 20
1841.356645
 30
0.0
 11
-1636.966795
 21
2124.356676999999
 31
0.0
  0
LINE
  5
3D
330
A
100
AcDbEntity
  8
STANDARD
  6
IMPORT
 62
     7
100
AcDbLine
 10
-1590.008276999999
 20
2198.616663
 30
0.0
 11
-1590.008276999999
 21
2226.096693
 31
0.0
  0
LINE
  5
3E
330
A
100
AcDbEntity
  8
STANDARD
  6
IMPORT
 62
     7
100
AcDbLine
 10
-1583.920627
 20
2194.358107
 30
0.0
 11
-1583.920627
 21
2230.35525
 31
0.0
  0
LINE
  5
3F
330
A
100
AcDbEntity
  8
STANDARD
  6
IMPORT
 62
     7
100
AcDbLine
 10
-1599.557587
 20
2124.356676999999
 30
0.0
 11
-1599.557587
 21
2192.356669
 31
0.0
  0
LINE
  5
40
330
A
100
AcDbEntity
  8
STANDARD
  6
IMPORT
 62
     7
100
AcDbLine
 10
-1638.557586
 20
2124.356676999999
 30
0.0
 11
-1638.557586
 21
2192.356669
 31
0.0
  0
LINE
  5
41
330
A
100
AcDbEntity
  8
STANDARD
  6
IMPORT
 62
     7
100
AcDbLine
 10
-1642.557586999999
 20
2194.356676999999
 30
0.0
 11
-1642.557586999999
 21
2230.356660999999
 31
0.0
  0
LINE
  5
42
330
A
100
AcDbEntity
  8
STANDARD
  6
IMPORT
 62
     7
100
AcDbLine
 10
-1642.557586999999
 20
2194.356676999999
 30
0.0
 11
-1641.044643999999
 21
2192.356669
 31
0.0
  0
LINE
  5
43
330
A
100
AcDbEntity
  8
STANDARD
  6
IMPORT
 62
     7
100
AcDbLine
 10
-1642.557586999999
 20
2230.356660999999
 30
0.0
 11
-1641.044643999999
 21
2232.356669
 31
0.0
  0
CIRCLE
  5
44
330
A
100
AcDbEntity
  8
STANDARD
  6
IMPORT
 62
     7
100
AcDbCircle
 10
-1575.557592
 20
2212.356687
 30
0.0
 40
20.00000599999999
  0
LINE
  5
45
330
A
100
AcDbEntity
  8
STANDARD
  6
IMPORT
 62
     7
100
AcDbLine
 10
-1692.559501999999
 20
1739.356638
 30
0.0
 11
-1680.559504
 21
1739.356638
 31
0.0
  0
LINE
  5
46
330
A
100
AcDbEntity
  8
STANDARD
  6
IMPORT
 62
     7
100
AcDbLine
 10
-1692.559501999999
 20
1809.356637999999
 30
0.0
 11
-1680.559504
 21
1809.356637999999
 31
0.0
  0
LINE
  5
47
330
A
100
AcDbEntity
  8
STANDARD
  6
IMPORT
 62
     7
100
AcDbLine
 10
-1637.0595
 20
1841.356645
 30
0.0
 11
-1604.067350999999
 21
1841.356645
 31
0.0
  0
LINE
  5
48
330
A
100
AcDbEntity
  8
STANDARD
  6
IMPORT
 62
     7
100
AcDbLine
 10
-1680.559504
 20
1757.864481
 30
0.0
 11
-1668.33944
 21
1757.864481
 31
0.0
  0
LINE
  5
49
330
A
100
AcDbEntity
  8
STANDARD
  6
IMPORT
 62
     7
100
AcDbLine
 10
-1680.559504
 20
1790.856653
 30
0.0
 11
-1669.779913
 21
1790.856653
 31
0.0
  0
LINE
  5
4A
330
A
100
AcDbEntity
  8
STANDARD
  6
IMPORT
 62
     7
100
AcDbLine
 10
-1680.559504
 20
1739.356638
 30
0.0
 11
-1680.559504
 21
1809.356637999999
 31
0.0
  0
LINE
  5
4B
330
A
100
AcDbEntity
  8
STANDARD
  6
IMPORT
 62
     7
100
AcDbLine
 10
-1604.067350999999
 20
1822.136559999999
 30
0.0
 11
-1604.067350999999
 21
1841.356645
 31
0.0
  0
LINE
  5
4C
330
A
100
AcDbEntity
  8
STANDARD
  6
IMPORT
 62
     7
100
AcDbLine
 10
-1668.33944
 20
1757.864481
 30
0.0
 11
-1657.762792
 21
1758.78985
 31
0.0
  0
LINE
  5
4D
330
A
100
AcDbEntity
  8
STANDARD
  6
IMPORT
 62
     7
100
AcDbLine
 10
-1669.779913
 20
1790.856653
 30
0.0
 11
-1663.513701
 21
1791.404863
 31
0.0
  0
LINE
  5
4E
330
A
100
AcDbEntity
  8
STANDARD
  6
IMPORT
 62
     7
100
AcDbLine
 10
-1604.992692
 20
1811.559929999999
 30
0.0
 11
-1604.067350999999
 21
1822.136559999999
 31
0.0
  0
LINE
  5
4F
330
A
100
AcDbEntity
  8
STANDARD
  6
IMPORT
 62
     7
100
AcDbLine
 10
-1637.607719
 20
1817.310854
 30
0.0
 11
-1637.0595
 21
1823.577066
 31
0.0
  0
ARC
  5
50
330
A
100
AcDbEntity
  8
STANDARD
  6
IMPORT
 62
     7
100
AcDbCircle
 10
-1669.0595
 20
1822.856661999999
 30
0.0
 40
65.05514599999999
100
AcDbArc
 50
280.000001
 51
349.9999789999999
  0
ARC
  5
51
330
A
100
AcDbEntity
  8
STANDARD
  6
IMPORT
 62
     7
100
AcDbCircle
 10
-1669.059484
 20
1822.856626
 30
0.0
 40
31.936955
100
AcDbArc
 50
279.999982
 51
350.00004
  0
LINE
  5
52
330
A
100
AcDbEntity
  8
STANDARD
  6
STANDARD
 62
     7
100
AcDbLine
 10
-1692.559501999999
 20
1739.356638
 30
0.0
 11
-1692.559501999999
 21
1809.356637999999
 31
0.0
  0
LINE
  5
53
330
A
100
AcDbEntity
  8
STANDARD
  6
IMPORT
 62
     7
100
AcDbLine
 10
-1567.194547
 20
2230.35525
 30
0.0
 11
-1567.072307
 21
2230.304591
 31
0.0
  0
LINE
  5
54
330
A
100
AcDbEntity
  8
STANDARD
  6
IMPORT
 62
     7
100
AcDbLine
 10
-1567.194547
 20
2194.358107
 30
0.0
 11
-1567.194547
 21
2230.35525
 31
0.0
  0
LINE
  5
55
330
A
100
AcDbEntity
  8
STANDARD
  6
IMPORT
 62
     7
100
AcDbLine
 10
-1564.931277
 20
2195.516764
 30
0.0
 11
-1564.707586
 21
2195.556188999999
 31
0.0
  0
LINE
  5
56
330
A
100
AcDbEntity
  8
STANDARD
  6
IMPORT
 62
     7
100
AcDbLine
 10
-1561.106898
 20
2198.616663
 30
0.0
 11
-1561.106898
 21
2226.096693
 31
0.0
  0
LINE
  5
57
330
A
100
AcDbEntity
  8
STANDARD
  6
IMPORT
 62
     7
100
AcDbLine
 10
-1564.707586
 20
2195.556188999999
 30
0.0
 11
-1558.558938
 21
2160.685469
 31
0.0
  0
LINE
  5
58
330
A
100
AcDbEntity
  8
STANDARD
  6
IMPORT
 62
     7
100
AcDbLine
 10
-1567.194547
 20
2194.358107
 30
0.0
 11
-1567.072307
 21
2194.408747
 31
0.0
  0
LINE
  5
59
330
A
100
AcDbEntity
  8
STANDARD
  6
IMPORT
 62
     7
100
AcDbLine
 10
-1559.123755999999
 20
2160.585885999999
 30
0.0
 11
-1558.558938
 21
2160.685469
 31
0.0
  0
LINE
  5
5A
330
A
100
AcDbEntity
  8
STANDARD
  6
IMPORT
 62
     7
100
AcDbLine
 10
-1559.898397
 20
2160.507571
 30
0.0
 11
-1559.134687
 21
2160.583959999999
 31
0.0
  0
LINE
  5
5B
330
A
100
AcDbEntity
  8
STANDARD
  6
IMPORT
 62
     7
100
AcDbLine
 10
-1562.227527
 20
2165.559946
 30
0.0
 11
-1562.216496
 21
2166.262269999999
 31
0.0
  0
LINE
  5
5C
330
A
100
AcDbEntity
  8
STANDARD
  6
IMPORT
 62
     7
100
AcDbLine
 10
-1559.066247
 20
2163.239676
 30
0.0
 11
-1559.066247
 21
2163.765532
 31
0.0
  0
LINE
  5
5D
330
A
100
AcDbEntity
  8
STANDARD
  6
IMPORT
 62
     7
100
AcDbLine
 10
-1559.421047
 20
2165.371748
 30
0.0
 11
-1559.385256
 21
2165.574728
 31
0.0
  0
LINE
  5
5E
330
A
100
AcDbEntity
  8
STANDARD
  6
IMPORT
 62
     7
100
AcDbLine
 10
-1563.570766
 20
2164.05831
 30
0.0
 11
-1563.554887
 21
2164.844996
 31
0.0
  0
LINE
  5
5F
330
A
100
AcDbEntity
  8
STANDARD
  6
IMPORT
 62
     7
100
AcDbLine
 10
-1563.241567
 20
2165.564771999999
 30
0.0
 11
-1562.678517
 21
2166.10808
 31
0.0
  0
LINE
  5
60
330
A
100
AcDbEntity
  8
STANDARD
  6
IMPORT
 62
     7
100
AcDbLine
 10
-1559.471306
 20
2166.229559
 30
0.0
 11
-1558.930706
 21
2165.660348999999
 31
0.0
  0
LINE
  5
61
330
A
100
AcDbEntity
  8
STANDARD
  6
IMPORT
 62
     7
100
AcDbLine
 10
-1558.930706
 20
2165.660348999999
 30
0.0
 11
-1558.646726
 21
2164.926554
 31
0.0
  0
LINE
  5
62
330
A
100
AcDbEntity
  8
STANDARD
  6
IMPORT
 62
     7
100
AcDbLine
 10
-1562.678517
 20
2166.10808
 30
0.0
 11
-1562.283927
 21
2166.262269999999
 31
0.0
  0
LINE
  5
63
330
A
100
AcDbEntity
  8
STANDARD
  6
IMPORT
 62
     7
100
AcDbLine
 10
-1563.570766
 20
2164.05831
 30
0.0
 11
-1556.978126999999
 21
2126.669603999999
 31
0.0
  0
LINE
  5
64
330
A
100
AcDbEntity
  8
STANDARD
  6
IMPORT
 62
     7
100
AcDbLine
 10
-1558.646726
 20
2164.926554
 30
0.0
 11
-1552.054084999999
 21
2127.537828999999
 31
0.0
  0
LINE
  5
65
330
A
100
AcDbEntity
  8
STANDARD
  6
IMPORT
 62
     7
100
AcDbLine
 10
-1567.235027999999
 20
2194.341340999999
 30
0.0
 11
-1561.217917
 21
2160.216623999999
 31
0.0
  0
LINE
  5
66
330
A
100
AcDbEntity
  8
STANDARD
  6
IMPORT
 62
     7
100
AcDbLine
 10
-1559.715446
 20
2160.481553999999
 30
0.0
 11
-1558.558938
 21
2160.685469
 31
0.0
  0
LINE
  5
67
330
A
100
AcDbEntity
  8
STANDARD
  6
IMPORT
 62
     7
100
AcDbLine
 10
-1563.554887
 20
2164.844996
 30
0.0
 11
-1563.241567
 21
2165.564771999999
 31
0.0
  0
LINE
  5
68
330
A
100
AcDbEntity
  8
STANDARD
  6
IMPORT
 62
     7
100
AcDbLine
 10
-1561.217917
 20
2160.216623999999
 30
0.0
 11
-1560.883205999999
 21
2160.333926
 31
0.0
  0
LINE
  5
69
330
A
100
AcDbEntity
  8
STANDARD
  6
IMPORT
 62
     7
100
AcDbLine
 10
-1555.438627
 20
2125.048604999999
 30
0.0
 11
-1554.658216
 21
2125.030295
 31
0.0
  0
LINE
  5
6A
330
A
100
AcDbEntity
  8
STANDARD
  6
IMPORT
 62
     7
100
AcDbLine
 10
-1557.606167
 20
2158.707606
 30
0.0
 11
-1557.550158
 21
2159.025217
 31
0.0
  0
LINE
  5
6B
330
A
100
AcDbEntity
  8
STANDARD
  6
IMPORT
 62
     7
100
AcDbLine
 10
-1562.530197
 20
2157.839362
 30
0.0
 11
-1562.474197
 21
2158.156973
 31
0.0
  0
LINE
  5
6C
330
A
100
AcDbEntity
  8
STANDARD
  6
IMPORT
 62
     7
100
AcDbLine
 10
-1553.171786
 20
2133.429685999999
 30
0.0
 11
-1553.092977
 21
2133.935744
 31
0.0
  0
LINE
  5
6D
330
A
100
AcDbEntity
  8
STANDARD
  6
IMPORT
 62
     7
100
AcDbLine
 10
-1558.106247
 20
2132.561442
 30
0.0
 11
-1558.017017
 21
2133.0675
 31
0.0
  0
LINE
  5
6E
330
A
100
AcDbEntity
  8
STANDARD
  6
IMPORT
 62
     7
100
AcDbLine
 10
-1552.069968
 20
2126.751162
 30
0.0
 11
-1552.054084999999
 21
2127.537828999999
 31
0.0
  0
LINE
  5
6F
330
A
100
AcDbEntity
  8
STANDARD
  6
IMPORT
 62
     7
100
AcDbLine
 10
-1552.946337999999
 20
2125.488057999999
 30
0.0
 11
-1552.383279
 21
2126.031386
 31
0.0
  0
LINE
  5
70
330
A
100
AcDbEntity
  8
STANDARD
  6
IMPORT
 62
     7
100
AcDbLine
 10
-1556.694147
 20
2125.93579
 30
0.0
 11
-1556.153547
 21
2125.366579
 31
0.0
  0
LINE
  5
71
330
A
100
AcDbEntity
  8
STANDARD
  6
IMPORT
 62
     7
100
AcDbLine
 10
-1556.978126999999
 20
2126.669603999999
 30
0.0
 11
-1556.694147
 21
2125.93579
 31
0.0
  0
LINE
  5
72
330
A
100
AcDbEntity
  8
STANDARD
  6
IMPORT
 62
     7
100
AcDbLine
 10
-1553.673406999999
 20
2125.20394
 30
0.0
 11
-1552.946337999999
 21
2125.488057999999
 31
0.0
  0
LINE
  5
73
330
A
100
AcDbEntity
  8
STANDARD
  6
IMPORT
 62
     7
100
AcDbLine
 10
-1560.883205999999
 20
2160.333926
 30
0.0
 11
-1559.898397
 21
2160.507571
 31
0.0
  0
LINE
  5
74
330
A
100
AcDbEntity
  8
STANDARD
  6
IMPORT
 62
     7
100
AcDbLine
 10
-1554.658216
 20
2125.030295
 30
0.0
 11
-1553.673406999999
 21
2125.20394
 31
0.0
  0
LINE
  5
75
330
A
100
AcDbEntity
  8
STANDARD
  6
IMPORT
 62
     7
100
AcDbLine
 10
-1552.383279
 20
2126.031386
 30
0.0
 11
-1552.069968
 21
2126.751162
 31
0.0
  0
LINE
  5
76
330
A
100
AcDbEntity
  8
STANDARD
  6
IMPORT
 62
     7
100
AcDbLine
 10
-1556.153547
 20
2125.366579
 30
0.0
 11
-1555.438627
 21
2125.048604999999
 31
0.0
  0
LINE
  5
77
330
A
100
AcDbEntity
  8
STANDARD
  6
IMPORT
 62
     7
100
AcDbLine
 10
-1186.312256
 20
1559.116400417098
 30
0.0
 11
-1116.312256
 21
1559.116400417098
 31
0.0
  0
LINE
  5
78
330
A
100
AcDbEntity
  8
STANDARD
  6
IMPORT
 62
     7
100
AcDbLine
 10
-1151.312256
 20
1570.116461417097
 30
0.0
 11
-1151.312256
 21
1571.116370417098
 31
0.0
  0
LINE
  5
79
330
A
100
AcDbEntity
  8
STANDARD
  6
IMPORT
 62
     7
100
AcDbLine
 10
-1186.312256
 20
1559.116400417098
 30
0.0
 11
-1186.312256
 21
1571.116370417098
 31
0.0
  0
LINE
  5
7A
330
A
100
AcDbEntity
  8
STANDARD
  6
IMPORT
 62
     7
100
AcDbLine
 10
-1167.812271
 20
1498.861884417098
 30
0.0
 11
-1167.812271
 21
1559.116400417098
 31
0.0
  0
LINE
  5
7B
330
A
100
AcDbEntity
  8
STANDARD
  6
IMPORT
 62
     7
100
AcDbLine
 10
-1167.92923
 20
1514.233435417098
 30
0.0
 11
-1167.812271
 21
1514.323157417098
 31
0.0
  0
LINE
  5
7C
330
A
100
AcDbEntity
  8
STANDARD
  6
IMPORT
 62
     7
100
AcDbLine
 10
-1173.367003999999
 20
1453.561591417098
 30
0.0
 11
-1173.312224999999
 21
1497.518042417098
 31
0.0
  0
LINE
  5
7D
330
A
100
AcDbEntity
  8
STANDARD
  6
IMPORT
 62
     7
100
AcDbLine
 10
-1174.812241
 20
1462.475928417098
 30
0.0
 11
-1174.812241
 21
1497.616461417098
 31
0.0
  0
LINE
  5
7E
330
A
100
AcDbEntity
  8
STANDARD
  6
IMPORT
 62
     7
100
AcDbLine
 10
-1167.812271
 20
1497.616461417098
 30
0.0
 11
-1167.725296
 21
1498.277014417098
 31
0.0
  0
LINE
  5
7F
330
A
100
AcDbEntity
  8
STANDARD
  6
IMPORT
 62
     7
100
AcDbLine
 10
-1167.702025999999
 20
1497.195319417097
 30
0.0
 11
-1167.689208999999
 21
1498.034705417097
 31
0.0
  0
LINE
  5
80
330
A
100
AcDbEntity
  8
STANDARD
  6
IMPORT
 62
     7
100
AcDbLine
 10
-1166.506958
 20
1492.558020417098
 30
0.0
 11
-1166.450882
 21
1492.762640417097
 31
0.0
  0
LINE
  5
81
330
A
100
AcDbEntity
  8
STANDARD
  6
IMPORT
 62
     7
100
AcDbLine
 10
-1166.450882
 20
1492.558020417098
 30
0.0
 11
-1165.918503
 21
1491.690100417097
 31
0.0
  0
LINE
  5
82
330
A
100
AcDbEntity
  8
STANDARD
  6
IMPORT
 62
     7
100
AcDbLine
 10
-1164.913788
 20
1489.929999417098
 30
0.0
 11
-1164.507217
 21
1489.207190417098
 31
0.0
  0
LINE
  5
83
330
A
100
AcDbEntity
  8
STANDARD
  6
IMPORT
 62
     7
100
AcDbLine
 10
-1166.634444999999
 20
1492.989386417097
 30
0.0
 11
-1165.97023
 21
1491.808356417098
 31
0.0
  0
LINE
  5
84
330
A
100
AcDbEntity
  8
STANDARD
  6
IMPORT
 62
     7
100
AcDbLine
 10
-1167.679519999999
 20
1497.043341417098
 30
0.0
 11
-1167.459946
 21
1496.241797417098
 31
0.0
  0
LINE
  5
85
330
A
100
AcDbEntity
  8
STANDARD
  6
IMPORT
 62
     7
100
AcDbLine
 10
-1166.839676
 20
1493.798102417097
 30
0.0
 11
-1166.634444999999
 21
1492.989386417097
 31
0.0
  0
LINE
  5
86
330
A
100
AcDbEntity
  8
STANDARD
  6
IMPORT
 62
     7
100
AcDbLine
 10
-1167.702025999999
 20
1497.195319417097
 30
0.0
 11
-1167.369843
 21
1495.886878417098
 31
0.0
  0
LINE
  5
87
330
A
100
AcDbEntity
  8
STANDARD
  6
IMPORT
 62
     7
100
AcDbLine
 10
-1173.312224999999
 20
1497.518042417098
 30
0.0
 11
-1172.550125
 21
1503.307074417097
 31
0.0
  0
LINE
  5
88
330
A
100
AcDbEntity
  8
STANDARD
  6
IMPORT
 62
     7
100
AcDbLine
 10
-1172.550125
 20
1503.307074417097
 30
0.0
 11
-1170.353622
 21
1508.609961417097
 31
0.0
  0
LINE
  5
89
330
A
100
AcDbEntity
  8
STANDARD
  6
IMPORT
 62
     7
100
AcDbLine
 10
-1170.353622
 20
1508.609961417097
 30
0.0
 11
-1167.812271
 21
1511.921881417098
 31
0.0
  0
ARC
  5
8A
330
A
100
AcDbEntity
  8
STANDARD
  6
IMPORT
 62
     7
100
AcDbCircle
 10
-1151.314210999999
 20
1499.116438417098
 30
0.0
 40
16.500047
100
AcDbArc
 50
271.767781
 51
352.782176
  0
ARC
  5
8B
330
A
100
AcDbEntity
  8
STANDARD
  6
IMPORT
 62
     7
100
AcDbCircle
 10
-1151.313914
 20
1499.116725417097
 30
0.0
 40
16.500325
100
AcDbArc
 50
180.8849459999999
 51
271.7667189999999
  0
ARC
  5
8C
330
A
100
AcDbEntity
  8
STANDARD
  6
IMPORT
 62
     7
100
AcDbCircle
 10
-1151.312256
 20
1497.616473417098
 30
0.0
 40
16.50001499999999
100
AcDbArc
 50
180.0000419999999
 51
359.9999579999999
  0
ARC
  5
8D
330
A
100
AcDbEntity
  8
STANDARD
  6
IMPORT
 62
     7
100
AcDbCircle
 10
-1151.312601999999
 20
1497.616555417097
 30
0.0
 40
23.499638
100
AcDbArc
 50
134.9995649999999
 51
180.0002299999999
  0
LINE
  5
8E
330
A
100
AcDbEntity
  8
STANDARD
  6
IMPORT
 62
     7
100
AcDbLine
 10
-1151.819228999999
 20
1482.624243417097
 30
0.0
 11
-1151.312256
 21
1482.675818417098
 31
0.0
  0
LINE
  5
8F
330
A
100
AcDbEntity
  8
STANDARD
  6
IMPORT
 62
     7
100
AcDbLine
 10
-1153.540268
 20
1482.767218417097
 30
0.0
 11
-1152.164917
 21
1482.762488417098
 31
0.0
  0
LINE
  5
90
330
A
100
AcDbEntity
  8
STANDARD
  6
IMPORT
 62
     7
100
AcDbLine
 10
-1162.044907
 20
1486.698493417097
 30
0.0
 11
-1161.467589999999
 21
1486.110266417098
 31
0.0
  0
LINE
  5
91
330
A
100
AcDbEntity
  8
STANDARD
  6
IMPORT
 62
     7
100
AcDbLine
 10
-1164.507217
 20
1489.207190417098
 30
0.0
 11
-1163.554535
 21
1488.236578417097
 31
0.0
  0
LINE
  5
92
330
A
100
AcDbEntity
  8
STANDARD
  6
IMPORT
 62
     7
100
AcDbLine
 10
-1164.209824
 20
1488.904151417098
 30
0.0
 11
-1164.019394
 21
1488.593787417098
 31
0.0
  0
LINE
  5
93
330
A
100
AcDbEntity
  8
STANDARD
  6
IMPORT
 62
     7
100
AcDbLine
 10
-1152.623061999999
 20
1482.764166417098
 30
0.0
 11
-1151.819228999999
 21
1482.624243417097
 31
0.0
  0
LINE
  5
94
330
A
100
AcDbEntity
  8
STANDARD
  6
IMPORT
 62
     7
100
AcDbLine
 10
-1156.400985999999
 20
1483.421362417097
 30
0.0
 11
-1155.785065
 21
1483.314246417098
 31
0.0
  0
LINE
  5
95
330
A
100
AcDbEntity
  8
STANDARD
  6
IMPORT
 62
     7
100
AcDbLine
 10
-1154.325409
 20
1482.982214417098
 30
0.0
 11
-1153.540268
 21
1482.767218417097
 31
0.0
  0
LINE
  5
96
330
A
100
AcDbEntity
  8
STANDARD
  6
IMPORT
 62
     7
100
AcDbLine
 10
-1157.725676999999
 20
1483.913001417097
 30
0.0
 11
-1156.404037
 21
1483.551215417097
 31
0.0
  0
LINE
  5
97
330
A
100
AcDbEntity
  8
STANDARD
  6
IMPORT
 62
     7
100
AcDbLine
 10
-1156.999588
 20
1483.714331417098
 30
0.0
 11
-1156.400985999999
 21
1483.421362417097
 31
0.0
  0
LINE
  5
98
330
A
100
AcDbEntity
  8
STANDARD
  6
IMPORT
 62
     7
100
AcDbLine
 10
-1160.578308
 20
1485.465277417097
 30
0.0
 11
-1159.895934999999
 21
1485.131415417098
 31
0.0
  0
LINE
  5
99
330
A
100
AcDbEntity
  8
STANDARD
  6
IMPORT
 62
     7
100
AcDbLine
 10
-1158.432007
 20
1484.327887417098
 30
0.0
 11
-1157.725676999999
 21
1483.913001417097
 31
0.0
  0
LINE
  5
9A
330
A
100
AcDbEntity
  8
STANDARD
  6
IMPORT
 62
     7
100
AcDbLine
 10
-1161.467589999999
 20
1486.110266417098
 30
0.0
 11
-1160.290375
 21
1485.419043417097
 31
0.0
  0
LINE
  5
9B
330
A
100
AcDbEntity
  8
STANDARD
  6
IMPORT
 62
     7
100
AcDbLine
 10
-1160.959929999999
 20
1485.812262417098
 30
0.0
 11
-1160.578308
 21
1485.465277417097
 31
0.0
  0
LINE
  5
9C
330
A
100
AcDbEntity
  8
STANDARD
  6
IMPORT
 62
     7
100
AcDbLine
 10
-1164.019394
 20
1488.593787417098
 30
0.0
 11
-1163.360138
 21
1487.994269417098
 31
0.0
  0
LINE
  5
9D
330
A
100
AcDbEntity
  8
STANDARD
  6
IMPORT
 62
     7
100
AcDbLine
 10
-1214.31221
 20
1474.116400417097
 30
0.0
 11
-1174.812241
 21
1474.116400417097
 31
0.0
  0
LINE
  5
9E
330
A
100
AcDbEntity
  8
STANDARD
  6
IMPORT
 62
     7
100
AcDbLine
 10
-1181.312256
 20
1434.116400417097
 30
0.0
 11
-1181.312256
 21
1474.116400417097
 31
0.0
  0
LINE
  5
9F
330
A
100
AcDbEntity
  8
STANDARD
  6
IMPORT
 62
     7
100
AcDbLine
 10
-1174.812241
 20
1462.475928417098
 30
0.0
 11
-1173.823317999999
 21
1459.292792417098
 31
0.0
  0
LINE
  5
A0
330
A
100
AcDbEntity
  8
STANDARD
  6
IMPORT
 62
     7
100
AcDbLine
 10
-1173.823317999999
 20
1459.292792417098
 30
0.0
 11
-1173.312224999999
 21
1454.116400417097
 31
0.0
  0
LINE
  5
A1
330
A
100
AcDbEntity
  8
STANDARD
  6
IMPORT
 62
     7
100
AcDbLine
 10
-1186.312256
 20
1434.116400417097
 30
0.0
 11
-1186.312256
 21
1474.116400417097
 31
0.0
  0
LINE
  5
A2
330
A
100
AcDbEntity
  8
STANDARD
  6
IMPORT
 62
     7
100
AcDbLine
 10
-1207.891312
 20
1462.479437417098
 30
0.0
 11
-1207.797546
 21
1462.601660417098
 31
0.0
  0
LINE
  5
A3
330
A
100
AcDbEntity
  8
STANDARD
  6
IMPORT
 62
     7
100
AcDbLine
 10
-1214.31221
 20
1468.567084417098
 30
0.0
 11
-1214.31221
 21
1474.116400417097
 31
0.0
  0
LINE
  5
A4
330
A
100
AcDbEntity
  8
STANDARD
  6
IMPORT
 62
     7
100
AcDbLine
 10
-1214.31221
 20
1468.567084417098
 30
0.0
 11
-1207.891312
 21
1462.479437417098
 31
0.0
  0
ARC
  5
A5
330
A
100
AcDbEntity
  8
STANDARD
  6
IMPORT
 62
     7
100
AcDbCircle
 10
-1199.312414
 20
1454.116400417097
 30
0.0
 40
11.99987899999999
100
AcDbArc
 50
225.0004319999999
 51
134.9995679999999
  0
LINE
  5
A6
330
A
100
AcDbEntity
  8
STANDARD
  6
IMPORT
 62
     7
100
AcDbLine
 10
-1214.31221
 20
1434.116400417097
 30
0.0
 11
-1121.312256
 21
1434.116400417097
 31
0.0
  0
LINE
  5
A7
330
A
100
AcDbEntity
  8
STANDARD
  6
IMPORT
 62
     7
100
AcDbLine
 10
-1207.891312
 20
1445.631140417098
 30
0.0
 11
-1207.797546
 21
1445.753363417098
 31
0.0
  0
LINE
  5
A8
330
A
100
AcDbEntity
  8
STANDARD
  6
IMPORT
 62
     7
100
AcDbLine
 10
-1214.31221
 20
1434.116400417097
 30
0.0
 11
-1214.31221
 21
1439.665717417097
 31
0.0
  0
LINE
  5
A9
330
A
100
AcDbEntity
  8
STANDARD
  6
IMPORT
 62
     7
100
AcDbLine
 10
-1214.31221
 20
1439.665717417097
 30
0.0
 11
-1207.891312
 21
1445.753363417098
 31
0.0
  0
LINE
  5
AA
330
A
100
AcDbEntity
  8
STANDARD
  6
IMPORT
 62
     7
100
AcDbLine
 10
-1173.367003999999
 20
1453.561591417098
 30
0.0
 11
-1129.257431
 21
1453.561591417098
 31
0.0
  0
LINE
  5
AB
330
A
100
AcDbEntity
  8
STANDARD
  6
IMPORT
 62
     7
100
AcDbLine
 10
-1171.441116
 20
1434.116400417097
 30
0.0
 11
-1171.026000999999
 21
1433.568915417098
 31
0.0
  0
LINE
  5
AC
330
A
100
AcDbEntity
  8
STANDARD
  6
IMPORT
 62
     7
100
AcDbLine
 10
-1170.393828999999
 20
1433.171271417098
 30
0.0
 11
-1168.420334
 21
1432.343939417098
 31
0.0
  0
LINE
  5
AD
330
A
100
AcDbEntity
  8
STANDARD
  6
IMPORT
 62
     7
100
AcDbLine
 10
-1171.026000999999
 20
1433.568915417098
 30
0.0
 11
-1170.393828999999
 21
1433.171271417098
 31
0.0
  0
LINE
  5
AE
330
A
100
AcDbEntity
  8
STANDARD
  6
IMPORT
 62
     7
100
AcDbLine
 10
-1154.717101999999
 20
1431.730689417098
 30
0.0
 11
-1147.693328999999
 21
1431.741065417098
 31
0.0
  0
LINE
  5
AF
330
A
100
AcDbEntity
  8
STANDARD
  6
IMPORT
 62
     7
100
AcDbLine
 10
-1161.189575
 20
1431.088446417098
 30
0.0
 11
-1160.803604
 21
1431.054572417098
 31
0.0
  0
LINE
  5
B0
330
A
100
AcDbEntity
  8
STANDARD
  6
IMPORT
 62
     7
100
AcDbLine
 10
-1164.309845
 20
1433.952673417098
 30
0.0
 11
-1163.921585
 21
1433.360022417097
 31
0.0
  0
LINE
  5
B1
330
A
100
AcDbEntity
  8
STANDARD
  6
IMPORT
 62
     7
100
AcDbLine
 10
-1151.312256
 20
1430.612982417098
 30
0.0
 11
-1146.399155
 21
1430.725287417098
 31
0.0
  0
LINE
  5
B2
330
A
100
AcDbEntity
  8
STANDARD
  6
IMPORT
 62
     7
100
AcDbLine
 10
-1156.225357
 20
1430.725287417098
 30
0.0
 11
-1151.312256
 21
1430.612982417098
 31
0.0
  0
LINE
  5
B3
330
A
100
AcDbEntity
  8
STANDARD
  6
IMPORT
 62
     7
100
AcDbLine
 10
-1157.884293
 20
1431.961554417098
 30
0.0
 11
-1154.717101999999
 21
1431.730689417098
 31
0.0
  0
LINE
  5
B4
330
A
100
AcDbEntity
  8
STANDARD
  6
IMPORT
 62
     7
100
AcDbLine
 10
-1160.803604
 20
1431.054572417098
 30
0.0
 11
-1156.225357
 21
1430.725287417098
 31
0.0
  0
LINE
  5
B5
330
A
100
AcDbEntity
  8
STANDARD
  6
IMPORT
 62
     7
100
AcDbLine
 10
-1160.592574999999
 20
1432.328375417098
 30
0.0
 11
-1157.884293
 21
1431.961554417098
 31
0.0
  0
LINE
  5
B6
330
A
100
AcDbEntity
  8
STANDARD
  6
IMPORT
 62
     7
100
AcDbLine
 10
-1165.280914
 20
1431.633490417098
 30
0.0
 11
-1161.189575
 21
1431.088446417098
 31
0.0
  0
LINE
  5
B7
330
A
100
AcDbEntity
  8
STANDARD
  6
IMPORT
 62
     7
100
AcDbLine
 10
-1162.652969
 20
1432.805670417098
 30
0.0
 11
-1160.592574999999
 21
1432.328375417098
 31
0.0
  0
LINE
  5
B8
330
A
100
AcDbEntity
  8
STANDARD
  6
IMPORT
 62
     7
100
AcDbLine
 10
-1168.420334
 20
1432.343939417098
 30
0.0
 11
-1165.280914
 21
1431.633490417098
 31
0.0
  0
LINE
  5
B9
330
A
100
AcDbEntity
  8
STANDARD
  6
IMPORT
 62
     7
100
AcDbLine
 10
-1163.921585
 20
1433.360022417097
 30
0.0
 11
-1162.652969
 21
1432.805670417098
 31
0.0
  0
LINE
  5
BA
330
A
100
AcDbEntity
  8
STANDARD
  6
IMPORT
 62
     7
100
AcDbLine
 10
-1164.309845
 20
1433.952673417098
 30
0.0
 11
-1164.165649
 21
1434.116400417097
 31
0.0
  0
LINE
  5
BB
330
A
100
AcDbEntity
  8
STANDARD
  6
IMPORT
 62
     7
100
AcDbLine
 10
-1116.312256
 20
1559.116400417098
 30
0.0
 11
-1116.312256
 21
1571.116370417098
 31
0.0
  0
LINE
  5
BC
330
A
100
AcDbEntity
  8
STANDARD
  6
IMPORT
 62
     7
100
AcDbLine
 10
-1134.812241
 20
1514.323157417098
 30
0.0
 11
-1134.812241
 21
1559.116400417098
 31
0.0
  0
LINE
  5
BD
330
A
100
AcDbEntity
  8
STANDARD
  6
IMPORT
 62
     7
100
AcDbLine
 10
-1134.944916
 20
1497.043341417098
 30
0.0
 11
-1134.944916
 21
1559.116400417098
 31
0.0
  0
LINE
  5
BE
330
A
100
AcDbEntity
  8
STANDARD
  6
IMPORT
 62
     7
100
AcDbLine
 10
-1127.812271
 20
1462.475928417098
 30
0.0
 11
-1127.812271
 21
1497.616461417098
 31
0.0
  0
LINE
  5
BF
330
A
100
AcDbEntity
  8
STANDARD
  6
IMPORT
 62
     7
100
AcDbLine
 10
-1129.299545
 20
1453.561591417098
 30
0.0
 11
-1129.31221
 21
1497.518042417098
 31
0.0
  0
LINE
  5
C0
330
A
100
AcDbEntity
  8
STANDARD
  6
IMPORT
 62
     7
100
AcDbLine
 10
-1134.944916
 20
1512.094916417098
 30
0.0
 11
-1132.270889
 21
1508.609961417097
 31
0.0
  0
LINE
  5
C1
330
A
100
AcDbEntity
  8
STANDARD
  6
IMPORT
 62
     7
100
AcDbLine
 10
-1132.270889
 20
1508.609961417097
 30
0.0
 11
-1130.074387
 21
1503.307074417097
 31
0.0
  0
LINE
  5
C2
330
A
100
AcDbEntity
  8
STANDARD
  6
IMPORT
 62
     7
100
AcDbLine
 10
-1134.944916
 20
1500.126837417098
 30
0.0
 11
-1134.81781
 21
1499.462012417098
 31
0.0
  0
LINE
  5
C3
330
A
100
AcDbEntity
  8
STANDARD
  6
IMPORT
 62
     7
100
AcDbLine
 10
-1134.943542
 20
1498.613623417098
 30
0.0
 11
-1134.812241
 21
1497.616461417098
 31
0.0
  0
LINE
  5
C4
330
A
100
AcDbEntity
  8
STANDARD
  6
IMPORT
 62
     7
100
AcDbLine
 10
-1130.074387
 20
1503.307074417097
 30
0.0
 11
-1129.31221
 21
1497.518042417098
 31
0.0
  0
LINE
  5
C5
330
A
100
AcDbEntity
  8
STANDARD
  6
IMPORT
 62
     7
100
AcDbLine
 10
-1134.944916
 20
1498.603858417097
 30
0.0
 11
-1134.81781
 21
1499.462012417098
 31
0.0
  0
LINE
  5
C6
330
A
100
AcDbEntity
  8
STANDARD
  6
IMPORT
 62
     7
100
AcDbLine
 10
-1135.626449999999
 20
1494.003333417098
 30
0.0
 11
-1135.246124
 21
1495.943945417097
 31
0.0
  0
LINE
  5
C7
330
A
100
AcDbEntity
  8
STANDARD
  6
IMPORT
 62
     7
100
AcDbLine
 10
-1135.591202
 20
1494.241065417098
 30
0.0
 11
-1135.451965
 21
1494.559821417098
 31
0.0
  0
LINE
  5
C8
330
A
100
AcDbEntity
  8
STANDARD
  6
IMPORT
 62
     7
100
AcDbLine
 10
-1137.193526999999
 20
1490.574378417098
 30
0.0
 11
-1136.706009
 21
1491.690100417097
 31
0.0
  0
LINE
  5
C9
330
A
100
AcDbEntity
  8
STANDARD
  6
IMPORT
 62
     7
100
AcDbLine
 10
-1135.943069
 20
1493.399695417098
 30
0.0
 11
-1135.626449999999
 21
1494.003333417098
 31
0.0
  0
LINE
  5
CA
330
A
100
AcDbEntity
  8
STANDARD
  6
IMPORT
 62
     7
100
AcDbLine
 10
-1138.189773999999
 20
1489.116400417097
 30
0.0
 11
-1137.630615
 21
1490.182532417098
 31
0.0
  0
LINE
  5
CB
330
A
100
AcDbEntity
  8
STANDARD
  6
IMPORT
 62
     7
100
AcDbLine
 10
-1134.944916
 20
1514.425086417098
 30
0.0
 11
-1134.695206
 21
1514.233435417098
 31
0.0
  0
LINE
  5
CC
330
A
100
AcDbEntity
  8
STANDARD
  6
IMPORT
 62
     7
100
AcDbLine
 10
-1137.861785999999
 20
1489.741705417098
 30
0.0
 11
-1137.193526999999
 21
1490.574378417098
 31
0.0
  0
ARC
  5
CD
330
A
100
AcDbEntity
  8
STANDARD
  6
IMPORT
 62
     7
100
AcDbCircle
 10
-1151.312173999999
 20
1497.616522417098
 30
0.0
 40
23.49990299999999
100
AcDbArc
 50
359.9998519999999
 51
44.999905
  0
LINE
  5
CE
330
A
100
AcDbEntity
  8
STANDARD
  6
IMPORT
 62
     7
100
AcDbLine
 10
-1127.812271
 20
1474.116400417097
 30
0.0
 11
-1121.312256
 21
1474.116400417097
 31
0.0
  0
LINE
  5
CF
330
A
100
AcDbEntity
  8
STANDARD
  6
IMPORT
 62
     7
100
AcDbLine
 10
-1121.312256
 20
1434.116400417097
 30
0.0
 11
-1121.312256
 21
1474.116400417097
 31
0.0
  0
LINE
  5
D0
330
A
100
AcDbEntity
  8
STANDARD
  6
IMPORT
 62
     7
100
AcDbLine
 10
-1126.312256
 20
1434.116400417097
 30
0.0
 11
-1126.312256
 21
1474.116400417097
 31
0.0
  0
LINE
  5
D1
330
A
100
AcDbEntity
  8
STANDARD
  6
IMPORT
 62
     7
100
AcDbLine
 10
-1150.052413999999
 20
1482.755316417097
 30
0.0
 11
-1149.200897
 21
1482.752265417098
 31
0.0
  0
LINE
  5
D2
330
A
100
AcDbEntity
  8
STANDARD
  6
IMPORT
 62
     7
100
AcDbLine
 10
-1148.361664
 20
1482.975806417097
 30
0.0
 11
-1147.492142
 21
1483.064307417098
 31
0.0
  0
LINE
  5
D3
330
A
100
AcDbEntity
  8
STANDARD
  6
IMPORT
 62
     7
100
AcDbLine
 10
-1140.639572
 20
1486.654700417098
 30
0.0
 11
-1139.916076999999
 21
1487.182349417098
 31
0.0
  0
LINE
  5
D4
330
A
100
AcDbEntity
  8
STANDARD
  6
IMPORT
 62
     7
100
AcDbLine
 10
-1143.430327999999
 20
1484.619635417097
 30
0.0
 11
-1142.728576999999
 21
1485.131415417098
 31
0.0
  0
LINE
  5
D5
330
A
100
AcDbEntity
  8
STANDARD
  6
IMPORT
 62
     7
100
AcDbLine
 10
-1141.697083
 20
1485.782660417097
 30
0.0
 11
-1141.250763
 21
1486.040686417097
 31
0.0
  0
LINE
  5
D6
330
A
100
AcDbEntity
  8
STANDARD
  6
IMPORT
 62
     7
100
AcDbLine
 10
-1145.007706
 20
1483.869208417098
 30
0.0
 11
-1143.349533
 21
1484.827612417098
 31
0.0
  0
LINE
  5
D7
330
A
100
AcDbEntity
  8
STANDARD
  6
IMPORT
 62
     7
100
AcDbLine
 10
-1144.256973
 20
1484.303168417097
 30
0.0
 11
-1143.430327999999
 21
1484.619635417097
 31
0.0
  0
LINE
  5
D8
330
A
100
AcDbEntity
  8
STANDARD
  6
IMPORT
 62
     7
100
AcDbLine
 10
-1147.492142
 20
1483.064307417098
 30
0.0
 11
-1146.839371
 21
1483.314246417098
 31
0.0
  0
LINE
  5
D9
330
A
100
AcDbEntity
  8
STANDARD
  6
IMPORT
 62
     7
100
AcDbLine
 10
-1145.667343
 20
1483.693427417097
 30
0.0
 11
-1145.007706
 21
1483.869208417098
 31
0.0
  0
LINE
  5
DA
330
A
100
AcDbEntity
  8
STANDARD
  6
IMPORT
 62
     7
100
AcDbLine
 10
-1149.200897
 20
1482.752265417098
 30
0.0
 11
-1147.565613
 21
1483.187903417098
 31
0.0
  0
LINE
  5
DB
330
A
100
AcDbEntity
  8
STANDARD
  6
IMPORT
 62
     7
100
AcDbLine
 10
-1139.916076999999
 20
1487.182349417098
 30
0.0
 11
-1139.264374
 21
1487.994269417098
 31
0.0
  0
LINE
  5
DC
330
A
100
AcDbEntity
  8
STANDARD
  6
IMPORT
 62
     7
100
AcDbLine
 10
-1138.436508
 20
1488.868598417098
 30
0.0
 11
-1138.189773999999
 21
1489.116400417097
 31
0.0
  0
LINE
  5
DD
330
A
100
AcDbEntity
  8
STANDARD
  6
IMPORT
 62
     7
100
AcDbLine
 10
-1141.250763
 20
1486.040686417097
 30
0.0
 11
-1139.706573
 21
1487.592200417098
 31
0.0
  0
LINE
  5
DE
330
A
100
AcDbEntity
  8
STANDARD
  6
IMPORT
 62
     7
100
AcDbLine
 10
-1129.31221
 20
1454.116400417097
 30
0.0
 11
-1128.801117
 21
1459.292792417098
 31
0.0
  0
LINE
  5
DF
330
A
100
AcDbEntity
  8
STANDARD
  6
IMPORT
 62
     7
100
AcDbLine
 10
-1128.801117
 20
1459.292792417098
 30
0.0
 11
-1127.812271
 21
1462.475928417098
 31
0.0
  0
LINE
  5
E0
330
A
100
AcDbEntity
  8
STANDARD
  6
IMPORT
 62
     7
100
AcDbLine
 10
-1141.820907999999
 20
1431.054572417098
 30
0.0
 11
-1141.43486
 21
1431.088446417098
 31
0.0
  0
LINE
  5
E1
330
A
100
AcDbEntity
  8
STANDARD
  6
IMPORT
 62
     7
100
AcDbLine
 10
-1138.478851
 20
1433.548926417097
 30
0.0
 11
-1138.415984999999
 21
1434.116400417097
 31
0.0
  0
LINE
  5
E2
330
A
100
AcDbEntity
  8
STANDARD
  6
IMPORT
 62
     7
100
AcDbLine
 10
-1139.563750999999
 20
1432.942847417098
 30
0.0
 11
-1138.478851
 21
1433.548926417097
 31
0.0
  0
LINE
  5
E3
330
A
100
AcDbEntity
  8
STANDARD
  6
IMPORT
 62
     7
100
AcDbLine
 10
-1134.204178
 20
1432.343939417098
 30
0.0
 11
-1132.230682
 21
1433.171271417098
 31
0.0
  0
LINE
  5
E4
330
A
100
AcDbEntity
  8
STANDARD
  6
IMPORT
 62
     7
100
AcDbLine
 10
-1141.577376999999
 20
1432.413062417098
 30
0.0
 11
-1139.563750999999
 21
1432.942847417098
 31
0.0
  0
LINE
  5
E5
330
A
100
AcDbEntity
  8
STANDARD
  6
IMPORT
 62
     7
100
AcDbLine
 10
-1137.343521
 20
1431.633490417098
 30
0.0
 11
-1134.204178
 21
1432.343939417098
 31
0.0
  0
LINE
  5
E6
330
A
100
AcDbEntity
  8
STANDARD
  6
IMPORT
 62
     7
100
AcDbLine
 10
-1144.36058
 20
1432.001685417097
 30
0.0
 11
-1141.577376999999
 21
1432.413062417098
 31
0.0
  0
LINE
  5
E7
330
A
100
AcDbEntity
  8
STANDARD
  6
IMPORT
 62
     7
100
AcDbLine
 10
-1141.43486
 20
1431.088446417098
 30
0.0
 11
-1137.343521
 21
1431.633490417098
 31
0.0
  0
LINE
  5
E8
330
A
100
AcDbEntity
  8
STANDARD
  6
IMPORT
 62
     7
100
AcDbLine
 10
-1147.693328999999
 20
1431.741065417098
 30
0.0
 11
-1144.36058
 21
1432.001685417097
 31
0.0
  0
LINE
  5
E9
330
A
100
AcDbEntity
  8
STANDARD
  6
IMPORT
 62
     7
100
AcDbLine
 10
-1146.399155
 20
1430.725287417098
 30
0.0
 11
-1141.820907999999
 21
1431.054572417098
 31
0.0
  0
LINE
  5
EA
330
A
100
AcDbEntity
  8
STANDARD
  6
IMPORT
 62
     7
100
AcDbLine
 10
-1132.230682
 20
1433.171271417098
 30
0.0
 11
-1131.598510999999
 21
1433.568915417098
 31
0.0
  0
LINE
  5
EB
330
A
100
AcDbEntity
  8
STANDARD
  6
IMPORT
 62
     7
100
AcDbLine
 10
-1131.598510999999
 20
1433.568915417098
 30
0.0
 11
-1131.183395
 21
1434.116400417097
 31
0.0
  0
LINE
  5
EC
330
A
100
AcDbEntity
  8
STANDARD
  6
STANDARD
 62
     7
100
AcDbLine
 10
-1186.312256
 20
1571.116370417098
 30
0.0
 11
-1116.312256
 21
1571.116370417098
 31
0.0
  0
LINE
  5
ED
330
A
100
AcDbEntity
  8
STANDARD
  6
IMPORT
 62
     7
100
AcDbLine
 10
-1149.479703999999
 20
2391.051803
 30
0.0
 11
-1149.225114
 21
2391.018271999999
 31
0.0
  0
LINE
  5
EE
330
A
100
AcDbEntity
  8
STANDARD
  6
IMPORT
 62
     7
100
AcDbLine
 10
-1133.112413
 20
2307.55178
 30
0.0
 11
-1133.112413
 21
2376.624809
 31
0.0
  0
LINE
  5
EF
330
A
100
AcDbEntity
  8
STANDARD
  6
IMPORT
 62
     7
100
AcDbLine
 10
-1136.128584
 20
2384.024597
 30
0.0
 11
-1135.190284
 21
2382.801795
 31
0.0
  0
LINE
  5
F0
330
A
100
AcDbEntity
  8
STANDARD
  6
IMPORT
 62
     7
100
AcDbLine
 10
-1137.812443999999
 20
2386.219039
 30
0.0
 11
-1137.307182999999
 21
2385.560583999999
 31
0.0
  0
LINE
  5
F1
330
A
100
AcDbEntity
  8
STANDARD
  6
IMPORT
 62
     7
100
AcDbLine
 10
-1133.112413
 20
2343.712707
 30
0.0
 11
-1131.979703999999
 21
2344.24089
 31
0.0
  0
LINE
  5
F2
330
A
100
AcDbEntity
  8
STANDARD
  6
IMPORT
 62
     7
100
AcDbLine
 10
-1134.051064
 20
2380.051475
 30
0.0
 11
-1133.541922999999
 21
2378.822303
 31
0.0
  0
LINE
  5
F3
330
A
100
AcDbEntity
  8
STANDARD
  6
IMPORT
 62
     7
100
AcDbLine
 10
-1135.190284
 20
2382.801795
 30
0.0
 11
-1134.798554
 21
2381.856094
 31
0.0
  0
LINE
  5
F4
330
A
100
AcDbEntity
  8
STANDARD
  6
IMPORT
 62
     7
100
AcDbLine
 10
-1133.112413
 20
2375.559821
 30
0.0
 11
-1132.979704
 21
2374.551787999999
 31
0.0
  0
LINE
  5
F5
330
A
100
AcDbEntity
  8
STANDARD
  6
IMPORT
 62
     7
100
AcDbLine
 10
-1133.541922999999
 20
2378.822303
 30
0.0
 11
-1133.382373999999
 21
2377.610335999999
 31
0.0
  0
LINE
  5
F6
330
A
100
AcDbEntity
  8
STANDARD
  6
IMPORT
 62
     7
100
AcDbLine
 10
-1151.461823
 20
2390.790839999999
 30
0.0
 11
-1149.479703999999
 21
2391.051803
 31
0.0
  0
LINE
  5
F7
330
A
100
AcDbEntity
  8
STANDARD
  6
IMPORT
 62
     7
100
AcDbLine
 10
-1133.112413
 20
2373.543753999999
 30
0.0
 11
-1132.979704
 21
2374.551787999999
 31
0.0
  0
LINE
  5
F8
330
A
100
AcDbEntity
  8
STANDARD
  6
IMPORT
 62
     7
100
AcDbLine
 10
-1147.581023
 20
2390.801826
 30
0.0
 11
-1145.209193
 21
2390.489555
 31
0.0
  0
LINE
  5
F9
330
A
100
AcDbEntity
  8
STANDARD
  6
IMPORT
 62
     7
100
AcDbLine
 10
-1143.109582999999
 20
2389.61988
 30
0.0
 11
-1141.229703999999
 21
2388.841223999999
 31
0.0
  0
LINE
  5
FA
330
A
100
AcDbEntity
  8
STANDARD
  6
IMPORT
 62
     7
100
AcDbLine
 10
-1145.209193
 20
2390.489555
 30
0.0
 11
-1144.791383999999
 21
2390.316482
 31
0.0
  0
LINE
  5
FB
330
A
100
AcDbEntity
  8
STANDARD
  6
IMPORT
 62
     7
100
AcDbLine
 10
-1139.216604
 20
2387.296501
 30
0.0
 11
-1137.812443999999
 21
2386.219039
 31
0.0
  0
LINE
  5
FC
330
A
100
AcDbEntity
  8
STANDARD
  6
IMPORT
 62
     7
100
AcDbLine
 10
-1141.229703999999
 20
2388.841223999999
 30
0.0
 11
-1140.722094
 21
2388.451705
 31
0.0
  0
ARC
  5
FD
330
A
100
AcDbEntity
  8
STANDARD
  6
IMPORT
 62
     7
100
AcDbCircle
 10
-1149.479703999999
 20
2374.551783999999
 30
0.0
 40
35.00000399999999
100
AcDbArc
 50
299.999996
 51
240.000004
  0
ARC
  5
FE
330
A
100
AcDbEntity
  8
STANDARD
  6
IMPORT
 62
     7
100
AcDbCircle
 10
-1149.481619
 20
2374.551746999999
 30
0.0
 40
16.500048
100
AcDbArc
 50
88.23252899999999
 51
179.116025
  0
ARC
  5
FF
330
A
100
AcDbEntity
  8
STANDARD
  6
IMPORT
 62
     7
100
AcDbCircle
 10
-1149.481670999999
 20
2374.551797
 30
0.0
 40
16.499999
100
AcDbArc
 50
7.217546
 51
88.232344
  0
LINE
  5
100
330
A
100
AcDbEntity
  8
STANDARD
  6
IMPORT
 62
     7
100
AcDbLine
 10
-1185.479703
 20
2232.55178
 30
0.0
 11
-1119.479703999999
 21
2232.55178
 31
0.0
  0
LINE
  5
101
330
A
100
AcDbEntity
  8
STANDARD
  6
IMPORT
 62
     7
100
AcDbLine
 10
-1165.979703
 20
2307.55178
 30
0.0
 11
-1132.985284
 21
2307.55178
 31
0.0
  0
LINE
  5
102
330
A
100
AcDbEntity
  8
STANDARD
  6
IMPORT
 62
     7
100
AcDbLine
 10
-1132.985284
 20
2232.55178
 30
0.0
 11
-1132.985284
 21
2307.55178
 31
0.0
  0
LINE
  5
103
330
A
100
AcDbEntity
  8
STANDARD
  6
IMPORT
 62
     7
100
AcDbLine
 10
-1119.479703999999
 20
2192.55178
 30
0.0
 11
-1119.479703999999
 21
2232.55178
 31
0.0
  0
LINE
  5
104
330
A
100
AcDbEntity
  8
STANDARD
  6
IMPORT
 62
     7
100
AcDbLine
 10
-1124.479703999999
 20
2192.55178
 30
0.0
 11
-1124.479703999999
 21
2232.55178
 31
0.0
  0
LINE
  5
105
330
A
100
AcDbEntity
  8
STANDARD
  6
IMPORT
 62
     7
100
AcDbLine
 10
-1127.479703
 20
2232.55178
 30
0.0
 11
-1126.968593
 21
2231.870323
 31
0.0
  0
LINE
  5
106
330
A
100
AcDbEntity
  8
STANDARD
  6
IMPORT
 62
     7
100
AcDbLine
 10
-1134.629702999999
 20
2192.55178
 30
0.0
 11
-1119.479703999999
 21
2192.55178
 31
0.0
  0
LINE
  5
107
330
A
100
AcDbEntity
  8
STANDARD
  6
IMPORT
 62
     7
100
AcDbLine
 10
-1164.329704
 20
2195.751299999999
 30
0.0
 11
-1134.629702999999
 21
2195.751299999999
 31
0.0
  0
LINE
  5
108
330
A
100
AcDbEntity
  8
STANDARD
  6
IMPORT
 62
     7
100
AcDbLine
 10
-1129.979703
 20
2153.297687
 30
0.0
 11
-1129.979703
 21
2192.55178
 31
0.0
  0
LINE
  5
109
330
A
100
AcDbEntity
  8
STANDARD
  6
IMPORT
 62
     7
100
AcDbLine
 10
-1134.629702999999
 20
2160.589309
 30
0.0
 11
-1134.629702999999
 21
2195.751299999999
 31
0.0
  0
LINE
  5
10A
330
A
100
AcDbEntity
  8
STANDARD
  6
IMPORT
 62
     7
100
AcDbLine
 10
-1127.479703
 20
2192.55178
 30
0.0
 11
-1126.968593
 21
2193.233276
 31
0.0
  0
LINE
  5
10B
330
A
100
AcDbEntity
  8
STANDARD
  6
IMPORT
 62
     7
100
AcDbLine
 10
-1134.629702999999
 20
2160.702682
 30
0.0
 11
-1131.293174
 21
2156.420493
 31
0.0
  0
LINE
  5
10C
330
A
100
AcDbEntity
  8
STANDARD
  6
IMPORT
 62
     7
100
AcDbLine
 10
-1131.293174
 20
2156.420493
 30
0.0
 11
-1129.195263
 21
2151.432643
 31
0.0
  0
LINE
  5
10D
330
A
100
AcDbEntity
  8
STANDARD
  6
IMPORT
 62
     7
100
AcDbLine
 10
-1150.013673999999
 20
2166.386924
 30
0.0
 11
-1149.479703999999
 21
2166.456142
 31
0.0
  0
LINE
  5
10E
330
A
100
AcDbEntity
  8
STANDARD
  6
IMPORT
 62
     7
100
AcDbLine
 10
-1135.446152999999
 20
2160.88058
 30
0.0
 11
-1134.629702999999
 21
2160.88058
 31
0.0
  0
LINE
  5
10F
330
A
100
AcDbEntity
  8
STANDARD
  6
IMPORT
 62
     7
100
AcDbLine
 10
-1134.800823999999
 20
2160.777126
 30
0.0
 11
-1134.688842999999
 21
2160.717615999999
 31
0.0
  0
LINE
  5
110
330
A
100
AcDbEntity
  8
STANDARD
  6
IMPORT
 62
     7
100
AcDbLine
 10
-1144.720194
 20
2165.839076
 30
0.0
 11
-1144.186223
 21
2165.76984
 31
0.0
  0
LINE
  5
111
330
A
100
AcDbEntity
  8
STANDARD
  6
IMPORT
 62
     7
100
AcDbLine
 10
-1139.420644
 20
2154.537196
 30
0.0
 11
-1137.525832999999
 21
2151.458984
 31
0.0
  0
LINE
  5
112
330
A
100
AcDbEntity
  8
STANDARD
  6
IMPORT
 62
     7
100
AcDbLine
 10
-1154.773183999999
 20
2165.76984
 30
0.0
 11
-1150.013673999999
 21
2166.386924
 31
0.0
  0
LINE
  5
113
330
A
100
AcDbEntity
  8
STANDARD
  6
IMPORT
 62
     7
100
AcDbLine
 10
-1152.399523
 20
2158.902717
 30
0.0
 11
-1148.979704
 21
2159.220328999999
 31
0.0
  0
LINE
  5
114
330
A
100
AcDbEntity
  8
STANDARD
  6
IMPORT
 62
     7
100
AcDbLine
 10
-1149.479703999999
 20
2166.456142
 30
0.0
 11
-1144.720194
 21
2165.839076
 31
0.0
  0
LINE
  5
115
330
A
100
AcDbEntity
  8
STANDARD
  6
IMPORT
 62
     7
100
AcDbLine
 10
-1135.445973
 20
2160.880561
 30
0.0
 11
-1134.804463
 21
2160.779070999999
 31
0.0
  0
LINE
  5
116
330
A
100
AcDbEntity
  8
STANDARD
  6
IMPORT
 62
     7
100
AcDbLine
 10
-1148.979704
 20
2159.220328999999
 30
0.0
 11
-1145.383263
 21
2158.577571
 31
0.0
  0
LINE
  5
117
330
A
100
AcDbEntity
  8
STANDARD
  6
IMPORT
 62
     7
100
AcDbLine
 10
-1144.186223
 20
2165.76984
 30
0.0
 11
-1139.253484
 21
2163.757662999999
 31
0.0
  0
LINE
  5
118
330
A
100
AcDbEntity
  8
STANDARD
  6
IMPORT
 62
     7
100
AcDbLine
 10
-1145.383263
 20
2158.577571
 30
0.0
 11
-1142.110673
 21
2156.974292
 31
0.0
  0
LINE
  5
119
330
A
100
AcDbEntity
  8
STANDARD
  6
IMPORT
 62
     7
100
AcDbLine
 10
-1139.253484
 20
2163.757662999999
 30
0.0
 11
-1135.446152999999
 21
2160.88058
 31
0.0
  0
LINE
  5
11A
330
A
100
AcDbEntity
  8
STANDARD
  6
IMPORT
 62
     7
100
AcDbLine
 10
-1142.110673
 20
2156.974292
 30
0.0
 11
-1139.420644
 21
2154.537196
 31
0.0
  0
LINE
  5
11B
330
A
100
AcDbEntity
  8
STANDARD
  6
IMPORT
 62
     7
100
AcDbLine
 10
-1142.528044
 20
2135.609012
 30
0.0
 11
-1139.744824
 21
2137.942405
 31
0.0
  0
LINE
  5
11C
330
A
100
AcDbEntity
  8
STANDARD
  6
IMPORT
 62
     7
100
AcDbLine
 10
-1145.860824
 20
2134.130854999999
 30
0.0
 11
-1142.528044
 21
2135.609012
 31
0.0
  0
LINE
  5
11D
330
A
100
AcDbEntity
  8
STANDARD
  6
IMPORT
 62
     7
100
AcDbLine
 10
-1139.744824
 20
2137.942405
 30
0.0
 11
-1137.731194
 21
2140.946555
 31
0.0
  0
ARC
  5
11E
330
A
100
AcDbEntity
  8
STANDARD
  6
IMPORT
 62
     7
100
AcDbCircle
 10
-1149.108189
 20
2146.427024999999
 30
0.0
 40
12.628205
100
AcDbArc
 50
334.2791819999999
 51
23.482552
  0
ARC
  5
11F
330
A
100
AcDbEntity
  8
STANDARD
  6
IMPORT
 62
     7
100
AcDbCircle
 10
-1149.844601999999
 20
2146.427829999999
 30
0.0
 40
12.63508999999999
100
AcDbArc
 50
148.067465
 51
209.6942929999999
  0
LINE
  5
120
330
A
100
AcDbEntity
  8
STANDARD
  6
IMPORT
 62
     7
100
AcDbLine
 10
-1129.979703
 20
2124.551787999999
 30
0.0
 11
-1129.979703
 21
2138.688693
 31
0.0
  0
LINE
  5
121
330
A
100
AcDbEntity
  8
STANDARD
  6
IMPORT
 62
     7
100
AcDbLine
 10
-1128.479703999999
 20
2145.906349
 30
0.0
 11
-1128.479703999999
 21
2146.080013
 31
0.0
  0
LINE
  5
122
330
A
100
AcDbEntity
  8
STANDARD
  6
IMPORT
 62
     7
100
AcDbLine
 10
-1129.195263
 20
2151.432643
 30
0.0
 11
-1128.479703999999
 21
2146.080013
 31
0.0
  0
LINE
  5
123
330
A
100
AcDbEntity
  8
STANDARD
  6
IMPORT
 62
     7
100
AcDbLine
 10
-1129.195263
 20
2140.553737
 30
0.0
 11
-1128.479703999999
 21
2145.906349
 31
0.0
  0
LINE
  5
124
330
A
100
AcDbEntity
  8
STANDARD
  6
IMPORT
 62
     7
100
AcDbLine
 10
-1131.293174
 20
2135.565887
 30
0.0
 11
-1129.195263
 21
2140.553737
 31
0.0
  0
LINE
  5
125
330
A
100
AcDbEntity
  8
STANDARD
  6
IMPORT
 62
     7
100
AcDbLine
 10
-1134.630464
 20
2131.282706999999
 30
0.0
 11
-1131.293174
 21
2135.565887
 31
0.0
  0
LINE
  5
126
330
A
100
AcDbEntity
  8
STANDARD
  6
IMPORT
 62
     7
100
AcDbLine
 10
-1168.979703999999
 20
2124.551787999999
 30
0.0
 11
-1129.979703
 21
2124.551787999999
 31
0.0
  0
LINE
  5
127
330
A
100
AcDbEntity
  8
STANDARD
  6
IMPORT
 62
     7
100
AcDbLine
 10
-1132.982984865493
 20
1774.220336394303
 30
0.0
 11
-1132.985284
 21
2124.551787999999
 31
0.0
  0
LINE
  5
128
330
A
100
AcDbEntity
  8
STANDARD
  6
IMPORT
 62
     7
100
AcDbLine
 10
-1138.979704
 20
2127.996115999999
 30
0.0
 11
-1134.630464
 21
2131.282706999999
 31
0.0
  0
LINE
  5
129
330
A
100
AcDbEntity
  8
STANDARD
  6
IMPORT
 62
     7
100
AcDbLine
 10
-1144.044504
 20
2125.930076
 30
0.0
 11
-1138.979704
 21
2127.996115999999
 31
0.0
  0
LINE
  5
12A
330
A
100
AcDbEntity
  8
STANDARD
  6
IMPORT
 62
     7
100
AcDbLine
 10
-1149.479703999999
 20
2133.624796999999
 30
0.0
 11
-1145.860824
 21
2134.130854999999
 31
0.0
  0
LINE
  5
12B
330
A
100
AcDbEntity
  8
STANDARD
  6
IMPORT
 62
     7
100
AcDbLine
 10
-1149.479703999999
 20
2125.225406
 30
0.0
 11
-1144.044504
 21
2125.930076
 31
0.0
  0
LINE
  5
12C
330
A
100
AcDbEntity
  8
STANDARD
  6
IMPORT
 62
     7
100
AcDbLine
 10
-1152.884593999999
 20
2134.071726999999
 30
0.0
 11
-1149.479703999999
 21
2133.624796999999
 31
0.0
  0
LINE
  5
12D
330
A
100
AcDbEntity
  8
STANDARD
  6
IMPORT
 62
     7
100
AcDbLine
 10
-1154.914902999999
 20
2125.930076
 30
0.0
 11
-1149.479703999999
 21
2125.225406
 31
0.0
  0
LINE
  5
12E
330
A
100
AcDbEntity
  8
STANDARD
  6
IMPORT
 62
     7
100
AcDbLine
 10
-1153.750214
 20
2390.489555
 30
0.0
 11
-1153.519033
 21
2390.519996
 31
0.0
  0
LINE
  5
12F
330
A
100
AcDbEntity
  8
STANDARD
  6
IMPORT
 62
     7
100
AcDbLine
 10
-1157.729702999999
 20
2388.841223999999
 30
0.0
 11
-1157.535843
 21
2388.921523
 31
0.0
  0
LINE
  5
130
330
A
100
AcDbEntity
  8
STANDARD
  6
IMPORT
 62
     7
100
AcDbLine
 10
-1165.979703
 20
2307.55178
 30
0.0
 11
-1165.979703
 21
2374.806303999999
 31
0.0
  0
LINE
  5
131
330
A
100
AcDbEntity
  8
STANDARD
  6
IMPORT
 62
     7
100
AcDbLine
 10
-1165.417484
 20
2378.822303
 30
0.0
 11
-1165.362993
 21
2378.953834
 31
0.0
  0
LINE
  5
132
330
A
100
AcDbEntity
  8
STANDARD
  6
IMPORT
 62
     7
100
AcDbLine
 10
-1159.332642999999
 20
2387.611212999999
 30
0.0
 11
-1157.729702999999
 21
2388.841223999999
 31
0.0
  0
LINE
  5
133
330
A
100
AcDbEntity
  8
STANDARD
  6
IMPORT
 62
     7
100
AcDbLine
 10
-1161.146963
 20
2386.219039
 30
0.0
 11
-1160.998723
 21
2386.332794
 31
0.0
  0
LINE
  5
134
330
A
100
AcDbEntity
  8
STANDARD
  6
IMPORT
 62
     7
100
AcDbLine
 10
-1155.607152999999
 20
2389.720397
 30
0.0
 11
-1153.750214
 21
2390.489555
 31
0.0
  0
LINE
  5
135
330
A
100
AcDbEntity
  8
STANDARD
  6
IMPORT
 62
     7
100
AcDbLine
 10
-1165.687314
 20
2376.772703999999
 30
0.0
 11
-1165.417484
 21
2378.822303
 31
0.0
  0
LINE
  5
136
330
A
100
AcDbEntity
  8
STANDARD
  6
IMPORT
 62
     7
100
AcDbLine
 10
-1164.552464
 20
2380.910659
 30
0.0
 11
-1163.769123
 21
2382.801795
 31
0.0
  0
LINE
  5
137
330
A
100
AcDbEntity
  8
STANDARD
  6
IMPORT
 62
     7
100
AcDbLine
 10
-1166.979703999999
 20
2344.24089
 30
0.0
 11
-1165.979703
 21
2343.774580999999
 31
0.0
  0
LINE
  5
138
330
A
100
AcDbEntity
  8
STANDARD
  6
IMPORT
 62
     7
100
AcDbLine
 10
-1162.384083999999
 20
2384.606795999999
 30
0.0
 11
-1161.146963
 21
2386.219039
 31
0.0
  0
LINE
  5
139
330
A
100
AcDbEntity
  8
STANDARD
  6
IMPORT
 62
     7
100
AcDbLine
 10
-1163.769123
 20
2382.801795
 30
0.0
 11
-1163.669073
 21
2382.932182
 31
0.0
  0
LINE
  5
13A
330
A
100
AcDbEntity
  8
STANDARD
  6
IMPORT
 62
     7
100
AcDbLine
 10
-1165.869453999999
 20
2232.55178
 30
0.0
 11
-1165.869453999999
 21
2307.55178
 31
0.0
  0
LINE
  5
13B
330
A
100
AcDbEntity
  8
STANDARD
  6
IMPORT
 62
     7
100
AcDbLine
 10
-1212.479705
 20
2198.811775
 30
0.0
 11
-1212.479705
 21
2226.291805
 31
0.0
  0
LINE
  5
13C
330
A
100
AcDbEntity
  8
STANDARD
  6
IMPORT
 62
     7
100
AcDbLine
 10
-1212.154255
 20
2226.693930999999
 30
0.0
 11
-1207.785363
 21
2229.872298999999
 31
0.0
  0
LINE
  5
13D
330
A
100
AcDbEntity
  8
STANDARD
  6
IMPORT
 62
     7
100
AcDbLine
 10
-1191.479701999999
 20
2229.571281
 30
0.0
 11
-1190.968442
 21
2229.872298999999
 31
0.0
  0
LINE
  5
13E
330
A
100
AcDbEntity
  8
STANDARD
  6
IMPORT
 62
     7
100
AcDbLine
 10
-1188.994424
 20
2230.499702
 30
0.0
 11
-1187.087403999999
 21
2231.529136
 31
0.0
  0
LINE
  5
13F
330
A
100
AcDbEntity
  8
STANDARD
  6
IMPORT
 62
     7
100
AcDbLine
 10
-1207.785363
 20
2229.872298999999
 30
0.0
 11
-1206.058783
 21
2230.550361
 31
0.0
  0
LINE
  5
140
330
A
100
AcDbEntity
  8
STANDARD
  6
IMPORT
 62
     7
100
AcDbLine
 10
-1194.373874
 20
2228.651405
 30
0.0
 11
-1191.479701999999
 21
2229.571281
 31
0.0
  0
LINE
  5
141
330
A
100
AcDbEntity
  8
STANDARD
  6
IMPORT
 62
     7
100
AcDbLine
 10
-1190.968442
 20
2229.872298999999
 30
0.0
 11
-1188.994424
 21
2230.499702
 31
0.0
  0
LINE
  5
142
330
A
100
AcDbEntity
  8
STANDARD
  6
IMPORT
 62
     7
100
AcDbLine
 10
-1186.746243999999
 20
2231.870323
 30
0.0
 11
-1185.888593
 21
2232.142882999999
 31
0.0
  0
LINE
  5
143
330
A
100
AcDbEntity
  8
STANDARD
  6
IMPORT
 62
     7
100
AcDbLine
 10
-1197.479704999999
 20
2228.337645999999
 30
0.0
 11
-1194.373874
 21
2228.651405
 31
0.0
  0
LINE
  5
144
330
A
100
AcDbEntity
  8
STANDARD
  6
IMPORT
 62
     7
100
AcDbLine
 10
-1200.585532
 20
2228.651405
 30
0.0
 11
-1197.479704999999
 21
2228.337645999999
 31
0.0
  0
LINE
  5
145
330
A
100
AcDbEntity
  8
STANDARD
  6
IMPORT
 62
     7
100
AcDbLine
 10
-1203.479704
 20
2229.571281
 30
0.0
 11
-1200.585532
 21
2228.651405
 31
0.0
  0
LINE
  5
146
330
A
100
AcDbEntity
  8
STANDARD
  6
IMPORT
 62
     7
100
AcDbLine
 10
-1205.964985
 20
2230.499702
 30
0.0
 11
-1203.990965
 21
2229.872298999999
 31
0.0
  0
LINE
  5
147
330
A
100
AcDbEntity
  8
STANDARD
  6
IMPORT
 62
     7
100
AcDbLine
 10
-1203.990965
 20
2229.872298999999
 30
0.0
 11
-1203.479704
 21
2229.571281
 31
0.0
  0
LINE
  5
148
330
A
100
AcDbEntity
  8
STANDARD
  6
IMPORT
 62
     7
100
AcDbLine
 10
-1212.479705
 20
2226.291805
 30
0.0
 11
-1212.154255
 21
2226.693930999999
 31
0.0
  0
LINE
  5
149
330
A
100
AcDbEntity
  8
STANDARD
  6
IMPORT
 62
     7
100
AcDbLine
 10
-1187.087403999999
 20
2231.529136
 30
0.0
 11
-1186.746243999999
 21
2231.870323
 31
0.0
  0
LINE
  5
14A
330
A
100
AcDbEntity
  8
STANDARD
  6
IMPORT
 62
     7
100
AcDbLine
 10
-1185.888593
 20
2232.142882999999
 30
0.0
 11
-1185.479703
 21
2232.55178
 31
0.0
  0
LINE
  5
14B
330
A
100
AcDbEntity
  8
STANDARD
  6
IMPORT
 62
     7
100
AcDbLine
 10
-1179.479704
 20
2192.55178
 30
0.0
 11
-1179.479704
 21
2232.55178
 31
0.0
  0
LINE
  5
14C
330
A
100
AcDbEntity
  8
STANDARD
  6
IMPORT
 62
     7
100
AcDbLine
 10
-1184.479703999999
 20
2192.55178
 30
0.0
 11
-1184.479703999999
 21
2232.55178
 31
0.0
  0
LINE
  5
14D
330
A
100
AcDbEntity
  8
STANDARD
  6
IMPORT
 62
     7
100
AcDbLine
 10
-1171.990813999999
 20
2231.870323
 30
0.0
 11
-1171.479704
 21
2232.55178
 31
0.0
  0
LINE
  5
14E
330
A
100
AcDbEntity
  8
STANDARD
  6
IMPORT
 62
     7
100
AcDbLine
 10
-1185.479703
 20
2192.55178
 30
0.0
 11
-1164.329704
 21
2192.55178
 31
0.0
  0
LINE
  5
14F
330
A
100
AcDbEntity
  8
STANDARD
  6
IMPORT
 62
     7
100
AcDbLine
 10
-1168.979703999999
 20
2153.297687
 30
0.0
 11
-1168.979703999999
 21
2192.55178
 31
0.0
  0
LINE
  5
150
330
A
100
AcDbEntity
  8
STANDARD
  6
IMPORT
 62
     7
100
AcDbLine
 10
-1164.329704
 20
2160.589309
 30
0.0
 11
-1164.329704
 21
2195.751299999999
 31
0.0
  0
LINE
  5
151
330
A
100
AcDbEntity
  8
STANDARD
  6
IMPORT
 62
     7
100
AcDbLine
 10
-1185.888593
 20
2192.960676999999
 30
0.0
 11
-1185.479703
 21
2192.55178
 31
0.0
  0
LINE
  5
152
330
A
100
AcDbEntity
  8
STANDARD
  6
IMPORT
 62
     7
100
AcDbLine
 10
-1171.990813999999
 20
2193.233276
 30
0.0
 11
-1171.479704
 21
2192.55178
 31
0.0
  0
LINE
  5
153
330
A
100
AcDbEntity
  8
STANDARD
  6
IMPORT
 62
     7
100
AcDbLine
 10
-1212.479705
 20
2198.811775
 30
0.0
 11
-1212.154255
 21
2198.409647999999
 31
0.0
  0
LINE
  5
154
330
A
100
AcDbEntity
  8
STANDARD
  6
IMPORT
 62
     7
100
AcDbLine
 10
-1203.990965
 20
2195.231280999999
 30
0.0
 11
-1203.479704
 21
2195.532298
 31
0.0
  0
LINE
  5
155
330
A
100
AcDbEntity
  8
STANDARD
  6
IMPORT
 62
     7
100
AcDbLine
 10
-1203.479704
 20
2195.532298
 30
0.0
 11
-1200.585532
 21
2196.452174
 31
0.0
  0
LINE
  5
156
330
A
100
AcDbEntity
  8
STANDARD
  6
IMPORT
 62
     7
100
AcDbLine
 10
-1205.964985
 20
2194.603858
 30
0.0
 11
-1203.990965
 21
2195.231280999999
 31
0.0
  0
LINE
  5
157
330
A
100
AcDbEntity
  8
STANDARD
  6
IMPORT
 62
     7
100
AcDbLine
 10
-1200.585532
 20
2196.452174
 30
0.0
 11
-1197.479704999999
 21
2196.765932999999
 31
0.0
  0
LINE
  5
158
330
A
100
AcDbEntity
  8
STANDARD
  6
IMPORT
 62
     7
100
AcDbLine
 10
-1197.479704999999
 20
2196.765932999999
 30
0.0
 11
-1194.373874
 21
2196.452174
 31
0.0
  0
LINE
  5
159
330
A
100
AcDbEntity
  8
STANDARD
  6
IMPORT
 62
     7
100
AcDbLine
 10
-1194.373874
 20
2196.452174
 30
0.0
 11
-1191.479701999999
 21
2195.532298
 31
0.0
  0
LINE
  5
15A
330
A
100
AcDbEntity
  8
STANDARD
  6
IMPORT
 62
     7
100
AcDbLine
 10
-1190.968442
 20
2195.231280999999
 30
0.0
 11
-1188.994424
 21
2194.603858
 31
0.0
  0
LINE
  5
15B
330
A
100
AcDbEntity
  8
STANDARD
  6
IMPORT
 62
     7
100
AcDbLine
 10
-1186.746243999999
 20
2193.233276
 30
0.0
 11
-1185.888593
 21
2192.960676999999
 31
0.0
  0
LINE
  5
15C
330
A
100
AcDbEntity
  8
STANDARD
  6
IMPORT
 62
     7
100
AcDbLine
 10
-1207.785363
 20
2195.231280999999
 30
0.0
 11
-1206.058783
 21
2194.553218
 31
0.0
  0
LINE
  5
15D
330
A
100
AcDbEntity
  8
STANDARD
  6
IMPORT
 62
     7
100
AcDbLine
 10
-1188.994424
 20
2194.603858
 30
0.0
 11
-1187.087403999999
 21
2193.574423999999
 31
0.0
  0
LINE
  5
15E
330
A
100
AcDbEntity
  8
STANDARD
  6
IMPORT
 62
     7
100
AcDbLine
 10
-1191.479701999999
 20
2195.532298
 30
0.0
 11
-1190.968442
 21
2195.231280999999
 31
0.0
  0
LINE
  5
15F
330
A
100
AcDbEntity
  8
STANDARD
  6
IMPORT
 62
     7
100
AcDbLine
 10
-1212.154255
 20
2198.409647999999
 30
0.0
 11
-1207.785363
 21
2195.231280999999
 31
0.0
  0
LINE
  5
160
330
A
100
AcDbEntity
  8
STANDARD
  6
IMPORT
 62
     7
100
AcDbLine
 10
-1187.087403999999
 20
2193.574423999999
 30
0.0
 11
-1186.746243999999
 21
2193.233276
 31
0.0
  0
LINE
  5
161
330
A
100
AcDbEntity
  8
STANDARD
  6
IMPORT
 62
     7
100
AcDbLine
 10
-1164.329704
 20
2160.88058
 30
0.0
 11
-1163.513253999999
 21
2160.88058
 31
0.0
  0
LINE
  5
162
330
A
100
AcDbEntity
  8
STANDARD
  6
IMPORT
 62
     7
100
AcDbLine
 10
-1164.142763
 20
2160.780998
 30
0.0
 11
-1163.513253999999
 21
2160.88058
 31
0.0
  0
LINE
  5
163
330
A
100
AcDbEntity
  8
STANDARD
  6
IMPORT
 62
     7
100
AcDbLine
 10
-1164.270564
 20
2160.717615999999
 30
0.0
 11
-1164.154943999999
 21
2160.779070999999
 31
0.0
  0
LINE
  5
164
330
A
100
AcDbEntity
  8
STANDARD
  6
IMPORT
 62
     7
100
AcDbLine
 10
-1163.513253999999
 20
2160.88058
 30
0.0
 11
-1159.705922999999
 21
2163.757662999999
 31
0.0
  0
LINE
  5
165
330
A
100
AcDbEntity
  8
STANDARD
  6
IMPORT
 62
     7
100
AcDbLine
 10
-1158.403074
 20
2155.737434
 30
0.0
 11
-1155.615492999999
 21
2157.714076
 31
0.0
  0
LINE
  5
166
330
A
100
AcDbEntity
  8
STANDARD
  6
IMPORT
 62
     7
100
AcDbLine
 10
-1159.705922999999
 20
2163.757662999999
 30
0.0
 11
-1154.773183999999
 21
2165.76984
 31
0.0
  0
LINE
  5
167
330
A
100
AcDbEntity
  8
STANDARD
  6
IMPORT
 62
     7
100
AcDbLine
 10
-1155.615492999999
 20
2157.714076
 30
0.0
 11
-1152.399523
 21
2158.902717
 31
0.0
  0
LINE
  5
168
330
A
100
AcDbEntity
  8
STANDARD
  6
IMPORT
 62
     7
100
AcDbLine
 10
-1169.764143999999
 20
2151.432643
 30
0.0
 11
-1167.666233
 21
2156.420493
 31
0.0
  0
LINE
  5
169
330
A
100
AcDbEntity
  8
STANDARD
  6
IMPORT
 62
     7
100
AcDbLine
 10
-1167.666233
 20
2156.420493
 30
0.0
 11
-1164.329704
 21
2160.702682
 31
0.0
  0
LINE
  5
16A
330
A
100
AcDbEntity
  8
STANDARD
  6
IMPORT
 62
     7
100
AcDbLine
 10
-1160.567643
 20
2153.110786
 30
0.0
 11
-1158.403074
 21
2155.737434
 31
0.0
  0
LINE
  5
16B
330
A
100
AcDbEntity
  8
STANDARD
  6
IMPORT
 62
     7
100
AcDbLine
 10
-1168.979703999999
 20
2124.551787999999
 30
0.0
 11
-1168.979703999999
 21
2138.688693
 31
0.0
  0
LINE
  5
16C
330
A
100
AcDbEntity
  8
STANDARD
  6
IMPORT
 62
     7
100
AcDbLine
 10
-1170.479703
 20
2145.906349
 30
0.0
 11
-1170.479703
 21
2146.080013
 31
0.0
  0
LINE
  5
16D
330
A
100
AcDbEntity
  8
STANDARD
  6
IMPORT
 62
     7
100
AcDbLine
 10
-1169.764143999999
 20
2140.553737
 30
0.0
 11
-1167.666233
 21
2135.565887
 31
0.0
  0
LINE
  5
16E
330
A
100
AcDbEntity
  8
STANDARD
  6
IMPORT
 62
     7
100
AcDbLine
 10
-1170.479703
 20
2145.906349
 30
0.0
 11
-1169.764143999999
 21
2140.553737
 31
0.0
  0
LINE
  5
16F
330
A
100
AcDbEntity
  8
STANDARD
  6
IMPORT
 62
     7
100
AcDbLine
 10
-1170.479703
 20
2146.080013
 30
0.0
 11
-1169.764143999999
 21
2151.432643
 31
0.0
  0
LINE
  5
170
330
A
100
AcDbEntity
  8
STANDARD
  6
IMPORT
 62
     7
100
AcDbLine
 10
-1167.666233
 20
2135.565887
 30
0.0
 11
-1164.328942999999
 21
2131.282706999999
 31
0.0
  0
LINE
  5
171
330
A
100
AcDbEntity
  8
STANDARD
  6
IMPORT
 62
     7
100
AcDbLine
 10
-1160.820464
 20
2140.168757999999
 30
0.0
 11
-1158.760073
 21
2137.462039
 31
0.0
  0
LINE
  5
172
330
A
100
AcDbEntity
  8
STANDARD
  6
IMPORT
 62
     7
100
AcDbLine
 10
-1156.051753
 20
2135.381294
 30
0.0
 11
-1152.884593999999
 21
2134.071726999999
 31
0.0
  0
LINE
  5
173
330
A
100
AcDbEntity
  8
STANDARD
  6
IMPORT
 62
     7
100
AcDbLine
 10
-1158.760073
 20
2137.462039
 30
0.0
 11
-1156.051753
 21
2135.381294
 31
0.0
  0
LINE
  5
174
330
A
100
AcDbEntity
  8
STANDARD
  6
IMPORT
 62
     7
100
AcDbLine
 10
-1165.860203954309
 20
1773.629509467386
 30
0.0
 11
-1165.869453999999
 21
2124.551787999999
 31
0.0
  0
LINE
  5
175
330
A
100
AcDbEntity
  8
STANDARD
  6
IMPORT
 62
     7
100
AcDbLine
 10
-1159.979703
 20
2127.996115999999
 30
0.0
 11
-1154.914902999999
 21
2125.930076
 31
0.0
  0
LINE
  5
176
330
A
100
AcDbEntity
  8
STANDARD
  6
IMPORT
 62
     7
100
AcDbLine
 10
-1164.328942999999
 20
2131.282706999999
 30
0.0
 11
-1159.979703
 21
2127.996115999999
 31
0.0
  0
LINE
  5
177
330
A
100
AcDbEntity
  8
STANDARD
  6
IMPORT
 62
     7
100
AcDbLine
 10
-1165.871368999999
 20
1841.551755999999
 30
0.0
 11
-1132.981618999999
 21
1841.551755999999
 31
0.0
  0
LINE
  5
17A
330
A
100
AcDbEntity
  8
STANDARD
  6
IMPORT
 62
     7
100
AcDbLine
 10
-1166.981618999999
 20
1804.862647
 30
0.0
 11
-1165.848909
 21
1805.390829
 31
0.0
  0
LINE
  5
17E
330
A
100
AcDbEntity
  8
STANDARD
  6
IMPORT
 62
     7
100
AcDbLine
 10
-1165.981617999999
 20
1774.551749
 30
0.0
 11
-1165.848909
 21
1773.543714999999
 31
0.0
  0
ARC
  5
185
330
A
100
AcDbEntity
  8
STANDARD
  6
IMPORT
 62
     7
100
AcDbCircle
 10
-1149.481619
 20
1774.551747
 30
0.0
 40
35.000009
100
AcDbArc
 50
119.999991
 51
60.000009
  0
LINE
  5
191
330
A
100
AcDbEntity
  8
STANDARD
  6
IMPORT
 62
     7
100
AcDbLine
 10
-1132.981618999999
 20
1805.328955
 30
0.0
 11
-1131.981619
 21
1804.862647
 31
0.0
  0
LINE
  5
1A3
330
A
100
AcDbEntity
  8
0
  6
CONTINUOUS
100
AcDbLine
 10
-1637.0595
 20
1841.356645
 30
0.0
 11
-1637.0595
 21
1823.577066
 31
0.0
  0
LINE
  5
1A4
330
A
100
AcDbEntity
  8
0
  6
CONTINUOUS
100
AcDbLine
 10
-1165.856722484682
 20
1841.551755999999
 30
0.0
 11
-1165.848907806575
 21
1772.478727848902
 31
0.0
  0
LINE
  5
1A5
330
A
100
AcDbEntity
  8
0
  6
CONTINUOUS
100
AcDbLine
 10
-1132.981618235001
 20
2025.213639023422
 30
0.0
 11
-1132.981619280132
 21
1774.297232075228
 31
0.0
  0
ARC
  5
1D2
330
A
100
AcDbEntity
  8
0
  6
CONTINUOUS
100
AcDbCircle
 10
-1149.348909
 20
1773.543714999999
 30
0.0
 40
16.5
100
AcDbArc
 50
180.0
 51
0.0
  0
ENDSEC
  0
SECTION
  2
OBJECTS
  0
DICTIONARY
  5
19
330
0
100
AcDbDictionary
  3
ACAD_GROUP
350
1A
  3
ACAD_MLINESTYLE
350
1B
  3
ACAD_PLOTSTYLENAME
350
199
  3
ACAD_LAYOUT
350
19B
  3
ACAD_PLOTSETTINGS
350
19C
  3
ACDBHEADERROUNDTRIPXREC
350
1D4
  0
DICTIONARY
  5
1F4
330
A
100
AcDbDictionary
280
     1
  3
ACAD_LAYOUTSELFREF
360
1F5
  0
DICTIONARY
  5
1F6
330
B
100
AcDbDictionary
280
     1
  3
ACAD_LAYOUTSELFREF
360
1F7
  0
DICTIONARY
  5
1A
102
{ACAD_REACTORS
330
19
102
}
330
19
100
AcDbDictionary
  0
DICTIONARY
  5
1B
102
{ACAD_REACTORS
330
19
102
}
330
19
100
AcDbDictionary
  3
STANDARD
350
1C
  0
ACDBDICTIONARYWDFLT
  5
199
102
{ACAD_REACTORS
330
19
102
}
330
19
100
AcDbDictionary
281
     1
  3
Normal
350
19A
100
AcDbDictionaryWithDefault
340
19A
  0
DICTIONARY
  5
19B
102
{ACAD_REACTORS
330
19
102
}
330
19
100
AcDbDictionary
  0
DICTIONARY
  5
19C
102
{ACAD_REACTORS
330
19
102
}
330
19
100
AcDbDictionary
  0
DICTIONARY
  5
1D4
102
{ACAD_REACTORS
330
19
102
}
330
19
100
AcDbDictionary
  3
TSTACKALIGN
350
1D5
  3
TSTACKSIZE
350
1D6
  3
HYPERLINKBASE
350
1D7
  3
STYLESHEET
350
1D8
  3
LAYOUTDICT
350
1D9
  3
PLOTSETDICT
350
1DA
  3
PLOTSTYLNAMDICT
350
1DB
  3
LWETCUNION
350
1DC
  3
INSUNITS
350
1DD
  3
CEPSNTYPE
350
1DE
  3
FINGERPRINTGUID
350
1DF
  3
VERSIONGUID
350
1E0
  3
PSVPSCALE
350
1E1
  3
PUCSORTHOREF
350
1E2
  3
PUCSORTHOVIEW
350
1E3
  3
PUCSBASE
350
1E4
  3
PUCSORGTOP
350
1E5
  3
PUCSORGBOTTOM
350
1E6
  3
PUCSORGLEFT
350
1E7
  3
PUCSORGRIGHT
350
1E8
  3
PUCSORGFRONT
350
1E9
  3
PUCSORGBACK
350
1EA
  3
UCSORTHOREF
350
1EB
  3
UCSORTHOVIEW
350
1EC
  3
UCSBASE
350
1ED
  3
UCSORGTOP
350
1EE
  3
UCSORGBOTTOM
350
1EF
  3
UCSORGLEFT
350
1F0
  3
UCSORGRIGHT
350
1F1
  3
UCSORGFRONT
350
1F2
  3
UCSORGBACK
350
1F3
  0
XRECORD
  5
1F5
102
{ACAD_REACTORS
330
1F4
102
}
330
1F4
100
AcDbXrecord
340
A
  0
XRECORD
  5
1F7
102
{ACAD_REACTORS
330
1F6
102
}
330
1F6
100
AcDbXrecord
340
B
  0
MLINESTYLE
  5
1C
102
{ACAD_REACTORS
330
1B
102
}
330
1B
100
AcDbMlineStyle
  2
STANDARD
 70
     0
  3

 62
     0
 51
90.0
 52
90.0
 71
     2
 49
0.5
 62
   256
  6
BYLAYER
 49
-0.5
 62
   256
  6
BYLAYER
  0
ACDBPLACEHOLDER
  5
19A
102
{ACAD_REACTORS
330
199
102
}
330
199
100
AcDbPlaceHolder
280
     0
  0
XRECORD
  5
1D5
102
{ACAD_REACTORS
330
1D4
102
}
330
1D4
100
AcDbXrecord
 90
        1
  0
XRECORD
  5
1D6
102
{ACAD_REACTORS
330
1D4
102
}
330
1D4
100
AcDbXrecord
 90
       70
  0
XRECORD
  5
1D7
102
{ACAD_REACTORS
330
1D4
102
}
330
1D4
100
AcDbXrecord
  1

  0
XRECORD
  5
1D8
102
{ACAD_REACTORS
330
1D4
102
}
330
1D4
100
AcDbXrecord
  1

  0
XRECORD
  5
1D9
102
{ACAD_REACTORS
330
1D4
102
}
330
1D4
100
AcDbXrecord
340
19B
  0
XRECORD
  5
1DA
102
{ACAD_REACTORS
330
1D4
102
}
330
1D4
100
AcDbXrecord
340
19C
  0
XRECORD
  5
1DB
102
{ACAD_REACTORS
330
1D4
102
}
330
1D4
100
AcDbXrecord
340
199
  0
XRECORD
  5
1DC
102
{ACAD_REACTORS
330
1D4
102
}
330
1D4
100
AcDbXrecord
 90
    10781
  0
XRECORD
  5
1DD
102
{ACAD_REACTORS
330
1D4
102
}
330
1D4
100
AcDbXrecord
 90
        0
  0
XRECORD
  5
1DE
102
{ACAD_REACTORS
330
1D4
102
}
330
1D4
100
AcDbXrecord
 90
        0
  0
XRECORD
  5
1DF
102
{ACAD_REACTORS
330
1D4
102
}
330
1D4
100
AcDbXrecord
  1
{946B1D04-EFF5-43B8-A827-A65D001A7452}
  0
XRECORD
  5
1E0
102
{ACAD_REACTORS
330
1D4
102
}
330
1D4
100
AcDbXrecord
  1
{0D9BD70B-80A7-465D-8D01-6E8B51357FBF}
  0
XRECORD
  5
1E1
102
{ACAD_REACTORS
330
1D4
102
}
330
1D4
100
AcDbXrecord
 40
0.0
  0
XRECORD
  5
1E2
102
{ACAD_REACTORS
330
1D4
102
}
330
1D4
100
AcDbXrecord
340
0
  0
XRECORD
  5
1E3
102
{ACAD_REACTORS
330
1D4
102
}
330
1D4
100
AcDbXrecord
 70
     0
  0
XRECORD
  5
1E4
102
{ACAD_REACTORS
330
1D4
102
}
330
1D4
100
AcDbXrecord
340
0
  0
XRECORD
  5
1E5
102
{ACAD_REACTORS
330
1D4
102
}
330
1D4
100
AcDbXrecord
 10
0.0
 20
0.0
 30
0.0
  0
XRECORD
  5
1E6
102
{ACAD_REACTORS
330
1D4
102
}
330
1D4
100
AcDbXrecord
 10
0.0
 20
0.0
 30
0.0
  0
XRECORD
  5
1E7
102
{ACAD_REACTORS
330
1D4
102
}
330
1D4
100
AcDbXrecord
 10
0.0
 20
0.0
 30
0.0
  0
XRECORD
  5
1E8
102
{ACAD_REACTORS
330
1D4
102
}
330
1D4
100
AcDbXrecord
 10
0.0
 20
0.0
 30
0.0
  0
XRECORD
  5
1E9
102
{ACAD_REACTORS
330
1D4
102
}
330
1D4
100
AcDbXrecord
 10
0.0
 20
0.0
 30
0.0
  0
XRECORD
  5
1EA
102
{ACAD_REACTORS
330
1D4
102
}
330
1D4
100
AcDbXrecord
 10
0.0
 20
0.0
 30
0.0
  0
XRECORD
  5
1EB
102
{ACAD_REACTORS
330
1D4
102
}
330
1D4
100
AcDbXrecord
340
0
  0
XRECORD
  5
1EC
102
{ACAD_REACTORS
330
1D4
102
}
330
1D4
100
AcDbXrecord
 70
     0
  0
XRECORD
  5
1ED
102
{ACAD_REACTORS
330
1D4
102
}
330
1D4
100
AcDbXrecord
340
0
  0
XRECORD
  5
1EE
102
{ACAD_REACTORS
330
1D4
102
}
330
1D4
100
AcDbXrecord
 10
0.0
 20
0.0
 30
0.0
  0
XRECORD
  5
1EF
102
{ACAD_REACTORS
330
1D4
102
}
330
1D4
100
AcDbXrecord
 10
0.0
 20
0.0
 30
0.0
  0
XRECORD
  5
1F0
102
{ACAD_REACTORS
330
1D4
102
}
330
1D4
100
AcDbXrecord
 10
0.0
 20
0.0
 30
0.0
  0
XRECORD
  5
1F1
102
{ACAD_REACTORS
330
1D4
102
}
330
1D4
100
AcDbXrecord
 10
0.0
 20
0.0
 30
0.0
  0
XRECORD
  5
1F2
102
{ACAD_REACTORS
330
1D4
102
}
330
1D4
100
AcDbXrecord
 10
0.0
 20
0.0
 30
0.0
  0
XRECORD
  5
1F3
102
{ACAD_REACTORS
330
1D4
102
}
330
1D4
100
AcDbXrecord
 10
0.0
 20
0.0
 30
0.0
  0
ENDSEC
  0
EOF
