  0
SECTION
  2
HEADER
  9
$ACADVER
  1
AC1014
  9
$ACADMAINTVER
 70
     9
  9
$DWGCODEPAGE
  3
ANSI_1252
  9
$INSBASE
 10
0.0
 20
0.0
 30
0.0
  9
$EXTMIN
 10
124.943708223771
 20
180.9912828955909
 30
0.0
  9
$EXTMAX
 10
524.5023042291474
 20
486.4827122739624
 30
0.0
  9
$LIMMIN
 10
0.0
 20
0.0
  9
$LIMMAX
 10
0.0
 20
0.0
  9
$ORTHOMODE
 70
     1
  9
$REGENMODE
 70
     1
  9
$FILLMODE
 70
     1
  9
$QTEXTMODE
 70
     0
  9
$MIRRTEXT
 70
     1
  9
$DRAGMODE
 70
     2
  9
$LTSCALE
 40
1.0
  9
$OSMODE
 70
  2223
  9
$ATTMODE
 70
     1
  9
$TEXTSIZE
 40
0.0
  9
$TRACEWID
 40
0.05
  9
$TEXTSTYLE
  7
STANDARD
  9
$CLAYER
  8
0
  9
$CELTYPE
  6
CONTINUOUS
  9
$CECOLOR
 62
   256
  9
$CELTSCALE
 40
1.0
  9
$DELOBJ
 70
     1
  9
$DISPSILH
 70
     0
  9
$DIMSCALE
 40
1.0
  9
$DIMASZ
 40
0.18
  9
$DIMEXO
 40
0.0625
  9
$DIMDLI
 40
0.38
  9
$DIMRND
 40
0.0
  9
$DIMDLE
 40
0.0
  9
$DIMEXE
 40
0.18
  9
$DIMTP
 40
0.0
  9
$DIMTM
 40
0.0
  9
$DIMTXT
 40
0.18
  9
$DIMCEN
 40
0.09
  9
$DIMTSZ
 40
0.0
  9
$DIMTOL
 70
     0
  9
$DIMLIM
 70
     0
  9
$DIMTIH
 70
     1
  9
$DIMTOH
 70
     1
  9
$DIMSE1
 70
     0
  9
$DIMSE2
 70
     0
  9
$DIMTAD
 70
     0
  9
$DIMZIN
 70
     0
  9
$DIMBLK
  1

  9
$DIMASO
 70
     1
  9
$DIMSHO
 70
     1
  9
$DIMPOST
  1

  9
$DIMAPOST
  1

  9
$DIMALT
 70
     0
  9
$DIMALTD
 70
     2
  9
$DIMALTF
 40
25.4
  9
$DIMLFAC
 40
1.0
  9
$DIMTOFL
 70
     0
  9
$DIMTVP
 40
0.0
  9
$DIMTIX
 70
     0
  9
$DIMSOXD
 70
     0
  9
$DIMSAH
 70
     0
  9
$DIMBLK1
  1

  9
$DIMBLK2
  1

  9
$DIMSTYLE
  2
STANDARD
  9
$DIMCLRD
 70
     0
  9
$DIMCLRE
 70
     0
  9
$DIMCLRT
 70
     0
  9
$DIMTFAC
 40
1.0
  9
$DIMGAP
 40
0.09
  9
$DIMJUST
 70
     0
  9
$DIMSD1
 70
     0
  9
$DIMSD2
 70
     0
  9
$DIMTOLJ
 70
     1
  9
$DIMTZIN
 70
     0
  9
$DIMALTZ
 70
     0
  9
$DIMALTTZ
 70
     0
  9
$DIMFIT
 70
     3
  9
$DIMUPT
 70
     0
  9
$DIMUNIT
 70
     2
  9
$DIMDEC
 70
     4
  9
$DIMTDEC
 70
     4
  9
$DIMALTU
 70
     2
  9
$DIMALTTD
 70
     2
  9
$DIMTXSTY
  7
STANDARD
  9
$DIMAUNIT
 70
     0
  9
$LUNITS
 70
     2
  9
$LUPREC
 70
     4
  9
$SKETCHINC
 40
0.1
  9
$FILLETRAD
 40
0.0
  9
$AUNITS
 70
     0
  9
$AUPREC
 70
     0
  9
$MENU
  1
acad
  9
$ELEVATION
 40
0.0
  9
$PELEVATION
 40
0.0
  9
$THICKNESS
 40
0.0
  9
$LIMCHECK
 70
     0
  9
$BLIPMODE
 70
     0
  9
$CHAMFERA
 40
0.0
  9
$CHAMFERB
 40
0.0
  9
$CHAMFERC
 40
0.0
  9
$CHAMFERD
 40
0.0
  9
$SKPOLY
 70
     0
  9
$TDCREATE
 40
2444972.083333333
  9
$TDUPDATE
 40
2453488.610172986
  9
$TDINDWG
 40
0.0151080671
  9
$TDUSRTIMER
 40
0.0151080671
  9
$USRTIMER
 70
     1
  9
$ANGBASE
 50
0.0
  9
$ANGDIR
 70
     0
  9
$PDMODE
 70
     0
  9
$PDSIZE
 40
0.0
  9
$PLINEWID
 40
0.0
  9
$COORDS
 70
     1
  9
$SPLFRAME
 70
     0
  9
$SPLINETYPE
 70
     6
  9
$SPLINESEGS
 70
     8
  9
$ATTDIA
 70
     0
  9
$ATTREQ
 70
     1
  9
$HANDLING
 70
 10241
  9
$HANDSEED
  5
66D
  9
$SURFTAB1
 70
     6
  9
$SURFTAB2
 70
     6
  9
$SURFTYPE
 70
     6
  9
$SURFU
 70
     6
  9
$SURFV
 70
     6
  9
$UCSNAME
  2

  9
$UCSORG
 10
0.0
 20
0.0
 30
0.0
  9
$UCSXDIR
 10
1.0
 20
0.0
 30
0.0
  9
$UCSYDIR
 10
0.0
 20
1.0
 30
0.0
  9
$PUCSNAME
  2

  9
$PUCSORG
 10
0.0
 20
0.0
 30
0.0
  9
$PUCSXDIR
 10
1.0
 20
0.0
 30
0.0
  9
$PUCSYDIR
 10
0.0
 20
1.0
 30
0.0
  9
$USERI1
 70
     0
  9
$USERI2
 70
     0
  9
$USERI3
 70
     0
  9
$USERI4
 70
     0
  9
$USERI5
 70
     0
  9
$USERR1
 40
0.0
  9
$USERR2
 40
0.0
  9
$USERR3
 40
0.0
  9
$USERR4
 40
0.0
  9
$USERR5
 40
0.0
  9
$WORLDVIEW
 70
     1
  9
$SHADEDGE
 70
     3
  9
$SHADEDIF
 70
    70
  9
$TILEMODE
 70
     1
  9
$MAXACTVP
 70
    16
  9
$PINSBASE
 10
0.0
 20
0.0
 30
0.0
  9
$PLIMCHECK
 70
     0
  9
$PEXTMIN
 10
1.000000000000000E+20
 20
1.000000000000000E+20
 30
1.000000000000000E+20
  9
$PEXTMAX
 10
-1.000000000000000E+20
 20
-1.000000000000000E+20
 30
-1.000000000000000E+20
  9
$PLIMMIN
 10
0.0
 20
0.0
  9
$PLIMMAX
 10
12.0
 20
9.0
  9
$UNITMODE
 70
     0
  9
$VISRETAIN
 70
     0
  9
$PLINEGEN
 70
     1
  9
$PSLTSCALE
 70
     0
  9
$TREEDEPTH
 70
  3020
  9
$PICKSTYLE
 70
     1
  9
$CMLSTYLE
  2
STANDARD
  9
$CMLJUST
 70
     0
  9
$CMLSCALE
 40
1.0
  9
$PROXYGRAPHICS
 70
     1
  9
$MEASUREMENT
 70
     0
  0
ENDSEC
  0
SECTION
  2
CLASSES
  0
CLASS
  1
LWPOLYLINE
  2
AcDbPolyline
  3
AutoCAD 2000
 90
        0
280
     0
281
     1
  0
CLASS
  1
IMAGE
  2
AcDbRasterImage
  3
ISM
 90
      127
280
     0
281
     1
  0
CLASS
  1
OLE2FRAME
  2
AcDbOle2Frame
  3
AutoCAD 2000
 90
        0
280
     0
281
     1
  0
CLASS
  1
HATCH
  2
AcDbHatch
  3
AutoCAD 2000
 90
        0
280
     0
281
     1
  0
CLASS
  1
DICTIONARYVAR
  2
AcDbDictionaryVar
  3
AutoCAD 2000
 90
        0
280
     0
281
     0
  0
CLASS
  1
RASTERVARIABLES
  2
AcDbRasterVariables
  3
ISM
 90
        0
280
     0
281
     0
  0
CLASS
  1
IMAGEDEF
  2
AcDbRasterImageDef
  3
ISM
 90
        0
280
     0
281
     0
  0
CLASS
  1
IMAGEDEF_REACTOR
  2
AcDbRasterImageDefReactor
  3
ISM
 90
        1
280
     0
281
     0
  0
CLASS
  1
IDBUFFER
  2
AcDbIdBuffer
  3
AutoCAD 2000
 90
        0
280
     0
281
     0
  0
CLASS
  1
SPATIAL_FILTER
  2
AcDbSpatialFilter
  3
AutoCAD 2000
 90
        0
280
     0
281
     0
  0
CLASS
  1
XRECORD
  2
AcDbXrecord
  3
AutoCAD 2000
 90
        0
280
     0
281
     0
  0
CLASS
  1
SORTENTSTABLE
  2
AcDbSortentsTable
  3
AutoCAD 2000
 90
        0
280
     0
281
     0
  0
CLASS
  1
LAYER_INDEX
  2
AcDbLayerIndex
  3
AutoCAD 2000
 90
        0
280
     0
281
     0
  0
CLASS
  1
SPATIAL_INDEX
  2
AcDbSpatialIndex
  3
AutoCAD 2000
 90
        0
280
     0
281
     0
  0
CLASS
  1
OBJECT_PTR
  2
CAseDLPNTableRecord
  3
"ASE-LPNTableRecord"
 90
        0
280
     0
281
     0
  0
CLASS
  1
LAYOUT
  2
AcDbLayout
  3
AutoCAD 2000
 90
        0
280
     0
281
     0
  0
CLASS
  1
PLOTSETTINGS
  2
AcDbPlotSettings
  3
AutoCAD 2000
 90
        0
280
     0
281
     0
  0
CLASS
  1
ACDBDICTIONARYWDFLT
  2
AcDbDictionaryWithDefault
  3
AutoCAD 2000
 90
        0
280
     0
281
     0
  0
CLASS
  1
ACDBPLACEHOLDER
  2
AcDbPlaceHolder
  3
AutoCAD 2000
 90
        0
280
     0
281
     0
  0
CLASS
  1
VBA_PROJECT
  2
AcDbVbaProject
  3
acad
 90
        0
280
     0
281
     0
  0
CLASS
  1
WIPEOUT
  2
AcDbWipeout
  3
"WipeOut|Product Desc: Object Enabler for WipeOut entity^I^I^I^I^I^I|Company: Autodesk, Inc.^I^I^I^I^I^I|WEB Address: www.autodesk.com"
 90
      127
280
     0
281
     1
  0
CLASS
  1
WIPEOUTVARIABLES
  2
AcDbWipeoutVariables
  3
"WipeOut|Product Desc:     WipeOut Dbx Application|Company:          Autodesk, Inc.|WEB Address:      www.autodesk.com"
 90
        0
280
     0
281
     0
  0
CLASS
  1
RTEXT
  2
RText
  3
RText|AutoCAD Express Tool|expresstools@autodesk.com
 90
        0
280
     0
281
     1
  0
CLASS
  1
ARCALIGNEDTEXT
  2
AcDbArcAlignedText
  3
ATEXT|AutoCAD Express Tool|expresstools@autodesk.com
 90
        0
280
     0
281
     1
  0
CLASS
  1
LONG_TRANSACTION
  2
AcDbLongTransaction
  3
AutoCAD 2000
 90
        0
280
     0
281
     0
  0
CLASS
  1
LWPOLYLINE
  2
AcDbPolyline
  3
AutoCAD 2000
 90
        0
280
     0
281
     1
  0
CLASS
  1
HATCH
  2
AcDbHatch
  3
AutoCAD 2000
 90
        0
280
     0
281
     1
  0
CLASS
  1
XRECORD
  2
AcDbXrecord
  3
AutoCAD 2000
 90
        0
280
     0
281
     0
  0
ENDSEC
  0
SECTION
  2
TABLES
  0
TABLE
  2
VPORT
  5
7
330
0
100
AcDbSymbolTable
 70
     2
  0
VPORT
  5
648
330
7
100
AcDbSymbolTableRecord
100
AcDbViewportTableRecord
  2
*ACTIVE
 70
     0
 10
0.0
 20
0.0
 11
1.0
 21
1.0
 12
314.6763449171405
 22
369.8367860720541
 13
0.0
 23
0.0
 14
1.0
 24
1.0
 15
0.0
 25
0.0
 16
0.0
 26
0.0
 36
1.0
 17
0.0
 27
0.0
 37
0.0
 40
424.0775725415014
 41
1.525316455696202
 42
50.0
 43
0.0
 44
0.0
 50
0.0
 51
0.0
 71
     0
 72
   100
 73
     1
 74
     1
 75
     0
 76
     0
 77
     0
 78
     0
  0
ENDTAB
  0
TABLE
  2
LTYPE
  5
4
330
0
100
AcDbSymbolTable
 70
     2
  0
LTYPE
  5
11
330
4
100
AcDbSymbolTableRecord
100
AcDbLinetypeTableRecord
  2
BYBLOCK
 70
     0
  3

 72
    65
 73
     0
 40
0.0
  0
LTYPE
  5
12
330
4
100
AcDbSymbolTableRecord
100
AcDbLinetypeTableRecord
  2
BYLAYER
 70
     0
  3

 72
    65
 73
     0
 40
0.0
  0
LTYPE
  5
13
330
4
100
AcDbSymbolTableRecord
100
AcDbLinetypeTableRecord
  2
CONTINUOUS
 70
     0
  3
Solid line
 72
    65
 73
     0
 40
0.0
  0
LTYPE
  5
1E
330
4
100
AcDbSymbolTableRecord
100
AcDbLinetypeTableRecord
  2
STANDARD
 70
     0
  3

 72
    65
 73
     0
 40
0.0
  0
ENDTAB
  0
TABLE
  2
LAYER
  5
2
330
0
100
AcDbSymbolTable
 70
     3
  0
LAYER
  5
14
330
2
100
AcDbSymbolTableRecord
100
AcDbLayerTableRecord
  2
0
 70
     0
 62
     7
  6
CONTINUOUS
  0
LAYER
  5
1D
330
2
100
AcDbSymbolTableRecord
100
AcDbLayerTableRecord
  2
STANDARD
 70
     0
 62
     7
  6
CONTINUOUS
  0
LAYER
  5
299
330
2
100
AcDbSymbolTableRecord
100
AcDbLayerTableRecord
  2
DEFPOINTS
 70
     0
 62
     7
  6
CONTINUOUS
  0
ENDTAB
  0
TABLE
  2
STYLE
  5
3
330
0
100
AcDbSymbolTable
 70
     1
  0
STYLE
  5
17
330
3
100
AcDbSymbolTableRecord
100
AcDbTextStyleTableRecord
  2
STANDARD
 70
     0
 40
0.0
 41
1.0
 50
0.0
 71
     0
 42
0.0
  3
txt
  4

  0
ENDTAB
  0
TABLE
  2
VIEW
  5
5
330
0
100
AcDbSymbolTable
 70
     0
  0
ENDTAB
  0
TABLE
  2
UCS
  5
6
330
0
100
AcDbSymbolTable
 70
     0
  0
ENDTAB
  0
TABLE
  2
APPID
  5
8
330
0
100
AcDbSymbolTable
 70
     1
  0
APPID
  5
16
330
8
100
AcDbSymbolTableRecord
100
AcDbRegAppTableRecord
  2
ACAD
 70
     0
  0
ENDTAB
  0
TABLE
  2
DIMSTYLE
  5
9
330
0
100
AcDbSymbolTable
 70
     1
  0
DIMSTYLE
105
18
102
{ACAD_REACTORS
330
630
102
}
330
9
100
AcDbSymbolTableRecord
100
AcDbDimStyleTableRecord
  2
STANDARD
 70
     0
  3

  4

  5

  6

  7

 40
1.0
 41
0.18
 42
0.0625
 43
0.38
 44
0.18
 45
0.0
 46
0.0
 47
0.0
 48
0.0
140
0.18
141
0.09
142
0.0
143
25.4
144
1.0
145
0.0
146
1.0
147
0.09
 71
     0
 72
     0
 73
     1
 74
     1
 75
     0
 76
     0
 77
     0
 78
     0
170
     0
171
     2
172
     0
173
     0
174
     0
175
     0
176
     0
177
     0
178
     0
270
     2
271
     4
272
     4
273
     2
274
     2
340
17
275
     0
280
     0
281
     0
282
     0
283
     1
284
     0
285
     0
286
     0
287
     0
288
     0
  0
ENDTAB
  0
TABLE
  2
BLOCK_RECORD
  5
1
330
0
100
AcDbSymbolTable
 70
     2
  0
BLOCK_RECORD
  5
A
102
{ACAD_XDICTIONARY
360
669
102
}
330
1
100
AcDbSymbolTableRecord
100
AcDbBlockTableRecord
  2
*MODEL_SPACE
  0
BLOCK_RECORD
  5
B
102
{ACAD_XDICTIONARY
360
66B
102
}
330
1
100
AcDbSymbolTableRecord
100
AcDbBlockTableRecord
  2
*PAPER_SPACE
  0
BLOCK_RECORD
  5
631
330
1
100
AcDbSymbolTableRecord
100
AcDbBlockTableRecord
  2
*D1
  0
ENDTAB
  0
ENDSEC
  0
SECTION
  2
BLOCKS
  0
BLOCK
  5
D
330
A
100
AcDbEntity
  8
0
100
AcDbBlockBegin
  2
*MODEL_SPACE
 70
     0
 10
0.0
 20
0.0
 30
0.0
  3
*MODEL_SPACE
  1

  0
ENDBLK
  5
E
330
A
100
AcDbEntity
  8
0
100
AcDbBlockEnd
  0
BLOCK
  5
F
330
B
100
AcDbEntity
 67
     1
  8
0
100
AcDbBlockBegin
  2
*PAPER_SPACE
 70
     0
 10
0.0
 20
0.0
 30
0.0
  3
*PAPER_SPACE
  1

  0
ENDBLK
  5
10
330
B
100
AcDbEntity
 67
     1
  8
0
100
AcDbBlockEnd
  0
BLOCK
  5
63C
330
631
100
AcDbEntity
  8
0
100
AcDbBlockBegin
  2
*D1
 70
     1
 10
0.0
 20
0.0
 30
0.0
  3
*D1
  1

  0
LINE
  5
63E
330
631
100
AcDbEntity
  8
0
  6
CONTINUOUS
 62
     0
100
AcDbLine
 10
324.7855062264592
 20
483.8368778318423
 30
0.0
 11
349.9880523853974
 21
483.8368778318423
 31
0.0
  0
LINE
  5
63F
330
631
100
AcDbEntity
  8
0
  6
CONTINUOUS
 62
     0
100
AcDbLine
 10
324.7855062264592
 20
318.836906441958
 30
0.0
 11
349.9880523853973
 21
318.836906441958
 31
0.0
  0
LINE
  5
640
330
631
100
AcDbEntity
  8
0
  6
CONTINUOUS
 62
     0
100
AcDbLine
 10
349.8080523853973
 20
483.6568778318422
 30
0.0
 11
349.8080523853973
 21
408.9268921369002
 31
0.0
  0
LINE
  5
641
330
631
100
AcDbEntity
  8
0
  6
CONTINUOUS
 62
     0
100
AcDbLine
 10
349.8080523853973
 20
319.016906441958
 30
0.0
 11
349.8080523853973
 21
393.7468921369002
 31
0.0
  0
SOLID
  5
642
330
631
100
AcDbEntity
  8
0
  6
CONTINUOUS
 62
     0
100
AcDbTrace
 10
349.7780523853974
 20
483.6568778318422
 30
0.0
 11
349.8380523853973
 21
483.6568778318422
 31
0.0
 12
349.8080523853973
 22
483.8368778318423
 32
0.0
 13
349.8080523853973
 23
483.8368778318423
 33
0.0
  0
SOLID
  5
643
330
631
100
AcDbEntity
  8
0
  6
CONTINUOUS
 62
     0
100
AcDbTrace
 10
349.7780523853973
 20
319.016906441958
 30
0.0
 11
349.8380523853973
 21
319.016906441958
 31
0.0
 12
349.8080523853973
 22
318.836906441958
 32
0.0
 13
349.8080523853973
 23
318.836906441958
 33
0.0
  0
MTEXT
  5
644
330
631
100
AcDbEntity
  8
0
  6
CONTINUOUS
 62
     0
100
AcDbMText
 10
349.8080523853972
 20
401.3368921369002
 30
0.0
 40
15.0
 41
0.0
 71
     5
 72
     1
  1
\A1;165.0000
1001
ACAD
1000
MTEXTBEGIN
1070
    73
1070
     1
1070
    44
1040
1.0
1070
    74
1070
     0
1000
MTEXTEND
  0
POINT
  5
645
330
631
100
AcDbEntity
  8
DEFPOINTS
  6
CONTINUOUS
 62
     0
100
AcDbPoint
 10
324.7230062264592
 20
483.8368778318423
 30
0.0
  0
POINT
  5
646
330
631
100
AcDbEntity
  8
DEFPOINTS
  6
CONTINUOUS
 62
     0
100
AcDbPoint
 10
324.7230062264592
 20
318.836906441958
 30
0.0
  0
POINT
  5
647
330
631
100
AcDbEntity
  8
DEFPOINTS
  6
CONTINUOUS
 62
     0
100
AcDbPoint
 10
349.8080523853973
 20
318.836906441958
 30
0.0
  0
ENDBLK
  5
63D
330
631
100
AcDbEntity
  8
0
100
AcDbBlockEnd
  0
ENDSEC
  0
SECTION
  2
ENTITIES
  0
LINE
  5
3E
330
A
100
AcDbEntity
  8
STANDARD
  6
STANDARD
 62
     7
100
AcDbLine
 10
317.8480062264592
 20
306.4127306494972
 30
0.0
 11
331.5980062264592
 21
306.4127306494972
 31
0.0
  0
LINE
  5
4A
330
A
100
AcDbEntity
  8
STANDARD
  6
STANDARD
 62
     7
100
AcDbLine
 10
331.5980062264592
 20
290.9911303077003
 30
0.0
 11
331.5980062264592
 21
306.4127306494972
 31
0.0
  0
LINE
  5
52
330
A
100
AcDbEntity
  8
STANDARD
  6
STANDARD
 62
     7
100
AcDbLine
 10
317.8480062264592
 20
290.9911303077003
 30
0.0
 11
317.8480062264592
 21
306.4127306494972
 31
0.0
  0
LINE
  5
450
330
A
100
AcDbEntity
  8
STANDARD
  6
STANDARD
 62
     7
100
AcDbLine
 10
519.7455293268036
 20
486.4826550535035
 30
0.0
 11
518.3791047662567
 21
486.4808812192749
 31
0.0
  0
LINE
  5
451
330
A
100
AcDbEntity
  8
STANDARD
  6
STANDARD
 62
     7
100
AcDbLine
 10
518.2835847467255
 20
486.4605298093628
 30
0.0
 11
517.9696351617645
 21
486.3935055784058
 31
0.0
  0
LINE
  5
452
330
A
100
AcDbEntity
  8
STANDARD
  6
STANDARD
 62
     7
100
AcDbLine
 10
520.3797608941864
 20
486.3310589841675
 30
0.0
 11
519.7453004449677
 21
486.4827122739624
 31
0.0
  0
LINE
  5
453
330
A
100
AcDbEntity
  8
STANDARD
  6
STANDARD
 62
     7
100
AcDbLine
 10
520.5307466119599
 20
486.2786259702515
 30
0.0
 11
520.379913482077
 21
486.3310017637085
 31
0.0
  0
LINE
  5
454
330
A
100
AcDbEntity
  8
STANDARD
  6
STANDARD
 62
     7
100
AcDbLine
 10
522.8065950006318
 20
484.7887387327027
 30
0.0
 11
522.7028352350068
 21
484.8779454282593
 31
0.0
  0
LINE
  5
455
330
A
100
AcDbEntity
  8
STANDARD
  6
STANDARD
 62
     7
100
AcDbLine
 10
522.1810609430145
 20
485.2849736265015
 30
0.0
 11
522.0515138238739
 21
485.3797879270386
 31
0.0
  0
LINE
  5
456
330
A
100
AcDbEntity
  8
STANDARD
  6
STANDARD
 62
     7
100
AcDbLine
 10
416.2233430475067
 20
387.3454823545289
 30
0.0
 11
414.9461061090302
 21
387.3454823545289
 31
0.0
  0
LINE
  5
457
330
A
100
AcDbEntity
  8
STANDARD
  6
STANDARD
 62
     7
100
AcDbLine
 10
416.115005645163
 20
348.7352433255982
 30
0.0
 11
414.9461061090302
 21
348.7352433255982
 31
0.0
  0
LINE
  5
458
330
A
100
AcDbEntity
  8
STANDARD
  6
STANDARD
 62
     7
100
AcDbLine
 10
462.2021180719208
 20
348.6499276212525
 30
0.0
 11
458.9222413629364
 21
348.6087288907837
 31
0.0
  0
LINE
  5
459
330
A
100
AcDbEntity
  8
STANDARD
  6
STANDARD
 62
     7
100
AcDbLine
 10
457.2920686334442
 20
348.0299058011841
 30
0.0
 11
457.1595460504364
 21
347.9389824918579
 31
0.0
  0
LINE
  5
45A
330
A
100
AcDbEntity
  8
STANDARD
  6
STANDARD
 62
     7
100
AcDbLine
 10
464.2708283990693
 20
347.9389824918579
 30
0.0
 11
464.0020448297333
 21
348.115116601355
 31
0.0
  0
LINE
  5
45B
330
A
100
AcDbEntity
  8
STANDARD
  6
STANDARD
 62
     7
100
AcDbLine
 10
463.5822755426239
 20
347.5354638151001
 30
0.0
 11
457.7421266168427
 21
347.5969281247925
 31
0.0
  0
LINE
  5
45C
330
A
100
AcDbEntity
  8
STANDARD
  6
STANDARD
 62
     7
100
AcDbLine
 10
458.0054170221161
 20
348.3969941190552
 30
0.0
 11
457.5684815973114
 21
348.1946244291138
 31
0.0
  0
LINE
  5
45D
330
A
100
AcDbEntity
  8
STANDARD
  6
STANDARD
 62
     7
100
AcDbLine
 10
463.7188417047333
 20
348.2681241086792
 30
0.0
 11
463.2751161187958
 21
348.4523358396363
 31
0.0
  0
LINE
  5
45E
330
A
100
AcDbEntity
  8
STANDARD
  6
STANDARD
 62
     7
100
AcDbLine
 10
457.7114564508271
 20
348.2680668882203
 30
0.0
 11
457.2918397516083
 21
348.0298581174683
 31
0.0
  0
LINE
  5
45F
330
A
100
AcDbEntity
  8
STANDARD
  6
STANDARD
 62
     7
100
AcDbLine
 10
464.0020448297333
 20
348.115116601355
 30
0.0
 11
463.573272857077
 21
348.335539346106
 31
0.0
  0
LINE
  5
460
330
A
100
AcDbEntity
  8
STANDARD
  6
STANDARD
 62
     7
100
AcDbLine
 10
459.1149040487223
 20
348.6111489384768
 30
0.0
 11
458.3075410455536
 21
348.5018601468873
 31
0.0
  0
LINE
  5
461
330
A
100
AcDbEntity
  8
STANDARD
  6
STANDARD
 62
     7
100
AcDbLine
 10
462.8152925103973
 20
348.5593857816529
 30
0.0
 11
462.0136939705867
 21
348.647560814676
 31
0.0
  0
LINE
  5
462
330
A
100
AcDbEntity
  8
STANDARD
  6
STANDARD
 62
     7
100
AcDbLine
 10
458.1553346246551
 20
348.4523358396363
 30
0.0
 11
458.0052644342255
 21
348.3969368985962
 31
0.0
  0
LINE
  5
463
330
A
100
AcDbEntity
  8
STANDARD
  6
STANDARD
 62
     7
100
AcDbLine
 10
463.3594972223114
 20
348.4211983732056
 30
0.0
 11
458.1554872125458
 21
348.4523835233521
 31
0.0
  0
LINE
  5
464
330
A
100
AcDbEntity
  8
STANDARD
  6
STANDARD
 62
     7
100
AcDbLine
 10
524.5023042291474
 20
481.3741078428101
 30
0.0
 11
524.4604188531708
 21
482.5286641172241
 31
0.0
  0
LINE
  5
465
330
A
100
AcDbEntity
  8
STANDARD
  6
STANDARD
 62
     7
100
AcDbLine
 10
524.3375093072724
 20
482.9497304014038
 30
0.0
 11
524.2216950982879
 21
483.216263299353
 31
0.0
  0
LINE
  5
466
330
A
100
AcDbEntity
  8
STANDARD
  6
STANDARD
 62
     7
100
AcDbLine
 10
524.4604188531708
 20
482.5286641172241
 30
0.0
 11
524.2828828424286
 21
483.0837788633179
 31
0.0
  0
LINE
  5
467
330
A
100
AcDbEntity
  8
STANDARD
  6
STANDARD
 62
     7
100
AcDbLine
 10
524.1544038385224
 20
483.3439984372925
 30
0.0
 11
524.0809327691864
 21
483.469006066687
 31
0.0
  0
LINE
  5
468
330
A
100
AcDbEntity
  8
STANDARD
  6
STANDARD
 62
     7
100
AcDbLine
 10
418.7193757623504
 20
351.7451443723511
 30
0.0
 11
418.7192994684052
 21
384.3355717710327
 31
0.0
  0
LINE
  5
469
330
A
100
AcDbEntity
  8
STANDARD
  6
STANDARD
 62
     7
100
AcDbLine
 10
418.7759095758271
 20
341.75478601969
 30
0.0
 11
418.7759095758271
 21
346.4377656034302
 31
0.0
  0
LINE
  5
46A
330
A
100
AcDbEntity
  8
STANDARD
  6
STANDARD
 62
     7
100
AcDbLine
 10
414.9458772271942
 20
385.1346364072632
 30
0.0
 11
414.9461061090302
 21
387.2771801999878
 31
0.0
  0
LINE
  5
46B
330
A
100
AcDbEntity
  8
STANDARD
  6
STANDARD
 62
     7
100
AcDbLine
 10
414.9461061090302
 20
348.8035454801392
 30
0.0
 11
414.9461061090302
 21
384.3355908445191
 31
0.0
  0
LINE
  5
46C
330
A
100
AcDbEntity
  8
STANDARD
  6
STANDARD
 62
     7
100
AcDbLine
 10
414.5200807184052
 20
349.1705479673218
 30
0.0
 11
414.5200807184052
 21
386.9101300290894
 31
0.0
  0
LINE
  5
46D
330
A
100
AcDbEntity
  8
STANDARD
  6
STANDARD
 62
     7
100
AcDbLine
 10
428.3124238580536
 20
379.4996609739136
 30
0.0
 11
428.2674104303192
 21
382.3151555112671
 31
0.0
  0
LINE
  5
46E
330
A
100
AcDbEntity
  8
STANDARD
  6
STANDARD
 62
     7
100
AcDbLine
 10
428.3124238580536
 20
353.7655701688599
 30
0.0
 11
428.2674104303192
 21
356.5810265592407
 31
0.0
  0
LINE
  5
46F
330
A
100
AcDbEntity
  8
STANDARD
  6
STANDARD
 62
     7
100
AcDbLine
 10
428.5731202691864
 20
384.5836987546753
 30
0.0
 11
428.5731202691864
 21
387.8618397764038
 31
0.0
  0
LINE
  5
470
330
A
100
AcDbEntity
  8
STANDARD
  6
STANDARD
 62
     7
100
AcDbLine
 10
428.5731202691864
 20
358.8495984128785
 30
0.0
 11
428.5284883111786
 21
377.5113263181519
 31
0.0
  0
LINE
  5
471
330
A
100
AcDbEntity
  8
STANDARD
  6
STANDARD
 62
     7
100
AcDbLine
 10
428.5731202691864
 20
341.7548050931763
 30
0.0
 11
428.5284883111786
 21
351.7771973661255
 31
0.0
  0
LINE
  5
472
330
A
100
AcDbEntity
  8
STANDARD
  6
STANDARD
 62
     7
100
AcDbLine
 10
465.6157380670379
 20
341.75478601969
 30
0.0
 11
465.5930024713349
 21
345.7902684263062
 31
0.0
  0
LINE
  5
473
330
A
100
AcDbEntity
  8
STANDARD
  6
STANDARD
 62
     7
100
AcDbLine
 10
455.8184510797333
 20
341.7548050931763
 30
0.0
 11
455.8372956842255
 21
346.1192574552368
 31
0.0
  0
LINE
  5
474
330
A
100
AcDbEntity
  8
STANDARD
  6
STANDARD
 62
     7
100
AcDbLine
 10
456.8397981256318
 20
347.679964547522
 30
0.0
 11
456.5625459283661
 21
347.396179681189
 31
0.0
  0
LINE
  5
475
330
A
100
AcDbEntity
  8
STANDARD
  6
STANDARD
 62
     7
100
AcDbLine
 10
523.7806398004364
 20
480.0295224241089
 30
0.0
 11
523.541763457663
 21
479.78044176615
 31
0.0
  0
LINE
  5
476
330
A
100
AcDbEntity
  8
STANDARD
  6
STANDARD
 62
     7
100
AcDbLine
 10
461.6687471002411
 20
330.5203595212769
 30
0.0
 11
458.7561494439911
 21
327.4560227445435
 31
0.0
  0
LINE
  5
477
330
A
100
AcDbEntity
  8
STANDARD
  6
STANDARD
 62
     7
100
AcDbLine
 10
423.2509309381318
 20
397.7977528623414
 30
0.0
 11
421.6465455621552
 21
396.032654290564
 31
0.0
  0
LINE
  5
478
330
A
100
AcDbEntity
  8
STANDARD
  6
STANDARD
 62
     7
100
AcDbLine
 10
418.5940248102021
 20
388.5995068601441
 30
0.0
 11
418.0036622613739
 21
387.9353680661988
 31
0.0
  0
LINE
  5
479
330
A
100
AcDbEntity
  8
STANDARD
  6
STANDARD
 62
     7
100
AcDbLine
 10
522.9113465875458
 20
484.6987309507203
 30
0.0
 11
522.7028352350068
 21
484.8779454282593
 31
0.0
  0
LINE
  5
47A
330
A
100
AcDbEntity
  8
STANDARD
  6
STANDARD
 62
     7
100
AcDbLine
 10
414.9458772271942
 20
348.7353196195435
 30
0.0
 11
414.5200807184052
 21
349.1029515317749
 31
0.0
  0
LINE
  5
47B
330
A
100
AcDbEntity
  8
STANDARD
  6
STANDARD
 62
     7
100
AcDbLine
 10
522.7028352350068
 20
484.8779454282593
 30
0.0
 11
522.492187651999
 21
485.049816613562
 31
0.0
  0
LINE
  5
47C
330
A
100
AcDbEntity
  8
STANDARD
  6
STANDARD
 62
     7
100
AcDbLine
 10
524.1923219293426
 20
483.2723393491577
 30
0.0
 11
520.379913482077
 21
486.3310017637085
 31
0.0
  0
LINE
  5
47D
330
A
100
AcDbEntity
  8
STANDARD
  6
STANDARD
 62
     7
100
AcDbLine
 10
464.5907289117645
 20
347.6797833494019
 30
0.0
 11
464.2708283990693
 21
347.9389824918579
 31
0.0
  0
LINE
  5
47E
330
A
100
AcDbEntity
  8
STANDARD
  6
STANDARD
 62
     7
100
AcDbLine
 10
523.9947969049286
 20
480.3061833432984
 30
0.0
 11
523.7805635064911
 21
480.0295033506226
 31
0.0
  0
LINE
  5
47F
330
A
100
AcDbEntity
  8
STANDARD
  6
STANDARD
 62
     7
100
AcDbLine
 10
454.7815400689911
 20
337.2535195401978
 30
0.0
 11
451.8285066217255
 21
333.437611108191
 31
0.0
  0
LINE
  5
480
330
A
100
AcDbEntity
  8
STANDARD
  6
STANDARD
 62
     7
100
AcDbLine
 10
456.5073854059051
 20
347.3244729093384
 30
0.0
 11
456.3292390436004
 21
347.0929303220581
 31
0.0
  0
LINE
  5
481
330
A
100
AcDbEntity
  8
STANDARD
  6
STANDARD
 62
     7
100
AcDbLine
 10
522.492187651999
 20
485.049816613562
 30
0.0
 11
522.2763520807099
 21
485.2152600339722
 31
0.0
  0
LINE
  5
482
330
A
100
AcDbEntity
  8
STANDARD
  6
STANDARD
 62
     7
100
AcDbLine
 10
430.4742127984833
 20
392.0828404477905
 30
0.0
 11
429.1238862603973
 21
390.2528348020386
 31
0.0
  0
LINE
  5
483
330
A
100
AcDbEntity
  8
STANDARD
  6
STANDARD
 62
     7
100
AcDbLine
 10
522.2763520807099
 20
485.2152600339722
 30
0.0
 11
522.0515138238739
 21
485.3797688535522
 31
0.0
  0
LINE
  5
484
330
A
100
AcDbEntity
  8
STANDARD
  6
STANDARD
 62
     7
100
AcDbLine
 10
429.1843873590302
 20
324.941231255896
 30
0.0
 11
425.6354219049286
 21
327.4560227445435
 31
0.0
  0
LINE
  5
485
330
A
100
AcDbEntity
  8
STANDARD
  6
STANDARD
 62
     7
100
AcDbLine
 10
524.1789704889129
 20
480.6076588682008
 30
0.0
 11
523.9947206109833
 21
480.3061451963257
 31
0.0
  0
LINE
  5
486
330
A
100
AcDbEntity
  8
STANDARD
  6
STANDARD
 62
     7
100
AcDbLine
 10
421.6465455621552
 20
396.032654290564
 30
0.0
 11
420.0724488824676
 21
393.4900059751343
 31
0.0
  0
LINE
  5
487
330
A
100
AcDbEntity
  8
STANDARD
  6
STANDARD
 62
     7
100
AcDbLine
 10
463.8329774469208
 20
334.0163769773316
 30
0.0
 11
461.6687471002411
 21
330.5203595212769
 31
0.0
  0
LINE
  5
488
330
A
100
AcDbEntity
  8
STANDARD
  6
STANDARD
 62
     7
100
AcDbLine
 10
417.9965669244599
 20
348.0623402646851
 30
0.0
 11
417.1333772271943
 21
348.5603585294556
 31
0.0
  0
LINE
  5
489
330
A
100
AcDbEntity
  8
STANDARD
  6
STANDARD
 62
     7
100
AcDbLine
 10
436.9825440973114
 20
330.8878674558472
 30
0.0
 11
432.5630647271943
 21
333.437611108191
 31
0.0
  0
LINE
  5
48A
330
A
100
AcDbEntity
  8
STANDARD
  6
STANDARD
 62
     7
100
AcDbLine
 10
524.3279725641083
 20
480.9330334714722
 30
0.0
 11
524.1788941949677
 21
480.6076016477417
 31
0.0
  0
LINE
  5
48B
330
A
100
AcDbEntity
  8
STANDARD
  6
STANDARD
 62
     7
100
AcDbLine
 10
433.2333833307099
 20
323.0725445798706
 30
0.0
 11
429.1843873590302
 21
324.941231255896
 31
0.0
  0
LINE
  5
48C
330
A
100
AcDbEntity
  8
STANDARD
  6
STANDARD
 62
     7
100
AcDbLine
 10
418.8695985406708
 20
389.4022717527222
 30
0.0
 11
418.5940248102021
 21
388.5995068601441
 31
0.0
  0
LINE
  5
48D
330
A
100
AcDbEntity
  8
STANDARD
  6
STANDARD
 62
     7
100
AcDbLine
 10
420.0724488824676
 20
393.4900059751343
 30
0.0
 11
419.1032106012177
 21
390.73108339823
 31
0.0
  0
LINE
  5
48E
330
A
100
AcDbEntity
  8
STANDARD
  6
STANDARD
 62
     7
100
AcDbLine
 10
465.1656800836396
 20
337.8098073057007
 30
0.0
 11
463.8329774469208
 21
334.0163769773316
 31
0.0
  0
LINE
  5
48F
330
A
100
AcDbEntity
  8
STANDARD
  6
STANDARD
 62
     7
100
AcDbLine
 10
524.4370729059052
 20
481.276794915564
 30
0.0
 11
524.3279725641083
 21
480.9329381040406
 31
0.0
  0
LINE
  5
490
330
A
100
AcDbEntity
  8
STANDARD
  6
STANDARD
 62
     7
100
AcDbLine
 10
429.1238862603973
 20
390.2528348020386
 30
0.0
 11
428.5731202691864
 21
387.8618397764038
 31
0.0
  0
LINE
  5
491
330
A
100
AcDbEntity
  8
STANDARD
  6
STANDARD
 62
     7
100
AcDbLine
 10
455.8184510797333
 20
341.7548050931763
 30
0.0
 11
454.7815400689911
 21
337.2535195401978
 31
0.0
  0
LINE
  5
492
330
A
100
AcDbEntity
  8
STANDARD
  6
STANDARD
 62
     7
100
AcDbLine
 10
419.1032106012177
 20
390.73108339823
 30
0.0
 11
418.8695985406708
 21
389.4022717527222
 31
0.0
  0
LINE
  5
493
330
A
100
AcDbEntity
  8
STANDARD
  6
STANDARD
 62
     7
100
AcDbLine
 10
417.1333772271943
 20
348.5603585294556
 30
0.0
 11
416.115005645163
 21
348.7352433255982
 31
0.0
  0
LINE
  5
494
330
A
100
AcDbEntity
  8
STANDARD
  6
STANDARD
 62
     7
100
AcDbLine
 10
442.1957856744598
 20
329.9925198606324
 30
0.0
 11
436.9825440973114
 21
330.8878674558472
 31
0.0
  0
LINE
  5
495
330
A
100
AcDbEntity
  8
STANDARD
  6
STANDARD
 62
     7
100
AcDbLine
 10
428.5284883111786
 20
384.3034710935425
 30
0.0
 11
428.4206086725068
 21
383.5069241575073
 31
0.0
  0
LINE
  5
496
330
A
100
AcDbEntity
  8
STANDARD
  6
STANDARD
 62
     7
100
AcDbLine
 10
428.5284883111786
 20
358.569389825232
 30
0.0
 11
428.4206086725068
 21
357.7728142789673
 31
0.0
  0
LINE
  5
497
330
A
100
AcDbEntity
  8
STANDARD
  6
STANDARD
 62
     7
100
AcDbLine
 10
465.6157380670379
 20
341.75478601969
 30
0.0
 11
465.1656800836396
 21
337.8098073057007
 31
0.0
  0
LINE
  5
498
330
A
100
AcDbEntity
  8
STANDARD
  6
STANDARD
 62
     7
100
AcDbLine
 10
428.4206086725068
 20
383.5069241575073
 30
0.0
 11
428.3124238580536
 21
382.3151555112671
 31
0.0
  0
LINE
  5
499
330
A
100
AcDbEntity
  8
STANDARD
  6
STANDARD
 62
     7
100
AcDbLine
 10
428.4206086725068
 20
357.7728142789673
 30
0.0
 11
428.3124238580536
 21
356.5810265592407
 31
0.0
  0
LINE
  5
49A
330
A
100
AcDbEntity
  8
STANDARD
  6
STANDARD
 62
     7
100
AcDbLine
 10
428.4206086725068
 20
352.573763375647
 30
0.0
 11
428.3124238580536
 21
353.7655701688599
 31
0.0
  0
LINE
  5
49B
330
A
100
AcDbEntity
  8
STANDARD
  6
STANDARD
 62
     7
100
AcDbLine
 10
428.4206086725068
 20
378.3078827909302
 30
0.0
 11
428.3124238580536
 21
379.4996609739136
 31
0.0
  0
LINE
  5
49C
330
A
100
AcDbEntity
  8
STANDARD
  6
STANDARD
 62
     7
100
AcDbLine
 10
419.2258912652802
 20
337.8098073057007
 30
0.0
 11
418.7759095758271
 21
341.75478601969
 31
0.0
  0
LINE
  5
49D
330
A
100
AcDbEntity
  8
STANDARD
  6
STANDARD
 62
     7
100
AcDbLine
 10
428.5284883111786
 20
351.7771973661255
 30
0.0
 11
428.4206086725068
 21
352.573763375647
 31
0.0
  0
LINE
  5
49E
330
A
100
AcDbEntity
  8
STANDARD
  6
STANDARD
 62
     7
100
AcDbLine
 10
428.5284883111786
 20
377.5113263181519
 30
0.0
 11
428.4206086725068
 21
378.3078827909302
 31
0.0
  0
LINE
  5
49F
330
A
100
AcDbEntity
  8
STANDARD
  6
STANDARD
 62
     7
100
AcDbLine
 10
417.1768647760224
 20
387.4980320981812
 30
0.0
 11
416.2233430475067
 21
387.3454823545289
 31
0.0
  0
LINE
  5
4A0
330
A
100
AcDbEntity
  8
STANDARD
  6
STANDARD
 62
     7
100
AcDbLine
 10
447.4090272516083
 20
330.8878674558472
 30
0.0
 11
442.1957856744598
 21
329.9925198606324
 31
0.0
  0
LINE
  5
4A1
330
A
100
AcDbEntity
  8
STANDARD
  6
STANDARD
 62
     7
100
AcDbLine
 10
418.7759095758271
 20
346.4377656034302
 30
0.0
 11
418.5733491510224
 21
347.317005639441
 31
0.0
  0
LINE
  5
4A2
330
A
100
AcDbEntity
  8
STANDARD
  6
STANDARD
 62
     7
100
AcDbLine
 10
429.6100312799286
 20
337.2535195401978
 30
0.0
 11
428.5731202691864
 21
341.7548050931763
 31
0.0
  0
LINE
  5
4A3
330
A
100
AcDbEntity
  8
STANDARD
  6
STANDARD
 62
     7
100
AcDbLine
 10
517.9697114557098
 20
486.3935627988648
 30
0.0
 11
517.582290801413
 21
486.2694325498414
 31
0.0
  0
LINE
  5
4A4
330
A
100
AcDbEntity
  8
STANDARD
  6
STANDARD
 62
     7
100
AcDbLine
 10
420.5586701959442
 20
334.0163769773316
 30
0.0
 11
419.2258912652802
 21
337.8098073057007
 31
0.0
  0
LINE
  5
4A5
330
A
100
AcDbEntity
  8
STANDARD
  6
STANDARD
 62
     7
100
AcDbLine
 10
517.5823670953583
 20
486.269470696814
 30
0.0
 11
517.2206575006318
 21
486.113163476355
 31
0.0
  0
LINE
  5
4A6
330
A
100
AcDbEntity
  8
STANDARD
  6
STANDARD
 62
     7
100
AcDbLine
 10
455.2071839898895
 20
324.941231255896
 30
0.0
 11
451.1581880182099
 21
323.0725445798706
 31
0.0
  0
LINE
  5
4A7
330
A
100
AcDbEntity
  8
STANDARD
  6
STANDARD
 62
     7
100
AcDbLine
 10
418.0036622613739
 20
387.9353680661988
 30
0.0
 11
417.1768647760224
 21
387.4980320981812
 31
0.0
  0
LINE
  5
4A8
330
A
100
AcDbEntity
  8
STANDARD
  6
STANDARD
 62
     7
100
AcDbLine
 10
451.8285066217255
 20
333.437611108191
 30
0.0
 11
447.4090272516083
 21
330.8878674558472
 31
0.0
  0
LINE
  5
4A9
330
A
100
AcDbEntity
  8
STANDARD
  6
STANDARD
 62
     7
100
AcDbLine
 10
465.2898866266083
 20
346.7755856565308
 30
0.0
 11
465.1012116998505
 21
347.0929303220581
 31
0.0
  0
LINE
  5
4AA
330
A
100
AcDbEntity
  8
STANDARD
  6
STANDARD
 62
     7
100
AcDbLine
 10
422.7229005426239
 20
330.5203595212769
 30
0.0
 11
420.5586701959442
 21
334.0163769773316
 31
0.0
  0
LINE
  5
4AB
330
A
100
AcDbEntity
  8
STANDARD
  6
STANDARD
 62
     7
100
AcDbLine
 10
458.7561494439911
 20
327.4560227445435
 30
0.0
 11
455.2071839898895
 21
324.941231255896
 31
0.0
  0
LINE
  5
4AC
330
A
100
AcDbEntity
  8
STANDARD
  6
STANDARD
 62
     7
100
AcDbLine
 10
418.5733491510224
 20
347.317005639441
 30
0.0
 11
417.9965669244599
 21
348.0623402646851
 31
0.0
  0
LINE
  5
4AD
330
A
100
AcDbEntity
  8
STANDARD
  6
STANDARD
 62
     7
100
AcDbLine
 10
432.5630647271943
 20
333.437611108191
 30
0.0
 11
429.6100312799286
 21
337.2535195401978
 31
0.0
  0
LINE
  5
4AE
330
A
100
AcDbEntity
  8
STANDARD
  6
STANDARD
 62
     7
100
AcDbLine
 10
465.1012116998505
 20
347.0929398588013
 30
0.0
 11
464.9334413141083
 21
347.310844903357
 31
0.0
  0
LINE
  5
4AF
330
A
100
AcDbEntity
  8
STANDARD
  6
STANDARD
 62
     7
100
AcDbLine
 10
524.0810090631318
 20
483.4689679197144
 30
0.0
 11
523.8992768853973
 21
483.6914219907593
 31
0.0
  0
LINE
  5
4B0
330
A
100
AcDbEntity
  8
STANDARD
  6
STANDARD
 62
     7
100
AcDbLine
 10
457.1595460504364
 20
347.9389824918579
 30
0.0
 11
456.8397981256318
 21
347.679964547522
 31
0.0
  0
LINE
  5
4B1
330
A
100
AcDbEntity
  8
STANDARD
  6
STANDARD
 62
     7
100
AcDbLine
 10
414.9458772271942
 20
387.3454060605835
 30
0.0
 11
414.5200807184052
 21
386.9777836850953
 31
0.0
  0
LINE
  5
4B2
330
A
100
AcDbEntity
  8
STANDARD
  6
STANDARD
 62
     7
100
AcDbLine
 10
523.8992768853973
 20
483.691402917273
 30
0.0
 11
523.7113648980927
 21
483.9064946225953
 31
0.0
  0
LINE
  5
4B3
330
A
100
AcDbEntity
  8
STANDARD
  6
STANDARD
 62
     7
100
AcDbLine
 10
425.6354219049286
 20
327.4560227445435
 30
0.0
 11
422.7229005426239
 21
330.5203595212769
 31
0.0
  0
LINE
  5
4B4
330
A
100
AcDbEntity
  8
STANDARD
  6
STANDARD
 62
     7
100
AcDbLine
 10
515.9855348199677
 20
485.1794018796753
 30
0.0
 11
423.2509309381318
 21
397.7977528623414
 31
0.0
  0
LINE
  5
4B5
330
A
100
AcDbEntity
  8
STANDARD
  6
STANDARD
 62
     7
100
AcDbLine
 10
516.3212281793427
 20
485.4927983335327
 30
0.0
 11
515.9875184625458
 21
485.1781430295777
 31
0.0
  0
LINE
  5
4B6
330
A
100
AcDbEntity
  8
STANDARD
  6
STANDARD
 62
     7
100
AcDbLine
 10
523.541763457663
 20
479.78044176615
 30
0.0
 11
430.4742127984833
 21
392.0828404477905
 31
0.0
  0
LINE
  5
4B7
330
A
100
AcDbEntity
  8
STANDARD
  6
STANDARD
 62
     7
100
AcDbLine
 10
464.8679048150849
 20
347.396008019812
 30
0.0
 11
464.5906526178192
 21
347.679964547522
 31
0.0
  0
ARC
  5
4B8
330
A
100
AcDbEntity
  8
STANDARD
  6
STANDARD
 62
     7
100
AcDbCircle
 10
462.6932348160679
 20
345.4396817423842
 30
0.0
 40
2.920887457439077
100
AcDbArc
 50
6.894252311652264
 51
34.47238722339951
  0
ARC
  5
4B9
330
A
100
AcDbEntity
  8
STANDARD
  6
STANDARD
 62
     7
100
AcDbCircle
 10
516.445227706012
 20
477.371648710186
 30
0.0
 40
9.772519757293364
100
AcDbArc
 50
40.29222315070789
 51
50.18379818036025
  0
ARC
  5
4BA
330
A
100
AcDbEntity
  8
STANDARD
  6
STANDARD
 62
     7
100
AcDbCircle
 10
515.7379106501592
 20
476.4335638190651
 30
0.0
 40
10.94971093473371
100
AcDbArc
 50
54.78824262407852
 51
64.04236175931913
  0
ARC
  5
4BB
330
A
100
AcDbEntity
  8
STANDARD
  6
STANDARD
 62
     7
100
AcDbCircle
 10
458.7407030752309
 20
345.4336343329744
 30
0.0
 40
2.926256710199743
100
AcDbArc
 50
139.7470767953813
 51
166.4505729334745
  0
ARC
  5
4BC
330
A
100
AcDbEntity
  8
STANDARD
  6
STANDARD
 62
     7
100
AcDbCircle
 10
442.1957856744598
 20
348.3944049070531
 30
0.0
 40
26.86114789432107
100
AcDbArc
 50
250.5091258863457
 51
289.4908741136541
  0
ARC
  5
4BD
330
A
100
AcDbEntity
  8
STANDARD
  6
STANDARD
 62
     7
100
AcDbCircle
 10
519.1241769017351
 20
482.3052878843848
 30
0.0
 40
4.253460103186265
100
AcDbArc
 50
111.2528049473032
 51
137.5135341844321
  0
LINE
  5
4BE
330
A
100
AcDbEntity
  8
0
  6
CONTINUOUS
100
AcDbLine
 10
462.8152925103973
 20
348.5593857816529
 30
0.0
 11
463.3594972223114
 21
348.4211983732056
 31
0.0
  0
LINE
  5
4BF
330
A
100
AcDbEntity
  8
0
  6
CONTINUOUS
100
AcDbLine
 10
458.3075410455536
 20
348.5018601468873
 30
0.0
 11
458.1554872125458
 21
348.4523835233521
 31
0.0
  0
LINE
  5
4C0
330
A
100
AcDbEntity
  8
0
  6
CONTINUOUS
100
AcDbLine
 10
322.7557598981211
 20
476.7376675144732
 30
0.0
 11
324.7230825204045
 21
476.7679290861147
 31
0.0
  0
LINE
  5
4C1
330
A
100
AcDbEntity
  8
0
  6
CONTINUOUS
100
AcDbLine
 10
321.2833637449048
 20
476.8953402740028
 30
0.0
 11
322.7557598981211
 21
476.7376675144732
 31
0.0
  0
LINE
  5
4C2
330
A
100
AcDbEntity
  8
0
  6
CONTINUOUS
100
AcDbLine
 10
318.8942250985295
 20
477.2787551969545
 30
0.0
 11
321.2833637449048
 21
476.8953402740028
 31
0.0
  0
LINE
  5
4C3
330
A
100
AcDbEntity
  8
0
  6
CONTINUOUS
100
AcDbLine
 10
314.0420827645451
 20
478.7541275114077
 30
0.0
 11
314.4232473153264
 21
478.3837204069155
 31
0.0
  0
LINE
  5
4C4
330
A
100
AcDbEntity
  8
0
  6
CONTINUOUS
100
AcDbLine
 10
313.8040456551701
 20
480.5629615873354
 30
0.0
 11
313.7230214852483
 21
479.6659736722964
 31
0.0
  0
LINE
  5
4C5
330
A
100
AcDbEntity
  8
0
  6
CONTINUOUS
100
AcDbLine
 10
314.4232473153264
 20
482.2219734281557
 30
0.0
 11
314.0420827645451
 21
481.4462356657045
 31
0.0
  0
LINE
  5
4C6
330
A
100
AcDbEntity
  8
0
  6
CONTINUOUS
100
AcDbLine
 10
315.4140004891545
 20
483.1374435514468
 30
0.0
 11
315.0812062997014
 21
482.96091843548
 31
0.0
  0
LINE
  5
4C7
330
A
100
AcDbEntity
  8
0
  6
CONTINUOUS
100
AcDbLine
 10
316.8640432137639
 20
483.7440185636538
 30
0.0
 11
316.6185292977483
 21
483.649337777521
 31
0.0
  0
LINE
  5
4C8
330
A
100
AcDbEntity
  8
0
  6
CONTINUOUS
100
AcDbLine
 10
335.5231008309514
 20
478.9655284971255
 30
0.0
 11
335.0229177254826
 21
478.3837204069155
 31
0.0
  0
LINE
  5
4C9
330
A
100
AcDbEntity
  8
0
  6
CONTINUOUS
100
AcDbLine
 10
335.1352224129826
 20
481.9933204740542
 30
0.0
 11
335.4040822762639
 21
481.4462547391909
 31
0.0
  0
LINE
  5
4CA
330
A
100
AcDbEntity
  8
0
  6
CONTINUOUS
100
AcDbLine
 10
334.6938619393498
 20
482.5914650053042
 30
0.0
 11
335.1352224129826
 21
481.9933204740542
 31
0.0
  0
LINE
  5
4CB
330
A
100
AcDbEntity
  8
0
  6
CONTINUOUS
100
AcDbLine
 10
334.149962403217
 20
483.082759866144
 30
0.0
 11
334.6938619393498
 21
482.5914650053042
 31
0.0
  0
LINE
  5
4CC
330
A
100
AcDbEntity
  8
0
  6
CONTINUOUS
100
AcDbLine
 10
333.7944326180608
 20
483.2449607938784
 30
0.0
 11
334.149962403217
 21
483.082759866144
 31
0.0
  0
LINE
  5
4CD
330
A
100
AcDbEntity
  8
0
  6
CONTINUOUS
100
AcDbLine
 10
333.3140859383732
 20
483.4517746061343
 30
0.0
 11
333.7944326180608
 21
483.2449607938784
 31
0.0
  0
LINE
  5
4CE
330
A
100
AcDbEntity
  8
0
  6
CONTINUOUS
100
AcDbLine
 10
332.8268728036076
 20
483.6479740232485
 30
0.0
 11
333.3140859383732
 21
483.4517746061343
 31
0.0
  0
LINE
  5
4CF
330
A
100
AcDbEntity
  8
0
  6
CONTINUOUS
100
AcDbLine
 10
332.3352346200139
 20
483.8368492216128
 30
0.0
 11
332.8268728036076
 21
483.6479740232485
 31
0.0
  0
LINE
  5
4D0
330
A
100
AcDbEntity
  8
0
  6
CONTINUOUS
100
AcDbLine
 10
317.6027974862248
 20
389.5571022123354
 30
0.0
 11
332.5274607013825
 21
389.5571022123354
 31
0.0
  0
LINE
  5
4D1
330
A
100
AcDbEntity
  8
0
  6
CONTINUOUS
100
AcDbLine
 10
335.7229909676701
 20
391.4711170286196
 30
0.0
 11
335.7229909676701
 21
385.1655082792299
 31
0.0
  0
LINE
  5
4D2
330
A
100
AcDbEntity
  8
0
  6
CONTINUOUS
100
AcDbLine
 10
313.7230214852483
 20
392.2439270109194
 30
0.0
 11
313.7230214852483
 21
385.1655082792299
 31
0.0
  0
LINE
  5
4D3
330
A
100
AcDbEntity
  8
0
  6
CONTINUOUS
100
AcDbLine
 10
315.4831228036076
 20
393.9357452482241
 30
0.0
 11
315.4837239956019
 21
385.1655564356248
 31
0.0
  0
CIRCLE
  5
4D4
330
A
100
AcDbEntity
  8
0
  6
CONTINUOUS
100
AcDbCircle
 10
324.7269042635279
 20
378.2082004413371
 30
0.0
 40
2.054567609035651
  0
CIRCLE
  5
4D5
330
A
100
AcDbEntity
  8
0
  6
CONTINUOUS
100
AcDbCircle
 10
324.7269042635279
 20
378.2082004413371
 30
0.0
 40
3.558672040828469
  0
CIRCLE
  5
4D6
330
A
100
AcDbEntity
  8
0
  6
CONTINUOUS
100
AcDbCircle
 10
324.7185187201066
 20
352.3981882951004
 30
0.0
 40
3.558672040828469
  0
CIRCLE
  5
4D7
330
A
100
AcDbEntity
  8
0
  6
CONTINUOUS
100
AcDbCircle
 10
324.7185187201066
 20
352.3981882951004
 30
0.0
 40
2.054567609035651
  0
LINE
  5
4D8
330
A
100
AcDbEntity
  8
0
  6
CONTINUOUS
100
AcDbLine
 10
334.521056153217
 20
344.6226673215885
 30
0.0
 11
334.0320119637639
 21
344.8388938993471
 31
0.0
  0
LINE
  5
4D9
330
A
100
AcDbEntity
  8
0
  6
CONTINUOUS
100
AcDbLine
 10
319.7337636727482
 20
342.3435859769838
 30
0.0
 11
335.7229909676701
 21
342.3435859769839
 31
0.0
  0
LINE
  5
4DA
330
A
100
AcDbEntity
  8
0
  6
CONTINUOUS
100
AcDbLine
 10
314.925108887592
 20
344.6226673215883
 30
0.0
 11
315.1780996102483
 21
344.7759990781801
 31
0.0
  0
LINE
  5
4DB
330
A
100
AcDbEntity
  8
0
  6
CONTINUOUS
100
AcDbLine
 10
315.4831228036076
 20
325.9797935575503
 30
0.0
 11
315.4831228036076
 21
323.6795024961489
 31
0.0
  0
LINE
  5
4DC
330
A
100
AcDbEntity
  8
0
  6
CONTINUOUS
100
AcDbLine
 10
333.9628896493108
 20
329.5211677640932
 30
0.0
 11
333.9628896493108
 21
323.6794738859194
 31
0.0
  0
LINE
  5
4DD
330
A
100
AcDbEntity
  8
0
  6
CONTINUOUS
100
AcDbLine
 10
335.7229909676701
 20
339.0584449857729
 30
0.0
 11
335.7229909676701
 21
323.0664424985903
 31
0.0
  0
LINE
  5
4DE
330
A
100
AcDbEntity
  8
0
  6
CONTINUOUS
100
AcDbLine
 10
313.7230214852483
 20
332.9385643095034
 30
0.0
 11
313.7230214852483
 21
323.0664424985903
 31
0.0
  0
LINE
  5
4DF
330
A
100
AcDbEntity
  8
0
  6
CONTINUOUS
100
AcDbLine
 10
191.1384714073648
 20
348.5018601468873
 30
0.0
 11
191.2905252403726
 21
348.4523835233521
 31
0.0
  0
LINE
  5
4E0
330
A
100
AcDbEntity
  8
0
  6
CONTINUOUS
100
AcDbLine
 10
186.630719942521
 20
348.5593857816529
 30
0.0
 11
186.086515230607
 21
348.4211983732056
 31
0.0
  0
LINE
  5
4E1
330
A
100
AcDbEntity
  8
0
  6
CONTINUOUS
100
AcDbLine
 10
333.9628896493108
 20
283.5683397803565
 30
0.0
 11
333.9628896493108
 21
284.3254808936378
 31
0.0
  0
LINE
  5
4E2
330
A
100
AcDbEntity
  8
0
  6
CONTINUOUS
100
AcDbLine
 10
313.7230214852483
 20
281.8369249854347
 30
0.0
 11
313.7230214852483
 21
281.6287951026222
 31
0.0
  0
LINE
  5
4E3
330
A
100
AcDbEntity
  8
0
  6
CONTINUOUS
100
AcDbLine
 10
315.4831228036076
 20
282.1729235205909
 30
0.0
 11
315.4831228036076
 21
280.7871202979347
 31
0.0
  0
LINE
  5
4E4
330
A
100
AcDbEntity
  8
0
  6
CONTINUOUS
100
AcDbLine
 10
313.7230214852483
 20
281.6287951026222
 30
0.0
 11
313.7230214852483
 21
280.183940366294
 31
0.0
  0
LINE
  5
4E5
330
A
100
AcDbEntity
  8
0
  6
CONTINUOUS
100
AcDbLine
 10
335.7229909676701
 20
281.8369249854347
 30
0.0
 11
335.7229909676701
 21
281.6287951026222
 31
0.0
  0
LINE
  5
4E6
330
A
100
AcDbEntity
  8
0
  6
CONTINUOUS
100
AcDbLine
 10
331.3840017098576
 20
180.9912828955909
 30
0.0
 11
332.3352346200139
 21
181.0245470557472
 31
0.0
  0
LINE
  5
4E7
330
A
100
AcDbEntity
  8
0
  6
CONTINUOUS
100
AcDbLine
 10
335.6421193856389
 20
185.9142260108253
 30
0.0
 11
335.6421193856389
 21
184.8276476416847
 31
0.0
  0
LINE
  5
4E8
330
A
100
AcDbEntity
  8
0
  6
CONTINUOUS
100
AcDbLine
 10
319.024229981342
 20
181.0089830909035
 30
0.0
 11
319.2532644051701
 21
181.0243944678566
 31
0.0
  0
LINE
  5
4E9
330
A
100
AcDbEntity
  8
0
  6
CONTINUOUS
100
AcDbLine
 10
315.0812062997014
 20
182.0528368506691
 30
0.0
 11
315.6515798348576
 21
181.7215685401222
 31
0.0
  0
LINE
  5
4EA
330
A
100
AcDbEntity
  8
0
  6
CONTINUOUS
100
AcDbLine
 10
314.4232473153264
 20
187.483745053794
 30
0.0
 11
314.0420827645451
 21
187.0148424659035
 31
0.0
  0
LINE
  5
4EB
330
A
100
AcDbEntity
  8
0
  6
CONTINUOUS
100
AcDbLine
 10
335.022765137592
 20
187.483745053794
 30
0.0
 11
335.4040822762639
 21
187.0148424659035
 31
0.0
  0
LINE
  5
4EC
330
A
100
AcDbEntity
  8
0
  6
CONTINUOUS
100
AcDbLine
 10
333.9628896493108
 20
188.0524401221535
 30
0.0
 11
334.2868337411076
 21
187.9418139014503
 31
0.0
  0
LINE
  5
4ED
330
A
100
AcDbEntity
  8
0
  6
CONTINUOUS
100
AcDbLine
 10
329.4224843758732
 20
189.1544298682472
 30
0.0
 11
329.6060476082951
 21
189.1118578467628
 31
0.0
  0
ARC
  5
4EE
330
A
100
AcDbEntity
  8
STANDARD
  6
STANDARD
 62
     7
100
AcDbCircle
 10
324.7230062264592
 20
344.4392276699244
 30
0.0
 40
25.6023212279664
100
AcDbArc
 50
248.8445079519085
 51
291.1554920480915
  0
ARC
  5
4EF
330
A
100
AcDbEntity
  8
STANDARD
  6
STANDARD
 62
     7
100
AcDbCircle
 10
332.9648951996217
 20
342.3458702256101
 30
0.0
 40
2.7577965714951
100
AcDbArc
 50
13.88393933287579
 51
55.6479056447133
  0
LINE
  5
4F0
330
A
100
AcDbEntity
  8
STANDARD
  6
STANDARD
 62
     7
100
AcDbLine
 10
314.4232473153264
 20
482.2219734281557
 30
0.0
 11
315.0812062997014
 21
482.96091843548
 31
0.0
  0
LINE
  5
4F1
330
A
100
AcDbEntity
  8
STANDARD
  6
STANDARD
 62
     7
100
AcDbLine
 10
314.4232473153264
 20
482.2219734281557
 30
0.0
 11
314.925108887592
 21
482.8450851530092
 31
0.0
  0
LINE
  5
4F2
330
A
100
AcDbEntity
  8
STANDARD
  6
STANDARD
 62
     7
100
AcDbLine
 10
314.0420827645451
 20
343.6325435728091
 30
0.0
 11
314.4232473153264
 21
344.1816024869936
 31
0.0
  0
LINE
  5
4F3
330
A
100
AcDbEntity
  8
STANDARD
  6
STANDARD
 62
     7
100
AcDbLine
 10
314.528380371967
 20
321.1854152769106
 30
0.0
 11
315.4831228036076
 21
320.562417992975
 31
0.0
  0
LINE
  5
4F4
330
A
100
AcDbEntity
  8
STANDARD
  6
STANDARD
 62
     7
100
AcDbLine
 10
314.4232473153264
 20
478.3837204069155
 30
0.0
 11
314.9249562997014
 21
478.0859260648745
 31
0.0
  0
LINE
  5
4F5
330
A
100
AcDbEntity
  8
STANDARD
  6
STANDARD
 62
     7
100
AcDbLine
 10
335.4040822762639
 20
478.7541275114077
 30
0.0
 11
335.6421193856389
 21
479.1769294828433
 31
0.0
  0
LINE
  5
4F6
330
A
100
AcDbEntity
  8
STANDARD
  6
STANDARD
 62
     7
100
AcDbLine
 10
334.0320119637639
 20
483.1374435514468
 30
0.0
 11
334.2679128426701
 21
483.0280761808412
 31
0.0
  0
LINE
  5
4F7
330
A
100
AcDbEntity
  8
STANDARD
  6
STANDARD
 62
     7
100
AcDbLine
 10
333.5551748055607
 20
483.3497505277651
 30
0.0
 11
333.7944326180608
 21
483.2449607938784
 31
0.0
  0
LINE
  5
4F8
330
A
100
AcDbEntity
  8
STANDARD
  6
STANDARD
 62
     7
100
AcDbLine
 10
334.9176320809514
 20
321.1854057401674
 30
0.0
 11
335.7229909676701
 21
323.0664424985903
 31
0.0
  0
LINE
  5
4F9
330
A
100
AcDbEntity
  8
STANDARD
  6
STANDARD
 62
     7
100
AcDbLine
 10
333.0716237801701
 20
483.5519294828432
 30
0.0
 11
333.3140859383732
 21
483.4517746061343
 31
0.0
  0
LINE
  5
4FA
330
A
100
AcDbEntity
  8
STANDARD
  6
STANDARD
 62
     7
100
AcDbLine
 10
313.8040456551701
 20
343.0076770872133
 30
0.0
 11
314.0420827645451
 21
343.632658013727
 31
0.0
  0
LINE
  5
4FB
330
A
100
AcDbEntity
  8
STANDARD
  6
STANDARD
 62
     7
100
AcDbLine
 10
313.8040456551701
 20
480.5629615873354
 30
0.0
 11
314.0420827645451
 21
481.4462356657045
 31
0.0
  0
LINE
  5
4FC
330
A
100
AcDbEntity
  8
STANDARD
  6
STANDARD
 62
     7
100
AcDbLine
 10
315.4832753914983
 20
477.9336052030581
 30
0.0
 11
318.8942250985295
 21
477.2787551969545
 31
0.0
  0
LINE
  5
4FD
330
A
100
AcDbEntity
  8
STANDARD
  6
STANDARD
 62
     7
100
AcDbLine
 10
324.7230825204045
 20
476.7679290861147
 30
0.0
 11
329.4223317879826
 21
477.0623474210757
 31
0.0
  0
LINE
  5
4FE
330
A
100
AcDbEntity
  8
STANDARD
  6
STANDARD
 62
     7
100
AcDbLine
 10
329.5982656258733
 20
477.0936279386538
 30
0.0
 11
333.9628896493108
 21
477.9335479825991
 31
0.0
  0
LINE
  5
4FF
330
A
100
AcDbEntity
  8
STANDARD
  6
STANDARD
 62
     7
100
AcDbLine
 10
335.4040822762639
 20
481.4462547391909
 30
0.0
 11
335.6421193856389
 21
480.5629806608218
 31
0.0
  0
LINE
  5
500
330
A
100
AcDbEntity
  8
STANDARD
  6
STANDARD
 62
     7
100
AcDbLine
 10
315.8909902352482
 20
483.3497505277651
 30
0.0
 11
316.3745412606389
 21
483.5519294828432
 31
0.0
  0
LINE
  5
501
330
A
100
AcDbEntity
  8
STANDARD
  6
STANDARD
 62
     7
100
AcDbLine
 10
315.6515798348576
 20
483.2449607938784
 30
0.0
 11
315.8909902352482
 21
483.3497505277651
 31
0.0
  0
LINE
  5
502
330
A
100
AcDbEntity
  8
STANDARD
  6
STANDARD
 62
     7
100
AcDbLine
 10
313.7230214852483
 20
323.0664424985903
 30
0.0
 11
314.528380371967
 21
321.1854152769106
 31
0.0
  0
LINE
  5
503
330
A
100
AcDbEntity
  8
STANDARD
  6
STANDARD
 62
     7
100
AcDbLine
 10
315.4140004891545
 20
483.1374435514468
 30
0.0
 11
315.6515798348576
 21
483.2449607938784
 31
0.0
  0
LINE
  5
504
330
A
100
AcDbEntity
  8
STANDARD
  6
STANDARD
 62
     7
100
AcDbLine
 10
335.0229177254826
 20
482.2219734281557
 30
0.0
 11
335.1352224129826
 21
481.9933204740542
 31
0.0
  0
LINE
  5
505
330
A
100
AcDbEntity
  8
STANDARD
  6
STANDARD
 62
     7
100
AcDbLine
 10
313.8040456551701
 20
479.1769294828433
 30
0.0
 11
314.0420827645451
 21
478.7541275114077
 31
0.0
  0
LINE
  5
506
330
A
100
AcDbEntity
  8
STANDARD
  6
STANDARD
 62
     7
100
AcDbLine
 10
334.521056153217
 20
478.0859260648745
 30
0.0
 11
335.0229177254826
 21
478.3837204069155
 31
0.0
  0
LINE
  5
507
330
A
100
AcDbEntity
  8
STANDARD
  6
STANDARD
 62
     7
100
AcDbLine
 10
333.9628896493108
 20
320.562417992975
 30
0.0
 11
334.9176320809514
 21
321.1854057401674
 31
0.0
  0
LINE
  5
508
330
A
100
AcDbEntity
  8
STANDARD
  6
STANDARD
 62
     7
100
AcDbLine
 10
334.521056153217
 20
482.8451232999819
 30
0.0
 11
335.0229177254826
 21
482.2219734281557
 31
0.0
  0
LINE
  5
509
330
A
100
AcDbEntity
  8
STANDARD
  6
STANDARD
 62
     7
100
AcDbLine
 10
314.4232473153264
 20
344.1817455381411
 30
0.0
 11
314.925108887592
 21
344.6226673215883
 31
0.0
  0
LINE
  5
50A
330
A
100
AcDbEntity
  8
STANDARD
  6
STANDARD
 62
     7
100
AcDbLine
 10
334.3649587411076
 20
482.9609565824526
 30
0.0
 11
335.022765137592
 21
482.2219734281557
 31
0.0
  0
LINE
  5
50B
330
A
100
AcDbEntity
  8
STANDARD
  6
STANDARD
 62
     7
100
AcDbLine
 10
314.0420827645451
 20
343.6326294034975
 30
0.0
 11
314.1264638680608
 21
343.754146584894
 31
0.0
  0
LINE
  5
50C
330
A
100
AcDbEntity
  8
STANDARD
  6
STANDARD
 62
     7
100
AcDbLine
 10
333.9628896493108
 20
320.9177093595522
 30
0.0
 11
333.9628896493108
 21
321.9702320188539
 31
0.0
  0
LINE
  5
50D
330
A
100
AcDbEntity
  8
STANDARD
  6
STANDARD
 62
     7
100
AcDbLine
 10
333.9628896493108
 20
321.9702606290835
 30
0.0
 11
333.9628896493108
 21
323.6794738859194
 31
0.0
  0
LINE
  5
50E
330
A
100
AcDbEntity
  8
STANDARD
  6
STANDARD
 62
     7
100
AcDbLine
 10
333.9628896493108
 20
329.5211677640932
 30
0.0
 11
333.9628896493108
 21
339.0584259122866
 31
0.0
  0
LINE
  5
50F
330
A
100
AcDbEntity
  8
STANDARD
  6
STANDARD
 62
     7
100
AcDbLine
 10
333.9628896493108
 20
339.0584354490298
 30
0.0
 11
333.9944753426701
 21
342.3435859769838
 31
0.0
  0
LINE
  5
510
330
A
100
AcDbEntity
  8
STANDARD
  6
STANDARD
 62
     7
100
AcDbLine
 10
333.9628896493108
 20
344.8570423215883
 30
0.0
 11
333.9628896493108
 21
386.6356163114565
 31
0.0
  0
LINE
  5
511
330
A
100
AcDbEntity
  8
STANDARD
  6
STANDARD
 62
     7
100
AcDbLine
 10
333.9628896493108
 20
386.6356544584292
 30
0.0
 11
333.9628896493108
 21
389.3759613126772
 31
0.0
  0
LINE
  5
512
330
A
100
AcDbEntity
  8
STANDARD
  6
STANDARD
 62
     7
100
AcDbLine
 10
333.9628896493108
 20
390.1234703153627
 30
0.0
 11
333.9628896493108
 21
477.9335670560854
 31
0.0
  0
LINE
  5
513
330
A
100
AcDbEntity
  8
STANDARD
  6
STANDARD
 62
     7
100
AcDbLine
 10
335.7229909676701
 20
325.761564263727
 30
0.0
 11
335.7229909676701
 21
330.1737766355532
 31
0.0
  0
LINE
  5
514
330
A
100
AcDbEntity
  8
STANDARD
  6
STANDARD
 62
     7
100
AcDbLine
 10
335.7229909676701
 20
332.9385738462466
 30
0.0
 11
335.7229909676701
 21
335.9385471433657
 31
0.0
  0
LINE
  5
515
330
A
100
AcDbEntity
  8
STANDARD
  6
STANDARD
 62
     7
100
AcDbLine
 10
335.7229909676701
 20
339.0584449857729
 30
0.0
 11
335.7229909676701
 21
385.1655082792299
 31
0.0
  0
LINE
  5
516
330
A
100
AcDbEntity
  8
STANDARD
  6
STANDARD
 62
     7
100
AcDbLine
 10
335.7229909676701
 20
390.6983070463198
 30
0.0
 11
335.7229909676701
 21
392.2439270109194
 31
0.0
  0
LINE
  5
517
330
A
100
AcDbEntity
  8
STANDARD
  6
STANDARD
 62
     7
100
AcDbLine
 10
335.7229909676701
 20
392.2439842313784
 30
0.0
 11
335.7229909676701
 21
479.6254806608217
 31
0.0
  0
LINE
  5
518
330
A
100
AcDbEntity
  8
STANDARD
  6
STANDARD
 62
     7
100
AcDbLine
 10
335.6421193856389
 20
479.6254997343081
 30
0.0
 11
335.7229909676701
 21
480.5629806608218
 31
0.0
  0
LINE
  5
519
330
A
100
AcDbEntity
  8
STANDARD
  6
STANDARD
 62
     7
100
AcDbLine
 10
315.4831228036076
 20
320.562417992975
 30
0.0
 11
315.4831228036076
 21
321.9702701658266
 31
0.0
  0
LINE
  5
51A
330
A
100
AcDbEntity
  8
STANDARD
  6
STANDARD
 62
     7
100
AcDbLine
 10
315.4831228036076
 20
321.9702797025698
 30
0.0
 11
315.4831228036076
 21
323.6795024961489
 31
0.0
  0
LINE
  5
51B
330
A
100
AcDbEntity
  8
STANDARD
  6
STANDARD
 62
     7
100
AcDbLine
 10
315.4831228036076
 20
325.9797935575503
 30
0.0
 11
315.4831228036076
 21
331.9802742094057
 31
0.0
  0
LINE
  5
51C
330
A
100
AcDbEntity
  8
STANDARD
  6
STANDARD
 62
     7
100
AcDbLine
 10
315.4831228036076
 20
331.9803123563784
 30
0.0
 11
315.4831228036076
 21
342.3435859769838
 31
0.0
  0
LINE
  5
51D
330
A
100
AcDbEntity
  8
STANDARD
  6
STANDARD
 62
     7
100
AcDbLine
 10
315.4831228036076
 20
344.8570423215883
 30
0.0
 11
315.4831228036076
 21
385.1654892057436
 31
0.0
  0
LINE
  5
51E
330
A
100
AcDbEntity
  8
STANDARD
  6
STANDARD
 62
     7
100
AcDbLine
 10
315.4831228036076
 20
386.6356353849429
 30
0.0
 11
315.4831228036076
 21
390.5521469205874
 31
0.0
  0
LINE
  5
51F
330
A
100
AcDbEntity
  8
STANDARD
  6
STANDARD
 62
     7
100
AcDbLine
 10
315.4831228036076
 20
393.9357452482241
 30
0.0
 11
315.4831228036076
 21
477.9336052030581
 31
0.0
  0
LINE
  5
520
330
A
100
AcDbEntity
  8
STANDARD
  6
STANDARD
 62
     7
100
AcDbLine
 10
313.7230214852483
 20
332.9385643095034
 30
0.0
 11
313.7230214852483
 21
385.1655082792299
 31
0.0
  0
LINE
  5
521
330
A
100
AcDbEntity
  8
STANDARD
  6
STANDARD
 62
     7
100
AcDbLine
 10
313.7230214852483
 20
387.0973091215151
 30
0.0
 11
313.7230214852483
 21
390.6983261198061
 31
0.0
  0
LINE
  5
522
330
A
100
AcDbEntity
  8
STANDARD
  6
STANDARD
 62
     7
100
AcDbLine
 10
313.7230214852483
 20
392.2439270109194
 30
0.0
 11
313.7230214852483
 21
479.6254425138491
 31
0.0
  0
LINE
  5
523
330
A
100
AcDbEntity
  8
STANDARD
  6
STANDARD
 62
     7
100
AcDbLine
 10
318.4305104989201
 20
345.4982738584536
 30
0.0
 11
319.7258291024358
 21
345.700643548395
 31
0.0
  0
LINE
  5
524
330
A
100
AcDbEntity
  8
STANDARD
  6
STANDARD
 62
     7
100
AcDbLine
 10
330.1468190926701
 20
345.6391887754457
 30
0.0
 11
331.454649903217
 21
345.4188137144106
 31
0.0
  0
LINE
  5
525
330
A
100
AcDbEntity
  8
STANDARD
  6
STANDARD
 62
     7
100
AcDbLine
 10
319.7258291024358
 20
345.700586327936
 30
0.0
 11
330.5791005868107
 21
345.571773538019
 31
0.0
  0
LINE
  5
526
330
A
100
AcDbEntity
  8
STANDARD
  6
STANDARD
 62
     7
100
AcDbLine
 10
317.1107778329045
 20
345.2426891416567
 30
0.0
 11
318.4306630868107
 21
345.4982261747378
 31
0.0
  0
LINE
  5
527
330
A
100
AcDbEntity
  8
STANDARD
  6
STANDARD
 62
     7
100
AcDbLine
 10
331.4544973153264
 20
345.4187660306948
 30
0.0
 11
332.3352346200139
 21
345.2426891416567
 31
0.0
  0
LINE
  5
528
330
A
100
AcDbEntity
  8
STANDARD
  6
STANDARD
 62
     7
100
AcDbLine
 10
315.1780996102483
 20
344.7759990781801
 30
0.0
 11
315.8909902352482
 21
344.9612026304262
 31
0.0
  0
LINE
  5
529
330
A
100
AcDbEntity
  8
STANDARD
  6
STANDARD
 62
     7
100
AcDbLine
 10
333.7944326180608
 20
344.9007968992251
 30
0.0
 11
334.2679128426701
 21
344.7759990781801
 31
0.0
  0
LINE
  5
52A
330
A
100
AcDbEntity
  8
STANDARD
  6
STANDARD
 62
     7
100
AcDbLine
 10
315.8909902352482
 20
344.9612026304262
 30
0.0
 11
316.3745412606389
 21
345.0780563444155
 31
0.0
  0
LINE
  5
52B
330
A
100
AcDbEntity
  8
STANDARD
  6
STANDARD
 62
     7
100
AcDbLine
 10
333.3140859383732
 20
345.0203209013003
 30
0.0
 11
334.0320119637639
 21
344.8388938993471
 31
0.0
  0
LINE
  5
52C
330
A
100
AcDbEntity
  8
STANDARD
  6
STANDARD
 62
     7
100
AcDbLine
 10
316.3745412606389
 20
345.0780563444155
 30
0.0
 11
316.8640432137639
 21
345.1892738431948
 31
0.0
  0
LINE
  5
52D
330
A
100
AcDbEntity
  8
STANDARD
  6
STANDARD
 62
     7
100
AcDbLine
 10
332.8274831551701
 20
345.1343898862856
 30
0.0
 11
333.5551748055607
 21
344.9609832853334
 31
0.0
  0
LINE
  5
52E
330
A
100
AcDbEntity
  8
STANDARD
  6
STANDARD
 62
     7
100
AcDbLine
 10
316.8640432137639
 20
345.1892738431948
 30
0.0
 11
317.1107778329045
 21
345.2424507230776
 31
0.0
  0
LINE
  5
52F
330
A
100
AcDbEntity
  8
STANDARD
  6
STANDARD
 62
     7
100
AcDbLine
 10
332.3352346200139
 20
345.2426891416567
 30
0.0
 11
333.0716237801701
 21
345.0778274625796
 31
0.0
  0
LINE
  5
530
330
A
100
AcDbEntity
  8
STANDARD
  6
STANDARD
 62
     7
100
AcDbLine
 10
313.7231740731389
 20
342.3435859769838
 30
0.0
 11
314.9249562997014
 21
342.3435859769838
 31
0.0
  0
LINE
  5
531
330
A
100
AcDbEntity
  8
STANDARD
  6
STANDARD
 62
     7
100
AcDbLine
 10
314.925108887592
 20
342.3435859769838
 30
0.0
 11
315.3564748543889
 21
342.3433570951479
 31
0.0
  0
LINE
  5
532
330
A
100
AcDbEntity
  8
STANDARD
  6
STANDARD
 62
     7
100
AcDbLine
 10
315.359679200092
 20
342.3438148588198
 30
0.0
 11
319.7337636727482
 21
342.3435859769838
 31
0.0
  0
LINE
  5
533
330
A
100
AcDbEntity
  8
STANDARD
  6
STANDARD
 62
     7
100
AcDbLine
 10
320.0236806649357
 20
342.3438148588198
 30
0.0
 11
329.4224843758732
 21
342.3435859769838
 31
0.0
  0
LINE
  5
534
330
A
100
AcDbEntity
  8
STANDARD
  6
STANDARD
 62
     7
100
AcDbLine
 10
329.4885549325139
 20
342.3435764402407
 30
0.0
 11
333.9628896493108
 21
342.3435859769838
 31
0.0
  0
LINE
  5
535
330
A
100
AcDbEntity
  8
STANDARD
  6
STANDARD
 62
     7
100
AcDbLine
 10
334.0884694832951
 20
342.3435859769838
 30
0.0
 11
335.403624512592
 21
342.3435859769838
 31
0.0
  0
LINE
  5
536
330
A
100
AcDbEntity
  8
STANDARD
  6
STANDARD
 62
     7
100
AcDbLine
 10
335.4039296883732
 20
342.3435859769838
 30
0.0
 11
335.6418142098576
 21
342.3435859769838
 31
0.0
  0
LINE
  5
537
330
A
100
AcDbEntity
  8
STANDARD
  6
STANDARD
 62
     7
100
AcDbLine
 10
313.7230214852483
 20
339.0584449857729
 30
0.0
 11
313.8615712899357
 21
339.0584449857729
 31
0.0
  0
LINE
  5
538
330
A
100
AcDbEntity
  8
STANDARD
  6
STANDARD
 62
     7
100
AcDbLine
 10
333.5211477059514
 20
477.8485374540347
 30
0.0
 11
333.9628896493108
 21
477.9333191007632
 31
0.0
  0
LINE
  5
539
330
A
100
AcDbEntity
  8
STANDARD
  6
STANDARD
 62
     7
100
AcDbLine
 10
316.3745412606389
 20
483.5519294828432
 30
0.0
 11
316.6185292977483
 21
483.649337777521
 31
0.0
  0
LINE
  5
53A
330
A
100
AcDbEntity
  8
STANDARD
  6
STANDARD
 62
     7
100
AcDbLine
 10
316.8640432137639
 20
483.7440185636538
 30
0.0
 11
317.1107778329045
 21
483.8368492216128
 31
0.0
  0
LINE
  5
53B
330
A
100
AcDbEntity
  8
STANDARD
  6
STANDARD
 62
     7
100
AcDbLine
 10
332.5821218270451
 20
483.7440185636538
 30
0.0
 11
333.0716237801701
 21
483.5519294828432
 31
0.0
  0
LINE
  5
53C
330
A
100
AcDbEntity
  8
STANDARD
  6
STANDARD
 62
     7
100
AcDbLine
 10
317.1107778329045
 20
483.8369064420717
 30
0.0
 11
332.3352346200139
 21
483.8368492216128
 31
0.0
  0
LINE
  5
53D
330
A
100
AcDbEntity
  8
STANDARD
  6
STANDARD
 62
     7
100
AcDbLine
 10
329.4691762704045
 20
477.0684509367007
 30
0.0
 11
329.7119436043889
 21
477.1153526395815
 31
0.0
  0
LINE
  5
53E
330
A
100
AcDbEntity
  8
STANDARD
  6
STANDARD
 62
     7
100
AcDbLine
 10
314.925108887592
 20
478.0858879179018
 30
0.0
 11
315.3930959481389
 21
477.9584388822573
 31
0.0
  0
LINE
  5
53F
330
A
100
AcDbEntity
  8
STANDARD
  6
STANDARD
 62
     7
100
AcDbLine
 10
315.4831228036076
 20
477.9333191007632
 30
0.0
 11
316.0003957528264
 21
477.8340606779116
 31
0.0
  0
LINE
  5
540
330
A
100
AcDbEntity
  8
STANDARD
  6
STANDARD
 62
     7
100
AcDbLine
 10
334.0516958016545
 20
477.9581337064761
 30
0.0
 11
334.5209035653264
 21
478.0858688444155
 31
0.0
  0
ARC
  5
541
330
A
100
AcDbEntity
  8
STANDARD
  6
STANDARD
 62
     7
100
AcDbCircle
 10
130.3218355511833
 20
482.3052878843848
 30
0.0
 40
4.253460103186265
100
AcDbArc
 50
42.4864658155679
 51
68.74719505269678
  0
ARC
  5
542
330
A
100
AcDbEntity
  8
STANDARD
  6
STANDARD
 62
     7
100
AcDbCircle
 10
207.2502267784585
 20
348.3944049070531
 30
0.0
 40
26.86114789432107
100
AcDbArc
 50
250.5091258863457
 51
289.4908741136541
  0
ARC
  5
543
330
A
100
AcDbEntity
  8
STANDARD
  6
STANDARD
 62
     7
100
AcDbCircle
 10
190.7053093776875
 20
345.4336343329744
 30
0.0
 40
2.926256710199743
100
AcDbArc
 50
13.54942706652546
 51
40.25292320461864
  0
ARC
  5
544
330
A
100
AcDbEntity
  8
STANDARD
  6
STANDARD
 62
     7
100
AcDbCircle
 10
133.7081018027592
 20
476.4335638190651
 30
0.0
 40
10.94971093473371
100
AcDbArc
 50
115.9576382406808
 51
125.2117573759214
  0
ARC
  5
545
330
A
100
AcDbEntity
  8
STANDARD
  6
STANDARD
 62
     7
100
AcDbCircle
 10
133.0007847469065
 20
477.371648710186
 30
0.0
 40
9.772519757293364
100
AcDbArc
 50
129.8162018196397
 51
139.7077768492921
  0
ARC
  5
546
330
A
100
AcDbEntity
  8
STANDARD
  6
STANDARD
 62
     7
100
AcDbCircle
 10
186.7527776368504
 20
345.4396817423842
 30
0.0
 40
2.920887457439077
100
AcDbArc
 50
145.5276127766005
 51
173.1057476883477
  0
LINE
  5
547
330
A
100
AcDbEntity
  8
STANDARD
  6
STANDARD
 62
     7
100
AcDbLine
 10
184.5781076378335
 20
347.396008019812
 30
0.0
 11
184.8553598350991
 21
347.679964547522
 31
0.0
  0
LINE
  5
548
330
A
100
AcDbEntity
  8
STANDARD
  6
STANDARD
 62
     7
100
AcDbLine
 10
125.9042489952554
 20
479.78044176615
 30
0.0
 11
218.9717996544351
 21
392.0828404477905
 31
0.0
  0
LINE
  5
549
330
A
100
AcDbEntity
  8
STANDARD
  6
STANDARD
 62
     7
100
AcDbLine
 10
133.1247842735757
 20
485.4927983335327
 30
0.0
 11
133.4584939903726
 21
485.1781430295777
 31
0.0
  0
LINE
  5
54A
330
A
100
AcDbEntity
  8
STANDARD
  6
STANDARD
 62
     7
100
AcDbLine
 10
133.4604776329507
 20
485.1794018796753
 30
0.0
 11
226.1950815147867
 21
397.7977528623414
 31
0.0
  0
LINE
  5
54B
330
A
100
AcDbEntity
  8
STANDARD
  6
STANDARD
 62
     7
100
AcDbLine
 10
223.8105905479898
 20
327.4560227445435
 30
0.0
 11
226.7231119102945
 21
330.5203595212769
 31
0.0
  0
LINE
  5
54C
330
A
100
AcDbEntity
  8
STANDARD
  6
STANDARD
 62
     7
100
AcDbLine
 10
125.546735567521
 20
483.691402917273
 30
0.0
 11
125.7346475548257
 21
483.9064946225953
 31
0.0
  0
LINE
  5
54D
330
A
100
AcDbEntity
  8
STANDARD
  6
STANDARD
 62
     7
100
AcDbLine
 10
234.5001352257241
 20
387.3454060605835
 30
0.0
 11
234.9259317345132
 21
386.9777836850953
 31
0.0
  0
LINE
  5
54E
330
A
100
AcDbEntity
  8
STANDARD
  6
STANDARD
 62
     7
100
AcDbLine
 10
192.286466402482
 20
347.9389824918579
 30
0.0
 11
192.6062143272867
 21
347.679964547522
 31
0.0
  0
LINE
  5
54F
330
A
100
AcDbEntity
  8
STANDARD
  6
STANDARD
 62
     7
100
AcDbLine
 10
125.3650033897866
 20
483.4689679197144
 30
0.0
 11
125.546735567521
 21
483.6914219907593
 31
0.0
  0
LINE
  5
550
330
A
100
AcDbEntity
  8
STANDARD
  6
STANDARD
 62
     7
100
AcDbLine
 10
184.3448007530679
 20
347.0929398588013
 30
0.0
 11
184.5125711388101
 21
347.310844903357
 31
0.0
  0
LINE
  5
551
330
A
100
AcDbEntity
  8
STANDARD
  6
STANDARD
 62
     7
100
AcDbLine
 10
216.8829477257241
 20
333.437611108191
 30
0.0
 11
219.8359811729898
 21
337.2535195401978
 31
0.0
  0
LINE
  5
552
330
A
100
AcDbEntity
  8
STANDARD
  6
STANDARD
 62
     7
100
AcDbLine
 10
230.872663301896
 20
347.317005639441
 30
0.0
 11
231.4494455284585
 21
348.0623402646851
 31
0.0
  0
LINE
  5
553
330
A
100
AcDbEntity
  8
STANDARD
  6
STANDARD
 62
     7
100
AcDbLine
 10
190.6898630089273
 20
327.4560227445435
 30
0.0
 11
194.2388284630288
 21
324.941231255896
 31
0.0
  0
LINE
  5
554
330
A
100
AcDbEntity
  8
STANDARD
  6
STANDARD
 62
     7
100
AcDbLine
 10
226.7231119102945
 20
330.5203595212769
 30
0.0
 11
228.8873422569742
 21
334.0163769773316
 31
0.0
  0
LINE
  5
555
330
A
100
AcDbEntity
  8
STANDARD
  6
STANDARD
 62
     7
100
AcDbLine
 10
184.1561258263101
 20
346.7755856565308
 30
0.0
 11
184.3448007530679
 21
347.0929303220581
 31
0.0
  0
LINE
  5
556
330
A
100
AcDbEntity
  8
STANDARD
  6
STANDARD
 62
     7
100
AcDbLine
 10
197.6175058311929
 20
333.437611108191
 30
0.0
 11
202.0369852013101
 21
330.8878674558472
 31
0.0
  0
LINE
  5
557
330
A
100
AcDbEntity
  8
STANDARD
  6
STANDARD
 62
     7
100
AcDbLine
 10
231.4423501915445
 20
387.9353680661988
 30
0.0
 11
232.269147676896
 21
387.4980320981812
 31
0.0
  0
LINE
  5
558
330
A
100
AcDbEntity
  8
STANDARD
  6
STANDARD
 62
     7
100
AcDbLine
 10
194.2388284630288
 20
324.941231255896
 30
0.0
 11
198.2878244347085
 21
323.0725445798706
 31
0.0
  0
LINE
  5
559
330
A
100
AcDbEntity
  8
STANDARD
  6
STANDARD
 62
     7
100
AcDbLine
 10
131.8636453575601
 20
486.269470696814
 30
0.0
 11
132.2253549522866
 21
486.113163476355
 31
0.0
  0
LINE
  5
55A
330
A
100
AcDbEntity
  8
STANDARD
  6
STANDARD
 62
     7
100
AcDbLine
 10
228.8873422569742
 20
334.0163769773316
 30
0.0
 11
230.2201211876382
 21
337.8098073057007
 31
0.0
  0
LINE
  5
55B
330
A
100
AcDbEntity
  8
STANDARD
  6
STANDARD
 62
     7
100
AcDbLine
 10
131.4763009972085
 20
486.3935627988648
 30
0.0
 11
131.8637216515054
 21
486.2694325498414
 31
0.0
  0
LINE
  5
55C
330
A
100
AcDbEntity
  8
STANDARD
  6
STANDARD
 62
     7
100
AcDbLine
 10
219.8359811729898
 20
337.2535195401978
 30
0.0
 11
220.872892183732
 21
341.7548050931763
 31
0.0
  0
LINE
  5
55D
330
A
100
AcDbEntity
  8
STANDARD
  6
STANDARD
 62
     7
100
AcDbLine
 10
230.6701028770913
 20
346.4377656034302
 30
0.0
 11
230.872663301896
 21
347.317005639441
 31
0.0
  0
LINE
  5
55E
330
A
100
AcDbEntity
  8
STANDARD
  6
STANDARD
 62
     7
100
AcDbLine
 10
202.0369852013101
 20
330.8878674558472
 30
0.0
 11
207.2502267784585
 21
329.9925198606324
 31
0.0
  0
LINE
  5
55F
330
A
100
AcDbEntity
  8
STANDARD
  6
STANDARD
 62
     7
100
AcDbLine
 10
232.269147676896
 20
387.4980320981812
 30
0.0
 11
233.2226694054117
 21
387.3454823545289
 31
0.0
  0
LINE
  5
560
330
A
100
AcDbEntity
  8
STANDARD
  6
STANDARD
 62
     7
100
AcDbLine
 10
220.9175241417398
 20
377.5113263181519
 30
0.0
 11
221.0254037804117
 21
378.3078827909302
 31
0.0
  0
LINE
  5
561
330
A
100
AcDbEntity
  8
STANDARD
  6
STANDARD
 62
     7
100
AcDbLine
 10
220.9175241417398
 20
351.7771973661255
 30
0.0
 11
221.0254037804117
 21
352.573763375647
 31
0.0
  0
LINE
  5
562
330
A
100
AcDbEntity
  8
STANDARD
  6
STANDARD
 62
     7
100
AcDbLine
 10
230.2201211876382
 20
337.8098073057007
 30
0.0
 11
230.6701028770913
 21
341.75478601969
 31
0.0
  0
LINE
  5
563
330
A
100
AcDbEntity
  8
STANDARD
  6
STANDARD
 62
     7
100
AcDbLine
 10
221.0254037804117
 20
378.3078827909302
 30
0.0
 11
221.1335885948648
 21
379.4996609739136
 31
0.0
  0
LINE
  5
564
330
A
100
AcDbEntity
  8
STANDARD
  6
STANDARD
 62
     7
100
AcDbLine
 10
221.0254037804117
 20
352.573763375647
 30
0.0
 11
221.1335885948648
 21
353.7655701688599
 31
0.0
  0
LINE
  5
565
330
A
100
AcDbEntity
  8
STANDARD
  6
STANDARD
 62
     7
100
AcDbLine
 10
221.0254037804117
 20
357.7728142789673
 30
0.0
 11
221.1335885948648
 21
356.5810265592407
 31
0.0
  0
LINE
  5
566
330
A
100
AcDbEntity
  8
STANDARD
  6
STANDARD
 62
     7
100
AcDbLine
 10
221.0254037804117
 20
383.5069241575073
 30
0.0
 11
221.1335885948648
 21
382.3151555112671
 31
0.0
  0
LINE
  5
567
330
A
100
AcDbEntity
  8
STANDARD
  6
STANDARD
 62
     7
100
AcDbLine
 10
183.8302743858804
 20
341.75478601969
 30
0.0
 11
184.2803323692788
 21
337.8098073057007
 31
0.0
  0
LINE
  5
568
330
A
100
AcDbEntity
  8
STANDARD
  6
STANDARD
 62
     7
100
AcDbLine
 10
220.9175241417398
 20
358.569389825232
 30
0.0
 11
221.0254037804117
 21
357.7728142789673
 31
0.0
  0
LINE
  5
569
330
A
100
AcDbEntity
  8
STANDARD
  6
STANDARD
 62
     7
100
AcDbLine
 10
220.9175241417398
 20
384.3034710935425
 30
0.0
 11
221.0254037804117
 21
383.5069241575073
 31
0.0
  0
LINE
  5
56A
330
A
100
AcDbEntity
  8
STANDARD
  6
STANDARD
 62
     7
100
AcDbLine
 10
207.2502267784585
 20
329.9925198606324
 30
0.0
 11
212.4634683556069
 21
330.8878674558472
 31
0.0
  0
LINE
  5
56B
330
A
100
AcDbEntity
  8
STANDARD
  6
STANDARD
 62
     7
100
AcDbLine
 10
232.3126352257241
 20
348.5603585294556
 30
0.0
 11
233.3310068077554
 21
348.7352433255982
 31
0.0
  0
LINE
  5
56C
330
A
100
AcDbEntity
  8
STANDARD
  6
STANDARD
 62
     7
100
AcDbLine
 10
230.3428018517007
 20
390.73108339823
 30
0.0
 11
230.5764139122476
 21
389.4022717527222
 31
0.0
  0
LINE
  5
56D
330
A
100
AcDbEntity
  8
STANDARD
  6
STANDARD
 62
     7
100
AcDbLine
 10
193.6275613731851
 20
341.7548050931763
 30
0.0
 11
194.6644723839273
 21
337.2535195401978
 31
0.0
  0
LINE
  5
56E
330
A
100
AcDbEntity
  8
STANDARD
  6
STANDARD
 62
     7
100
AcDbLine
 10
220.322126192521
 20
390.2528348020386
 30
0.0
 11
220.872892183732
 21
387.8618397764038
 31
0.0
  0
LINE
  5
56F
330
A
100
AcDbEntity
  8
STANDARD
  6
STANDARD
 62
     7
100
AcDbLine
 10
125.0089395470132
 20
481.276794915564
 30
0.0
 11
125.1180398888101
 21
480.9329381040406
 31
0.0
  0
LINE
  5
570
330
A
100
AcDbEntity
  8
STANDARD
  6
STANDARD
 62
     7
100
AcDbLine
 10
184.2803323692788
 20
337.8098073057007
 30
0.0
 11
185.6130350059976
 21
334.0163769773316
 31
0.0
  0
LINE
  5
571
330
A
100
AcDbEntity
  8
STANDARD
  6
STANDARD
 62
     7
100
AcDbLine
 10
229.3735635704507
 20
393.4900059751343
 30
0.0
 11
230.3428018517007
 21
390.73108339823
 31
0.0
  0
LINE
  5
572
330
A
100
AcDbEntity
  8
STANDARD
  6
STANDARD
 62
     7
100
AcDbLine
 10
230.5764139122476
 20
389.4022717527222
 30
0.0
 11
230.8519876427163
 21
388.5995068601441
 31
0.0
  0
LINE
  5
573
330
A
100
AcDbEntity
  8
STANDARD
  6
STANDARD
 62
     7
100
AcDbLine
 10
216.2126291222085
 20
323.0725445798706
 30
0.0
 11
220.2616250938882
 21
324.941231255896
 31
0.0
  0
LINE
  5
574
330
A
100
AcDbEntity
  8
STANDARD
  6
STANDARD
 62
     7
100
AcDbLine
 10
125.1180398888101
 20
480.9330334714722
 30
0.0
 11
125.2671182579507
 21
480.6076016477417
 31
0.0
  0
LINE
  5
575
330
A
100
AcDbEntity
  8
STANDARD
  6
STANDARD
 62
     7
100
AcDbLine
 10
212.4634683556069
 20
330.8878674558472
 30
0.0
 11
216.8829477257241
 21
333.437611108191
 31
0.0
  0
LINE
  5
576
330
A
100
AcDbEntity
  8
STANDARD
  6
STANDARD
 62
     7
100
AcDbLine
 10
231.4494455284585
 20
348.0623402646851
 30
0.0
 11
232.3126352257241
 21
348.5603585294556
 31
0.0
  0
LINE
  5
577
330
A
100
AcDbEntity
  8
STANDARD
  6
STANDARD
 62
     7
100
AcDbLine
 10
185.6130350059976
 20
334.0163769773316
 30
0.0
 11
187.7772653526773
 21
330.5203595212769
 31
0.0
  0
LINE
  5
578
330
A
100
AcDbEntity
  8
STANDARD
  6
STANDARD
 62
     7
100
AcDbLine
 10
227.7994668907632
 20
396.032654290564
 30
0.0
 11
229.3735635704507
 21
393.4900059751343
 31
0.0
  0
LINE
  5
579
330
A
100
AcDbEntity
  8
STANDARD
  6
STANDARD
 62
     7
100
AcDbLine
 10
125.2670419640054
 20
480.6076588682008
 30
0.0
 11
125.4512918419351
 21
480.3061451963257
 31
0.0
  0
LINE
  5
57A
330
A
100
AcDbEntity
  8
STANDARD
  6
STANDARD
 62
     7
100
AcDbLine
 10
220.2616250938882
 20
324.941231255896
 30
0.0
 11
223.8105905479898
 21
327.4560227445435
 31
0.0
  0
LINE
  5
57B
330
A
100
AcDbEntity
  8
STANDARD
  6
STANDARD
 62
     7
100
AcDbLine
 10
127.1696603722085
 20
485.2152600339722
 30
0.0
 11
127.3944986290445
 21
485.3797688535522
 31
0.0
  0
LINE
  5
57C
330
A
100
AcDbEntity
  8
STANDARD
  6
STANDARD
 62
     7
100
AcDbLine
 10
218.9717996544351
 20
392.0828404477905
 30
0.0
 11
220.322126192521
 21
390.2528348020386
 31
0.0
  0
LINE
  5
57D
330
A
100
AcDbEntity
  8
STANDARD
  6
STANDARD
 62
     7
100
AcDbLine
 10
126.9538248009195
 20
485.049816613562
 30
0.0
 11
127.1696603722085
 21
485.2152600339722
 31
0.0
  0
LINE
  5
57E
330
A
100
AcDbEntity
  8
STANDARD
  6
STANDARD
 62
     7
100
AcDbLine
 10
192.9386270470132
 20
347.3244729093384
 30
0.0
 11
193.1167734093179
 21
347.0929303220581
 31
0.0
  0
LINE
  5
57F
330
A
100
AcDbEntity
  8
STANDARD
  6
STANDARD
 62
     7
100
AcDbLine
 10
194.6644723839273
 20
337.2535195401978
 30
0.0
 11
197.6175058311929
 21
333.437611108191
 31
0.0
  0
LINE
  5
580
330
A
100
AcDbEntity
  8
STANDARD
  6
STANDARD
 62
     7
100
AcDbLine
 10
125.4512155479898
 20
480.3061833432984
 30
0.0
 11
125.6654489464273
 21
480.0295033506226
 31
0.0
  0
LINE
  5
581
330
A
100
AcDbEntity
  8
STANDARD
  6
STANDARD
 62
     7
100
AcDbLine
 10
184.8552835411538
 20
347.6797833494019
 30
0.0
 11
185.1751840538492
 21
347.9389824918579
 31
0.0
  0
LINE
  5
582
330
A
100
AcDbEntity
  8
STANDARD
  6
STANDARD
 62
     7
100
AcDbLine
 10
125.2536905235757
 20
483.2723393491577
 30
0.0
 11
129.0660989708413
 21
486.3310017637085
 31
0.0
  0
LINE
  5
583
330
A
100
AcDbEntity
  8
STANDARD
  6
STANDARD
 62
     7
100
AcDbLine
 10
126.7431772179117
 20
484.8779454282593
 30
0.0
 11
126.9538248009195
 21
485.049816613562
 31
0.0
  0
LINE
  5
584
330
A
100
AcDbEntity
  8
STANDARD
  6
STANDARD
 62
     7
100
AcDbLine
 10
234.5001352257241
 20
348.7353196195435
 30
0.0
 11
234.9259317345132
 21
349.1029515317749
 31
0.0
  0
LINE
  5
585
330
A
100
AcDbEntity
  8
STANDARD
  6
STANDARD
 62
     7
100
AcDbLine
 10
126.5346658653726
 20
484.6987309507203
 30
0.0
 11
126.7431772179117
 21
484.8779454282593
 31
0.0
  0
LINE
  5
586
330
A
100
AcDbEntity
  8
STANDARD
  6
STANDARD
 62
     7
100
AcDbLine
 10
230.8519876427163
 20
388.5995068601441
 30
0.0
 11
231.4423501915445
 21
387.9353680661988
 31
0.0
  0
LINE
  5
587
330
A
100
AcDbEntity
  8
STANDARD
  6
STANDARD
 62
     7
100
AcDbLine
 10
226.1950815147867
 20
397.7977528623414
 30
0.0
 11
227.7994668907632
 21
396.032654290564
 31
0.0
  0
LINE
  5
588
330
A
100
AcDbEntity
  8
STANDARD
  6
STANDARD
 62
     7
100
AcDbLine
 10
187.7772653526773
 20
330.5203595212769
 30
0.0
 11
190.6898630089273
 21
327.4560227445435
 31
0.0
  0
LINE
  5
589
330
A
100
AcDbEntity
  8
STANDARD
  6
STANDARD
 62
     7
100
AcDbLine
 10
125.665372652482
 20
480.0295224241089
 30
0.0
 11
125.9042489952554
 21
479.78044176615
 31
0.0
  0
LINE
  5
58A
330
A
100
AcDbEntity
  8
STANDARD
  6
STANDARD
 62
     7
100
AcDbLine
 10
192.6062143272867
 20
347.679964547522
 30
0.0
 11
192.8834665245523
 21
347.396179681189
 31
0.0
  0
LINE
  5
58B
330
A
100
AcDbEntity
  8
STANDARD
  6
STANDARD
 62
     7
100
AcDbLine
 10
193.6275613731851
 20
341.7548050931763
 30
0.0
 11
193.6087167686929
 21
346.1192574552368
 31
0.0
  0
LINE
  5
58C
330
A
100
AcDbEntity
  8
STANDARD
  6
STANDARD
 62
     7
100
AcDbLine
 10
183.8302743858804
 20
341.75478601969
 30
0.0
 11
183.8530099815835
 21
345.7902684263062
 31
0.0
  0
LINE
  5
58D
330
A
100
AcDbEntity
  8
STANDARD
  6
STANDARD
 62
     7
100
AcDbLine
 10
220.872892183732
 20
341.7548050931763
 30
0.0
 11
220.9175241417398
 21
351.7771973661255
 31
0.0
  0
LINE
  5
58E
330
A
100
AcDbEntity
  8
STANDARD
  6
STANDARD
 62
     7
100
AcDbLine
 10
220.872892183732
 20
358.8495984128785
 30
0.0
 11
220.9175241417398
 21
377.5113263181519
 31
0.0
  0
LINE
  5
58F
330
A
100
AcDbEntity
  8
STANDARD
  6
STANDARD
 62
     7
100
AcDbLine
 10
220.872892183732
 20
384.5836987546753
 30
0.0
 11
220.872892183732
 21
387.8618397764038
 31
0.0
  0
LINE
  5
590
330
A
100
AcDbEntity
  8
STANDARD
  6
STANDARD
 62
     7
100
AcDbLine
 10
221.1335885948648
 20
353.7655701688599
 30
0.0
 11
221.1786020225992
 21
356.5810265592407
 31
0.0
  0
LINE
  5
591
330
A
100
AcDbEntity
  8
STANDARD
  6
STANDARD
 62
     7
100
AcDbLine
 10
221.1335885948648
 20
379.4996609739136
 30
0.0
 11
221.1786020225992
 21
382.3151555112671
 31
0.0
  0
LINE
  5
592
330
A
100
AcDbEntity
  8
STANDARD
  6
STANDARD
 62
     7
100
AcDbLine
 10
234.9259317345132
 20
349.1705479673218
 30
0.0
 11
234.9259317345132
 21
386.9101300290894
 31
0.0
  0
LINE
  5
593
330
A
100
AcDbEntity
  8
STANDARD
  6
STANDARD
 62
     7
100
AcDbLine
 10
234.4999063438882
 20
348.8035454801392
 30
0.0
 11
234.4999063438882
 21
384.3355908445191
 31
0.0
  0
LINE
  5
594
330
A
100
AcDbEntity
  8
STANDARD
  6
STANDARD
 62
     7
100
AcDbLine
 10
234.5001352257241
 20
385.1346364072632
 30
0.0
 11
234.4999063438882
 21
387.2771801999878
 31
0.0
  0
LINE
  5
595
330
A
100
AcDbEntity
  8
STANDARD
  6
STANDARD
 62
     7
100
AcDbLine
 10
230.6701028770913
 20
341.75478601969
 30
0.0
 11
230.6701028770913
 21
346.4377656034302
 31
0.0
  0
LINE
  5
596
330
A
100
AcDbEntity
  8
STANDARD
  6
STANDARD
 62
     7
100
AcDbLine
 10
230.7266366905679
 20
351.7451443723511
 30
0.0
 11
230.7267129845132
 21
384.3355717710327
 31
0.0
  0
LINE
  5
597
330
A
100
AcDbEntity
  8
STANDARD
  6
STANDARD
 62
     7
100
AcDbLine
 10
125.291608614396
 20
483.3439984372925
 30
0.0
 11
125.365079683732
 21
483.469006066687
 31
0.0
  0
LINE
  5
598
330
A
100
AcDbEntity
  8
STANDARD
  6
STANDARD
 62
     7
100
AcDbLine
 10
124.9855935997476
 20
482.5286641172241
 30
0.0
 11
125.1631296104898
 21
483.0837788633179
 31
0.0
  0
LINE
  5
599
330
A
100
AcDbEntity
  8
STANDARD
  6
STANDARD
 62
     7
100
AcDbLine
 10
125.108503145646
 20
482.9497304014038
 30
0.0
 11
125.2243173546304
 21
483.216263299353
 31
0.0
  0
LINE
  5
59A
330
A
100
AcDbEntity
  8
STANDARD
  6
STANDARD
 62
     7
100
AcDbLine
 10
124.943708223771
 20
481.3741078428101
 30
0.0
 11
124.9855935997476
 21
482.5286641172241
 31
0.0
  0
LINE
  5
59B
330
A
100
AcDbEntity
  8
STANDARD
  6
STANDARD
 62
     7
100
AcDbLine
 10
186.086515230607
 20
348.4211983732056
 30
0.0
 11
191.2905252403726
 21
348.4523835233521
 31
0.0
  0
LINE
  5
59C
330
A
100
AcDbEntity
  8
STANDARD
  6
STANDARD
 62
     7
100
AcDbLine
 10
191.2906778282632
 20
348.4523358396363
 30
0.0
 11
191.4407480186929
 21
348.3969368985962
 31
0.0
  0
LINE
  5
59D
330
A
100
AcDbEntity
  8
STANDARD
  6
STANDARD
 62
     7
100
AcDbLine
 10
186.630719942521
 20
348.5593857816529
 30
0.0
 11
187.4323184823317
 21
348.647560814676
 31
0.0
  0
LINE
  5
59E
330
A
100
AcDbEntity
  8
STANDARD
  6
STANDARD
 62
     7
100
AcDbLine
 10
190.331108404196
 20
348.6111489384768
 30
0.0
 11
191.1384714073648
 21
348.5018601468873
 31
0.0
  0
LINE
  5
59F
330
A
100
AcDbEntity
  8
STANDARD
  6
STANDARD
 62
     7
100
AcDbLine
 10
185.4439676231851
 20
348.115116601355
 30
0.0
 11
185.8727395958413
 21
348.335539346106
 31
0.0
  0
LINE
  5
5A0
330
A
100
AcDbEntity
  8
STANDARD
  6
STANDARD
 62
     7
100
AcDbLine
 10
191.7345560020913
 20
348.2680668882203
 30
0.0
 11
192.1541727013101
 21
348.0298581174683
 31
0.0
  0
LINE
  5
5A1
330
A
100
AcDbEntity
  8
STANDARD
  6
STANDARD
 62
     7
100
AcDbLine
 10
185.7271707481851
 20
348.2681241086792
 30
0.0
 11
186.1708963341226
 21
348.4523358396363
 31
0.0
  0
LINE
  5
5A2
330
A
100
AcDbEntity
  8
STANDARD
  6
STANDARD
 62
     7
100
AcDbLine
 10
191.4405954308023
 20
348.3969941190552
 30
0.0
 11
191.877530855607
 21
348.1946244291138
 31
0.0
  0
LINE
  5
5A3
330
A
100
AcDbEntity
  8
STANDARD
  6
STANDARD
 62
     7
100
AcDbLine
 10
185.8637369102945
 20
347.5354638151001
 30
0.0
 11
191.7038858360757
 21
347.5969281247925
 31
0.0
  0
LINE
  5
5A4
330
A
100
AcDbEntity
  8
STANDARD
  6
STANDARD
 62
     7
100
AcDbLine
 10
185.1751840538492
 20
347.9389824918579
 30
0.0
 11
185.4439676231851
 21
348.115116601355
 31
0.0
  0
LINE
  5
5A5
330
A
100
AcDbEntity
  8
STANDARD
  6
STANDARD
 62
     7
100
AcDbLine
 10
192.1539438194741
 20
348.0299058011841
 30
0.0
 11
192.286466402482
 21
347.9389824918579
 31
0.0
  0
LINE
  5
5A6
330
A
100
AcDbEntity
  8
STANDARD
  6
STANDARD
 62
     7
100
AcDbLine
 10
187.2438943809976
 20
348.6499276212525
 30
0.0
 11
190.523771089982
 21
348.6087288907837
 31
0.0
  0
LINE
  5
5A7
330
A
100
AcDbEntity
  8
STANDARD
  6
STANDARD
 62
     7
100
AcDbLine
 10
233.3310068077554
 20
348.7352433255982
 30
0.0
 11
234.4999063438882
 21
348.7352433255982
 31
0.0
  0
LINE
  5
5A8
330
A
100
AcDbEntity
  8
STANDARD
  6
STANDARD
 62
     7
100
AcDbLine
 10
233.2226694054117
 20
387.3454823545289
 30
0.0
 11
234.4999063438882
 21
387.3454823545289
 31
0.0
  0
LINE
  5
5A9
330
A
100
AcDbEntity
  8
STANDARD
  6
STANDARD
 62
     7
100
AcDbLine
 10
127.2649515099038
 20
485.2849736265015
 30
0.0
 11
127.3944986290445
 21
485.3797879270386
 31
0.0
  0
LINE
  5
5AA
330
A
100
AcDbEntity
  8
STANDARD
  6
STANDARD
 62
     7
100
AcDbLine
 10
126.6394174522867
 20
484.7887387327027
 30
0.0
 11
126.7431772179117
 21
484.8779454282593
 31
0.0
  0
LINE
  5
5AB
330
A
100
AcDbEntity
  8
STANDARD
  6
STANDARD
 62
     7
100
AcDbLine
 10
128.9152658409585
 20
486.2786259702515
 30
0.0
 11
129.0660989708413
 21
486.3310017637085
 31
0.0
  0
LINE
  5
5AC
330
A
100
AcDbEntity
  8
STANDARD
  6
STANDARD
 62
     7
100
AcDbLine
 10
129.066251558732
 20
486.3310589841675
 30
0.0
 11
129.7007120079507
 21
486.4827122739624
 31
0.0
  0
LINE
  5
5AD
330
A
100
AcDbEntity
  8
STANDARD
  6
STANDARD
 62
     7
100
AcDbLine
 10
131.1624277061929
 20
486.4605298093628
 30
0.0
 11
131.4763772911538
 21
486.3935055784058
 31
0.0
  0
LINE
  5
5AE
330
A
100
AcDbEntity
  8
STANDARD
  6
STANDARD
 62
     7
100
AcDbLine
 10
129.7004831261148
 20
486.4826550535035
 30
0.0
 11
131.0669076866616
 21
486.4808812192749
 31
0.0
  0
LINE
  5
5AF
330
A
100
AcDbEntity
  8
STANDARD
  6
STANDARD
 62
     7
100
AcDbLine
 10
317.8479299325139
 20
290.5654100928566
 30
0.0
 11
318.2145986336858
 21
290.9911303077003
 31
0.0
  0
LINE
  5
5B0
330
A
100
AcDbEntity
  8
STANDARD
  6
STANDARD
 62
     7
100
AcDbLine
 10
314.2247304696232
 20
283.5965685401222
 30
0.0
 11
314.7812185067326
 21
284.2749743018409
 31
0.0
  0
LINE
  5
5B1
330
A
100
AcDbEntity
  8
STANDARD
  6
STANDARD
 62
     7
100
AcDbLine
 10
334.3649587411076
 20
182.0528368506691
 30
0.0
 11
335.0229177254826
 21
182.9064135108253
 31
0.0
  0
LINE
  5
5B2
330
A
100
AcDbEntity
  8
STANDARD
  6
STANDARD
 62
     7
100
AcDbLine
 10
334.521056153217
 20
187.8603319678566
 30
0.0
 11
335.022765137592
 21
187.483745053794
 31
0.0
  0
LINE
  5
5B3
330
A
100
AcDbEntity
  8
STANDARD
  6
STANDARD
 62
     7
100
AcDbLine
 10
334.521056153217
 20
182.1851305518409
 30
0.0
 11
335.0229177254826
 21
182.9064135108253
 31
0.0
  0
LINE
  5
5B4
330
A
100
AcDbEntity
  8
STANDARD
  6
STANDARD
 62
     7
100
AcDbLine
 10
333.9628896493108
 20
284.7370104346534
 30
0.0
 11
334.6647939461858
 21
284.2751268897316
 31
0.0
  0
LINE
  5
5B5
330
A
100
AcDbEntity
  8
STANDARD
  6
STANDARD
 62
     7
100
AcDbLine
 10
315.1782521981389
 20
181.9766954932472
 30
0.0
 11
315.4140004891545
 21
181.8477587256691
 31
0.0
  0
LINE
  5
5B6
330
A
100
AcDbEntity
  8
STANDARD
  6
STANDARD
 62
     7
100
AcDbLine
 10
315.6515798348576
 20
181.7215685401222
 30
0.0
 11
316.1319265145451
 21
181.4772753272316
 31
0.0
  0
LINE
  5
5B7
330
A
100
AcDbEntity
  8
STANDARD
  6
STANDARD
 62
     7
100
AcDbLine
 10
316.1319265145451
 20
181.4772753272316
 30
0.0
 11
316.3745412606389
 21
181.3596300635597
 31
0.0
  0
LINE
  5
5B8
330
A
100
AcDbEntity
  8
STANDARD
  6
STANDARD
 62
     7
100
AcDbLine
 10
316.3745412606389
 20
181.3596300635597
 30
0.0
 11
316.8640432137639
 21
181.1330370459815
 31
0.0
  0
LINE
  5
5B9
330
A
100
AcDbEntity
  8
STANDARD
  6
STANDARD
 62
     7
100
AcDbLine
 10
313.8040456551701
 20
186.4812426123878
 30
0.0
 11
314.0420827645451
 21
187.0148424659035
 31
0.0
  0
LINE
  5
5BA
330
A
100
AcDbEntity
  8
STANDARD
  6
STANDARD
 62
     7
100
AcDbLine
 10
313.8615712899357
 20
282.7597765479347
 30
0.0
 11
314.2247304696232
 21
283.5965685401222
 31
0.0
  0
LINE
  5
5BB
330
A
100
AcDbEntity
  8
STANDARD
  6
STANDARD
 62
     7
100
AcDbLine
 10
333.4347829598576
 20
284.9660448584815
 30
0.0
 11
333.9628896493108
 21
284.7370104346534
 31
0.0
  0
LINE
  5
5BC
330
A
100
AcDbEntity
  8
STANDARD
  6
STANDARD
 62
     7
100
AcDbLine
 10
316.8640432137639
 20
181.1330370459815
 30
0.0
 11
317.1107778329045
 21
181.0243944678566
 31
0.0
  0
LINE
  5
5BD
330
A
100
AcDbEntity
  8
STANDARD
  6
STANDARD
 62
     7
100
AcDbLine
 10
335.0229177254826
 20
182.9064135108253
 30
0.0
 11
335.3197011727483
 21
183.6061815772316
 31
0.0
  0
LINE
  5
5BE
330
A
100
AcDbEntity
  8
STANDARD
  6
STANDARD
 62
     7
100
AcDbLine
 10
317.4235830086857
 20
286.059184506919
 30
0.0
 11
317.6488027352482
 21
286.5819506202003
 31
0.0
  0
LINE
  5
5BF
330
A
100
AcDbEntity
  8
STANDARD
  6
STANDARD
 62
     7
100
AcDbLine
 10
332.902403809467
 20
285.1814989600441
 30
0.0
 11
333.4347829598576
 21
284.9660448584815
 31
0.0
  0
LINE
  5
5C0
330
A
100
AcDbEntity
  8
STANDARD
  6
STANDARD
 62
     7
100
AcDbLine
 10
332.604552246967
 20
285.2953295264503
 30
0.0
 11
332.902403809467
 21
285.1814989600441
 31
0.0
  0
LINE
  5
5C1
330
A
100
AcDbEntity
  8
STANDARD
  6
STANDARD
 62
     7
100
AcDbLine
 10
329.6060476082951
 20
189.1118578467628
 30
0.0
 11
333.9628896493108
 21
188.0524401221535
 31
0.0
  0
LINE
  5
5C2
330
A
100
AcDbEntity
  8
STANDARD
  6
STANDARD
 62
     7
100
AcDbLine
 10
335.4040822762639
 20
183.8050035987159
 30
0.0
 11
335.6421193856389
 21
184.8276476416847
 31
0.0
  0
LINE
  5
5C3
330
A
100
AcDbEntity
  8
STANDARD
  6
STANDARD
 62
     7
100
AcDbLine
 10
313.7230214852483
 20
281.8369249854347
 30
0.0
 11
313.8615712899357
 21
282.7597765479347
 31
0.0
  0
LINE
  5
5C4
330
A
100
AcDbEntity
  8
STANDARD
  6
STANDARD
 62
     7
100
AcDbLine
 10
317.7392873543889
 20
286.792064145591
 30
0.0
 11
317.8479299325139
 21
287.6016954932472
 31
0.0
  0
LINE
  5
5C5
330
A
100
AcDbEntity
  8
STANDARD
  6
STANDARD
 62
     7
100
AcDbLine
 10
324.7230825204045
 20
189.5258287940284
 30
0.0
 11
329.4224843758732
 21
189.1544298682472
 31
0.0
  0
LINE
  5
5C6
330
A
100
AcDbEntity
  8
STANDARD
  6
STANDARD
 62
     7
100
AcDbLine
 10
320.0236806649357
 20
189.1539721045753
 30
0.0
 11
324.7230825204045
 21
189.5253710303565
 31
0.0
  0
LINE
  5
5C7
330
A
100
AcDbEntity
  8
STANDARD
  6
STANDARD
 62
     7
100
AcDbLine
 10
331.5980825204045
 20
287.6016954932472
 30
0.0
 11
331.7067250985295
 21
286.792064145591
 31
0.0
  0
LINE
  5
5C8
330
A
100
AcDbEntity
  8
STANDARD
  6
STANDARD
 62
     7
100
AcDbLine
 10
335.5844411629826
 20
282.7597765479347
 30
0.0
 11
335.7229909676701
 21
281.8369249854347
 31
0.0
  0
LINE
  5
5C9
330
A
100
AcDbEntity
  8
STANDARD
  6
STANDARD
 62
     7
100
AcDbLine
 10
313.8040456551701
 20
184.8276476416847
 30
0.0
 11
314.0420827645451
 21
183.8050035987159
 31
0.0
  0
LINE
  5
5CA
330
A
100
AcDbEntity
  8
STANDARD
  6
STANDARD
 62
     7
100
AcDbLine
 10
315.4832753914983
 20
188.0521349463722
 30
0.0
 11
319.8398122567326
 21
189.1117052588722
 31
0.0
  0
LINE
  5
5CB
330
A
100
AcDbEntity
  8
STANDARD
  6
STANDARD
 62
     7
100
AcDbLine
 10
316.5436086434514
 20
285.1814989600441
 30
0.0
 11
316.8414602059514
 21
285.2953295264503
 31
0.0
  0
LINE
  5
5CC
330
A
100
AcDbEntity
  8
STANDARD
  6
STANDARD
 62
     7
100
AcDbLine
 10
316.0113820809514
 20
284.9660448584815
 30
0.0
 11
316.5436086434514
 21
285.1814989600441
 31
0.0
  0
LINE
  5
5CD
330
A
100
AcDbEntity
  8
STANDARD
  6
STANDARD
 62
     7
100
AcDbLine
 10
315.4831228036076
 20
284.7370104346534
 30
0.0
 11
316.0113820809514
 21
284.9660448584815
 31
0.0
  0
LINE
  5
5CE
330
A
100
AcDbEntity
  8
STANDARD
  6
STANDARD
 62
     7
100
AcDbLine
 10
332.3352346200139
 20
181.0245470557472
 30
0.0
 11
332.5821218270451
 21
181.1330370459815
 31
0.0
  0
LINE
  5
5CF
330
A
100
AcDbEntity
  8
STANDARD
  6
STANDARD
 62
     7
100
AcDbLine
 10
335.2212819832951
 20
283.5965685401222
 30
0.0
 11
335.5844411629826
 21
282.7597765479347
 31
0.0
  0
LINE
  5
5D0
330
A
100
AcDbEntity
  8
STANDARD
  6
STANDARD
 62
     7
100
AcDbLine
 10
314.1264638680608
 20
183.6061815772316
 30
0.0
 11
314.4232473153264
 21
182.9064135108253
 31
0.0
  0
LINE
  5
5D1
330
A
100
AcDbEntity
  8
STANDARD
  6
STANDARD
 62
     7
100
AcDbLine
 10
331.7067250985295
 20
286.792064145591
 30
0.0
 11
332.0224294442326
 21
286.059184506919
 31
0.0
  0
LINE
  5
5D2
330
A
100
AcDbEntity
  8
STANDARD
  6
STANDARD
 62
     7
100
AcDbLine
 10
335.4040822762639
 20
187.0148424659035
 30
0.0
 11
335.6421193856389
 21
186.4812426123878
 31
0.0
  0
LINE
  5
5D3
330
A
100
AcDbEntity
  8
STANDARD
  6
STANDARD
 62
     7
100
AcDbLine
 10
332.5821218270451
 20
181.1330370459815
 30
0.0
 11
332.8274831551701
 21
181.2447313819191
 31
0.0
  0
LINE
  5
5D4
330
A
100
AcDbEntity
  8
STANDARD
  6
STANDARD
 62
     7
100
AcDbLine
 10
332.8274831551701
 20
181.2448839698097
 30
0.0
 11
333.0716237801701
 21
181.3594774756691
 31
0.0
  0
LINE
  5
5D5
330
A
100
AcDbEntity
  8
STANDARD
  6
STANDARD
 62
     7
100
AcDbLine
 10
333.0716237801701
 20
181.3596300635597
 30
0.0
 11
333.3140859383732
 21
181.4772753272316
 31
0.0
  0
LINE
  5
5D6
330
A
100
AcDbEntity
  8
STANDARD
  6
STANDARD
 62
     7
100
AcDbLine
 10
333.3140859383732
 20
181.4772753272316
 30
0.0
 11
333.5551748055607
 21
181.597972348716
 31
0.0
  0
LINE
  5
5D7
330
A
100
AcDbEntity
  8
STANDARD
  6
STANDARD
 62
     7
100
AcDbLine
 10
333.5551748055607
 20
181.597972348716
 30
0.0
 11
333.7944326180608
 21
181.7215685401222
 31
0.0
  0
LINE
  5
5D8
330
A
100
AcDbEntity
  8
STANDARD
  6
STANDARD
 62
     7
100
AcDbLine
 10
333.7944326180608
 20
181.7215685401222
 30
0.0
 11
334.0320119637639
 21
181.8477587256691
 31
0.0
  0
LINE
  5
5D9
330
A
100
AcDbEntity
  8
STANDARD
  6
STANDARD
 62
     7
100
AcDbLine
 10
334.0320119637639
 20
181.8477587256691
 30
0.0
 11
334.2679128426701
 21
181.9766954932472
 31
0.0
  0
LINE
  5
5DA
330
A
100
AcDbEntity
  8
STANDARD
  6
STANDARD
 62
     7
100
AcDbLine
 10
314.7812185067326
 20
284.2749743018409
 30
0.0
 11
315.4831228036076
 21
284.7370104346534
 31
0.0
  0
LINE
  5
5DB
330
A
100
AcDbEntity
  8
STANDARD
  6
STANDARD
 62
     7
100
AcDbLine
 10
314.4232473153264
 20
182.9064135108253
 30
0.0
 11
314.9249562997014
 21
182.1851305518409
 31
0.0
  0
LINE
  5
5DC
330
A
100
AcDbEntity
  8
STANDARD
  6
STANDARD
 62
     7
100
AcDbLine
 10
314.4232473153264
 20
187.483745053794
 30
0.0
 11
314.9249562997014
 21
187.8603319678566
 31
0.0
  0
LINE
  5
5DD
330
A
100
AcDbEntity
  8
STANDARD
  6
STANDARD
 62
     7
100
AcDbLine
 10
314.4232473153264
 20
182.9065660987159
 30
0.0
 11
315.0812062997014
 21
182.0528368506691
 31
0.0
  0
LINE
  5
5DE
330
A
100
AcDbEntity
  8
STANDARD
  6
STANDARD
 62
     7
100
AcDbLine
 10
334.6647939461858
 20
284.2751268897316
 30
0.0
 11
335.2212819832951
 21
283.5965685401222
 31
0.0
  0
LINE
  5
5DF
330
A
100
AcDbEntity
  8
STANDARD
  6
STANDARD
 62
     7
100
AcDbLine
 10
332.0224294442326
 20
286.059184506919
 30
0.0
 11
332.5151357430608
 21
285.4724840674659
 31
0.0
  0
LINE
  5
5E0
330
A
100
AcDbEntity
  8
STANDARD
  6
STANDARD
 62
     7
100
AcDbLine
 10
331.2314138192326
 20
290.9911303077003
 30
0.0
 11
331.5980825204045
 21
290.5654100928566
 31
0.0
  0
LINE
  5
5E1
330
A
100
AcDbEntity
  8
STANDARD
  6
STANDARD
 62
     7
100
AcDbLine
 10
315.4831228036076
 20
284.4792894873878
 30
0.0
 11
316.0113820809514
 21
284.9660448584815
 31
0.0
  0
LINE
  5
5E2
330
A
100
AcDbEntity
  8
STANDARD
  6
STANDARD
 62
     7
100
AcDbLine
 10
317.8479299325139
 20
287.6016954932472
 30
0.0
 11
317.8479299325139
 21
290.5652575049659
 31
0.0
  0
LINE
  5
5E3
330
A
100
AcDbEntity
  8
STANDARD
  6
STANDARD
 62
     7
100
AcDbLine
 10
335.6421193856389
 20
185.9142260108253
 30
0.0
 11
335.7229909676701
 21
281.6287951026222
 31
0.0
  0
LINE
  5
5E4
330
A
100
AcDbEntity
  8
STANDARD
  6
STANDARD
 62
     7
100
AcDbLine
 10
331.5980825204045
 20
287.6016954932472
 30
0.0
 11
331.5980825204045
 21
290.5652575049659
 31
0.0
  0
LINE
  5
5E5
330
A
100
AcDbEntity
  8
STANDARD
  6
STANDARD
 62
     7
100
AcDbLine
 10
335.3197011727483
 20
183.6061815772316
 30
0.0
 11
335.4040822762639
 21
183.8050035987159
 31
0.0
  0
LINE
  5
5E6
330
A
100
AcDbEntity
  8
STANDARD
  6
STANDARD
 62
     7
100
AcDbLine
 10
314.0420827645451
 20
183.6061815772316
 30
0.0
 11
314.1264638680608
 21
183.8050035987159
 31
0.0
  0
LINE
  5
5E7
330
A
100
AcDbEntity
  8
STANDARD
  6
STANDARD
 62
     7
100
AcDbLine
 10
313.7230214852483
 20
184.8276476416847
 30
0.0
 11
313.7230214852483
 21
280.183940366294
 31
0.0
  0
LINE
  5
5E8
330
A
100
AcDbEntity
  8
STANDARD
  6
STANDARD
 62
     7
100
AcDbLine
 10
313.7230214852483
 20
281.0117296729347
 30
0.0
 11
313.7230214852483
 21
281.6287951026222
 31
0.0
  0
LINE
  5
5E9
330
A
100
AcDbEntity
  8
STANDARD
  6
STANDARD
 62
     7
100
AcDbLine
 10
333.9628896493108
 20
188.0524401221535
 30
0.0
 11
333.9628896493108
 21
283.5683397803565
 31
0.0
  0
LINE
  5
5EA
330
A
100
AcDbEntity
  8
STANDARD
  6
STANDARD
 62
     7
100
AcDbLine
 10
333.9628896493108
 20
284.3254808936378
 30
0.0
 11
333.9628896493108
 21
284.7370104346534
 31
0.0
  0
LINE
  5
5EB
330
A
100
AcDbEntity
  8
STANDARD
  6
STANDARD
 62
     7
100
AcDbLine
 10
315.4831228036076
 20
188.0524401221535
 30
0.0
 11
315.4831228036076
 21
280.7871202979347
 31
0.0
  0
LINE
  5
5EC
330
A
100
AcDbEntity
  8
STANDARD
  6
STANDARD
 62
     7
100
AcDbLine
 10
315.4831228036076
 20
282.1729235205909
 30
0.0
 11
315.4831228036076
 21
284.5249132666847
 31
0.0
  0
LINE
  5
5ED
330
A
100
AcDbEntity
  8
STANDARD
  6
STANDARD
 62
     7
100
AcDbLine
 10
317.0799550789983
 20
285.3832201514503
 30
0.0
 11
317.3244008797795
 21
285.4701952491065
 31
0.0
  0
LINE
  5
5EE
330
A
100
AcDbEntity
  8
STANDARD
  6
STANDARD
 62
     7
100
AcDbLine
 10
318.2145986336858
 20
290.9911303077003
 30
0.0
 11
331.2314138192326
 21
290.9911303077003
 31
0.0
  0
LINE
  5
5EF
330
A
100
AcDbEntity
  8
STANDARD
  6
STANDARD
 62
     7
100
AcDbLine
 10
319.7844228524358
 20
189.0982775244972
 30
0.0
 11
319.9768361825139
 21
189.1454271827003
 31
0.0
  0
LINE
  5
5F0
330
A
100
AcDbEntity
  8
STANDARD
  6
STANDARD
 62
     7
100
AcDbLine
 10
315.0419912118108
 20
187.9013781104347
 30
0.0
 11
315.3943166512639
 21
188.0216173682472
 31
0.0
  0
LINE
  5
5F1
330
A
100
AcDbEntity
  8
STANDARD
  6
STANDARD
 62
     7
100
AcDbLine
 10
334.2868337411076
 20
187.9418139014503
 30
0.0
 11
334.5209035653264
 21
187.8603319678566
 31
0.0
  0
LINE
  5
5F2
330
A
100
AcDbEntity
  8
STANDARD
  6
STANDARD
 62
     7
100
AcDbLine
 10
317.1107778329045
 20
181.0243944678566
 30
0.0
 11
319.024229981342
 21
181.0089830909035
 31
0.0
  0
LINE
  5
5F3
330
A
100
AcDbEntity
  8
STANDARD
  6
STANDARD
 62
     7
100
AcDbLine
 10
319.2532644051701
 20
181.0243944678566
 30
0.0
 11
331.3840017098576
 21
180.9912828955909
 31
0.0
  0
LINE
  5
5F4
330
A
100
AcDbEntity
  8
STANDARD
  6
STANDARD
 62
     7
100
AcDbLine
 10
317.8479299325139
 20
290.5654100928566
 30
0.0
 11
331.5980825204045
 21
290.5654100928566
 31
0.0
  0
LINE
  5
5F5
330
A
100
AcDbEntity
  8
STANDARD
  6
STANDARD
 62
     7
100
AcDbLine
 10
234.7134912437906
 20
349.1072430662264
 30
0.0
 11
235.1360071129312
 21
348.7396111539949
 31
0.0
  0
LINE
  5
5F6
330
A
100
AcDbEntity
  8
STANDARD
  6
STANDARD
 62
     7
100
AcDbLine
 10
234.29097537465
 20
387.3451962522615
 30
0.0
 11
234.7134912437906
 21
386.9775738767732
 31
0.0
  0
LINE
  5
5F7
330
A
100
AcDbEntity
  8
STANDARD
  6
STANDARD
 62
     7
100
AcDbLine
 10
234.7134912437906
 20
386.446148400699
 30
0.0
 11
235.1360071129312
 21
386.1584820798982
 31
0.0
  0
LINE
  5
5F8
330
A
100
AcDbEntity
  8
STANDARD
  6
STANDARD
 62
     7
100
AcDbLine
 10
232.0772302574624
 20
387.4977650694002
 30
0.0
 11
233.0234277672281
 21
387.3451962522615
 31
0.0
  0
LINE
  5
5F9
330
A
100
AcDbEntity
  8
STANDARD
  6
STANDARD
 62
     7
100
AcDbLine
 10
232.1204126305093
 20
348.5604157499421
 30
0.0
 11
233.1309259361734
 21
348.735319619571
 31
0.0
  0
LINE
  5
5FA
330
A
100
AcDbEntity
  8
STANDARD
  6
STANDARD
 62
     7
100
AcDbLine
 10
234.7134912437906
 20
386.9732441953767
 30
0.0
 11
235.1360071129312
 21
387.3408856443513
 31
0.0
  0
LINE
  5
5FB
330
A
100
AcDbEntity
  8
STANDARD
  6
STANDARD
 62
     7
100
AcDbLine
 10
234.29097537465
 20
348.735319619571
 30
0.0
 11
234.7134912437906
 21
349.1029515318025
 31
0.0
  0
LINE
  5
5FC
330
A
100
AcDbEntity
  8
STANDARD
  6
STANDARD
 62
     7
100
AcDbLine
 10
235.1360071129312
 20
348.8078942350496
 30
0.0
 11
235.1360071129312
 21
387.2725834898103
 31
0.0
  0
LINE
  5
5FD
330
A
100
AcDbEntity
  8
STANDARD
  6
STANDARD
 62
     7
100
AcDbLine
 10
234.7134912437906
 20
349.1705575040926
 30
0.0
 11
234.7134912437906
 21
386.9099202207674
 31
0.0
  0
LINE
  5
5FE
330
A
100
AcDbEntity
  8
STANDARD
  6
STANDARD
 62
     7
100
AcDbLine
 10
234.29097537465
 20
348.8036217741121
 30
0.0
 11
234.29097537465
 21
384.335495477115
 31
0.0
  0
LINE
  5
5FF
330
A
100
AcDbEntity
  8
STANDARD
  6
STANDARD
 62
     7
100
AcDbLine
 10
234.29097537465
 20
385.1348080686678
 30
0.0
 11
234.29097537465
 21
387.2769131712068
 31
0.0
  0
LINE
  5
600
330
A
100
AcDbEntity
  8
STANDARD
  6
STANDARD
 62
     7
100
AcDbLine
 10
235.1360071129312
 20
384.3311848692049
 30
0.0
 11
250.5576074547281
 21
384.3311848692049
 31
0.0
  0
LINE
  5
601
330
A
100
AcDbEntity
  8
STANDARD
  6
STANDARD
 62
     7
100
AcDbLine
 10
235.1360071129312
 20
351.7492833189119
 30
0.0
 11
250.5576074547281
 21
351.7492833189119
 31
0.0
  0
LINE
  5
602
330
A
100
AcDbEntity
  8
STANDARD
  6
STANDARD
 62
     7
100
AcDbLine
 10
233.0234277672281
 20
387.3451962522615
 30
0.0
 11
234.29097537465
 21
387.3451962522615
 31
0.0
  0
LINE
  5
603
330
A
100
AcDbEntity
  8
STANDARD
  6
STANDARD
 62
     7
100
AcDbLine
 10
235.1360071129312
 20
387.3408856443513
 30
0.0
 11
250.5576074547281
 21
387.3408856443513
 31
0.0
  0
LINE
  5
604
330
A
100
AcDbEntity
  8
STANDARD
  6
STANDARD
 62
     7
100
AcDbLine
 10
233.1309259361734
 20
348.735319619571
 30
0.0
 11
234.29097537465
 21
348.735319619571
 31
0.0
  0
LINE
  5
605
330
A
100
AcDbEntity
  8
STANDARD
  6
STANDARD
 62
     7
100
AcDbLine
 10
235.1360071129312
 20
348.7396111539949
 30
0.0
 11
250.5576074547281
 21
348.7396111539949
 31
0.0
  0
LINE
  5
606
330
A
100
AcDbEntity
  8
0
  6
CONTINUOUS
100
AcDbLine
 10
250.5576074547281
 20
387.3408856443513
 30
0.0
 11
250.5576074547281
 21
348.739611153995
 31
0.0
  0
LINE
  5
607
330
A
100
AcDbEntity
  8
0
  6
CONTINUOUS
100
AcDbLine
 10
399.5726507328793
 20
387.3408856443513
 30
0.0
 11
399.5726507328793
 21
348.739611153995
 31
0.0
  0
LINE
  5
608
330
A
100
AcDbEntity
  8
STANDARD
  6
STANDARD
 62
     7
100
AcDbLine
 10
414.9942510746761
 20
348.7396111539949
 30
0.0
 11
399.5726507328793
 21
348.7396111539949
 31
0.0
  0
LINE
  5
609
330
A
100
AcDbEntity
  8
STANDARD
  6
STANDARD
 62
     7
100
AcDbLine
 10
416.999332251434
 20
348.735319619571
 30
0.0
 11
415.8392828129574
 21
348.735319619571
 31
0.0
  0
LINE
  5
60A
330
A
100
AcDbEntity
  8
STANDARD
  6
STANDARD
 62
     7
100
AcDbLine
 10
414.9942510746761
 20
387.3408856443513
 30
0.0
 11
399.5726507328793
 21
387.3408856443513
 31
0.0
  0
LINE
  5
60B
330
A
100
AcDbEntity
  8
STANDARD
  6
STANDARD
 62
     7
100
AcDbLine
 10
417.1068304203792
 20
387.3451962522615
 30
0.0
 11
415.8392828129574
 21
387.3451962522615
 31
0.0
  0
LINE
  5
60C
330
A
100
AcDbEntity
  8
STANDARD
  6
STANDARD
 62
     7
100
AcDbLine
 10
414.9942510746761
 20
351.7492833189119
 30
0.0
 11
399.5726507328793
 21
351.7492833189119
 31
0.0
  0
LINE
  5
60D
330
A
100
AcDbEntity
  8
STANDARD
  6
STANDARD
 62
     7
100
AcDbLine
 10
414.9942510746761
 20
384.3311848692049
 30
0.0
 11
399.5726507328793
 21
384.3311848692049
 31
0.0
  0
LINE
  5
60E
330
A
100
AcDbEntity
  8
STANDARD
  6
STANDARD
 62
     7
100
AcDbLine
 10
415.8392828129574
 20
385.1348080686678
 30
0.0
 11
415.8392828129574
 21
387.2769131712068
 31
0.0
  0
LINE
  5
60F
330
A
100
AcDbEntity
  8
STANDARD
  6
STANDARD
 62
     7
100
AcDbLine
 10
415.8392828129574
 20
348.8036217741121
 30
0.0
 11
415.8392828129574
 21
384.335495477115
 31
0.0
  0
LINE
  5
610
330
A
100
AcDbEntity
  8
STANDARD
  6
STANDARD
 62
     7
100
AcDbLine
 10
415.4167669438168
 20
349.1705575040926
 30
0.0
 11
415.4167669438168
 21
386.9099202207674
 31
0.0
  0
LINE
  5
611
330
A
100
AcDbEntity
  8
STANDARD
  6
STANDARD
 62
     7
100
AcDbLine
 10
414.9942510746761
 20
348.8078942350496
 30
0.0
 11
414.9942510746761
 21
387.2725834898103
 31
0.0
  0
LINE
  5
612
330
A
100
AcDbEntity
  8
STANDARD
  6
STANDARD
 62
     7
100
AcDbLine
 10
415.8392828129574
 20
348.735319619571
 30
0.0
 11
415.4167669438168
 21
349.1029515318025
 31
0.0
  0
LINE
  5
613
330
A
100
AcDbEntity
  8
STANDARD
  6
STANDARD
 62
     7
100
AcDbLine
 10
415.4167669438168
 20
386.9732441953767
 30
0.0
 11
414.9942510746761
 21
387.3408856443513
 31
0.0
  0
LINE
  5
614
330
A
100
AcDbEntity
  8
STANDARD
  6
STANDARD
 62
     7
100
AcDbLine
 10
418.0098455570981
 20
348.5604157499421
 30
0.0
 11
416.999332251434
 21
348.735319619571
 31
0.0
  0
LINE
  5
615
330
A
100
AcDbEntity
  8
STANDARD
  6
STANDARD
 62
     7
100
AcDbLine
 10
418.0530279301449
 20
387.4977650694002
 30
0.0
 11
417.1068304203792
 21
387.3451962522615
 31
0.0
  0
LINE
  5
616
330
A
100
AcDbEntity
  8
STANDARD
  6
STANDARD
 62
     7
100
AcDbLine
 10
415.4167669438168
 20
386.446148400699
 30
0.0
 11
414.9942510746761
 21
386.1584820798982
 31
0.0
  0
LINE
  5
617
330
A
100
AcDbEntity
  8
STANDARD
  6
STANDARD
 62
     7
100
AcDbLine
 10
415.8392828129574
 20
387.3451962522615
 30
0.0
 11
415.4167669438168
 21
386.9775738767732
 31
0.0
  0
LINE
  5
618
330
A
100
AcDbEntity
  8
STANDARD
  6
STANDARD
 62
     7
100
AcDbLine
 10
415.4167669438168
 20
349.1072430662264
 30
0.0
 11
414.9942510746761
 21
348.7396111539949
 31
0.0
  0
LINE
  5
619
330
A
100
AcDbEntity
  8
STANDARD
  6
STANDARD
 62
     7
100
AcDbLine
 10
416.9075887821957
 20
387.3454823545289
 30
0.0
 11
415.6303518437191
 21
387.3454823545289
 31
0.0
  0
LINE
  5
61A
330
A
100
AcDbEntity
  8
STANDARD
  6
STANDARD
 62
     7
100
AcDbLine
 10
416.799251379852
 20
348.7352433255982
 30
0.0
 11
415.6303518437191
 21
348.7352433255982
 31
0.0
  0
LINE
  5
61B
330
A
100
AcDbEntity
  8
STANDARD
  6
STANDARD
 62
     7
100
AcDbLine
 10
415.6301229618832
 20
385.1346364072632
 30
0.0
 11
415.6303518437191
 21
387.2771801999878
 31
0.0
  0
LINE
  5
61C
330
A
100
AcDbEntity
  8
STANDARD
  6
STANDARD
 62
     7
100
AcDbLine
 10
415.6303518437191
 20
348.8035454801392
 30
0.0
 11
415.6303518437191
 21
384.3355908445191
 31
0.0
  0
LINE
  5
61D
330
A
100
AcDbEntity
  8
STANDARD
  6
STANDARD
 62
     7
100
AcDbLine
 10
415.2043264530941
 20
349.1705479673218
 30
0.0
 11
415.2043264530941
 21
386.9101300290894
 31
0.0
  0
LINE
  5
61E
330
A
100
AcDbEntity
  8
STANDARD
  6
STANDARD
 62
     7
100
AcDbLine
 10
415.6301229618832
 20
348.7353196195435
 30
0.0
 11
415.2043264530941
 21
349.1029515317749
 31
0.0
  0
LINE
  5
61F
330
A
100
AcDbEntity
  8
STANDARD
  6
STANDARD
 62
     7
100
AcDbLine
 10
417.8176229618832
 20
348.5603585294556
 30
0.0
 11
416.799251379852
 21
348.7352433255982
 31
0.0
  0
LINE
  5
620
330
A
100
AcDbEntity
  8
STANDARD
  6
STANDARD
 62
     7
100
AcDbLine
 10
417.8611105107113
 20
387.4980320981812
 30
0.0
 11
416.9075887821957
 21
387.3454823545289
 31
0.0
  0
LINE
  5
621
330
A
100
AcDbEntity
  8
STANDARD
  6
STANDARD
 62
     7
100
AcDbLine
 10
415.6301229618832
 20
387.3454060605835
 30
0.0
 11
415.2043264530941
 21
386.9777836850953
 31
0.0
  0
ENDSEC
  0
SECTION
  2
OBJECTS
  0
DICTIONARY
  5
19
330
0
100
AcDbDictionary
  3
ACAD_COLOR
350
290
  3
ACAD_GROUP
350
1A
  3
ACAD_LAYOUT
350
291
  3
ACAD_MATERIAL
350
28F
  3
ACAD_MLINESTYLE
350
1B
  3
ACAD_PLOTSETTINGS
350
292
  3
ACAD_PLOTSTYLENAME
350
28D
  3
ACDBVARIABLEDICTIONARY
350
62A
  3
ACDBHEADERROUNDTRIPXREC
350
649
  0
DICTIONARY
  5
669
330
A
100
AcDbDictionary
280
     1
  3
ACAD_LAYOUTSELFREF
360
66A
  0
DICTIONARY
  5
66B
330
B
100
AcDbDictionary
280
     1
  3
ACAD_LAYOUTSELFREF
360
66C
  0
DICTIONARY
  5
290
102
{ACAD_REACTORS
330
19
102
}
330
19
100
AcDbDictionary
  0
DICTIONARY
  5
1A
102
{ACAD_REACTORS
330
19
102
}
330
19
100
AcDbDictionary
  0
DICTIONARY
  5
291
102
{ACAD_REACTORS
330
19
102
}
330
19
100
AcDbDictionary
  0
DICTIONARY
  5
28F
102
{ACAD_REACTORS
330
19
102
}
330
19
100
AcDbDictionary
  0
DICTIONARY
  5
1B
102
{ACAD_REACTORS
330
19
102
}
330
19
100
AcDbDictionary
  3
STANDARD
350
1C
  0
DICTIONARY
  5
292
102
{ACAD_REACTORS
330
19
102
}
330
19
100
AcDbDictionary
  0
ACDBDICTIONARYWDFLT
  5
28D
102
{ACAD_REACTORS
330
19
102
}
330
19
100
AcDbDictionary
281
     1
  3
Normal
350
28E
100
AcDbDictionaryWithDefault
340
28E
  0
DICTIONARY
  5
62A
102
{ACAD_REACTORS
330
19
102
}
330
19
100
AcDbDictionary
  3
DIMASSOC
350
62B
  3
PROJECTNAME
350
62C
  0
DICTIONARY
  5
649
102
{ACAD_REACTORS
330
19
102
}
330
19
100
AcDbDictionary
  3
TSTACKALIGN
350
64A
  3
TSTACKSIZE
350
64B
  3
HYPERLINKBASE
350
64C
  3
STYLESHEET
350
64D
  3
LAYOUTDICT
350
64E
  3
PLOTSETDICT
350
64F
  3
PLOTSTYLNAMDICT
350
650
  3
LWETCUNION
350
651
  3
INSUNITS
350
652
  3
CEPSNTYPE
350
653
  3
FINGERPRINTGUID
350
654
  3
VERSIONGUID
350
655
  3
PSVPSCALE
350
656
  3
PUCSORTHOREF
350
657
  3
PUCSORTHOVIEW
350
658
  3
PUCSBASE
350
659
  3
PUCSORGTOP
350
65A
  3
PUCSORGBOTTOM
350
65B
  3
PUCSORGLEFT
350
65C
  3
PUCSORGRIGHT
350
65D
  3
PUCSORGFRONT
350
65E
  3
PUCSORGBACK
350
65F
  3
UCSORTHOREF
350
660
  3
UCSORTHOVIEW
350
661
  3
UCSBASE
350
662
  3
UCSORGTOP
350
663
  3
UCSORGBOTTOM
350
664
  3
UCSORGLEFT
350
665
  3
UCSORGRIGHT
350
666
  3
UCSORGFRONT
350
667
  3
UCSORGBACK
350
668
  0
XRECORD
  5
66A
102
{ACAD_REACTORS
330
669
102
}
330
669
100
AcDbXrecord
340
A
  0
XRECORD
  5
66C
102
{ACAD_REACTORS
330
66B
102
}
330
66B
100
AcDbXrecord
340
B
  0
MLINESTYLE
  5
1C
102
{ACAD_REACTORS
330
1B
102
}
330
1B
100
AcDbMlineStyle
  2
STANDARD
 70
     0
  3

 62
     0
 51
90.00000000000019
 52
90.00000000000019
 71
     2
 49
0.5
 62
   256
  6
BYLAYER
 49
-0.5
 62
   256
  6
BYLAYER
  0
ACDBPLACEHOLDER
  5
28E
102
{ACAD_REACTORS
330
28D
102
}
330
28D
100
AcDbPlaceHolder
280
     0
  0
DICTIONARYVAR
  5
62B
102
{ACAD_REACTORS
330
62A
102
}
330
62A
100
DictionaryVariables
280
     0
  1
1
  0
DICTIONARYVAR
  5
62C
102
{ACAD_REACTORS
330
62A
102
}
330
62A
100
DictionaryVariables
280
     0
  1

  0
XRECORD
  5
64A
102
{ACAD_REACTORS
330
649
102
}
330
649
100
AcDbXrecord
 90
        1
  0
XRECORD
  5
64B
102
{ACAD_REACTORS
330
649
102
}
330
649
100
AcDbXrecord
 90
       70
  0
XRECORD
  5
64C
102
{ACAD_REACTORS
330
649
102
}
330
649
100
AcDbXrecord
  1

  0
XRECORD
  5
64D
102
{ACAD_REACTORS
330
649
102
}
330
649
100
AcDbXrecord
  1

  0
XRECORD
  5
64E
102
{ACAD_REACTORS
330
649
102
}
330
649
100
AcDbXrecord
340
291
  0
XRECORD
  5
64F
102
{ACAD_REACTORS
330
649
102
}
330
649
100
AcDbXrecord
340
292
  0
XRECORD
  5
650
102
{ACAD_REACTORS
330
649
102
}
330
649
100
AcDbXrecord
340
28D
  0
XRECORD
  5
651
102
{ACAD_REACTORS
330
649
102
}
330
649
100
AcDbXrecord
 90
    14877
  0
XRECORD
  5
652
102
{ACAD_REACTORS
330
649
102
}
330
649
100
AcDbXrecord
 90
        0
  0
XRECORD
  5
653
102
{ACAD_REACTORS
330
649
102
}
330
649
100
AcDbXrecord
 90
        0
  0
XRECORD
  5
654
102
{ACAD_REACTORS
330
649
102
}
330
649
100
AcDbXrecord
  1
{06C76C5F-4C4A-41F4-8F83-7A86CF58D243}
  0
XRECORD
  5
655
102
{ACAD_REACTORS
330
649
102
}
330
649
100
AcDbXrecord
  1
{8D14F046-8B6A-4569-A46D-93C1963B29C2}
  0
XRECORD
  5
656
102
{ACAD_REACTORS
330
649
102
}
330
649
100
AcDbXrecord
 40
0.0
  0
XRECORD
  5
657
102
{ACAD_REACTORS
330
649
102
}
330
649
100
AcDbXrecord
340
0
  0
XRECORD
  5
658
102
{ACAD_REACTORS
330
649
102
}
330
649
100
AcDbXrecord
 70
     0
  0
XRECORD
  5
659
102
{ACAD_REACTORS
330
649
102
}
330
649
100
AcDbXrecord
340
0
  0
XRECORD
  5
65A
102
{ACAD_REACTORS
330
649
102
}
330
649
100
AcDbXrecord
 10
0.0
 20
0.0
 30
0.0
  0
XRECORD
  5
65B
102
{ACAD_REACTORS
330
649
102
}
330
649
100
AcDbXrecord
 10
0.0
 20
0.0
 30
0.0
  0
XRECORD
  5
65C
102
{ACAD_REACTORS
330
649
102
}
330
649
100
AcDbXrecord
 10
0.0
 20
0.0
 30
0.0
  0
XRECORD
  5
65D
102
{ACAD_REACTORS
330
649
102
}
330
649
100
AcDbXrecord
 10
0.0
 20
0.0
 30
0.0
  0
XRECORD
  5
65E
102
{ACAD_REACTORS
330
649
102
}
330
649
100
AcDbXrecord
 10
0.0
 20
0.0
 30
0.0
  0
XRECORD
  5
65F
102
{ACAD_REACTORS
330
649
102
}
330
649
100
AcDbXrecord
 10
0.0
 20
0.0
 30
0.0
  0
XRECORD
  5
660
102
{ACAD_REACTORS
330
649
102
}
330
649
100
AcDbXrecord
340
0
  0
XRECORD
  5
661
102
{ACAD_REACTORS
330
649
102
}
330
649
100
AcDbXrecord
 70
     0
  0
XRECORD
  5
662
102
{ACAD_REACTORS
330
649
102
}
330
649
100
AcDbXrecord
340
0
  0
XRECORD
  5
663
102
{ACAD_REACTORS
330
649
102
}
330
649
100
AcDbXrecord
 10
0.0
 20
0.0
 30
0.0
  0
XRECORD
  5
664
102
{ACAD_REACTORS
330
649
102
}
330
649
100
AcDbXrecord
 10
0.0
 20
0.0
 30
0.0
  0
XRECORD
  5
665
102
{ACAD_REACTORS
330
649
102
}
330
649
100
AcDbXrecord
 10
0.0
 20
0.0
 30
0.0
  0
XRECORD
  5
666
102
{ACAD_REACTORS
330
649
102
}
330
649
100
AcDbXrecord
 10
0.0
 20
0.0
 30
0.0
  0
XRECORD
  5
667
102
{ACAD_REACTORS
330
649
102
}
330
649
100
AcDbXrecord
 10
0.0
 20
0.0
 30
0.0
  0
XRECORD
  5
668
102
{ACAD_REACTORS
330
649
102
}
330
649
100
AcDbXrecord
 10
0.0
 20
0.0
 30
0.0
  0
ENDSEC
  0
EOF
