  0
SECTION
  2
HEADER
  9
$ACADVER
  1
AC1027
  9
$ACADMAINTVER
 70
   125
  9
$DWGCODEPAGE
  3
ANSI_1252
  9
$LASTSAVEDBY
  1
kaschu
  9
$REQUIREDVERSIONS
160
                 0
  9
$INSBASE
 10
0.0
 20
0.0
 30
0.0
  9
$EXTMIN
 10
35.91376683618364
 20
12.18303400268149
 30
0.0
  9
$EXTMAX
 10
685.580262469486
 20
449.8602207873735
 30
0.0
  9
$LIMMIN
 10
-0.5
 20
-0.5
  9
$LIMMAX
 10
5.0
 20
5.0
  9
$ORTHOMODE
 70
     1
  9
$REGENMODE
 70
     1
  9
$FILLMODE
 70
     1
  9
$QTEXTMODE
 70
     0
  9
$MIRRTEXT
 70
     1
  9
$LTSCALE
 40
1.0
  9
$ATTMODE
 70
     1
  9
$TEXTSIZE
 40
0.2
  9
$TRACEWID
 40
0.05
  9
$TEXTSTYLE
  7
Standard
  9
$CLAYER
  8
0
  9
$CELTYPE
  6
ByLayer
  9
$CECOLOR
 62
   256
  9
$CELTSCALE
 40
1.0
  9
$DISPSILH
 70
     0
  9
$DIMSCALE
 40
1.0
  9
$DIMASZ
 40
0.18
  9
$DIMEXO
 40
0.0625
  9
$DIMDLI
 40
0.38
  9
$DIMRND
 40
0.0
  9
$DIMDLE
 40
0.0
  9
$DIMEXE
 40
0.18
  9
$DIMTP
 40
0.0
  9
$DIMTM
 40
0.0
  9
$DIMTXT
 40
0.18
  9
$DIMCEN
 40
0.09
  9
$DIMTSZ
 40
0.0
  9
$DIMTOL
 70
     0
  9
$DIMLIM
 70
     0
  9
$DIMTIH
 70
     1
  9
$DIMTOH
 70
     1
  9
$DIMSE1
 70
     0
  9
$DIMSE2
 70
     0
  9
$DIMTAD
 70
     0
  9
$DIMZIN
 70
     0
  9
$DIMBLK
  1

  9
$DIMASO
 70
     1
  9
$DIMSHO
 70
     1
  9
$DIMPOST
  1

  9
$DIMAPOST
  1

  9
$DIMALT
 70
     0
  9
$DIMALTD
 70
     2
  9
$DIMALTF
 40
25.4
  9
$DIMLFAC
 40
1.0
  9
$DIMTOFL
 70
     0
  9
$DIMTVP
 40
0.0
  9
$DIMTIX
 70
     0
  9
$DIMSOXD
 70
     0
  9
$DIMSAH
 70
     0
  9
$DIMBLK1
  1

  9
$DIMBLK2
  1

  9
$DIMSTYLE
  2
Standard
  9
$DIMCLRD
 70
     0
  9
$DIMCLRE
 70
     0
  9
$DIMCLRT
 70
     0
  9
$DIMTFAC
 40
1.0
  9
$DIMGAP
 40
0.09
  9
$DIMJUST
 70
     0
  9
$DIMSD1
 70
     0
  9
$DIMSD2
 70
     0
  9
$DIMTOLJ
 70
     1
  9
$DIMTZIN
 70
     0
  9
$DIMALTZ
 70
     0
  9
$DIMALTTZ
 70
     0
  9
$DIMUPT
 70
     0
  9
$DIMDEC
 70
     4
  9
$DIMTDEC
 70
     4
  9
$DIMALTU
 70
     2
  9
$DIMALTTD
 70
     2
  9
$DIMTXSTY
  7
Standard
  9
$DIMAUNIT
 70
     0
  9
$DIMADEC
 70
     0
  9
$DIMALTRND
 40
0.0
  9
$DIMAZIN
 70
     0
  9
$DIMDSEP
 70
    46
  9
$DIMATFIT
 70
     3
  9
$DIMFRAC
 70
     0
  9
$DIMLDRBLK
  1

  9
$DIMLUNIT
 70
     2
  9
$DIMLWD
 70
    -2
  9
$DIMLWE
 70
    -2
  9
$DIMTMOVE
 70
     0
  9
$DIMFXL
 40
1.0
  9
$DIMFXLON
 70
     0
  9
$DIMJOGANG
 40
0.7853981633974483
  9
$DIMTFILL
 70
     0
  9
$DIMTFILLCLR
 70
     0
  9
$DIMARCSYM
 70
     0
  9
$DIMLTYPE
  6

  9
$DIMLTEX1
  6

  9
$DIMLTEX2
  6

  9
$DIMTXTDIRECTION
 70
     0
  9
$LUNITS
 70
     2
  9
$LUPREC
 70
     4
  9
$SKETCHINC
 40
0.1
  9
$FILLETRAD
 40
0.5
  9
$AUNITS
 70
     0
  9
$AUPREC
 70
     0
  9
$MENU
  1
.
  9
$ELEVATION
 40
0.0
  9
$PELEVATION
 40
0.0
  9
$THICKNESS
 40
0.0
  9
$LIMCHECK
 70
     0
  9
$CHAMFERA
 40
0.5
  9
$CHAMFERB
 40
0.5
  9
$CHAMFERC
 40
1.0
  9
$CHAMFERD
 40
0.0
  9
$SKPOLY
 70
     0
  9
$TDCREATE
 40
2454358.331145833
  9
$TDUCREATE
 40
2454358.247814502
  9
$TDUPDATE
 40
2459530.593599537
  9
$TDUUPDATE
 40
2459530.551932870
  9
$TDINDWG
 40
0.0293510995
  9
$TDUSRTIMER
 40
0.0293500116
  9
$USRTIMER
 70
     1
  9
$ANGBASE
 50
0.0
  9
$ANGDIR
 70
     0
  9
$PDMODE
 70
     0
  9
$PDSIZE
 40
0.0
  9
$PLINEWID
 40
0.0
  9
$SPLFRAME
 70
     0
  9
$SPLINETYPE
 70
     6
  9
$SPLINESEGS
 70
     8
  9
$HANDSEED
  5
D81
  9
$SURFTAB1
 70
     6
  9
$SURFTAB2
 70
     6
  9
$SURFTYPE
 70
     6
  9
$SURFU
 70
     6
  9
$SURFV
 70
     6
  9
$UCSBASE
  2

  9
$UCSNAME
  2

  9
$UCSORG
 10
0.0
 20
0.0
 30
0.0
  9
$UCSXDIR
 10
1.0
 20
0.0
 30
0.0
  9
$UCSYDIR
 10
0.0
 20
1.0
 30
0.0
  9
$UCSORTHOREF
  2

  9
$UCSORTHOVIEW
 70
     0
  9
$UCSORGTOP
 10
0.0
 20
0.0
 30
0.0
  9
$UCSORGBOTTOM
 10
0.0
 20
0.0
 30
0.0
  9
$UCSORGLEFT
 10
0.0
 20
0.0
 30
0.0
  9
$UCSORGRIGHT
 10
0.0
 20
0.0
 30
0.0
  9
$UCSORGFRONT
 10
0.0
 20
0.0
 30
0.0
  9
$UCSORGBACK
 10
0.0
 20
0.0
 30
0.0
  9
$PUCSBASE
  2

  9
$PUCSNAME
  2

  9
$PUCSORG
 10
0.0
 20
0.0
 30
0.0
  9
$PUCSXDIR
 10
1.0
 20
0.0
 30
0.0
  9
$PUCSYDIR
 10
0.0
 20
1.0
 30
0.0
  9
$PUCSORTHOREF
  2

  9
$PUCSORTHOVIEW
 70
     0
  9
$PUCSORGTOP
 10
0.0
 20
0.0
 30
0.0
  9
$PUCSORGBOTTOM
 10
0.0
 20
0.0
 30
0.0
  9
$PUCSORGLEFT
 10
0.0
 20
0.0
 30
0.0
  9
$PUCSORGRIGHT
 10
0.0
 20
0.0
 30
0.0
  9
$PUCSORGFRONT
 10
0.0
 20
0.0
 30
0.0
  9
$PUCSORGBACK
 10
0.0
 20
0.0
 30
0.0
  9
$USERI1
 70
     0
  9
$USERI2
 70
     0
  9
$USERI3
 70
     0
  9
$USERI4
 70
     0
  9
$USERI5
 70
     0
  9
$USERR1
 40
0.0
  9
$USERR2
 40
0.0
  9
$USERR3
 40
0.0
  9
$USERR4
 40
0.0
  9
$USERR5
 40
0.0
  9
$WORLDVIEW
 70
     1
  9
$SHADEDGE
 70
     3
  9
$SHADEDIF
 70
    70
  9
$TILEMODE
 70
     1
  9
$MAXACTVP
 70
    64
  9
$PINSBASE
 10
0.0
 20
0.0
 30
0.0
  9
$PLIMCHECK
 70
     0
  9
$PEXTMIN
 10
-0.5
 20
-0.5
 30
-0.5
  9
$PEXTMAX
 10
5.0
 20
5.0
 30
5.0
  9
$PLIMMIN
 10
-0.5
 20
-0.5
  9
$PLIMMAX
 10
5.0
 20
5.0
  9
$UNITMODE
 70
     0
  9
$VISRETAIN
 70
     1
  9
$PLINEGEN
 70
     0
  9
$PSLTSCALE
 70
     1
  9
$TREEDEPTH
 70
  3020
  9
$CMLSTYLE
  2
Standard
  9
$CMLJUST
 70
     0
  9
$CMLSCALE
 40
1.0
  9
$PROXYGRAPHICS
 70
     1
  9
$MEASUREMENT
 70
     1
  9
$CELWEIGHT
370
    -1
  9
$ENDCAPS
280
     0
  9
$JOINSTYLE
280
     0
  9
$LWDISPLAY
290
     0
  9
$INSUNITS
 70
     1
  9
$HYPERLINKBASE
  1

  9
$STYLESHEET
  1

  9
$XEDIT
290
     1
  9
$CEPSNTYPE
380
     0
  9
$PSTYLEMODE
290
     1
  9
$FINGERPRINTGUID
  2
{72345E11-71F7-0D0E-5B7C-1D5C09D26A6C}
  9
$VERSIONGUID
  2
{89B3269C-1972-4540-B066-31A626FE2E97}
  9
$EXTNAMES
290
     1
  9
$PSVPSCALE
 40
0.0
  9
$OLESTARTUP
290
     0
  9
$SORTENTS
280
   127
  9
$INDEXCTL
280
     0
  9
$HIDETEXT
280
     0
  9
$XCLIPFRAME
280
     2
  9
$HALOGAP
280
     0
  9
$OBSCOLOR
 70
   257
  9
$OBSLTYPE
280
     0
  9
$INTERSECTIONDISPLAY
280
     0
  9
$INTERSECTIONCOLOR
 70
   257
  9
$DIMASSOC
280
     1
  9
$PROJECTNAME
  1

  9
$CAMERADISPLAY
290
     0
  9
$LENSLENGTH
 40
50.0
  9
$CAMERAHEIGHT
 40
0.0
  9
$STEPSPERSEC
 40
2.0
  9
$STEPSIZE
 40
6.0
  9
$3DDWFPREC
 40
2.0
  9
$PSOLWIDTH
 40
0.25
  9
$PSOLHEIGHT
 40
4.0
  9
$LOFTANG1
 40
1.570796326794896
  9
$LOFTANG2
 40
1.570796326794896
  9
$LOFTMAG1
 40
0.0
  9
$LOFTMAG2
 40
0.0
  9
$LOFTPARAM
 70
     7
  9
$LOFTNORMALS
280
     1
  9
$LATITUDE
 40
37.795
  9
$LONGITUDE
 40
-122.394
  9
$NORTHDIRECTION
 40
0.0
  9
$TIMEZONE
 70
 -8000
  9
$LIGHTGLYPHDISPLAY
280
     1
  9
$TILEMODELIGHTSYNCH
280
     1
  9
$CMATERIAL
347
13D
  9
$SOLIDHIST
280
     0
  9
$SHOWHIST
280
     1
  9
$DWFFRAME
280
     2
  9
$DGNFRAME
280
     0
  9
$REALWORLDSCALE
290
     1
  9
$INTERFERECOLOR
 62
     1
  9
$INTERFEREOBJVS
345
14A
  9
$INTERFEREVPVS
346
1E8
  9
$CSHADOW
280
     0
  9
$SHADOWPLANELOCATION
 40
0.0
  0
ENDSEC
  0
SECTION
  2
CLASSES
  0
CLASS
  1
ACDBDICTIONARYWDFLT
  2
AcDbDictionaryWithDefault
  3
ObjectDBX Classes
 90
        0
 91
        1
280
     0
281
     0
  0
CLASS
  1
MATERIAL
  2
AcDbMaterial
  3
ObjectDBX Classes
 90
     1153
 91
        3
280
     0
281
     0
  0
CLASS
  1
VISUALSTYLE
  2
AcDbVisualStyle
  3
ObjectDBX Classes
 90
     4095
 91
       26
280
     0
281
     0
  0
CLASS
  1
TABLESTYLE
  2
AcDbTableStyle
  3
ObjectDBX Classes
 90
     4095
 91
        1
280
     0
281
     0
  0
CLASS
  1
DICTIONARYVAR
  2
AcDbDictionaryVar
  3
ObjectDBX Classes
 90
        0
 91
       12
280
     0
281
     0
  0
CLASS
  1
SCALE
  2
AcDbScale
  3
ObjectDBX Classes
 90
     1153
 91
       17
280
     0
281
     0
  0
CLASS
  1
MLEADERSTYLE
  2
AcDbMLeaderStyle
  3
ACDB_MLEADERSTYLE_CLASS
 90
     4095
 91
        1
280
     0
281
     0
  0
CLASS
  1
ACDBSECTIONVIEWSTYLE
  2
AcDbSectionViewStyle
  3
ObjectDBX Classes
 90
     1025
 91
        1
280
     0
281
     0
  0
CLASS
  1
ACDBDETAILVIEWSTYLE
  2
AcDbDetailViewStyle
  3
ObjectDBX Classes
 90
     1025
 91
        1
280
     0
281
     0
  0
CLASS
  1
SORTENTSTABLE
  2
AcDbSortentsTable
  3
ObjectDBX Classes
 90
        0
 91
        1
280
     0
281
     0
  0
CLASS
  1
CELLSTYLEMAP
  2
AcDbCellStyleMap
  3
ObjectDBX Classes
 90
     1152
 91
        3
280
     0
281
     0
  0
ENDSEC
  0
SECTION
  2
TABLES
  0
TABLE
  2
VPORT
  5
8
330
0
100
AcDbSymbolTable
 70
    17
1001
ACAD
1000
DbSaveVer
1071
      224
  0
VPORT
  5
29
330
8
100
AcDbSymbolTableRecord
100
AcDbViewportTableRecord
  2
DUMMY
 70
     0
 10
0.0
 20
0.0
 11
1.0
 21
1.0
 12
10.429907
 22
4.5
 13
0.0
 23
0.0
 14
0.5
 24
0.5
 15
0.5
 25
0.5
 16
0.0
 26
0.0
 36
1.0
 17
0.0
 27
0.0
 37
0.0
 40
9.0
 41
1.972972999999999
 42
50.0
 43
0.0
 44
0.0
 50
0.0
 51
0.0
 71
     0
 72
   100
 73
     1
 74
     3
 75
     0
 76
     0
 77
     0
 78
     0
281
     0
 65
     1
110
0.0
120
0.0
130
0.0
111
1.0
121
0.0
131
0.0
112
0.0
122
1.0
132
0.0
 79
     0
146
0.0
348
146
 60
     3
 61
     5
292
     1
282
     1
141
0.0
142
0.0
 63
   250
421
  3355443
  0
VPORT
  5
12A
330
8
100
AcDbSymbolTableRecord
100
AcDbViewportTableRecord
  2
*ACTIVE
 70
     0
 10
0.0
 20
0.0
 11
1.0
 21
1.0
 12
605.6267163664147
 22
224.5099665136919
 13
0.0
 23
0.0
 14
0.5
 24
0.5
 15
0.5
 25
0.5
 16
0.0
 26
0.0
 36
1.0
 17
0.0
 27
0.0
 37
0.0
 40
677.2024639537639
 41
2.14188422247446
 42
50.0
 43
1495.008748
 44
-1495.008748
 50
0.0
 51
0.0
 71
     0
 72
   100
 73
     1
 74
     3
 75
     0
 76
     0
 77
     0
 78
     0
281
     0
 65
     1
110
0.0
120
0.0
130
0.0
111
1.0
121
0.0
131
0.0
112
0.0
122
1.0
132
0.0
 79
     0
146
0.0
348
146
 60
     3
 61
     5
292
     1
282
     1
141
0.0
142
0.0
 63
   250
421
  3355443
1001
ACAD_NAV_VCDISPLAY
1070
     3
  0
VPORT
  5
12B
330
8
100
AcDbSymbolTableRecord
100
AcDbViewportTableRecord
  2
L1
 70
     0
 10
0.0
 20
0.0
 11
1.0
 21
1.0
 12
367.629064
 22
386.32268
 13
0.0
 23
0.0
 14
0.5
 24
0.5
 15
0.5
 25
0.5
 16
0.0
 26
0.0
 36
1.0
 17
0.0
 27
0.0
 37
0.0
 40
254.0
 41
0.069908
 42
50.0
 43
1495.008748
 44
-1495.008748
 50
0.0
 51
0.0
 71
     0
 72
   100
 73
     1
 74
     3
 75
     0
 76
     0
 77
     0
 78
     0
281
     0
 65
     1
110
0.0
120
0.0
130
0.0
111
1.0
121
0.0
131
0.0
112
0.0
122
1.0
132
0.0
 79
     0
146
0.0
348
146
 60
     3
 61
     5
292
     1
282
     1
141
0.0
142
0.0
 63
   250
421
  3355443
  0
VPORT
  5
12C
330
8
100
AcDbSymbolTableRecord
100
AcDbViewportTableRecord
  2
L2
 70
     0
 10
0.0
 20
0.0
 11
0.5
 21
1.0
 12
0.0
 22
0.0
 13
0.0
 23
0.0
 14
0.5
 24
0.5
 15
0.5
 25
0.5
 16
0.0
 26
-1.0
 36
0.0
 17
0.0
 27
0.0
 37
0.0
 40
1319.822715
 41
0.013454
 42
50.0
 43
672.020833
 44
-672.020833
 50
0.0
 51
0.0
 71
     0
 72
   100
 73
     1
 74
     3
 75
     0
 76
     0
 77
     0
 78
     0
281
     0
 65
     1
110
0.0
120
0.0
130
0.0
111
1.0
121
0.0
131
0.0
112
0.0
122
1.0
132
0.0
 79
     0
146
0.0
348
146
 60
     3
 61
     5
292
     1
282
     1
141
0.0
142
0.0
 63
   250
421
  3355443
  0
VPORT
  5
12D
330
8
100
AcDbSymbolTableRecord
100
AcDbViewportTableRecord
  2
L2
 70
     0
 10
0.5
 20
0.0
 11
1.0
 21
1.0
 12
0.0
 22
0.0
 13
0.0
 23
0.0
 14
0.5
 24
0.5
 15
0.5
 25
0.5
 16
1.0
 26
0.0
 36
0.0
 17
0.0
 27
0.0
 37
0.0
 40
1319.822715
 41
0.013454
 42
50.0
 43
672.020833
 44
-672.020833
 50
0.0
 51
0.0
 71
     0
 72
   100
 73
     1
 74
     3
 75
     0
 76
     0
 77
     0
 78
     0
281
     0
 65
     1
110
0.0
120
0.0
130
0.0
111
1.0
121
0.0
131
0.0
112
0.0
122
1.0
132
0.0
 79
     0
146
0.0
348
146
 60
     3
 61
     5
292
     1
282
     1
141
0.0
142
0.0
 63
   250
421
  3355443
  0
VPORT
  5
12E
330
8
100
AcDbSymbolTableRecord
100
AcDbViewportTableRecord
  2
L3
 70
     0
 10
0.0
 20
0.5
 11
1.0
 21
1.0
 12
367.629064
 22
386.32268
 13
0.0
 23
0.0
 14
0.5
 24
0.5
 15
0.5
 25
0.5
 16
0.0
 26
0.0
 36
1.0
 17
0.0
 27
0.0
 37
0.0
 40
254.0
 41
0.069908
 42
50.0
 43
1495.008748
 44
-1495.008748
 50
0.0
 51
0.0
 71
     0
 72
   100
 73
     1
 74
     3
 75
     0
 76
     0
 77
     0
 78
     0
281
     0
 65
     1
110
0.0
120
0.0
130
0.0
111
1.0
121
0.0
131
0.0
112
0.0
122
1.0
132
0.0
 79
     0
146
0.0
348
146
 60
     3
 61
     5
292
     1
282
     1
141
0.0
142
0.0
 63
   250
421
  3355443
  0
VPORT
  5
12F
330
8
100
AcDbSymbolTableRecord
100
AcDbViewportTableRecord
  2
L3
 70
     0
 10
0.0
 20
0.0
 11
1.0
 21
0.5
 12
0.0
 22
0.0
 13
0.0
 23
0.0
 14
0.5
 24
0.5
 15
0.5
 25
0.5
 16
0.0
 26
-1.0
 36
0.0
 17
0.0
 27
0.0
 37
0.0
 40
1319.822715
 41
0.013454
 42
50.0
 43
672.020833
 44
-672.020833
 50
0.0
 51
0.0
 71
     0
 72
   100
 73
     1
 74
     3
 75
     0
 76
     0
 77
     0
 78
     0
281
     0
 65
     1
110
0.0
120
0.0
130
0.0
111
1.0
121
0.0
131
0.0
112
0.0
122
1.0
132
0.0
 79
     0
146
0.0
348
146
 60
     3
 61
     5
292
     1
282
     1
141
0.0
142
0.0
 63
   250
421
  3355443
  0
VPORT
  5
130
330
8
100
AcDbSymbolTableRecord
100
AcDbViewportTableRecord
  2
L4
 70
     0
 10
0.0
 20
0.5
 11
0.5
 21
1.0
 12
367.629064
 22
386.32268
 13
0.0
 23
0.0
 14
0.5
 24
0.5
 15
0.5
 25
0.5
 16
0.0
 26
0.0
 36
1.0
 17
0.0
 27
0.0
 37
0.0
 40
254.0
 41
0.069908
 42
50.0
 43
1495.008748
 44
-1495.008748
 50
0.0
 51
0.0
 71
     0
 72
   100
 73
     1
 74
     3
 75
     0
 76
     0
 77
     0
 78
     0
281
     0
 65
     1
110
0.0
120
0.0
130
0.0
111
1.0
121
0.0
131
0.0
112
0.0
122
1.0
132
0.0
 79
     0
146
0.0
348
146
 60
     3
 61
     5
292
     1
282
     1
141
0.0
142
0.0
 63
   250
421
  3355443
  0
VPORT
  5
131
330
8
100
AcDbSymbolTableRecord
100
AcDbViewportTableRecord
  2
L4
 70
     0
 10
0.0
 20
0.0
 11
0.5
 21
0.5
 12
0.0
 22
0.0
 13
0.0
 23
0.0
 14
0.5
 24
0.5
 15
0.5
 25
0.5
 16
0.0
 26
-1.0
 36
0.0
 17
0.0
 27
0.0
 37
0.0
 40
1319.822715
 41
0.013454
 42
50.0
 43
672.020833
 44
-672.020833
 50
0.0
 51
0.0
 71
     0
 72
   100
 73
     1
 74
     3
 75
     0
 76
     0
 77
     0
 78
     0
281
     0
 65
     1
110
0.0
120
0.0
130
0.0
111
1.0
121
0.0
131
0.0
112
0.0
122
1.0
132
0.0
 79
     0
146
0.0
348
146
 60
     3
 61
     5
292
     1
282
     1
141
0.0
142
0.0
 63
   250
421
  3355443
  0
VPORT
  5
132
330
8
100
AcDbSymbolTableRecord
100
AcDbViewportTableRecord
  2
L4
 70
     0
 10
0.5
 20
0.0
 11
1.0
 21
0.5
 12
0.0
 22
0.0
 13
0.0
 23
0.0
 14
0.5
 24
0.5
 15
0.5
 25
0.5
 16
1.0
 26
0.0
 36
0.0
 17
0.0
 27
0.0
 37
0.0
 40
1319.822715
 41
0.013454
 42
50.0
 43
672.020833
 44
-672.020833
 50
0.0
 51
0.0
 71
     0
 72
   100
 73
     1
 74
     3
 75
     0
 76
     0
 77
     0
 78
     0
281
     0
 65
     1
110
0.0
120
0.0
130
0.0
111
1.0
121
0.0
131
0.0
112
0.0
122
1.0
132
0.0
 79
     0
146
0.0
348
146
 60
     3
 61
     5
292
     1
282
     1
141
0.0
142
0.0
 63
   250
421
  3355443
  0
VPORT
  5
133
330
8
100
AcDbSymbolTableRecord
100
AcDbViewportTableRecord
  2
L4
 70
     0
 10
0.5
 20
0.5
 11
1.0
 21
1.0
 12
0.0
 22
0.0
 13
0.0
 23
0.0
 14
0.5
 24
0.5
 15
0.5
 25
0.5
 16
0.577350269189626
 26
-0.577350269189626
 36
0.577350269189626
 17
0.0
 27
0.0
 37
0.0
 40
1285.020866
 41
0.013818
 42
50.0
 43
667.141407
 44
-667.141407
 50
0.0
 51
0.0
 71
     0
 72
   100
 73
     1
 74
     3
 75
     0
 76
     0
 77
     0
 78
     0
281
     0
 65
     1
110
0.0
120
0.0
130
0.0
111
1.0
121
0.0
131
0.0
112
0.0
122
1.0
132
0.0
 79
     0
146
0.0
348
146
 60
     3
 61
     5
292
     1
282
     1
141
0.0
142
0.0
 63
   250
421
  3355443
  0
VPORT
  5
134
330
8
100
AcDbSymbolTableRecord
100
AcDbViewportTableRecord
  2
L6
 70
     0
 10
0.0
 20
0.5
 11
0.333333
 21
1.0
 12
0.0
 22
0.0
 13
0.0
 23
0.0
 14
0.5
 24
0.5
 15
0.5
 25
0.5
 16
0.7188730927569436
 26
-0.5850486126764432
 36
0.3754192287502549
 17
0.0
 27
0.0
 37
0.0
 40
1357.434192
 41
0.013081
 42
50.0
 43
701.839477
 44
-701.839477
 50
0.0
 51
0.0
 71
     0
 72
   100
 73
     1
 74
     3
 75
     0
 76
     0
 77
     0
 78
     0
281
     0
 65
     1
110
0.0
120
0.0
130
0.0
111
1.0
121
0.0
131
0.0
112
0.0
122
1.0
132
0.0
 79
     0
146
0.0
348
146
 60
     3
 61
     5
292
     1
282
     1
141
0.0
142
0.0
 63
   250
421
  3355443
  0
VPORT
  5
135
330
8
100
AcDbSymbolTableRecord
100
AcDbViewportTableRecord
  2
L6
 70
     0
 10
0.0
 20
0.0
 11
0.333333
 21
0.5
 12
0.0
 22
0.0
 13
0.0
 23
0.0
 14
0.5
 24
0.5
 15
0.5
 25
0.5
 16
-1.0
 26
0.0
 36
0.0
 17
0.0
 27
0.0
 37
0.0
 40
1319.822715
 41
0.013454
 42
50.0
 43
672.020833
 44
-672.020833
 50
0.0
 51
0.0
 71
     0
 72
   100
 73
     1
 74
     3
 75
     0
 76
     0
 77
     0
 78
     0
281
     0
 65
     1
110
0.0
120
0.0
130
0.0
111
1.0
121
0.0
131
0.0
112
0.0
122
1.0
132
0.0
 79
     0
146
0.0
348
146
 60
     3
 61
     5
292
     1
282
     1
141
0.0
142
0.0
 63
   250
421
  3355443
  0
VPORT
  5
136
330
8
100
AcDbSymbolTableRecord
100
AcDbViewportTableRecord
  2
L6
 70
     0
 10
0.333333
 20
0.5
 11
0.666667
 21
1.0
 12
367.629064
 22
386.32268
 13
0.0
 23
0.0
 14
0.5
 24
0.5
 15
0.5
 25
0.5
 16
0.0
 26
0.0
 36
1.0
 17
0.0
 27
0.0
 37
0.0
 40
254.0
 41
0.069908
 42
50.0
 43
1495.008748
 44
-1495.008748
 50
0.0
 51
0.0
 71
     0
 72
   100
 73
     1
 74
     3
 75
     0
 76
     0
 77
     0
 78
     0
281
     0
 65
     1
110
0.0
120
0.0
130
0.0
111
1.0
121
0.0
131
0.0
112
0.0
122
1.0
132
0.0
 79
     0
146
0.0
348
146
 60
     3
 61
     5
292
     1
282
     1
141
0.0
142
0.0
 63
   250
421
  3355443
  0
VPORT
  5
137
330
8
100
AcDbSymbolTableRecord
100
AcDbViewportTableRecord
  2
L6
 70
     0
 10
0.333333
 20
0.0
 11
0.666667
 21
0.5
 12
0.0
 22
0.0
 13
0.0
 23
0.0
 14
0.5
 24
0.5
 15
0.5
 25
0.5
 16
0.0
 26
-1.0
 36
0.0
 17
0.0
 27
0.0
 37
0.0
 40
1319.822715
 41
0.013454
 42
50.0
 43
672.020833
 44
-672.020833
 50
0.0
 51
0.0
 71
     0
 72
   100
 73
     1
 74
     3
 75
     0
 76
     0
 77
     0
 78
     0
281
     0
 65
     1
110
0.0
120
0.0
130
0.0
111
1.0
121
0.0
131
0.0
112
0.0
122
1.0
132
0.0
 79
     0
146
0.0
348
146
 60
     3
 61
     5
292
     1
282
     1
141
0.0
142
0.0
 63
   250
421
  3355443
  0
VPORT
  5
138
330
8
100
AcDbSymbolTableRecord
100
AcDbViewportTableRecord
  2
L6
 70
     0
 10
0.666667
 20
0.5
 11
1.0
 21
1.0
 12
0.0
 22
0.0
 13
0.0
 23
0.0
 14
0.5
 24
0.5
 15
0.5
 25
0.5
 16
0.577350269189626
 26
-0.577350269189626
 36
0.577350269189626
 17
0.0
 27
0.0
 37
0.0
 40
1285.020866
 41
0.013818
 42
50.0
 43
667.141407
 44
-667.141407
 50
0.0
 51
0.0
 71
     0
 72
   100
 73
     1
 74
     3
 75
     0
 76
     0
 77
     0
 78
     0
281
     0
 65
     1
110
0.0
120
0.0
130
0.0
111
1.0
121
0.0
131
0.0
112
0.0
122
1.0
132
0.0
 79
     0
146
0.0
348
146
 60
     3
 61
     5
292
     1
282
     1
141
0.0
142
0.0
 63
   250
421
  3355443
  0
VPORT
  5
139
330
8
100
AcDbSymbolTableRecord
100
AcDbViewportTableRecord
  2
L6
 70
     0
 10
0.666667
 20
0.0
 11
1.0
 21
0.5
 12
0.0
 22
0.0
 13
0.0
 23
0.0
 14
0.5
 24
0.5
 15
0.5
 25
0.5
 16
1.0
 26
0.0
 36
0.0
 17
0.0
 27
0.0
 37
0.0
 40
1319.822715
 41
0.013454
 42
50.0
 43
672.020833
 44
-672.020833
 50
0.0
 51
0.0
 71
     0
 72
   100
 73
     1
 74
     3
 75
     0
 76
     0
 77
     0
 78
     0
281
     0
 65
     1
110
0.0
120
0.0
130
0.0
111
1.0
121
0.0
131
0.0
112
0.0
122
1.0
132
0.0
 79
     0
146
0.0
348
146
 60
     3
 61
     5
292
     1
282
     1
141
0.0
142
0.0
 63
   250
421
  3355443
  0
ENDTAB
  0
TABLE
  2
LTYPE
  5
5
330
0
100
AcDbSymbolTable
 70
     3
  0
LTYPE
  5
14
330
5
100
AcDbSymbolTableRecord
100
AcDbLinetypeTableRecord
  2
ByBlock
 70
     0
  3

 72
    65
 73
     0
 40
0.0
  0
LTYPE
  5
15
330
5
100
AcDbSymbolTableRecord
100
AcDbLinetypeTableRecord
  2
ByLayer
 70
     0
  3

 72
    65
 73
     0
 40
0.0
  0
LTYPE
  5
16
330
5
100
AcDbSymbolTableRecord
100
AcDbLinetypeTableRecord
  2
Continuous
 70
     0
  3
Solid line
 72
    65
 73
     0
 40
0.0
  0
LTYPE
  5
8F1
330
5
100
AcDbSymbolTableRecord
100
AcDbLinetypeTableRecord
  2
CUSTOM
 70
     0
  3

 72
    65
 73
     0
 40
0.0
  0
ENDTAB
  0
TABLE
  2
LAYER
  5
2
102
{ACAD_XDICTIONARY
360
19A
102
}
330
0
100
AcDbSymbolTable
 70
     4
  0
LAYER
  5
10
102
{ACAD_XDICTIONARY
360
20D
102
}
330
2
100
AcDbSymbolTableRecord
100
AcDbLayerTableRecord
  2
0
 70
     0
 62
     7
  6
Continuous
370
    -3
390
F
347
13F
348
0
  0
LAYER
  5
197
102
{ACAD_XDICTIONARY
360
211
102
}
330
2
100
AcDbSymbolTableRecord
100
AcDbLayerTableRecord
  2
HEWI
 70
     0
 62
     7
  6
Continuous
370
    -3
390
F
347
13F
348
0
1001
AcAecLayerStandard
1000

1000

  0
LAYER
  5
1A0
330
2
100
AcDbSymbolTableRecord
100
AcDbLayerTableRecord
  2
Defpoints
 70
     0
 62
     7
  6
Continuous
290
     0
370
    -3
390
F
347
13F
348
0
  0
LAYER
  5
8F2
330
2
100
AcDbSymbolTableRecord
100
AcDbLayerTableRecord
  2
PDF_GEOMERTRY
 70
     0
 62
     7
  6
Continuous
370
    -3
390
F
347
13F
348
0
  0
ENDTAB
  0
TABLE
  2
STYLE
  5
3
330
0
100
AcDbSymbolTable
 70
     1
  0
STYLE
  5
11
330
3
100
AcDbSymbolTableRecord
100
AcDbTextStyleTableRecord
  2
Standard
 70
     0
 40
0.0
 41
1.0
 50
0.0
 71
     0
 42
0.2
  3
txt
  4

  0
ENDTAB
  0
TABLE
  2
VIEW
  5
6
330
0
100
AcDbSymbolTable
 70
     8
  0
VIEW
  5
122
330
6
100
AcDbSymbolTableRecord
100
AcDbViewTableRecord
  2
TOP
 70
     0
 40
254.0
 10
367.629064
 20
386.32268
 41
254.0
 11
0.0
 21
0.0
 31
1.0
 12
0.0
 22
0.0
 32
0.0
 42
50.0
 43
1495.008748
 44
-1495.008748
 50
0.0
 71
     0
281
     0
 72
     0
 73
     0
348
146
  0
VIEW
  5
123
330
6
100
AcDbSymbolTableRecord
100
AcDbViewTableRecord
  2
FRONT
 70
     0
 40
1319.822715
 10
0.0
 20
0.0
 41
254.0
 11
0.0
 21
-1.0
 31
0.0
 12
0.0
 22
0.0
 32
0.0
 42
50.0
 43
672.020833
 44
-672.020833
 50
0.0
 71
     0
281
     0
 72
     0
 73
     0
348
146
  0
VIEW
  5
124
330
6
100
AcDbSymbolTableRecord
100
AcDbViewTableRecord
  2
RIGHT
 70
     0
 40
1319.822715
 10
0.0
 20
0.0
 41
254.0
 11
1.0
 21
0.0
 31
0.0
 12
0.0
 22
0.0
 32
0.0
 42
50.0
 43
672.020833
 44
-672.020833
 50
0.0
 71
     0
281
     0
 72
     0
 73
     0
348
146
  0
VIEW
  5
125
330
6
100
AcDbSymbolTableRecord
100
AcDbViewTableRecord
  2
BACK
 70
     0
 40
1319.822715
 10
0.0
 20
0.0
 41
254.0
 11
0.0
 21
1.0
 31
0.0
 12
0.0
 22
0.0
 32
0.0
 42
50.0
 43
672.020833
 44
-672.020833
 50
0.0
 71
     0
281
     0
 72
     0
 73
     0
348
146
  0
VIEW
  5
126
330
6
100
AcDbSymbolTableRecord
100
AcDbViewTableRecord
  2
BOTTOM
 70
     0
 40
254.0
 10
0.0
 20
0.0
 41
254.0
 11
0.0
 21
0.0
 31
-1.0
 12
0.0
 22
0.0
 32
0.0
 42
50.0
 43
659.911358
 44
-659.911358
 50
180.0
 71
     0
281
     0
 72
     0
 73
     0
348
146
  0
VIEW
  5
127
330
6
100
AcDbSymbolTableRecord
100
AcDbViewTableRecord
  2
LEFT
 70
     0
 40
1319.822715
 10
0.0
 20
0.0
 41
254.0
 11
-1.0
 21
0.0
 31
0.0
 12
0.0
 22
0.0
 32
0.0
 42
50.0
 43
672.020833
 44
-672.020833
 50
0.0
 71
     0
281
     0
 72
     0
 73
     0
348
146
  0
VIEW
  5
128
330
6
100
AcDbSymbolTableRecord
100
AcDbViewTableRecord
  2
TFR-ISO
 70
     0
 40
1285.020866
 10
0.0
 20
0.0
 41
359.210245
 11
0.577350269189626
 21
-0.577350269189626
 31
0.577350269189626
 12
0.0
 22
0.0
 32
0.0
 42
50.0
 43
667.141407
 44
-667.141407
 50
0.0
 71
     0
281
     0
 72
     0
 73
     0
348
146
  0
VIEW
  5
129
330
6
100
AcDbSymbolTableRecord
100
AcDbViewTableRecord
  2
TFR-TRI
 70
     0
 40
1357.434192
 10
0.0
 20
0.0
 41
357.33321
 11
0.7188730927569436
 21
-0.5850486126764432
 31
0.3754192287502549
 12
0.0
 22
0.0
 32
0.0
 42
50.0
 43
701.839477
 44
-701.839477
 50
0.0
 71
     0
281
     0
 72
     0
 73
     0
348
146
  0
ENDTAB
  0
TABLE
  2
UCS
  5
7
330
0
100
AcDbSymbolTable
 70
     0
  0
ENDTAB
  0
TABLE
  2
APPID
  5
9
330
0
100
AcDbSymbolTable
 70
     5
  0
APPID
  5
12
330
9
100
AcDbSymbolTableRecord
100
AcDbRegAppTableRecord
  2
ACAD
 70
     0
  0
APPID
  5
198
330
9
100
AcDbSymbolTableRecord
100
AcDbRegAppTableRecord
  2
AcAecLayerStandard
 70
     0
  0
APPID
  5
215
330
9
100
AcDbSymbolTableRecord
100
AcDbRegAppTableRecord
  2
ACAD_NAV_VCDISPLAY
 70
     0
  0
APPID
  5
21E
330
9
100
AcDbSymbolTableRecord
100
AcDbRegAppTableRecord
  2
ACAD_EXEMPT_FROM_CAD_STANDARDS
 70
     0
  0
APPID
  5
2A7
330
9
100
AcDbSymbolTableRecord
100
AcDbRegAppTableRecord
  2
ACAD_DSTYLE_DIMRADIAL_EXTENSION
 70
     0
  0
ENDTAB
  0
TABLE
  2
DIMSTYLE
  5
A
330
0
100
AcDbSymbolTable
 70
     3
100
AcDbDimStyleTable
 71
     1
340
27
  0
DIMSTYLE
105
27
330
A
100
AcDbSymbolTableRecord
100
AcDbDimStyleTableRecord
  2
Standard
 70
     0
340
11
  0
DIMSTYLE
105
8F3
330
A
100
AcDbSymbolTableRecord
100
AcDbDimStyleTableRecord
  2
ISO-25
 70
     0
 41
2.5
 42
0.625
 43
3.75
 44
1.25
 73
     0
 74
     0
 77
     1
 78
     8
140
2.5
141
2.5
143
0.03937007874016
147
0.625
171
     3
172
     1
271
     2
272
     2
274
     3
278
    44
283
     0
284
     8
340
11
  0
ENDTAB
  0
TABLE
  2
BLOCK_RECORD
  5
1
330
0
100
AcDbSymbolTable
 70
     7
  0
BLOCK_RECORD
  5
1F
102
{ACAD_XDICTIONARY
360
25E
102
}
330
1
100
AcDbSymbolTableRecord
100
AcDbBlockTableRecord
  2
*Model_Space
340
22
 70
     0
280
     1
281
     0
  0
BLOCK_RECORD
  5
1B
330
1
100
AcDbSymbolTableRecord
100
AcDbBlockTableRecord
  2
*Paper_Space
340
1E
 70
     0
280
     1
281
     0
  0
BLOCK_RECORD
  5
23
330
1
100
AcDbSymbolTableRecord
100
AcDbBlockTableRecord
  2
*Paper_Space0
340
26
 70
     0
280
     1
281
     0
  0
BLOCK_RECORD
  5
8D4
330
1
100
AcDbSymbolTableRecord
100
AcDbBlockTableRecord
  2
*D1
340
0
 70
     0
280
     1
281
     0
  0
BLOCK_RECORD
  5
BF3
330
1
100
AcDbSymbolTableRecord
100
AcDbBlockTableRecord
  2
*D2
340
0
 70
     0
280
     1
281
     0
  0
ENDTAB
  0
ENDSEC
  0
SECTION
  2
BLOCKS
  0
BLOCK
  5
20
330
1F
100
AcDbEntity
  8
0
100
AcDbBlockBegin
  2
*Model_Space
 70
     0
 10
0.0
 20
0.0
 30
0.0
  3
*Model_Space
  1

  0
ENDBLK
  5
21
330
1F
100
AcDbEntity
  8
0
100
AcDbBlockEnd
  0
BLOCK
  5
1C
330
1B
100
AcDbEntity
 67
     1
  8
0
100
AcDbBlockBegin
  2
*Paper_Space
 70
     0
 10
0.0
 20
0.0
 30
0.0
  3
*Paper_Space
  1

  0
ENDBLK
  5
1D
330
1B
100
AcDbEntity
 67
     1
  8
0
100
AcDbBlockEnd
  0
BLOCK
  5
24
330
23
100
AcDbEntity
 67
     1
  8
0
100
AcDbBlockBegin
  2
*Paper_Space0
 70
     0
 10
0.0
 20
0.0
 30
0.0
  3
*Paper_Space0
  1

  0
ENDBLK
  5
25
330
23
100
AcDbEntity
 67
     1
  8
0
100
AcDbBlockEnd
  0
BLOCK
  5
8D5
330
8D4
100
AcDbEntity
  8
0
100
AcDbBlockBegin
  2
*D1
 70
     1
 10
0.0
 20
0.0
 30
0.0
  3
*D1
  1

  0
LINE
  5
8D7
330
8D4
100
AcDbEntity
  8
0
 62
     0
440
 16777216
370
    -2
100
AcDbLine
 10
71.70945240220847
 20
290.5722192499352
 30
0.0
 11
71.70945240220847
 21
257.8284752311286
 31
0.0
  0
LINE
  5
8D8
330
8D4
100
AcDbEntity
  8
0
 62
     0
440
 16777216
370
    -2
100
AcDbLine
 10
141.4478349261008
 20
290.5722192499352
 30
0.0
 11
141.4478349261008
 21
257.8284752311286
 31
0.0
  0
LINE
  5
8D9
330
8D4
100
AcDbEntity
  8
0
 62
     0
440
 16777216
370
    -2
100
AcDbLine
 10
71.88945240220848
 20
258.0084752311285
 30
0.0
 11
105.9486436641546
 21
258.0084752311285
 31
0.0
  0
LINE
  5
8DA
330
8D4
100
AcDbEntity
  8
0
 62
     0
440
 16777216
370
    -2
100
AcDbLine
 10
141.2678349261007
 20
258.0084752311285
 30
0.0
 11
107.2086436641546
 21
258.0084752311285
 31
0.0
  0
SOLID
  5
8DB
330
8D4
100
AcDbEntity
  8
0
 62
     0
440
 16777216
100
AcDbTrace
 10
71.88945240220848
 20
258.0384752311286
 30
0.0
 11
71.88945240220848
 21
257.9784752311287
 31
0.0
 12
71.70945240220847
 22
258.0084752311285
 32
0.0
 13
71.70945240220847
 23
258.0084752311285
 33
0.0
  0
SOLID
  5
8DC
330
8D4
100
AcDbEntity
  8
0
 62
     0
440
 16777216
100
AcDbTrace
 10
141.2678349261007
 20
258.0384752311286
 30
0.0
 11
141.2678349261007
 21
257.9784752311287
 31
0.0
 12
141.4478349261008
 22
258.0084752311285
 32
0.0
 13
141.4478349261008
 23
258.0084752311285
 33
0.0
  0
MTEXT
  5
8DD
330
8D4
100
AcDbEntity
  8
0
 62
     0
440
 16777216
100
AcDbMText
 10
106.5786436641546
 20
258.0084752311285
 30
0.0
 40
0.18
 41
0.0
 46
0.0
 71
     5
 72
     1
  1
\A1;69.7384
 73
     1
 44
1.0
  0
POINT
  5
8DE
330
8D4
100
AcDbEntity
  8
Defpoints
 62
     0
440
 16777216
100
AcDbPoint
 10
71.70945240220847
 20
290.6347192499351
 30
0.0
  0
POINT
  5
8DF
330
8D4
100
AcDbEntity
  8
Defpoints
 62
     0
440
 16777216
100
AcDbPoint
 10
141.4478349261008
 20
290.6347192499351
 30
0.0
  0
POINT
  5
8E0
330
8D4
100
AcDbEntity
  8
Defpoints
 62
     0
440
 16777216
100
AcDbPoint
 10
141.4478349261008
 20
258.0084752311285
 30
0.0
  0
ENDBLK
  5
8D6
330
8D4
100
AcDbEntity
  8
0
100
AcDbBlockEnd
  0
BLOCK
  5
BF4
330
BF3
100
AcDbEntity
  8
0
100
AcDbBlockBegin
  2
*D2
 70
     1
 10
0.0
 20
0.0
 30
0.0
  3
*D2
  1

  0
LINE
  5
BF6
330
BF3
100
AcDbEntity
  8
0
 62
     0
440
 16777216
370
    -2
100
AcDbLine
 10
683.427956510829
 20
39.82143058240399
 30
0.0
 11
683.427956510829
 21
30.48070383398574
 31
0.0
  0
LINE
  5
BF7
330
BF3
100
AcDbEntity
  8
0
 62
     0
440
 16777216
370
    -2
100
AcDbLine
 10
760.866888702164
 20
39.82143058240399
 30
0.0
 11
760.866888702164
 21
30.48070383398574
 31
0.0
  0
LINE
  5
BF8
330
BF3
100
AcDbEntity
  8
0
 62
     0
440
 16777216
370
    -2
100
AcDbLine
 10
683.607956510829
 20
30.66070383398574
 30
0.0
 11
721.5174226064966
 21
30.66070383398574
 31
0.0
  0
LINE
  5
BF9
330
BF3
100
AcDbEntity
  8
0
 62
     0
440
 16777216
370
    -2
100
AcDbLine
 10
760.6868887021639
 20
30.66070383398574
 30
0.0
 11
722.7774226064966
 21
30.66070383398574
 31
0.0
  0
SOLID
  5
BFA
330
BF3
100
AcDbEntity
  8
0
 62
     0
440
 16777216
100
AcDbTrace
 10
683.607956510829
 20
30.69070383398574
 30
0.0
 11
683.607956510829
 21
30.63070383398573
 31
0.0
 12
683.427956510829
 22
30.66070383398574
 32
0.0
 13
683.427956510829
 23
30.66070383398574
 33
0.0
  0
SOLID
  5
BFB
330
BF3
100
AcDbEntity
  8
0
 62
     0
440
 16777216
100
AcDbTrace
 10
760.6868887021639
 20
30.69070383398574
 30
0.0
 11
760.6868887021639
 21
30.63070383398573
 31
0.0
 12
760.866888702164
 22
30.66070383398574
 32
0.0
 13
760.866888702164
 23
30.66070383398574
 33
0.0
  0
MTEXT
  5
BFC
330
BF3
100
AcDbEntity
  8
0
 62
     0
440
 16777216
100
AcDbMText
 10
722.1474226064964
 20
30.66070383398574
 30
0.0
 40
0.18
 41
0.0
 46
0.0
 71
     5
 72
     1
  1
\A1;77.4389
 73
     1
 44
1.0
  0
POINT
  5
BFD
330
BF3
100
AcDbEntity
  8
Defpoints
 62
     0
440
 16777216
100
AcDbPoint
 10
683.427956510829
 20
39.88393058240399
 30
0.0
  0
POINT
  5
BFE
330
BF3
100
AcDbEntity
  8
Defpoints
 62
     0
440
 16777216
100
AcDbPoint
 10
760.866888702164
 20
39.88393058240399
 30
0.0
  0
POINT
  5
BFF
330
BF3
100
AcDbEntity
  8
Defpoints
 62
     0
440
 16777216
100
AcDbPoint
 10
760.866888702164
 20
30.66070383398574
 30
0.0
  0
ENDBLK
  5
BF5
330
BF3
100
AcDbEntity
  8
0
100
AcDbBlockEnd
  0
ENDSEC
  0
SECTION
  2
ENTITIES
  0
LWPOLYLINE
  5
C49
330
1F
100
AcDbEntity
  8
HEWI
  6
CUSTOM
 62
     7
370
     9
100
AcDbPolyline
 90
       55
 70
     0
 43
0.0
 10
275.5490162713363
 20
212.4223054000464
 10
275.9416462612821
 20
208.7142169463954
 10
275.9780800337544
 20
208.5020550531838
 10
276.6182024004816
 20
205.8961074669654
 10
277.2243003327071
 20
204.257435863043
 10
277.7367605805116
 20
203.2101952103779
 10
279.0349770592161
 20
201.0562106544654
 10
279.2869041991721
 20
200.7583662962403
 10
281.0923780892631
 20
198.7749391654582
 10
281.2555865932231
 20
198.637926544164
 10
282.7141120507681
 20
197.5096101898403
 10
283.91115222492
 20
196.7913618463738
 10
284.5026474013762
 20
196.4933303363032
 10
286.9332846416887
 20
195.5933920037081
 10
287.2557444118779
 20
195.5080173489922
 10
289.4845878751807
 20
195.1132972890603
 10
291.2096083334941
 20
195.019505114354
 10
292.0864381337728
 20
195.0395724348871
 10
294.6687164493883
 20
195.3587436837173
 10
295.4811380271144
 20
195.541456592556
 10
297.989205720793
 20
196.3495229419203
 10
299.1894048113304
 20
196.8698777469622
 10
302.0320799566412
 20
198.4709913894013
 10
305.7747996504136
 20
201.088951623186
 10
305.8129041021089
 20
201.1155136865482
 10
321.0006206446683
 20
211.7047148652281
 10
321.0491630929123
 20
211.7398910632163
 10
321.5810802069041
 20
212.174949952256
 10
322.0276995204899
 20
212.6378385327003
 10
322.0552687973591
 20
212.670157133963
 10
322.610417115437
 20
213.4577126501161
 10
322.7596410319898
 20
213.7351924566591
 10
323.0096281209812
 20
214.3291071658151
 10
323.1566900907915
 20
214.8480711320443
 10
323.2421218299637
 20
215.3690086539631
 10
323.2715884788472
 20
215.9095803107065
 10
323.2288972369147
 20
216.5587880024581
 10
323.159748370596
 20
216.9743478742253
 10
322.9421996551368
 20
217.7153664132214
 10
322.8659892762621
 20
217.9086943152253
 10
322.3953754243134
 20
218.7682273007554
 10
321.7738321942166
 20
219.5206853157291
 10
321.635473545401
 20
219.651282030879
 10
321.0196507505666
 20
220.1377119984521
 10
320.6895720359394
 20
220.3395533318938
 10
319.9827482838023
 20
220.6725288949332
 10
319.6138251398393
 20
220.7954068894351
 10
318.8521854498426
 20
220.9520884883153
 10
318.4633232239562
 20
220.9837329233641
 10
317.6855712132024
 20
220.9584863504252
 10
317.2957600365649
 20
220.8988044698841
 10
316.5450085801035
 20
220.6996751817354
 10
316.3577016066797
 20
220.6288378359112
 10
315.4927093193533
 20
220.1861544619754
 10
299.934216423308
 20
210.0826610213042
  0
LWPOLYLINE
  5
C4A
330
1F
100
AcDbEntity
  8
HEWI
  6
CUSTOM
 62
     7
370
     9
100
AcDbPolyline
 90
       37
 70
     0
 43
0.0
 10
290.7629490108825
 20
207.9684953683421
 10
289.9951618307264
 20
208.3596689833874
 10
289.2965772841922
 20
208.8664527314023
 10
288.4612662095665
 20
209.7490831130513
 10
287.8889982698715
 20
210.664130592408
 10
287.4662960733626
 20
211.6566734009551
 10
287.0299828565644
 20
213.7134264696272
 10
286.8562379372865
 20
219.4651100915131
 10
286.8556496490715
 20
219.4988874706322
 10
286.1958655957774
 20
257.5202494693332
 10
286.0165934211077
 20
258.735969642638
 10
285.7194652107823
 20
259.4989824173802
 10
285.5667752625336
 20
259.8781214594222
 10
285.1088141225687
 20
260.5599847626473
 10
284.8726213042414
 20
260.886045874873
 10
284.2715198696637
 20
261.4457563367881
 10
283.9625542996969
 20
261.701166204583
 10
283.2461857368567
 20
262.1099716009283
 10
282.8858937688187
 20
262.284363607513
 10
282.0956940678939
 20
262.5248034604271
 10
281.9051046285744
 20
262.5723962262515
 10
280.885776696346
 20
262.6626908511372
 10
279.8549865970513
 20
262.5571260135754
 10
279.6571472185719
 20
262.5114858498413
 10
278.8655789485087
 20
262.2514848474701
 10
278.4926423771472
 20
262.0768412471051
 10
277.7849445954184
 20
261.6434636453722
 10
277.4611150317819
 20
261.3868097343651
 10
276.8812999397582
 20
260.7991419285164
 10
276.6301517061079
 20
260.4717923940051
 10
276.2094716983306
 20
259.7614962269712
 10
276.041335758377
 20
259.3831421416343
 10
275.7929606574439
 20
258.5915017016845
 10
275.7496875661204
 20
258.3879884035351
 10
275.6506057838274
 20
257.3511520889182
 10
275.6506156542969
 20
257.3361814485892
 10
275.6092232445813
 20
251.3363972939691
  0
LWPOLYLINE
  5
C4B
330
1F
100
AcDbEntity
  8
HEWI
  6
CUSTOM
 62
     7
370
     9
100
AcDbPolyline
 90
        3
 70
     0
 43
0.0
 10
275.5490162713363
 20
212.4223054000464
 10
275.5492133175799
 20
219.4662765389563
 10
275.6092232445813
 20
251.3363972939691
  0
LWPOLYLINE
  5
C4C
330
1F
100
AcDbEntity
  8
HEWI
  6
CUSTOM
 62
     7
370
     9
100
AcDbPolyline
 90
        5
 70
     0
 43
0.0
 10
296.3162914307272
 20
208.0725945419464
 10
295.1151376658058
 20
207.6799806345442
 10
293.647849619158
 20
207.4701640148743
 10
292.1733819732713
 20
207.5586260236752
 10
290.7629490108825
 20
207.9684953683421
  0
LINE
  5
C4D
330
1F
100
AcDbEntity
  8
HEWI
  6
CUSTOM
 62
     7
370
     9
100
AcDbLine
 10
299.934216423308
 20
210.0826610213042
 30
0.0
 11
297.6144879911758
 21
208.6868373094511
 31
0.0
  0
LINE
  5
C4E
330
1F
100
AcDbEntity
  8
HEWI
  6
CUSTOM
 62
     7
370
     9
100
AcDbLine
 10
289.7407552986974
 20
208.5442265956222
 30
0.0
 11
290.7629490102759
 21
207.9684953668889
 31
0.0
  0
LWPOLYLINE
  5
C4F
330
1F
100
AcDbEntity
  8
HEWI
  6
CUSTOM
 62
     7
370
     9
100
AcDbPolyline
 90
       48
 70
     0
 43
0.0
 10
275.4908350264773
 20
204.3974289827823
 10
275.4908350264773
 20
250.8471817793753
 10
275.4815442559734
 20
250.9431216146503
 10
275.4787116854718
 20
250.956618361405
 10
275.4540172181273
 20
251.0354960299863
 10
275.442929564038
 20
251.0607479954673
 10
275.3983989236181
 20
251.1368223651853
 10
275.3852238576024
 20
251.1545210853499
 10
275.3209997281197
 20
251.2226698198782
 10
275.3083929099716
 20
251.2333902585052
 10
275.225955974935
 20
251.288450561566
 10
275.2161625122294
 20
251.2935308834391
 10
275.1183469622379
 20
251.3306491566742
 10
275.1130052265921
 20
251.332026538958
 10
275.0039234968249
 20
251.3470104412394
 10
274.9949440605883
 20
251.3472455760501
 10
274.9683282729816
 20
251.3479425349702
 10
274.9144981006925
 20
251.3493521276274
 10
274.8394604253713
 20
251.3513170582902
 10
274.7470911850282
 20
251.3537358319512
 10
274.642161548913
 20
251.356483511148
 10
274.5300914712402
 20
251.359418169385
 10
264.4908349404673
 20
251.6223053511293
 10
264.4908349404673
 20
251.6127114011063
 10
264.4908349404673
 20
251.5842976003793
 10
264.4908349404673
 20
251.5269421618024
 10
264.4908349404673
 20
251.4472557803091
 10
264.4908349404673
 20
251.3496342957293
 10
264.4908349404673
 20
251.2394629244823
 10
264.4908349404673
 20
251.1228191881299
 10
264.4908349404673
 20
204.1217915740273
 10
264.4908349404673
 20
204.0243102202702
 10
264.4908349404673
 20
203.9305947968802
 10
264.4908349404673
 20
203.8281509170391
 10
264.4908349404673
 20
203.7419433054782
 10
264.4908349404673
 20
203.676727540822
 10
264.4908349404673
 20
203.6361012021092
 10
264.4908349404673
 20
203.6223054110281
 10
274.5300914712402
 20
203.8851925927721
 10
274.6238257261798
 20
203.8876471105981
 10
274.7132533633207
 20
203.889988855669
 10
274.8103770221373
 20
203.892532128158
 10
274.8916713675321
 20
203.8946608954923
 10
274.9529372843049
 20
203.8962651999689
 10
274.9910101902083
 20
203.8972621740873
 10
275.0039234968249
 20
203.8976003209189
 10
275.0995872527642
 20
203.909399319731
 10
275.1130052265921
 20
203.9125842231993
  0
LWPOLYLINE
  5
C50
330
1F
100
AcDbEntity
  8
HEWI
  6
CUSTOM
 62
     7
370
     9
100
AcDbPolyline
 90
        7
 70
     0
 43
0.0
 10
264.691360035114
 20
251.6170544203499
 10
264.6908349420314
 20
251.6223053511293
 10
264.7053614972788
 20
251.6219249598961
 10
264.746846925877
 20
251.6208386257273
 10
264.8147411751711
 20
251.6190607522561
 10
264.8955879537193
 20
251.616943704873
 10
273.4908350108394
 20
251.3918692416081
  0
LINE
  5
C51
330
1F
100
AcDbEntity
  8
HEWI
  6
CUSTOM
 62
     7
370
     9
100
AcDbLine
 10
275.5490162713363
 20
212.4223054000464
 30
0.0
 11
275.4908350274086
 21
212.4223054000464
 31
0.0
  0
LINE
  5
C52
330
1F
100
AcDbEntity
  8
HEWI
  6
CUSTOM
 62
     7
370
     9
100
AcDbLine
 10
287.4134913135299
 20
211.9055917155455
 30
0.0
 11
287.5514639784746
 21
211.4566915028589
 31
0.0
  0
LINE
  5
C53
330
1F
100
AcDbEntity
  8
HEWI
  6
CUSTOM
 62
     7
370
     9
100
AcDbLine
 10
300.7308315567948
 20
198.1731980228122
 30
0.0
 11
303.1803221580253
 21
199.8032989157721
 31
0.0
  0
LINE
  5
C54
330
1F
100
AcDbEntity
  8
HEWI
  6
CUSTOM
 62
     7
370
     9
100
AcDbLine
 10
273.4908350108394
 20
251.3918692416081
 30
0.0
 11
275.6092232445813
 21
251.3363972939691
 31
0.0
  0
LINE
  5
C55
330
1F
100
AcDbEntity
  8
HEWI
  6
CUSTOM
 62
     7
370
     9
100
AcDbLine
 10
288.9341682317413
 20
209.2493917928681
 30
0.0
 11
289.5181100942604
 21
208.7057431518104
 31
0.0
  0
LINE
  5
C56
330
1F
100
AcDbEntity
  8
HEWI
  6
CUSTOM
 62
     7
370
     9
100
AcDbLine
 10
273.4908350108394
 20
251.3866320243431
 30
0.0
 11
273.4908350108394
 21
251.3918692416081
 31
0.0
  0
LINE
  5
C57
330
1F
100
AcDbEntity
  8
HEWI
  6
CUSTOM
 62
     7
370
     9
100
AcDbLine
 10
286.8560677146938
 20
219.4748836564284
 30
0.0
 11
286.8562996279502
 21
219.4630678724862
 31
0.0
  0
LINE
  5
C58
330
1F
100
AcDbEntity
  8
HEWI
  6
CUSTOM
 62
     7
370
     9
100
AcDbLine
 10
275.5490116083615
 20
212.4223054000464
 30
0.0
 11
275.5491547867009
 21
212.4209972289003
 31
0.0
  0
LINE
  5
C59
330
1F
100
AcDbEntity
  8
HEWI
  6
CUSTOM
 62
     7
370
     9
100
AcDbLine
 10
293.2429261818747
 20
207.4944577586653
 30
0.0
 11
294.1353580237242
 21
207.5398758614191
 31
0.0
  0
LINE
  5
C5A
330
1F
100
AcDbEntity
  8
HEWI
  6
CUSTOM
 62
     7
370
     9
100
AcDbLine
 10
275.4908350264773
 20
204.3974289827823
 30
0.0
 11
275.4815442559734
 21
204.3014891475071
 31
0.0
  0
LINE
  5
C5B
330
1F
100
AcDbEntity
  8
HEWI
  6
CUSTOM
 62
     7
370
     9
100
AcDbLine
 10
288.2401986854543
 20
210.1025666248091
 30
0.0
 11
288.5559476737721
 21
209.649038062049
 31
0.0
  0
LINE
  5
C5C
330
1F
100
AcDbEntity
  8
HEWI
  6
CUSTOM
 62
     7
370
     9
100
AcDbLine
 10
275.9739001750827
 20
257.3574041813023
 30
0.0
 11
276.1902865229317
 21
257.3591551008593
 31
0.0
  0
LINE
  5
C5D
330
1F
100
AcDbEntity
  8
HEWI
  6
CUSTOM
 62
     7
370
     9
100
AcDbLine
 10
294.8001953244152
 20
207.6349450744802
 30
0.0
 11
295.8607879740871
 21
207.9237068673964
 31
0.0
  0
LINE
  5
C5E
330
1F
100
AcDbEntity
  8
HEWI
  6
CUSTOM
 62
     7
370
     9
100
AcDbLine
 10
296.1670361834854
 20
208.0238083771461
 30
0.0
 11
299.934216423308
 21
210.0826610213042
 31
0.0
  0
LINE
  5
C5F
330
1F
100
AcDbEntity
  8
HEWI
  6
CUSTOM
 62
     7
370
     9
100
AcDbLine
 10
292.0390229123754
 20
207.5976705303955
 30
0.0
 11
292.4074291364564
 21
207.5445841547811
 31
0.0
  0
LINE
  5
C60
330
1F
100
AcDbEntity
  8
HEWI
  6
CUSTOM
 62
     7
370
     9
100
AcDbLine
 10
286.9812040369657
 20
215.3282094311952
 30
0.0
 11
287.1735713482835
 21
213.0365593319724
 31
0.0
  0
LINE
  5
C61
330
1F
100
AcDbEntity
  8
HEWI
  6
CUSTOM
 62
     7
370
     9
100
AcDbLine
 10
287.7680211782267
 20
210.9481956948362
 30
0.0
 11
287.9605433521833
 21
210.549731125809
 31
0.0
  0
LINE
  5
C62
330
1F
100
AcDbEntity
  8
HEWI
  6
CUSTOM
 62
     7
370
     9
100
AcDbLine
 10
275.1183469622379
 20
203.913961605483
 30
0.0
 11
275.1160873595641
 21
203.9136385074003
 31
0.0
  0
LINE
  5
C63
330
1F
100
AcDbEntity
  8
HEWI
  6
CUSTOM
 62
     7
370
     9
100
AcDbLine
 10
275.225955974935
 20
203.9561602005911
 30
0.0
 11
275.2161625122294
 21
203.9510798787181
 31
0.0
  0
LWPOLYLINE
  5
C64
330
1F
100
AcDbEntity
  8
HEWI
  6
CUSTOM
 62
     7
370
     9
100
AcDbPolyline
 90
        3
 70
     0
 43
0.0
 10
275.3083929099716
 20
204.0112205036524
 10
275.2910451375787
 20
203.9975866540381
 10
275.2161625122294
 20
203.9510798787181
  0
LINE
  5
C65
330
1F
100
AcDbEntity
  8
HEWI
  6
CUSTOM
 62
     7
370
     9
100
AcDbLine
 10
275.1273284052372
 20
203.9174836550504
 30
0.0
 11
275.1183469622379
 21
203.913961605483
 31
0.0
  0
LWPOLYLINE
  5
C66
330
1F
100
AcDbEntity
  8
HEWI
  6
CUSTOM
 62
     7
370
     9
100
AcDbPolyline
 90
        3
 70
     0
 43
0.0
 10
275.3852238576024
 20
204.0900896768081
 10
275.3748371005309
 20
204.077206550448
 10
275.3083929099716
 20
204.0112205036524
  0
LWPOLYLINE
  5
C67
330
1F
100
AcDbEntity
  8
HEWI
  6
CUSTOM
 62
     7
370
     9
100
AcDbPolyline
 90
        3
 70
     0
 43
0.0
 10
275.442929564038
 20
204.1838627666912
 10
275.4381073459849
 20
204.1739396727263
 10
275.3852238576024
 20
204.0900896768081
  0
LWPOLYLINE
  5
C68
330
1F
100
AcDbEntity
  8
HEWI
  6
CUSTOM
 62
     7
370
     9
100
AcDbPolyline
 90
        3
 70
     0
 43
0.0
 10
275.4787116854718
 20
204.2879924007521
 10
275.4774746055068
 20
204.2826164399692
 10
275.442929564038
 20
204.1838627666912
  0
LINE
  5
C69
330
1F
100
AcDbEntity
  8
HEWI
  6
CUSTOM
 62
     7
370
     9
100
AcDbLine
 10
275.3209997281197
 20
204.0219409422803
 30
0.0
 11
275.3150213727217
 21
204.0178032621173
 31
0.0
  0
LINE
  5
C6A
330
1F
100
AcDbEntity
  8
HEWI
  6
CUSTOM
 62
     7
370
     9
100
AcDbLine
 10
275.4540172181273
 20
204.2091147321713
 30
0.0
 11
275.442929564038
 21
204.1838627666912
 31
0.0
  0
LINE
  5
C6B
330
1F
100
AcDbEntity
  8
HEWI
  6
CUSTOM
 62
     7
370
     9
100
AcDbLine
 10
275.3209997281197
 20
204.0219409422803
 30
0.0
 11
275.3083929099716
 21
204.0112205036524
 31
0.0
  0
LINE
  5
C6C
330
1F
100
AcDbEntity
  8
HEWI
  6
CUSTOM
 62
     7
370
     9
100
AcDbLine
 10
275.3365059823477
 20
204.0391397316042
 30
0.0
 11
275.3209997281197
 21
204.0219409422803
 31
0.0
  0
LINE
  5
C6D
330
1F
100
AcDbEntity
  8
HEWI
  6
CUSTOM
 62
     7
370
     9
100
AcDbLine
 10
275.4815442559734
 20
204.3014891475071
 30
0.0
 11
275.4787116854718
 21
204.2879924007521
 31
0.0
  0
LINE
  5
C6E
330
1F
100
AcDbEntity
  8
HEWI
  6
CUSTOM
 62
     7
370
     9
100
AcDbLine
 10
275.4119061151673
 20
204.1323960234841
 30
0.0
 11
275.3983989236181
 21
204.1077883969732
 31
0.0
  0
LINE
  5
C6F
330
1F
100
AcDbEntity
  8
HEWI
  6
CUSTOM
 62
     7
370
     9
100
AcDbLine
 10
275.4815442559734
 20
204.3014891475071
 30
0.0
 11
275.4794154725991
 21
204.2943454395423
 31
0.0
  0
LINE
  5
C70
330
1F
100
AcDbEntity
  8
HEWI
  6
CUSTOM
 62
     7
370
     9
100
AcDbLine
 10
275.3983989236181
 20
204.1077883969732
 30
0.0
 11
275.3917005845547
 21
204.1003589223422
 31
0.0
  0
LINE
  5
C71
330
1F
100
AcDbEntity
  8
HEWI
  6
CUSTOM
 62
     7
370
     9
100
AcDbLine
 10
275.466981473865
 20
204.2526197961991
 30
0.0
 11
275.4540172181273
 21
204.2091147321713
 31
0.0
  0
LINE
  5
C72
330
1F
100
AcDbEntity
  8
HEWI
  6
CUSTOM
 62
     7
370
     9
100
AcDbLine
 10
275.4243856762391
 20
204.1521831285123
 30
0.0
 11
275.3983989236181
 21
204.1077883969732
 31
0.0
  0
LWPOLYLINE
  5
C73
330
1F
100
AcDbEntity
  8
HEWI
  6
CUSTOM
 62
     7
370
     9
100
AcDbPolyline
 90
        3
 70
     0
 43
0.0
 10
275.2161625122294
 20
203.9510798787181
 10
275.1912094406857
 20
203.9393350047963
 10
275.1130052265921
 20
203.9125842231993
  0
LINE
  5
C74
330
1F
100
AcDbEntity
  8
HEWI
  6
CUSTOM
 62
     7
370
     9
100
AcDbLine
 10
275.2400595566601
 20
203.9659214319739
 30
0.0
 11
275.225955974935
 21
203.9561602005911
 31
0.0
  0
LINE
  5
C75
330
1F
100
AcDbEntity
  8
HEWI
  6
CUSTOM
 62
     7
370
     9
100
AcDbLine
 10
275.4540172181273
 20
204.2091147321713
 30
0.0
 11
275.4478021721184
 21
204.197792057848
 31
0.0
  0
LINE
  5
C76
330
1F
100
AcDbEntity
  8
HEWI
  6
CUSTOM
 62
     7
370
     9
100
AcDbLine
 10
275.3474610647913
 20
204.0500192770531
 30
0.0
 11
275.3209997281197
 21
204.0219409422803
 31
0.0
  0
LINE
  5
C77
330
1F
100
AcDbEntity
  8
HEWI
  6
CUSTOM
 62
     7
370
     9
100
AcDbLine
 10
275.2473458705713
 20
203.9704466868082
 30
0.0
 11
275.225955974935
 21
203.9561602005911
 31
0.0
  0
LINE
  5
C78
330
1F
100
AcDbEntity
  8
HEWI
  6
CUSTOM
 62
     7
370
     9
100
AcDbLine
 10
275.3983989236181
 20
204.1077883969732
 30
0.0
 11
275.3852238576024
 21
204.0900896768081
 31
0.0
  0
LINE
  5
C79
330
1F
100
AcDbEntity
  8
HEWI
  6
CUSTOM
 62
     7
370
     9
100
AcDbLine
 10
275.4732279243622
 20
204.2704764816841
 30
0.0
 11
275.4540172181273
 21
204.2091147321713
 31
0.0
  0
LINE
  5
C7A
330
1F
100
AcDbEntity
  8
HEWI
  6
CUSTOM
 62
     7
370
     9
100
AcDbLine
 10
275.4908350264773
 20
204.3974289827823
 30
0.0
 11
275.4787116854718
 21
204.2879924007521
 31
0.0
  0
LINE
  5
C7B
330
1F
100
AcDbEntity
  8
HEWI
  6
CUSTOM
 62
     7
370
     9
100
AcDbLine
 10
275.1183469622379
 20
203.913961605483
 30
0.0
 11
275.1130052265921
 21
203.9125842231993
 31
0.0
  0
LINE
  5
C7C
330
1F
100
AcDbEntity
  8
HEWI
  6
CUSTOM
 62
     7
370
     9
100
AcDbLine
 10
275.225955974935
 20
203.9561602005911
 30
0.0
 11
275.2215786773563
 21
203.954443654704
 31
0.0
  0
LINE
  5
C7D
330
1F
100
AcDbEntity
  8
HEWI
  6
CUSTOM
 62
     7
370
     9
100
AcDbLine
 10
275.1303715959261
 20
203.9185246186121
 30
0.0
 11
275.1183469622379
 21
203.913961605483
 31
0.0
  0
LWPOLYLINE
  5
CAF
330
1F
100
AcDbEntity
  8
HEWI
  6
CUSTOM
 62
     7
370
     9
100
AcDbPolyline
 90
       53
 70
     1
 43
0.0
 10
211.6538399275032
 20
259.7225695676177
 10
211.6942100616625
 20
260.3925287512847
 10
211.7425473876402
 20
260.8987834193824
 10
211.7962336312112
 20
261.2142956813324
 10
211.9103578151999
 20
261.6503466819024
 10
212.0427449422341
 20
261.9554993600327
 10
212.2381995480655
 20
262.2264218408647
 10
212.4852919278265
 20
262.4519431215226
 10
212.7725923766557
 20
262.6208921991296
 10
213.0344779469178
 20
262.7104088928824
 10
213.3101285982867
 20
262.7464269786575
 10
222.7651239922689
 20
262.7464338273616
 10
223.0389417187735
 20
262.7134586964609
 10
223.3021772456705
 20
262.6308645388487
 10
223.5680695416186
 20
262.4878170730678
 10
223.7968377807165
 20
262.3042408864796
 10
224.0049081237549
 20
262.0242881667547
 10
224.1581409476267
 20
261.6799001239517
 10
224.2699941651036
 20
261.2469398486807
 10
224.3155106768709
 20
261.0266512969094
 10
224.366020507142
 20
260.5804729395256
 10
224.4092483821169
 20
259.9616546151964
 10
224.443029120167
 20
259.2052288926315
 10
224.4659436710126
 20
258.3516646025477
 10
224.4775792816954
 20
257.4463011625086
 10
224.4775650674046
 20
257.4201888696436
 10
224.5250817559909
 20
219.5606819592846
 10
224.5351841987622
 20
213.6617057188336
 10
224.5200685052214
 20
207.8160041034666
 10
224.4849294358592
 20
205.0641705548368
 10
224.4385554916508
 20
202.7881870587107
 10
224.3952631717975
 20
201.2415333609735
 10
224.3284114945846
 20
199.4433248842348
 10
224.2474224116932
 20
197.9116760405886
 10
224.1580233853884
 20
196.8781116850415
 10
224.0701589930632
 20
196.5262501025547
 10
223.654605845627
 20
195.5422155789198
 10
222.6364398681654
 20
195.1233154111116
 10
213.4206885961003
 20
195.1032480905784
 10
212.4329428922574
 20
195.5300043916476
 10
211.9926338048363
 20
196.5283402256615
 10
211.9075207414844
 20
196.9591002784368
 10
211.8150287603039
 20
198.1179343050284
 10
211.7357168886602
 20
199.7186736349676
 10
211.6584531905
 20
202.0236546129735
 10
211.5858163705225
 20
205.4067847734408
 10
211.5442530776727
 20
209.4143180306225
 10
211.550429417538
 20
219.5481899983135
 10
211.5504414586986
 20
219.5606819592565
 10
211.5979581000765
 20
257.4201893113406
 10
211.5979439070097
 20
257.4463011625086
 10
211.6068656245762
 20
258.2029798952978
 10
211.623601254697
 20
258.9286273052696
  0
LWPOLYLINE
  5
CB0
330
1F
100
AcDbEntity
  8
HEWI
  6
CUSTOM
 62
     7
370
     9
100
AcDbPolyline
 90
       19
 70
     0
 43
0.0
 10
212.1472853734331
 20
212.9687132490917
 10
212.0955386721207
 20
215.1589607202736
 10
212.0733139351997
 20
216.1991763086907
 10
212.0733053074519
 20
217.2390605213756
 10
212.0954990641904
 20
218.2786222310546
 10
212.1402153065419
 20
219.3178415218865
 10
212.1552225535734
 20
219.5979121561797
 10
212.1588923634682
 20
219.6513726120674
 10
212.5977961779054
 20
220.6328048912175
 10
213.5815355696287
 20
221.0422293266496
 10
222.4898644888299
 20
221.0674758995885
 10
223.4777272177899
 20
220.6327964057725
 10
223.9189526536202
 20
219.6374675146127
 10
223.9353078821633
 20
219.3178415218865
 10
223.9800241245148
 20
218.2786222310546
 10
224.0022178812524
 20
217.2390605213756
 10
224.0022092535046
 20
216.1991763086907
 10
223.9799845165835
 20
215.1589607202736
 10
223.9282378152712
 20
212.9687132490917
  0
LWPOLYLINE
  5
CB1
330
1F
100
AcDbEntity
  8
HEWI
  6
CUSTOM
 62
     7
370
     9
100
AcDbPolyline
 90
        3
 70
     0
 43
0.0
 10
223.9274256435993
 20
208.9269256355176
 10
224.0421325328507
 20
204.6101165970976
 10
223.9467574028604
 20
198.2640638860577
  0
LWPOLYLINE
  5
CB2
330
1F
100
AcDbEntity
  8
HEWI
  6
CUSTOM
 62
     7
370
     9
100
AcDbPolyline
 90
        3
 70
     0
 43
0.0
 10
223.9260329664676
 20
202.3583728874816
 10
223.9282768532367
 20
212.9416673103885
 10
223.9282878360573
 20
212.9708305282035
  0
LWPOLYLINE
  5
CB3
330
1F
100
AcDbEntity
  8
HEWI
  6
CUSTOM
 62
     7
370
     9
100
AcDbPolyline
 90
        3
 70
     0
 43
0.0
 10
212.063250243732
 20
196.7859260583636
 10
212.0131468510918
 20
202.8840792365356
 10
212.1480995523498
 20
208.9174690591407
  0
LWPOLYLINE
  5
CB4
330
1F
100
AcDbEntity
  8
HEWI
  6
CUSTOM
 62
     7
370
     9
100
AcDbPolyline
 90
        3
 70
     0
 43
0.0
 10
212.1472353526788
 20
212.9708304423415
 10
212.1472463354676
 20
212.9416673103885
 10
212.1494902222367
 20
202.3583728874816
  0
LWPOLYLINE
  5
CB5
330
1F
100
AcDbEntity
  8
HEWI
  6
CUSTOM
 62
     7
370
     9
100
AcDbPolyline
 90
       18
 70
     0
 43
0.0
 10
224.4572571038007
 20
203.7060483872525
 10
225.3377614162964
 20
203.7060483872525
 10
225.4353430988167
 20
203.7156423372764
 10
225.5291549750382
 20
203.7440561380023
 10
225.6317042911224
 20
203.8014115765797
 10
225.7180006283998
 20
203.8810979580734
 10
225.7832835137588
 20
203.9787194426537
 10
225.8239516654967
 20
204.0888908139008
 10
225.8377616553417
 20
204.2055345502517
 10
225.8377616553417
 20
251.2065621643543
 10
225.8281578311308
 20
251.3040435181114
 10
225.7997147866418
 20
251.3977589415016
 10
225.7423003172871
 20
251.5002028213427
 10
225.6625319217901
 20
251.5864104329036
 10
225.5648099642231
 20
251.6516261975604
 10
225.4545252035241
 20
251.6922525362736
 10
225.3377614162964
 20
251.7060483273537
 10
224.4847367710891
 20
251.7060483273537
  0
LWPOLYLINE
  5
CB6
330
1F
100
AcDbEntity
  8
HEWI
  6
CUSTOM
 62
     7
370
     9
100
AcDbPolyline
 90
       18
 70
     0
 43
0.0
 10
211.5907864017563
 20
251.7060483273537
 10
210.7377617724078
 20
251.7060483273537
 10
210.6401800898875
 20
251.6964543773308
 10
210.5463682136679
 20
251.6680405766037
 10
210.4438188975828
 20
251.6106851380268
 10
210.3575225603045
 20
251.5309987565335
 10
210.2922396749455
 20
251.4333772719537
 10
210.2515715232085
 20
251.3232059007068
 10
210.2377615333635
 20
251.2065621643543
 10
210.2377615333635
 20
204.2055345502517
 10
210.2473653575744
 20
204.1080531964946
 10
210.2758084020634
 20
204.0143377731046
 10
210.3332228714189
 20
203.9118938932635
 10
210.412991266915
 20
203.8256862817026
 10
210.5107132244812
 20
203.7604705170465
 10
210.6209979851811
 20
203.7198441783336
 10
210.7377617724078
 20
203.7060483872525
 10
211.6223316803726
 20
203.7060483872525
  0
LINE
  5
CB7
330
1F
100
AcDbEntity
  8
HEWI
  6
CUSTOM
 62
     7
370
     9
100
AcDbLine
 10
225.5282105302668
 20
247.7060483323457
 30
0.0
 11
225.5282105302668
 21
250.2060483292259
 31
0.0
  0
LINE
  5
CB8
330
1F
100
AcDbEntity
  8
HEWI
  6
CUSTOM
 62
     7
370
     9
100
AcDbLine
 10
225.5282105302668
 20
250.2060483292259
 30
0.0
 11
225.5018785659404
 21
250.2060483292259
 31
0.0
  0
LINE
  5
CB9
330
1F
100
AcDbEntity
  8
HEWI
  6
CUSTOM
 62
     7
370
     9
100
AcDbLine
 10
212.5820176342277
 20
198.2569409990366
 30
0.0
 11
212.5872455492945
 21
199.8870418919966
 31
0.0
  0
LWPOLYLINE
  5
CBA
330
1F
100
AcDbEntity
  8
HEWI
  6
CUSTOM
 62
     7
370
     9
100
AcDbPolyline
 90
        3
 70
     0
 43
0.0
 10
225.5018785659404
 20
250.2060483292259
 10
225.4519470888136
 20
250.2060483292259
 10
225.4519470888136
 20
249.2091816636486
  0
LWPOLYLINE
  5
CBB
330
1F
100
AcDbEntity
  8
HEWI
  6
CUSTOM
 62
     7
370
     9
100
AcDbPolyline
 90
        5
 70
     0
 43
0.0
 10
225.5018785659404
 20
250.2060483292259
 10
225.5018785659404
 20
249.2091816636486
 10
225.449052395863
 20
249.2091816636486
 10
225.449052395863
 20
250.2060483292259
 10
225.4227204315367
 20
250.2060483292259
  0
LWPOLYLINE
  5
CBC
330
1F
100
AcDbEntity
  8
HEWI
  6
CUSTOM
 62
     7
370
     9
100
AcDbPolyline
 90
        4
 70
     0
 43
0.0
 10
225.4227204315367
 20
250.2060483292259
 10
225.3727889544098
 20
250.2060483292259
 10
225.3727889544098
 20
247.7060483323457
 10
225.4227204315367
 20
247.7060483323457
  0
LWPOLYLINE
  5
CBD
330
1F
100
AcDbEntity
  8
HEWI
  6
CUSTOM
 62
     7
370
     9
100
AcDbPolyline
 90
        3
 70
     0
 43
0.0
 10
225.4519470888136
 20
248.8122983307937
 10
225.4519470888136
 20
247.7060483323457
 10
225.5018785659404
 20
247.7060483323457
  0
LINE
  5
CBE
330
1F
100
AcDbEntity
  8
HEWI
  6
CUSTOM
 62
     7
370
     9
100
AcDbLine
 10
225.7619237228492
 20
247.7060483323457
 30
0.0
 11
225.8011756902588
 21
250.2060483292259
 31
0.0
  0
LWPOLYLINE
  5
CBF
330
1F
100
AcDbEntity
  8
HEWI
  6
CUSTOM
 62
     7
370
     9
100
AcDbPolyline
 90
       10
 70
     0
 43
0.0
 10
225.6276488479334
 20
247.7060483323457
 10
225.6276488479334
 20
248.1247983318037
 10
225.5722058799902
 20
248.1247983318037
 10
225.5722058799902
 20
248.8122983307937
 10
225.6232334377055
 20
248.8122983307937
 10
225.6232334377055
 20
249.2091816636486
 10
225.5722058799902
 20
249.2091816636486
 10
225.5722058799902
 20
249.7685483297498
 10
225.6276488479334
 20
249.7685483297498
 10
225.6276488479334
 20
250.2060483292259
  0
LINE
  5
CC0
330
1F
100
AcDbEntity
  8
HEWI
  6
CUSTOM
 62
     7
370
     9
100
AcDbLine
 10
225.5458739156638
 20
247.7060483323457
 30
0.0
 11
225.6276488479334
 21
247.7060483323457
 31
0.0
  0
LINE
  5
CC1
330
1F
100
AcDbEntity
  8
HEWI
  6
CUSTOM
 62
     7
370
     9
100
AcDbLine
 10
225.6315740446835
 20
250.2060483292259
 30
0.0
 11
225.6683723280721
 21
247.7060483323457
 31
0.0
  0
LINE
  5
CC2
330
1F
100
AcDbEntity
  8
HEWI
  6
CUSTOM
 62
     7
370
     9
100
AcDbLine
 10
225.7022275861582
 20
250.2060483292259
 30
0.0
 11
225.659377522742
 21
250.2060483292259
 31
0.0
  0
LINE
  5
CC3
330
1F
100
AcDbEntity
  8
HEWI
  6
CUSTOM
 62
     7
370
     9
100
AcDbLine
 10
225.6315740446835
 20
250.2060483292259
 30
0.0
 11
225.6276488477852
 21
250.2060483292259
 31
0.0
  0
LWPOLYLINE
  5
CC4
330
1F
100
AcDbEntity
  8
HEWI
  6
CUSTOM
 62
     7
370
     9
100
AcDbPolyline
 90
        3
 70
     0
 43
0.0
 10
225.7022275861582
 20
250.2060483292259
 10
225.6821105166919
 20
248.4747983310267
 10
225.6593775216543
 20
250.2060483292259
  0
LWPOLYLINE
  5
CC5
330
1F
100
AcDbEntity
  8
HEWI
  6
CUSTOM
 62
     7
370
     9
100
AcDbPolyline
 90
        5
 70
     0
 43
0.0
 10
225.4227204315367
 20
247.7060483323457
 10
225.449052395863
 20
247.7060483323457
 10
225.449052395863
 20
248.8122983307937
 10
225.5018785659404
 20
248.8122983307937
 10
225.5018785659404
 20
247.7060483323457
  0
LINE
  5
CC6
330
1F
100
AcDbEntity
  8
HEWI
  6
CUSTOM
 62
     7
370
     9
100
AcDbLine
 10
225.6683723280721
 20
247.7060483323457
 30
0.0
 11
225.6276488473687
 21
247.7060483323457
 31
0.0
  0
LWPOLYLINE
  5
CC7
330
1F
100
AcDbEntity
  8
HEWI
  6
CUSTOM
 62
     7
370
     9
100
AcDbPolyline
 90
        3
 70
     0
 43
0.0
 10
225.7722269282067
 20
250.2060483292259
 10
225.7488397336747
 20
248.4622983310707
 10
225.7288857779413
 20
250.2060483292259
  0
LINE
  5
CC8
330
1F
100
AcDbEntity
  8
HEWI
  6
CUSTOM
 62
     7
370
     9
100
AcDbLine
 10
225.7288857779413
 20
250.2060483292259
 30
0.0
 11
225.7022275861582
 21
250.2060483292259
 31
0.0
  0
LINE
  5
CC9
330
1F
100
AcDbEntity
  8
HEWI
  6
CUSTOM
 62
     7
370
     9
100
AcDbLine
 10
225.6683723280721
 20
247.7060483323457
 30
0.0
 11
225.6940500929368
 21
247.7060483323457
 31
0.0
  0
LWPOLYLINE
  5
CCA
330
1F
100
AcDbEntity
  8
HEWI
  6
CUSTOM
 62
     7
370
     9
100
AcDbPolyline
 90
        4
 70
     0
 43
0.0
 10
225.8082078983016
 20
247.7060483323457
 10
225.8353571758171
 20
247.7060483323457
 10
225.8353571758171
 20
250.2060483292259
 10
225.8082078983016
 20
250.2060483292259
  0
LINE
  5
CCB
330
1F
100
AcDbEntity
  8
HEWI
  6
CUSTOM
 62
     7
370
     9
100
AcDbLine
 10
225.7362459579872
 20
247.7060483323457
 30
0.0
 11
225.694050093558
 21
247.7060483323457
 31
0.0
  0
LINE
  5
CCC
330
1F
100
AcDbEntity
  8
HEWI
  6
CUSTOM
 62
     7
370
     9
100
AcDbLine
 10
225.8082078983016
 20
250.2060483292259
 30
0.0
 11
225.8082078983016
 21
247.7060483323457
 31
0.0
  0
LWPOLYLINE
  5
CCD
330
1F
100
AcDbEntity
  8
HEWI
  6
CUSTOM
 62
     7
370
     9
100
AcDbPolyline
 90
        3
 70
     0
 43
0.0
 10
225.6940500929368
 20
247.7060483323457
 10
225.7153115753254
 20
249.4122983301626
 10
225.7362459579872
 20
247.7060483323457
  0
LINE
  5
CCE
330
1F
100
AcDbEntity
  8
HEWI
  6
CUSTOM
 62
     7
370
     9
100
AcDbLine
 10
225.5458739156638
 20
250.2060483292259
 30
0.0
 11
225.5458739156638
 21
247.7060483323457
 31
0.0
  0
LINE
  5
CCF
330
1F
100
AcDbEntity
  8
HEWI
  6
CUSTOM
 62
     7
370
     9
100
AcDbLine
 10
225.8011756902588
 20
250.2060483292259
 30
0.0
 11
225.7722269282067
 21
250.2060483292259
 31
0.0
  0
LINE
  5
CD0
330
1F
100
AcDbEntity
  8
HEWI
  6
CUSTOM
 62
     7
370
     9
100
AcDbLine
 10
225.5880822670379
 20
249.7685483372224
 30
0.0
 11
225.5963157604911
 21
249.2091816572385
 31
0.0
  0
LINE
  5
CD1
330
1F
100
AcDbEntity
  8
HEWI
  6
CUSTOM
 62
     7
370
     9
100
AcDbLine
 10
225.6021576107196
 20
248.8122983190437
 30
0.0
 11
225.6122771377732
 21
248.1247983795067
 31
0.0
  0
LINE
  5
CD2
330
1F
100
AcDbEntity
  8
HEWI
  6
CUSTOM
 62
     7
370
     9
100
AcDbLine
 10
225.6593775216543
 20
250.2060483292259
 30
0.0
 11
225.6315740446835
 21
250.2060483292259
 31
0.0
  0
LINE
  5
CD3
330
1F
100
AcDbEntity
  8
HEWI
  6
CUSTOM
 62
     7
370
     9
100
AcDbLine
 10
225.5018785659404
 20
247.7060483323457
 30
0.0
 11
225.5282105302668
 21
247.7060483323457
 31
0.0
  0
LINE
  5
CD4
330
1F
100
AcDbEntity
  8
HEWI
  6
CUSTOM
 62
     7
370
     9
100
AcDbLine
 10
225.7362459579872
 20
247.7060483323457
 30
0.0
 11
225.7619237228492
 21
247.7060483323457
 31
0.0
  0
LINE
  5
CD5
330
1F
100
AcDbEntity
  8
HEWI
  6
CUSTOM
 62
     7
370
     9
100
AcDbLine
 10
225.4227204315367
 20
250.2060483292259
 30
0.0
 11
225.4227204315367
 21
247.7060483323457
 31
0.0
  0
LINE
  5
CD6
330
1F
100
AcDbEntity
  8
HEWI
  6
CUSTOM
 62
     7
370
     9
100
AcDbLine
 10
225.5458739156638
 20
250.2060483292259
 30
0.0
 11
225.5282105296201
 21
250.2060483292259
 31
0.0
  0
LINE
  5
CD7
330
1F
100
AcDbEntity
  8
HEWI
  6
CUSTOM
 62
     7
370
     9
100
AcDbLine
 10
225.5458739156638
 20
247.7060483323457
 30
0.0
 11
225.5282105296201
 21
247.7060483323457
 31
0.0
  0
LINE
  5
CD8
330
1F
100
AcDbEntity
  8
HEWI
  6
CUSTOM
 62
     7
370
     9
100
AcDbLine
 10
225.7722269282067
 20
250.2060483292259
 30
0.0
 11
225.728885776568
 21
250.2060483292259
 31
0.0
  0
LINE
  5
CD9
330
1F
100
AcDbEntity
  8
HEWI
  6
CUSTOM
 62
     7
370
     9
100
AcDbLine
 10
225.6276488479334
 20
250.2060483292259
 30
0.0
 11
225.5458739156638
 21
250.2060483292259
 31
0.0
  0
LINE
  5
CDA
330
1F
100
AcDbEntity
  8
HEWI
  6
CUSTOM
 62
     7
370
     9
100
AcDbLine
 10
225.8082078983016
 20
247.7060483323457
 30
0.0
 11
225.761923723232
 21
247.7060483323457
 31
0.0
  0
LINE
  5
CDB
330
1F
100
AcDbEntity
  8
HEWI
  6
CUSTOM
 62
     7
370
     9
100
AcDbLine
 10
225.8082078983016
 20
250.2060483292259
 30
0.0
 11
225.8011756899878
 21
250.2060483292259
 31
0.0
  0
LWPOLYLINE
  5
D0C
330
1F
100
AcDbEntity
  8
HEWI
  6
CUSTOM
 62
     7
370
     9
100
AcDbPolyline
 90
       18
 70
     0
 43
0.0
 10
212.1474649771449
 20
111.132718388515
 10
212.1428702324488
 20
95.57625543585777
 10
212.0712438701553
 20
92.89933876602594
 10
212.0712524979031
 20
92.2241656578692
 10
212.0934772343467
 20
91.54949254136431
 10
212.1358983965024
 20
90.50924406655099
 10
212.1609817441217
 20
89.99103163769428
 10
212.5973041202237
 20
89.00851774462102
 10
213.5738460482439
 20
88.59445499398793
 10
222.4931557446439
 20
88.56498834616104
 10
223.4737493634461
 20
89.01162613995301
 10
223.9108717062877
 20
90.00912661948769
 10
223.935501661957
 20
90.50924406655099
 10
223.9779228241118
 20
91.54949254136431
 10
224.0001475605573
 20
92.2241656578692
 10
224.0001561883041
 20
92.89933876602594
 10
223.9285298260115
 20
95.57625543585777
 10
223.9239122411877
 20
111.1329918630701
  0
LWPOLYLINE
  5
D0D
330
1F
100
AcDbEntity
  8
HEWI
  6
CUSTOM
 62
     7
370
     9
100
AcDbPolyline
 90
        7
 70
     0
 43
0.0
 10
224.3411744540049
 20
129.5802013147479
 10
224.3263497946468
 20
129.1738529591068
 10
224.2453607134907
 20
126.7651735360268
 10
224.1559616891013
 20
123.7802828331978
 10
224.0680972986597
 20
120.3733135825439
 10
223.9929135476236
 20
116.702903347485
 10
223.9629603044782
 20
114.5055742609349
  0
LWPOLYLINE
  5
D0E
330
1F
100
AcDbEntity
  8
HEWI
  6
CUSTOM
 62
     7
370
     9
100
AcDbPolyline
 90
       13
 70
     0
 43
0.0
 10
221.5356999815872
 20
136.2875635050591
 10
223.0953414233368
 20
136.2237036168931
 10
223.3093446133393
 20
136.195723312976
 10
223.5153141465366
 20
136.1348112743098
 10
223.7883760942573
 20
135.9977150860802
 10
224.118876183647
 20
135.7609428305527
 10
224.2338732341727
 20
135.5786647600243
 10
224.389304159246
 20
135.314595473051
 10
224.4885204763218
 20
135.0260866706819
 10
224.5331224943916
 20
134.7270042002069
 10
224.5180068011755
 20
134.1829187600842
 10
224.40699079864
 20
130.3521552245117
 10
223.9872362693727
 20
125.4288924938068
  0
LWPOLYLINE
  5
D0F
330
1F
100
AcDbEntity
  8
HEWI
  6
CUSTOM
 62
     7
370
     9
100
AcDbPolyline
 90
        3
 70
     0
 43
0.0
 10
224.4492799728473
 20
134.9646124033952
 10
224.4755175785608
 20
134.6748458442059
 10
223.9890884430975
 20
126.9584794360289
  0
LWPOLYLINE
  5
D10
330
1F
100
AcDbEntity
  8
HEWI
  6
CUSTOM
 62
     7
370
     9
100
AcDbPolyline
 90
        3
 70
     0
 43
0.0
 10
223.9311690342279
 20
116.111981389226
 10
224.0400708390466
 20
110.6091928250259
 10
223.9251772916809
 20
106.8710040924159
  0
LWPOLYLINE
  5
D11
330
1F
100
AcDbEntity
  8
HEWI
  6
CUSTOM
 62
     7
370
     9
100
AcDbPolyline
 90
        6
 70
     0
 43
0.0
 10
212.0780818672169
 20
126.9941959110902
 10
211.5958824798995
 20
134.6748458442059
 10
211.6125234449578
 20
134.8941286885638
 10
211.6260266838922
 20
134.982977514235
 10
211.6638925665879
 20
135.106791674847
 10
211.71353955721
 20
135.2644440697511
  0
LWPOLYLINE
  5
D12
330
1F
100
AcDbEntity
  8
HEWI
  6
CUSTOM
 62
     7
370
     9
100
AcDbPolyline
 90
        3
 70
     0
 43
0.0
 10
223.2664034502463
 20
125.1944942539978
 10
222.9600329984082
 20
125.0498955373959
 10
222.6403070497631
 20
124.9124700653419
  0
LWPOLYLINE
  5
D13
330
1F
100
AcDbEntity
  8
HEWI
  6
CUSTOM
 62
     7
370
     9
100
AcDbPolyline
 90
        8
 70
     0
 43
0.0
 10
212.1462233252028
 20
106.928847629294
 10
212.011085415083
 20
113.4715499412391
 10
212.0611888066492
 20
117.6583608609769
 10
211.9905723692677
 20
120.908454647458
 10
211.9054593077394
 20
124.134054065895
 10
211.8129673285416
 20
127.1710047591491
 10
211.7336554585968
 20
129.4978558406271
 10
211.7083860810949
 20
130.1819065900213
  0
LWPOLYLINE
  5
D14
330
1F
100
AcDbEntity
  8
HEWI
  6
CUSTOM
 62
     7
370
     9
100
AcDbPolyline
 90
       19
 70
     0
 43
0.0
 10
213.4431096976145
 20
124.9803375816718
 10
213.1168958567364
 20
125.0444159330659
 10
212.8299339352229
 20
125.169313855672
 10
212.5217285250096
 20
125.3230081084079
 10
212.3229884606139
 20
125.6349109560092
 10
212.1591812865231
 20
125.9538418823652
 10
212.0749939650791
 20
126.2166633331176
 10
211.6815568711559
 20
130.472092232063
 10
211.5421916517121
 20
134.4800865997742
 10
211.5483679914446
 20
134.7220806347061
 10
211.5655154913388
 20
134.9372236417252
 10
211.6159580733197
 20
135.1460041186878
 10
211.7391026622722
 20
135.425635251268
 10
211.9530960698489
 20
135.7608117660229
 10
212.1351420067235
 20
135.891707380345
 10
212.3910326035843
 20
136.0602635034581
 10
212.6741677111072
 20
136.1739097500301
 10
212.9662733034034
 20
136.2244836492821
 10
214.5357000768722
 20
136.2875588420843
  0
LWPOLYLINE
  5
D15
330
1F
100
AcDbEntity
  8
HEWI
  6
CUSTOM
 62
     7
370
     9
100
AcDbPolyline
 90
        6
 70
     0
 43
0.0
 10
212.0587516207456
 20
138.345740028765
 10
214.5357000768722
 20
138.345740028765
 10
214.5357000768995
 20
136.2273518709992
 10
221.5356999815872
 20
136.2273540545693
 10
221.5356999815872
 20
138.345740028765
 10
224.0126484377138
 20
138.345740028765
  0
LWPOLYLINE
  5
D16
330
1F
100
AcDbEntity
  8
HEWI
  6
CUSTOM
 62
     7
370
     9
100
AcDbPolyline
 90
        7
 70
     0
 43
0.0
 10
212.7613714753802
 20
136.1482496601538
 10
213.0597743335325
 20
136.1859693332371
 10
223.011625724927
 20
136.1859693332371
 10
223.2303245819662
 20
136.1623312581853
 10
223.3251001290414
 20
136.1445689038942
 10
223.4412457785134
 20
136.1042398752849
 10
223.6077749338651
 20
136.0447778479717
  0
LWPOLYLINE
  5
D17
330
1F
100
AcDbEntity
  8
HEWI
  6
CUSTOM
 62
     7
370
     9
100
AcDbPolyline
 90
        4
 70
     0
 43
0.0
 10
223.9944405270221
 20
126.291183005095
 10
223.911420294317
 20
125.9626455919269
 10
223.754283512058
 20
125.6625607351941
 10
223.5498852899314
 20
125.321819225222
  0
LWPOLYLINE
  5
D18
330
1F
100
AcDbEntity
  8
HEWI
  6
CUSTOM
 62
     7
370
     9
100
AcDbPolyline
 90
        3
 70
     0
 43
0.0
 10
212.1978976169871
 20
135.862674953577
 10
212.0216622739795
 20
135.714290832147
 10
211.9713726262093
 20
135.6462886134891
  0
LWPOLYLINE
  5
D19
330
1F
100
AcDbEntity
  8
HEWI
  6
CUSTOM
 62
     7
370
     9
100
AcDbPolyline
 90
        3
 70
     0
 43
0.0
 10
223.9707011208707
 20
135.7797891864709
 10
224.0492850112173
 20
135.714495896816
 10
224.1797851965753
 20
135.5465063553251
  0
LWPOLYLINE
  5
D1A
330
1F
100
AcDbEntity
  8
HEWI
  6
CUSTOM
 62
     7
370
     9
100
AcDbPolyline
 90
       32
 70
     0
 43
0.0
 10
221.6833281364402
 20
138.345740028765
 10
221.7229497520134
 20
136.832651597047
 10
221.7254547955686
 20
136.7369878445379
 10
221.7278540069442
 20
136.6453656599028
 10
221.7304682966155
 20
136.5455299665909
 10
221.7326624663388
 20
136.4617380066429
 10
221.7343192559888
 20
136.3984677634603
 10
221.7353501239381
 20
136.3591005053479
 10
221.7356999788649
 20
136.345740084857
 10
224.3102498049925
 20
136.345740084857
 10
224.4989167671106
 20
136.363698956683
 10
224.5360510687883
 20
136.3715666971632
 10
224.6808072374583
 20
136.4169305299892
 10
224.7501889688597
 20
136.4477125062358
 10
224.8809633649075
 20
136.524590870707
 10
224.9416025918476
 20
136.570244335388
 10
225.0516402958324
 20
136.6746662159651
 10
225.100404806612
 20
136.7328330203468
 10
225.1840220161335
 20
136.8594046900271
 10
225.2183929664557
 20
136.9270803310151
 10
225.2712705828885
 20
137.0692639547312
 10
225.2810710002045
 20
137.1059355988818
 10
225.3088793261536
 20
137.2934041020353
 10
225.8356999230568
 20
147.3457397763477
 10
225.8260960990506
 20
147.3457397763477
 10
225.7976530551728
 20
147.3457397763477
 10
225.7402385870469
 20
147.3457397763477
 10
225.6604701932606
 20
147.3457397763477
 10
225.5627482377881
 20
147.3457397763477
 10
225.4524634794529
 20
147.3457397763477
 10
225.3356996947273
 20
147.3457397763477
 10
224.2713732384732
 20
147.3457397763477
  0
LWPOLYLINE
  5
D1B
330
1F
100
AcDbEntity
  8
HEWI
  6
CUSTOM
 62
     7
370
     9
100
AcDbPolyline
 90
       12
 70
     0
 43
0.0
 10
224.0126484377138
 20
138.345740028765
 10
224.2602380596277
 20
146.9409867776128
 10
224.2479150366812
 20
147.0163357932278
 10
224.2083950156671
 20
147.0812873706959
 10
224.1420275698697
 20
147.1289252035444
 10
224.0618492075487
 20
147.1457397819567
 10
212.0095508509107
 20
147.1457397819567
 10
211.9347918245007
 20
147.1312132272303
 10
211.8711831259893
 20
147.0897278001203
 10
211.8256094711191
 20
147.0218335532602
 10
211.8111619988326
 20
146.9409867776128
 10
212.0587516207456
 20
138.345740028765
  0
LINE
  5
D1C
330
1F
100
AcDbEntity
  8
HEWI
  6
CUSTOM
 62
     7
370
     9
100
AcDbLine
 10
214.6237452129339
 20
147.3457397763477
 30
0.0
 11
211.8000268199871
 21
147.3457397763477
 31
0.0
  0
LWPOLYLINE
  5
D1D
330
1F
100
AcDbEntity
  8
HEWI
  6
CUSTOM
 62
     7
370
     9
100
AcDbPolyline
 90
       32
 70
     0
 43
0.0
 10
211.8000268199871
 20
147.3457397763477
 10
210.7357003637321
 20
147.3457397763477
 10
210.6381186833037
 20
147.3457397763477
 10
210.5443068090931
 20
147.3457397763477
 10
210.4417574952063
 20
147.3457397763477
 10
210.3554611597788
 20
147.3457397763477
 10
210.2901782758177
 20
147.3457397763477
 10
210.2495101249519
 20
147.3457397763477
 10
210.2357001354035
 20
147.3457397763477
 10
210.7625207323058
 20
137.2934041020353
 10
210.7903290582549
 20
137.1059355988818
 10
210.8001294755709
 20
137.0692639547312
 10
210.8530070920037
 20
136.9270803310151
 10
210.887378042326
 20
136.8594046900271
 10
210.9709952518483
 20
136.7328330203468
 10
211.019759762627
 20
136.6746662159651
 10
211.1297974666127
 20
136.570244335388
 10
211.1904366935509
 20
136.524590870707
 10
211.3212110896006
 20
136.4477125062358
 10
211.390592821002
 20
136.4169305299892
 10
211.535348989672
 20
136.3715666971632
 10
211.5724832913497
 20
136.363698956683
 10
211.7611502534678
 20
136.345740084857
 10
214.3357000795945
 20
136.345740084857
 10
214.335943366977
 20
136.355030855027
 10
214.336664187816
 20
136.3825578918868
 10
214.3381206040826
 20
136.4381761844011
 10
214.3401473733015
 20
136.515575377123
 10
214.3426361815141
 20
136.6106191268989
 10
214.3454540226198
 20
136.7182281357361
 10
214.3484503064469
 20
136.832651597047
 10
214.3880719220201
 20
138.345740028765
  0
LINE
  5
D1E
330
1F
100
AcDbEntity
  8
HEWI
  6
CUSTOM
 62
     7
370
     9
100
AcDbLine
 10
221.4476548455245
 20
147.3457397763477
 30
0.0
 11
214.6237452129339
 21
147.3457397763477
 31
0.0
  0
LWPOLYLINE
  5
D1F
330
1F
100
AcDbEntity
  8
HEWI
  6
CUSTOM
 62
     7
370
     9
100
AcDbPolyline
 90
        3
 70
     0
 43
0.0
 10
224.0126484868601
 20
138.345740028765
 10
224.0356999475575
 20
138.345740028765
 10
224.2713732384732
 20
147.3457397763477
  0
LWPOLYLINE
  5
D20
330
1F
100
AcDbEntity
  8
HEWI
  6
CUSTOM
 62
     7
370
     9
100
AcDbPolyline
 90
        3
 70
     0
 43
0.0
 10
211.8000268199871
 20
147.3457397763477
 10
212.0357001109028
 20
138.345740028765
 10
212.058751619797
 20
138.345740028765
  0
LINE
  5
D21
330
1F
100
AcDbEntity
  8
HEWI
  6
CUSTOM
 62
     7
370
     9
100
AcDbLine
 10
224.2713732384732
 20
147.3457397763477
 30
0.0
 11
221.4476548455245
 21
147.3457397763477
 31
0.0
  0
LINE
  5
D22
330
1F
100
AcDbEntity
  8
HEWI
  6
CUSTOM
 62
     7
370
     9
100
AcDbLine
 10
225.4998168408552
 20
139.981342762609
 30
0.0
 11
225.4498853647969
 21
139.9839595603471
 31
0.0
  0
LWPOLYLINE
  5
D23
330
1F
100
AcDbEntity
  8
HEWI
  6
CUSTOM
 62
     7
370
     9
100
AcDbPolyline
 90
        3
 70
     0
 43
0.0
 10
225.7491824826998
 20
145.6948886948653
 10
225.799113958758
 20
145.6922718971261
 10
225.7701651973262
 20
145.139896631279
  0
LINE
  5
D24
330
1F
100
AcDbEntity
  8
HEWI
  6
CUSTOM
 62
     7
370
     9
100
AcDbLine
 10
225.7268240479902
 20
144.3128982485311
 30
0.0
 11
225.7001658567774
 21
143.8042296654941
 31
0.0
  0
LINE
  5
D25
330
1F
100
AcDbEntity
  8
HEWI
  6
CUSTOM
 62
     7
370
     9
100
AcDbLine
 10
225.7467780032944
 20
144.6936423916731
 30
0.0
 11
225.7268240479902
 21
144.3128982485311
 31
0.0
  0
LINE
  5
D26
330
1F
100
AcDbEntity
  8
HEWI
  6
CUSTOM
 62
     7
370
     9
100
AcDbLine
 10
225.6573157931921
 20
142.986601756947
 30
0.0
 11
225.6073843171348
 21
142.9892185546853
 31
0.0
  0
LWPOLYLINE
  5
D27
330
1F
100
AcDbEntity
  8
HEWI
  6
CUSTOM
 62
     7
370
     9
100
AcDbPolyline
 90
        3
 70
     0
 43
0.0
 10
225.4469906719082
 20
138.973359426807
 10
225.4206587081476
 20
138.4709156342719
 10
225.3707272320885
 20
138.4735324320118
  0
LWPOLYLINE
  5
D28
330
1F
100
AcDbEntity
  8
HEWI
  6
CUSTOM
 62
     7
370
     9
100
AcDbPolyline
 90
        4
 70
     0
 43
0.0
 10
225.5756556440933
 20
142.3837994162202
 10
225.6255871201515
 20
142.381182618481
 10
225.5438121896345
 20
140.8208240141891
 10
225.4938807135772
 20
140.8234408119279
  0
LINE
  5
D29
330
1F
100
AcDbEntity
  8
HEWI
  6
CUSTOM
 62
     7
370
     9
100
AcDbLine
 10
214.6237452129339
 20
147.3457397763477
 30
0.0
 11
214.6185080285063
 21
147.1457397748791
 31
0.0
  0
LINE
  5
D2A
330
1F
100
AcDbEntity
  8
HEWI
  6
CUSTOM
 62
     7
370
     9
100
AcDbLine
 10
225.7701651973262
 20
145.139896631279
 30
0.0
 11
225.7467780032944
 21
144.6936423916731
 31
0.0
  0
LINE
  5
D2B
330
1F
100
AcDbEntity
  8
HEWI
  6
CUSTOM
 62
     7
370
     9
100
AcDbLine
 10
225.6800487877431
 20
143.4203731270199
 30
0.0
 11
225.6573157931921
 21
142.986601756947
 31
0.0
  0
LWPOLYLINE
  5
D2C
330
1F
100
AcDbEntity
  8
HEWI
  6
CUSTOM
 62
     7
370
     9
100
AcDbPolyline
 90
        3
 70
     0
 43
0.0
 10
225.4998168408552
 20
139.981342762609
 10
225.5261488046158
 20
140.483786555143
 10
225.4762173285585
 20
140.486403352882
  0
LINE
  5
D2D
330
1F
100
AcDbEntity
  8
HEWI
  6
CUSTOM
 62
     7
370
     9
100
AcDbLine
 10
225.4469906719082
 20
138.973359426807
 30
0.0
 11
225.397059195851
 21
138.9759762245448
 31
0.0
  0
LINE
  5
D2E
330
1F
100
AcDbEntity
  8
HEWI
  6
CUSTOM
 62
     7
370
     9
100
AcDbLine
 10
225.7701651973262
 20
145.139896631279
 30
0.0
 11
225.7202337212679
 21
145.1425134290182
 31
0.0
  0
LWPOLYLINE
  5
D2F
330
1F
100
AcDbEntity
  8
HEWI
  6
CUSTOM
 62
     7
370
     9
100
AcDbPolyline
 90
        4
 70
     0
 43
0.0
 10
225.783363967525
 20
146.347110269601
 10
225.8332954435841
 20
146.344493471862
 10
225.8061461666498
 20
145.8264544151902
 10
225.7562146905916
 20
145.8290712129292
  0
LINE
  5
D30
330
1F
100
AcDbEntity
  8
HEWI
  6
CUSTOM
 62
     7
370
     9
100
AcDbLine
 10
225.7467780032944
 20
144.6936423916731
 30
0.0
 11
225.6968465272371
 21
144.6962591894109
 31
0.0
  0
LINE
  5
D31
330
1F
100
AcDbEntity
  8
HEWI
  6
CUSTOM
 62
     7
370
     9
100
AcDbLine
 10
225.7268240479902
 20
144.3128982485311
 30
0.0
 11
225.676892571932
 21
144.3155150462692
 31
0.0
  0
LINE
  5
D32
330
1F
100
AcDbEntity
  8
HEWI
  6
CUSTOM
 62
     7
370
     9
100
AcDbLine
 10
225.7001658567774
 20
143.8042296654941
 30
0.0
 11
225.6502343807192
 21
143.8068464632329
 31
0.0
  0
LINE
  5
D33
330
1F
100
AcDbEntity
  8
HEWI
  6
CUSTOM
 62
     7
370
     9
100
AcDbLine
 10
225.6800487877431
 20
143.4203731270199
 30
0.0
 11
225.630117311684
 21
143.4229899247577
 31
0.0
  0
LINE
  5
D34
330
1F
100
AcDbEntity
  8
HEWI
  6
CUSTOM
 62
     7
370
     9
100
AcDbLine
 10
225.7001658567774
 20
143.8042296654941
 30
0.0
 11
225.6800487877431
 21
143.4203731270199
 31
0.0
  0
LINE
  5
D35
330
1F
100
AcDbEntity
  8
HEWI
  6
CUSTOM
 62
     7
370
     9
100
AcDbLine
 10
221.4528920294556
 20
147.1457397938777
 30
0.0
 11
221.4476548455245
 21
147.3457397763477
 31
0.0
  0
LINE
  5
D36
330
1F
100
AcDbEntity
  8
HEWI
  6
CUSTOM
 62
     7
370
     9
100
AcDbLine
 10
225.4998168408552
 20
139.981342762609
 30
0.0
 11
225.4469906719082
 21
138.973359426807
 31
0.0
  0
LWPOLYLINE
  5
D37
330
1F
100
AcDbEntity
  8
HEWI
  6
CUSTOM
 62
     7
370
     9
100
AcDbPolyline
 90
        3
 70
     0
 43
0.0
 10
225.6573157931921
 20
142.986601756947
 10
225.629512316817
 20
142.4560798314942
 10
225.5795808407579
 20
142.4586966292329
  0
LWPOLYLINE
  5
D46
330
1F
100
AcDbEntity
  8
HEWI
  6
CUSTOM
 62
     7
370
     9
100
AcDbPolyline
 90
       55
 70
     0
 43
0.0
 10
160.5223837871221
 20
212.4223054000464
 10
160.1297537971763
 20
208.7142169463954
 10
160.0933200247041
 20
208.5020550531838
 10
159.4531976579769
 20
205.8961074669654
 10
158.8470997257513
 20
204.257435863043
 10
158.3346394779469
 20
203.2101952103779
 10
157.0364229992424
 20
201.0562106544654
 10
156.7844958592863
 20
200.7583662962403
 10
154.9790219691954
 20
198.7749391654582
 10
154.8158134652353
 20
198.637926544164
 10
153.3572880076904
 20
197.5096101898403
 10
152.1602478335385
 20
196.7913618463738
 10
151.5687526570823
 20
196.4933303363032
 10
149.1381154167697
 20
195.5933920037081
 10
148.8156556465806
 20
195.5080173489922
 10
146.5868121832777
 20
195.1132972890603
 10
144.8617917249644
 20
195.019505114354
 10
143.9849619246856
 20
195.0395724348871
 10
141.4026836090702
 20
195.3587436837173
 10
140.590262031344
 20
195.541456592556
 10
138.0821943376654
 20
196.3495229419203
 10
136.8819952471281
 20
196.8698777469622
 10
134.0393201018173
 20
198.4709913894013
 10
130.2966004080449
 20
201.088951623186
 10
130.2584959563496
 20
201.1155136865482
 10
115.0707794137902
 20
211.7047148652281
 10
115.0222369655462
 20
211.7398910632163
 10
114.4903198515544
 20
212.174949952256
 10
114.0437005379685
 20
212.6378385327003
 10
114.0161312610994
 20
212.670157133963
 10
113.4609829430214
 20
213.4577126501161
 10
113.3117590264687
 20
213.7351924566591
 10
113.0617719374772
 20
214.3291071658151
 10
112.914709967667
 20
214.8480711320443
 10
112.8292782284948
 20
215.3690086539631
 10
112.7998115796113
 20
215.9095803107065
 10
112.8425028215438
 20
216.5587880024581
 10
112.9116516878625
 20
216.9743478742253
 10
113.1292004033216
 20
217.7153664132214
 10
113.2054107821964
 20
217.9086943152253
 10
113.676024634145
 20
218.7682273007554
 10
114.2975678642419
 20
219.5206853157291
 10
114.4359265130574
 20
219.651282030879
 10
115.0517493078919
 20
220.1377119984521
 10
115.3818280225191
 20
220.3395533318938
 10
116.0886517746562
 20
220.6725288949332
 10
116.4575749186192
 20
220.7954068894351
 10
117.2192146086158
 20
220.9520884883153
 10
117.6080768345023
 20
220.9837329233641
 10
118.3858288452561
 20
220.9584863504252
 10
118.7756400218936
 20
220.8988044698841
 10
119.5263914783549
 20
220.6996751817354
 10
119.7136984517788
 20
220.6288378359112
 10
120.5786907391052
 20
220.1861544619754
 10
136.1371836351504
 20
210.0826610213042
  0
LWPOLYLINE
  5
D47
330
1F
100
AcDbEntity
  8
HEWI
  6
CUSTOM
 62
     7
370
     9
100
AcDbPolyline
 90
       37
 70
     0
 43
0.0
 10
145.308451047576
 20
207.9684953683421
 10
146.0762382277321
 20
208.3596689833874
 10
146.7748227742663
 20
208.8664527314023
 10
147.610133848892
 20
209.7490831130513
 10
148.1824017885869
 20
210.664130592408
 10
148.6051039850958
 20
211.6566734009551
 10
149.0414172018941
 20
213.7134264696272
 10
149.2151621211719
 20
219.4651100915131
 10
149.215750409387
 20
219.4988874706322
 10
149.8755344626811
 20
257.5202494693332
 10
150.0548066373508
 20
258.735969642638
 10
150.3519348476761
 20
259.4989824173802
 10
150.5046247959248
 20
259.8781214594222
 10
150.9625859358898
 20
260.5599847626473
 10
151.1987787542171
 20
260.886045874873
 10
151.7998801887947
 20
261.4457563367881
 10
152.1088457587616
 20
261.701166204583
 10
152.8252143216018
 20
262.1099716009283
 10
153.1855062896397
 20
262.284363607513
 10
153.9757059905646
 20
262.5248034604271
 10
154.166295429884
 20
262.5723962262515
 10
155.1856233621124
 20
262.6626908511372
 10
156.2164134614072
 20
262.5571260135754
 10
156.4142528398865
 20
262.5114858498413
 10
157.2058211099497
 20
262.2514848474701
 10
157.5787576813113
 20
262.0768412471051
 10
158.28645546304
 20
261.6434636453722
 10
158.6102850266766
 20
261.3868097343651
 10
159.1901001187002
 20
260.7991419285164
 10
159.4412483523506
 20
260.4717923940051
 10
159.8619283601278
 20
259.7614962269712
 10
160.0300643000814
 20
259.3831421416343
 10
160.2784394010145
 20
258.5915017016845
 10
160.321712492338
 20
258.3879884035351
 10
160.4207942746311
 20
257.3511520889182
 10
160.4207844041616
 20
257.3361814485892
 10
160.4621768138772
 20
251.3363972939691
  0
LWPOLYLINE
  5
D48
330
1F
100
AcDbEntity
  8
HEWI
  6
CUSTOM
 62
     7
370
     9
100
AcDbPolyline
 90
        3
 70
     0
 43
0.0
 10
160.5223837871221
 20
212.4223054000464
 10
160.5221867408786
 20
219.4662765389563
 10
160.4621768138772
 20
251.3363972939691
  0
LWPOLYLINE
  5
D49
330
1F
100
AcDbEntity
  8
HEWI
  6
CUSTOM
 62
     7
370
     9
100
AcDbPolyline
 90
        5
 70
     0
 43
0.0
 10
139.7551086277312
 20
208.0725945419464
 10
140.9562623926526
 20
207.6799806345442
 10
142.4235504393005
 20
207.4701640148743
 10
143.8980180851872
 20
207.5586260236752
 10
145.308451047576
 20
207.9684953683421
  0
LINE
  5
D4A
330
1F
100
AcDbEntity
  8
HEWI
  6
CUSTOM
 62
     7
370
     9
100
AcDbLine
 10
136.1371836351504
 20
210.0826610213042
 30
0.0
 11
138.4569120672827
 21
208.6868373094511
 31
0.0
  0
LINE
  5
D4B
330
1F
100
AcDbEntity
  8
HEWI
  6
CUSTOM
 62
     7
370
     9
100
AcDbLine
 10
146.330644759761
 20
208.5442265956222
 30
0.0
 11
145.3084510481826
 21
207.9684953668889
 31
0.0
  0
LWPOLYLINE
  5
D4C
330
1F
100
AcDbEntity
  8
HEWI
  6
CUSTOM
 62
     7
370
     9
100
AcDbPolyline
 90
       48
 70
     0
 43
0.0
 10
160.5805650319812
 20
204.3974289827823
 10
160.5805650319812
 20
250.8471817793753
 10
160.5898558024851
 20
250.9431216146503
 10
160.5926883729867
 20
250.956618361405
 10
160.6173828403312
 20
251.0354960299863
 10
160.6284704944205
 20
251.0607479954673
 10
160.6730011348404
 20
251.1368223651853
 10
160.6861762008561
 20
251.1545210853499
 10
160.7504003303388
 20
251.2226698198782
 10
160.7630071484868
 20
251.2333902585052
 10
160.8454440835235
 20
251.288450561566
 10
160.8552375462291
 20
251.2935308834391
 10
160.9530530962206
 20
251.3306491566742
 10
160.9583948318664
 20
251.332026538958
 10
161.0674765616336
 20
251.3470104412394
 10
161.0764559978702
 20
251.3472455760501
 10
161.1030717854769
 20
251.3479425349702
 10
161.1569019577659
 20
251.3493521276274
 10
161.2319396330872
 20
251.3513170582902
 10
161.3243088734302
 20
251.3537358319512
 10
161.4292385095455
 20
251.356483511148
 10
161.5413085872183
 20
251.359418169385
 10
171.5805651179912
 20
251.6223053511293
 10
171.5805651179912
 20
251.6127114011063
 10
171.5805651179912
 20
251.5842976003793
 10
171.5805651179912
 20
251.5269421618024
 10
171.5805651179912
 20
251.4472557803091
 10
171.5805651179912
 20
251.3496342957293
 10
171.5805651179912
 20
251.2394629244823
 10
171.5805651179912
 20
251.1228191881299
 10
171.5805651179912
 20
204.1217915740273
 10
171.5805651179912
 20
204.0243102202702
 10
171.5805651179912
 20
203.9305947968802
 10
171.5805651179912
 20
203.8281509170391
 10
171.5805651179912
 20
203.7419433054782
 10
171.5805651179912
 20
203.676727540822
 10
171.5805651179912
 20
203.6361012021092
 10
171.5805651179912
 20
203.6223054110281
 10
161.5413085872183
 20
203.8851925927721
 10
161.4475743322787
 20
203.8876471105981
 10
161.3581466951377
 20
203.889988855669
 10
161.2610230363211
 20
203.892532128158
 10
161.1797286909263
 20
203.8946608954923
 10
161.1184627741536
 20
203.8962651999689
 10
161.0803898682502
 20
203.8972621740873
 10
161.0674765616336
 20
203.8976003209189
 10
160.9718128056943
 20
203.909399319731
 10
160.9583948318664
 20
203.9125842231993
  0
LWPOLYLINE
  5
D4D
330
1F
100
AcDbEntity
  8
HEWI
  6
CUSTOM
 62
     7
370
     9
100
AcDbPolyline
 90
        7
 70
     0
 43
0.0
 10
171.3800400233444
 20
251.6170544203499
 10
171.380565116427
 20
251.6223053511293
 10
171.3660385611797
 20
251.6219249598961
 10
171.3245531325815
 20
251.6208386257273
 10
171.2566588832874
 20
251.6190607522561
 10
171.1758121047392
 20
251.616943704873
 10
162.5805650476191
 20
251.3918692416081
  0
LINE
  5
D4E
330
1F
100
AcDbEntity
  8
HEWI
  6
CUSTOM
 62
     7
370
     9
100
AcDbLine
 10
160.5223837871221
 20
212.4223054000464
 30
0.0
 11
160.5805650310499
 21
212.4223054000464
 31
0.0
  0
LINE
  5
D4F
330
1F
100
AcDbEntity
  8
HEWI
  6
CUSTOM
 62
     7
370
     9
100
AcDbLine
 10
148.6579087449286
 20
211.9055917155455
 30
0.0
 11
148.5199360799838
 21
211.4566915028589
 31
0.0
  0
LINE
  5
D50
330
1F
100
AcDbEntity
  8
HEWI
  6
CUSTOM
 62
     7
370
     9
100
AcDbLine
 10
135.3405685016637
 20
198.1731980228122
 30
0.0
 11
132.8910779004331
 21
199.8032989157721
 31
0.0
  0
LINE
  5
D51
330
1F
100
AcDbEntity
  8
HEWI
  6
CUSTOM
 62
     7
370
     9
100
AcDbLine
 10
162.5805650476191
 20
251.3918692416081
 30
0.0
 11
160.4621768138772
 21
251.3363972939691
 31
0.0
  0
LINE
  5
D52
330
1F
100
AcDbEntity
  8
HEWI
  6
CUSTOM
 62
     7
370
     9
100
AcDbLine
 10
147.1372318267172
 20
209.2493917928681
 30
0.0
 11
146.553289964198
 21
208.7057431518104
 31
0.0
  0
LINE
  5
D53
330
1F
100
AcDbEntity
  8
HEWI
  6
CUSTOM
 62
     7
370
     9
100
AcDbLine
 10
162.5805650476191
 20
251.3866320243431
 30
0.0
 11
162.5805650476191
 21
251.3918692416081
 31
0.0
  0
LINE
  5
D54
330
1F
100
AcDbEntity
  8
HEWI
  6
CUSTOM
 62
     7
370
     9
100
AcDbLine
 10
149.2153323437646
 20
219.4748836564284
 30
0.0
 11
149.2151004305083
 21
219.4630678724862
 31
0.0
  0
LINE
  5
D55
330
1F
100
AcDbEntity
  8
HEWI
  6
CUSTOM
 62
     7
370
     9
100
AcDbLine
 10
160.5223884500969
 20
212.4223054000464
 30
0.0
 11
160.5222452717575
 21
212.4209972289003
 31
0.0
  0
LINE
  5
D56
330
1F
100
AcDbEntity
  8
HEWI
  6
CUSTOM
 62
     7
370
     9
100
AcDbLine
 10
142.8284738765837
 20
207.4944577586653
 30
0.0
 11
141.9360420347343
 21
207.5398758614191
 31
0.0
  0
LINE
  5
D57
330
1F
100
AcDbEntity
  8
HEWI
  6
CUSTOM
 62
     7
370
     9
100
AcDbLine
 10
160.5805650319812
 20
204.3974289827823
 30
0.0
 11
160.5898558024851
 21
204.3014891475071
 31
0.0
  0
LINE
  5
D58
330
1F
100
AcDbEntity
  8
HEWI
  6
CUSTOM
 62
     7
370
     9
100
AcDbLine
 10
147.8312013730042
 20
210.1025666248091
 30
0.0
 11
147.5154523846863
 21
209.649038062049
 31
0.0
  0
LINE
  5
D59
330
1F
100
AcDbEntity
  8
HEWI
  6
CUSTOM
 62
     7
370
     9
100
AcDbLine
 10
160.0974998833758
 20
257.3574041813023
 30
0.0
 11
159.8811135355267
 21
257.3591551008593
 31
0.0
  0
LINE
  5
D5A
330
1F
100
AcDbEntity
  8
HEWI
  6
CUSTOM
 62
     7
370
     9
100
AcDbLine
 10
141.2712047340433
 20
207.6349450744802
 30
0.0
 11
140.2106120843714
 21
207.9237068673964
 31
0.0
  0
LINE
  5
D5B
330
1F
100
AcDbEntity
  8
HEWI
  6
CUSTOM
 62
     7
370
     9
100
AcDbLine
 10
139.9043638749731
 20
208.0238083771461
 30
0.0
 11
136.1371836351504
 21
210.0826610213042
 31
0.0
  0
LINE
  5
D5C
330
1F
100
AcDbEntity
  8
HEWI
  6
CUSTOM
 62
     7
370
     9
100
AcDbLine
 10
144.032377146083
 20
207.5976705303955
 30
0.0
 11
143.6639709220021
 21
207.5445841547811
 31
0.0
  0
LINE
  5
D5D
330
1F
100
AcDbEntity
  8
HEWI
  6
CUSTOM
 62
     7
370
     9
100
AcDbLine
 10
149.0901960214928
 20
215.3282094311952
 30
0.0
 11
148.8978287101749
 21
213.0365593319724
 31
0.0
  0
LINE
  5
D5E
330
1F
100
AcDbEntity
  8
HEWI
  6
CUSTOM
 62
     7
370
     9
100
AcDbLine
 10
148.3033788802317
 20
210.9481956948362
 30
0.0
 11
148.1108567062752
 21
210.549731125809
 31
0.0
  0
LINE
  5
D5F
330
1F
100
AcDbEntity
  8
HEWI
  6
CUSTOM
 62
     7
370
     9
100
AcDbLine
 10
160.9530530962206
 20
203.913961605483
 30
0.0
 11
160.9553126988944
 21
203.9136385074003
 31
0.0
  0
LINE
  5
D60
330
1F
100
AcDbEntity
  8
HEWI
  6
CUSTOM
 62
     7
370
     9
100
AcDbLine
 10
160.8454440835235
 20
203.9561602005911
 30
0.0
 11
160.8552375462291
 21
203.9510798787181
 31
0.0
  0
LWPOLYLINE
  5
D61
330
1F
100
AcDbEntity
  8
HEWI
  6
CUSTOM
 62
     7
370
     9
100
AcDbPolyline
 90
        3
 70
     0
 43
0.0
 10
160.7630071484868
 20
204.0112205036524
 10
160.7803549208797
 20
203.9975866540381
 10
160.8552375462291
 20
203.9510798787181
  0
LINE
  5
D62
330
1F
100
AcDbEntity
  8
HEWI
  6
CUSTOM
 62
     7
370
     9
100
AcDbLine
 10
160.9440716532212
 20
203.9174836550504
 30
0.0
 11
160.9530530962206
 21
203.913961605483
 31
0.0
  0
LWPOLYLINE
  5
D63
330
1F
100
AcDbEntity
  8
HEWI
  6
CUSTOM
 62
     7
370
     9
100
AcDbPolyline
 90
        3
 70
     0
 43
0.0
 10
160.6861762008561
 20
204.0900896768081
 10
160.6965629579276
 20
204.077206550448
 10
160.7630071484868
 20
204.0112205036524
  0
LWPOLYLINE
  5
D64
330
1F
100
AcDbEntity
  8
HEWI
  6
CUSTOM
 62
     7
370
     9
100
AcDbPolyline
 90
        3
 70
     0
 43
0.0
 10
160.6284704944205
 20
204.1838627666912
 10
160.6332927124736
 20
204.1739396727263
 10
160.6861762008561
 20
204.0900896768081
  0
LWPOLYLINE
  5
D65
330
1F
100
AcDbEntity
  8
HEWI
  6
CUSTOM
 62
     7
370
     9
100
AcDbPolyline
 90
        3
 70
     0
 43
0.0
 10
160.5926883729867
 20
204.2879924007521
 10
160.5939254529516
 20
204.2826164399692
 10
160.6284704944205
 20
204.1838627666912
  0
LINE
  5
D66
330
1F
100
AcDbEntity
  8
HEWI
  6
CUSTOM
 62
     7
370
     9
100
AcDbLine
 10
160.7504003303388
 20
204.0219409422803
 30
0.0
 11
160.7563786857367
 21
204.0178032621173
 31
0.0
  0
LINE
  5
D67
330
1F
100
AcDbEntity
  8
HEWI
  6
CUSTOM
 62
     7
370
     9
100
AcDbLine
 10
160.6173828403312
 20
204.2091147321713
 30
0.0
 11
160.6284704944205
 21
204.1838627666912
 31
0.0
  0
LINE
  5
D68
330
1F
100
AcDbEntity
  8
HEWI
  6
CUSTOM
 62
     7
370
     9
100
AcDbLine
 10
160.7504003303388
 20
204.0219409422803
 30
0.0
 11
160.7630071484868
 21
204.0112205036524
 31
0.0
  0
LINE
  5
D69
330
1F
100
AcDbEntity
  8
HEWI
  6
CUSTOM
 62
     7
370
     9
100
AcDbLine
 10
160.7348940761108
 20
204.0391397316042
 30
0.0
 11
160.7504003303388
 21
204.0219409422803
 31
0.0
  0
LINE
  5
D6A
330
1F
100
AcDbEntity
  8
HEWI
  6
CUSTOM
 62
     7
370
     9
100
AcDbLine
 10
160.5898558024851
 20
204.3014891475071
 30
0.0
 11
160.5926883729867
 21
204.2879924007521
 31
0.0
  0
LINE
  5
D6B
330
1F
100
AcDbEntity
  8
HEWI
  6
CUSTOM
 62
     7
370
     9
100
AcDbLine
 10
160.6594939432912
 20
204.1323960234841
 30
0.0
 11
160.6730011348404
 21
204.1077883969732
 31
0.0
  0
LINE
  5
D6C
330
1F
100
AcDbEntity
  8
HEWI
  6
CUSTOM
 62
     7
370
     9
100
AcDbLine
 10
160.5898558024851
 20
204.3014891475071
 30
0.0
 11
160.5919845858593
 21
204.2943454395423
 31
0.0
  0
LINE
  5
D6D
330
1F
100
AcDbEntity
  8
HEWI
  6
CUSTOM
 62
     7
370
     9
100
AcDbLine
 10
160.6730011348404
 20
204.1077883969732
 30
0.0
 11
160.6796994739038
 21
204.1003589223422
 31
0.0
  0
LINE
  5
D6E
330
1F
100
AcDbEntity
  8
HEWI
  6
CUSTOM
 62
     7
370
     9
100
AcDbLine
 10
160.6044185845935
 20
204.2526197961991
 30
0.0
 11
160.6173828403312
 21
204.2091147321713
 31
0.0
  0
LINE
  5
D6F
330
1F
100
AcDbEntity
  8
HEWI
  6
CUSTOM
 62
     7
370
     9
100
AcDbLine
 10
160.6470143822193
 20
204.1521831285123
 30
0.0
 11
160.6730011348404
 21
204.1077883969732
 31
0.0
  0
LWPOLYLINE
  5
D70
330
1F
100
AcDbEntity
  8
HEWI
  6
CUSTOM
 62
     7
370
     9
100
AcDbPolyline
 90
        3
 70
     0
 43
0.0
 10
160.8552375462291
 20
203.9510798787181
 10
160.8801906177727
 20
203.9393350047963
 10
160.9583948318664
 20
203.9125842231993
  0
LINE
  5
D71
330
1F
100
AcDbEntity
  8
HEWI
  6
CUSTOM
 62
     7
370
     9
100
AcDbLine
 10
160.8313405017984
 20
203.9659214319739
 30
0.0
 11
160.8454440835235
 21
203.9561602005911
 31
0.0
  0
LINE
  5
D72
330
1F
100
AcDbEntity
  8
HEWI
  6
CUSTOM
 62
     7
370
     9
100
AcDbLine
 10
160.6173828403312
 20
204.2091147321713
 30
0.0
 11
160.6235978863401
 21
204.197792057848
 31
0.0
  0
LINE
  5
D73
330
1F
100
AcDbEntity
  8
HEWI
  6
CUSTOM
 62
     7
370
     9
100
AcDbLine
 10
160.7239389936671
 20
204.0500192770531
 30
0.0
 11
160.7504003303388
 21
204.0219409422803
 31
0.0
  0
LINE
  5
D74
330
1F
100
AcDbEntity
  8
HEWI
  6
CUSTOM
 62
     7
370
     9
100
AcDbLine
 10
160.8240541878872
 20
203.9704466868082
 30
0.0
 11
160.8454440835235
 21
203.9561602005911
 31
0.0
  0
LINE
  5
D75
330
1F
100
AcDbEntity
  8
HEWI
  6
CUSTOM
 62
     7
370
     9
100
AcDbLine
 10
160.6730011348404
 20
204.1077883969732
 30
0.0
 11
160.6861762008561
 21
204.0900896768081
 31
0.0
  0
LINE
  5
D76
330
1F
100
AcDbEntity
  8
HEWI
  6
CUSTOM
 62
     7
370
     9
100
AcDbLine
 10
160.5981721340963
 20
204.2704764816841
 30
0.0
 11
160.6173828403312
 21
204.2091147321713
 31
0.0
  0
LINE
  5
D77
330
1F
100
AcDbEntity
  8
HEWI
  6
CUSTOM
 62
     7
370
     9
100
AcDbLine
 10
160.5805650319812
 20
204.3974289827823
 30
0.0
 11
160.5926883729867
 21
204.2879924007521
 31
0.0
  0
LINE
  5
D78
330
1F
100
AcDbEntity
  8
HEWI
  6
CUSTOM
 62
     7
370
     9
100
AcDbLine
 10
160.9530530962206
 20
203.913961605483
 30
0.0
 11
160.9583948318664
 21
203.9125842231993
 31
0.0
  0
LINE
  5
D79
330
1F
100
AcDbEntity
  8
HEWI
  6
CUSTOM
 62
     7
370
     9
100
AcDbLine
 10
160.8454440835235
 20
203.9561602005911
 30
0.0
 11
160.8498213811022
 21
203.954443654704
 31
0.0
  0
LINE
  5
D7A
330
1F
100
AcDbEntity
  8
HEWI
  6
CUSTOM
 62
     7
370
     9
100
AcDbLine
 10
160.9410284625323
 20
203.9185246186121
 30
0.0
 11
160.9530530962206
 21
203.913961605483
 31
0.0
  0
ENDSEC
  0
SECTION
  2
OBJECTS
  0
DICTIONARY
  5
C
330
0
100
AcDbDictionary
281
     1
  3
ACAD_CIP_PREVIOUS_PRODUCT_INFO
350
20C
  3
ACAD_COLOR
350
151
  3
ACAD_DETAILVIEWSTYLE
350
208
  3
ACAD_GROUP
350
D
  3
ACAD_LAYOUT
350
1A
  3
ACAD_MATERIAL
350
13C
  3
ACAD_MLEADERSTYLE
350
204
  3
ACAD_MLINESTYLE
350
17
  3
ACAD_PLOTSETTINGS
350
19
  3
ACAD_PLOTSTYLENAME
350
E
  3
ACAD_SCALELIST
350
1F2
  3
ACAD_SECTIONVIEWSTYLE
350
206
  3
ACAD_TABLESTYLE
350
152
  3
ACAD_VISUALSTYLE
350
140
  3
ACDB_RECOMPOSE_DATA
350
D7C
  3
AcDbVariableDictionary
350
17F
  0
DICTIONARY
  5
19A
330
2
100
AcDbDictionary
280
     1
281
     1
  3
ACAD_LAYERFILTERS
360
19E
  3
ACLYDICTIONARY
360
19D
  0
DICTIONARY
  5
20D
330
10
100
AcDbDictionary
280
     1
281
     1
  3
ADSK_XREC_LAYER_RECONCILED
360
20E
  0
DICTIONARY
  5
211
330
197
100
AcDbDictionary
280
     1
281
     1
  3
ADSK_XREC_LAYER_RECONCILED
360
212
  0
DICTIONARY
  5
25E
330
1F
100
AcDbDictionary
280
     1
281
     1
  3
ACAD_SORTENTS
360
25F
  0
XRECORD
  5
20C
102
{ACAD_REACTORS
330
C
102
}
330
C
100
AcDbXrecord
280
     1
300
ACDLT
300
2021
300
ACDLT_F_S
  0
DICTIONARY
  5
151
102
{ACAD_REACTORS
330
C
102
}
330
C
100
AcDbDictionary
281
     1
  0
DICTIONARY
  5
208
102
{ACAD_REACTORS
330
C
102
}
330
C
100
AcDbDictionary
281
     1
  3
Metric50
350
209
  0
DICTIONARY
  5
D
102
{ACAD_REACTORS
330
C
102
}
330
C
100
AcDbDictionary
281
     1
  0
DICTIONARY
  5
1A
102
{ACAD_REACTORS
330
C
102
}
330
C
100
AcDbDictionary
281
     1
  3
Layout1
350
1E
  3
Layout2
350
26
  3
Model
350
22
  0
DICTIONARY
  5
13C
102
{ACAD_REACTORS
330
C
102
}
330
C
100
AcDbDictionary
281
     1
  3
ByBlock
350
13E
  3
ByLayer
350
13D
  3
Global
350
13F
  0
DICTIONARY
  5
204
102
{ACAD_REACTORS
330
C
102
}
330
C
100
AcDbDictionary
281
     1
  3
Standard
350
205
  0
DICTIONARY
  5
17
102
{ACAD_REACTORS
330
C
102
}
330
C
100
AcDbDictionary
281
     1
  3
Standard
350
18
  0
DICTIONARY
  5
19
102
{ACAD_REACTORS
330
C
102
}
330
C
100
AcDbDictionary
281
     1
  0
ACDBDICTIONARYWDFLT
  5
E
102
{ACAD_REACTORS
330
C
102
}
330
C
100
AcDbDictionary
281
     1
  3
Normal
350
F
100
AcDbDictionaryWithDefault
340
F
  0
DICTIONARY
  5
1F2
102
{ACAD_REACTORS
330
C
102
}
330
C
100
AcDbDictionary
281
     1
  3
A0
350
1F3
  3
A1
350
1F4
  3
A2
350
1F5
  3
A3
350
1F6
  3
A4
350
1F7
  3
A5
350
1F8
  3
A6
350
1F9
  3
A7
350
1FA
  3
A8
350
1FB
  3
A9
350
1FC
  3
B0
350
1FD
  3
B1
350
1FE
  3
B2
350
1FF
  3
B3
350
200
  3
B4
350
201
  3
B5
350
202
  3
B6
350
203
  0
DICTIONARY
  5
206
102
{ACAD_REACTORS
330
C
102
}
330
C
100
AcDbDictionary
281
     1
  3
Metric50
350
207
  0
DICTIONARY
  5
152
102
{ACAD_REACTORS
330
C
102
}
330
C
100
AcDbDictionary
281
     1
  3
Standard
350
153
  0
DICTIONARY
  5
140
102
{ACAD_REACTORS
330
C
102
}
330
C
100
AcDbDictionary
281
     1
  3
2dWireframe
350
146
  3
3D Hidden
350
148
  3
3dWireframe
350
147
  3
Basic
350
145
  3
Brighten
350
14C
  3
ColorChange
350
150
  3
Conceptual
350
149
  3
Dim
350
14B
  3
EdgeColorOff
350
1F1
  3
Facepattern
350
14F
  3
Flat
350
141
  3
FlatWithEdges
350
142
  3
Gouraud
350
143
  3
GouraudWithEdges
350
144
  3
Hidden
350
1E9
  3
JitterOff
350
1EF
  3
Linepattern
350
14E
  3
OverhangOff
350
1F0
  3
Realistic
350
14A
  3
Shaded
350
1EE
  3
Shaded with edges
350
1ED
  3
Shades of Gray
350
1EA
  3
Sketchy
350
1EB
  3
Thicken
350
14D
  3
Wireframe
350
1E8
  3
X-Ray
350
1EC
  0
XRECORD
  5
D7C
102
{ACAD_REACTORS
330
C
102
}
330
C
100
AcDbXrecord
280
     1
 90
        1
330
153
  0
DICTIONARY
  5
17F
102
{ACAD_REACTORS
330
C
102
}
330
C
100
AcDbDictionary
281
     1
  3
CANNOSCALE
350
265
  3
CMLEADERSTYLE
350
261
  3
CTABLESTYLE
350
180
  3
CVIEWDETAILSTYLE
350
262
  3
CVIEWSECTIONSTYLE
350
263
  3
DIMASSOC
350
183
  3
INDEXCTL
350
182
  3
LAYEREVAL
350
267
  3
LAYERNOTIFY
350
268
  3
LIGHTINGUNITS
350
266
  3
MSLTSCALE
350
264
  3
SORTENTS
350
181
  0
DICTIONARY
  5
19E
102
{ACAD_REACTORS
330
19A
102
}
330
19A
100
AcDbDictionary
281
     1
  0
DICTIONARY
  5
19D
102
{ACAD_REACTORS
330
19A
102
}
330
19A
100
AcDbDictionary
281
     1
1001
ACAD
1000
<All
  0
XRECORD
  5
20E
102
{ACAD_REACTORS
330
20D
102
}
330
20D
100
AcDbXrecord
280
     1
290
     1
  0
XRECORD
  5
212
102
{ACAD_REACTORS
330
211
102
}
330
211
100
AcDbXrecord
280
     1
290
     1
  0
SORTENTSTABLE
  5
25F
102
{ACAD_REACTORS
330
25E
102
}
330
25E
100
AcDbSortentsTable
330
1F
  0
ACDBDETAILVIEWSTYLE
  5
209
102
{ACAD_XDICTIONARY
360
D7F
102
}
102
{ACAD_REACTORS
330
208
102
}
330
208
100
AcDbModelDocViewStyle
 70
     0
  3
Metric50
290
     0
100
AcDbDetailViewStyle
 70
     0
 71
     0
 90
        3
 71
     1
340
11
 62
   256
 40
5.0
340
0
 62
   256
 40
5.0
300

 40
0.0
280
     1
 71
     2
340
16
 90
       25
 62
   256
 71
     3
340
11
 62
   256
 40
5.0
 90
        0
 40
15.0
 90
        1
300
%<\AcVar ViewDetailId>% (%<\AcVar ViewScale \f "%sn">%)
 71
     4
340
16
 90
       25
 62
   256
340
16
 90
       25
 62
   256
280
     0
  0
LAYOUT
  5
1E
102
{ACAD_REACTORS
330
1A
102
}
330
1A
100
AcDbPlotSettings
  1

  2

  4

  6

 40
0.0
 41
0.0
 42
0.0
 43
0.0
 44
0.0
 45
0.0
 46
0.0
 47
0.0
 48
0.0
 49
0.0
140
0.0
141
0.0
142
1.0
143
1.0
 70
   688
 72
     0
 73
     0
 74
     5
  7

 75
    16
147
1.0
 76
     0
 77
     2
 78
   300
148
0.0
149
0.0
100
AcDbLayout
  1
Layout1
 70
     1
 71
     1
 10
-0.5
 20
-0.5
 11
5.0
 21
5.0
 12
0.0
 22
0.0
 32
0.0
 14
-0.5
 24
-0.5
 34
-0.5
 15
5.0
 25
5.0
 35
5.0
146
0.0
 13
0.0
 23
0.0
 33
0.0
 16
1.0
 26
0.0
 36
0.0
 17
0.0
 27
1.0
 37
0.0
 76
     0
330
1B
  0
LAYOUT
  5
26
102
{ACAD_REACTORS
330
1A
102
}
330
1A
100
AcDbPlotSettings
  1

  2

  4

  6

 40
0.0
 41
0.0
 42
0.0
 43
0.0
 44
0.0
 45
0.0
 46
0.0
 47
0.0
 48
0.0
 49
0.0
140
0.0
141
0.0
142
1.0
143
1.0
 70
   688
 72
     0
 73
     0
 74
     5
  7

 75
    16
147
1.0
 76
     0
 77
     2
 78
   300
148
0.0
149
0.0
100
AcDbLayout
  1
Layout2
 70
     1
 71
     2
 10
0.0
 20
0.0
 11
0.0
 21
0.0
 12
0.0
 22
0.0
 32
0.0
 14
0.0
 24
0.0
 34
0.0
 15
0.0
 25
0.0
 35
0.0
146
0.0
 13
0.0
 23
0.0
 33
0.0
 16
1.0
 26
0.0
 36
0.0
 17
0.0
 27
1.0
 37
0.0
 76
     0
330
23
  0
LAYOUT
  5
22
102
{ACAD_REACTORS
330
1A
102
}
330
1A
100
AcDbPlotSettings
  1

  2

  4

  6

 40
0.0
 41
0.0
 42
0.0
 43
0.0
 44
0.0
 45
0.0
 46
0.0
 47
0.0
 48
0.0
 49
0.0
140
0.0
141
0.0
142
1.0
143
1.0
 70
  1712
 72
     0
 73
     0
 74
     0
  7

 75
     0
147
1.0
 76
     0
 77
     2
 78
   300
148
0.0
149
0.0
100
AcDbLayout
  1
Model
 70
     1
 71
     0
 10
-0.5
 20
-0.5
 11
5.0
 21
5.0
 12
0.0
 22
0.0
 32
0.0
 14
-0.5
 24
-0.5
 34
-0.5
 15
5.0
 25
5.0
 35
5.0
146
0.0
 13
0.0
 23
0.0
 33
0.0
 16
1.0
 26
0.0
 36
0.0
 17
0.0
 27
1.0
 37
0.0
 76
     0
330
1F
331
12A
  0
MATERIAL
  5
13E
102
{ACAD_XDICTIONARY
360
1C5
102
}
102
{ACAD_REACTORS
330
13C
102
}
330
13C
100
AcDbMaterial
  1
ByBlock
  0
MATERIAL
  5
13D
102
{ACAD_XDICTIONARY
360
1C3
102
}
102
{ACAD_REACTORS
330
13C
102
}
330
13C
100
AcDbMaterial
  1
ByLayer
  0
MATERIAL
  5
13F
102
{ACAD_XDICTIONARY
360
1C7
102
}
102
{ACAD_REACTORS
330
13C
102
}
330
13C
100
AcDbMaterial
  1
Global
  0
MLEADERSTYLE
  5
205
102
{ACAD_REACTORS
330
204
102
}
330
204
100
AcDbMLeaderStyle
179
     2
170
     2
171
     1
172
     0
 90
        2
 40
0.0
 41
0.0
173
     1
 91
-1056964608
340
14
 92
       -2
290
     1
 42
2.0
291
     1
 43
0.36
  3
Standard
 44
4.0
300

342
11
174
     1
178
     6
175
     1
176
     0
 93
-1056964608
 45
4.0
292
     0
297
     0
 46
4.0
 94
-1056964608
 47
1.0
 49
1.0
140
1.0
293
     1
141
0.0
294
     1
177
     0
142
1.0
295
     0
296
     0
143
0.125
271
     0
272
     9
273
     9
298
     0
  0
MLINESTYLE
  5
18
102
{ACAD_REACTORS
330
17
102
}
330
17
100
AcDbMlineStyle
  2
STANDARD
 70
     0
  3

 62
   256
 51
90.0
 52
90.0
 71
     2
 49
0.5
 62
   256
  6
BYLAYER
 49
-0.5
 62
   256
  6
BYLAYER
  0
ACDBPLACEHOLDER
  5
F
102
{ACAD_REACTORS
330
E
102
}
330
E
  0
SCALE
  5
1F3
102
{ACAD_REACTORS
330
1F2
102
}
330
1F2
100
AcDbScale
 70
     0
300
1:1
140
1.0
141
1.0
290
     1
  0
SCALE
  5
1F4
102
{ACAD_REACTORS
330
1F2
102
}
330
1F2
100
AcDbScale
 70
     0
300
1:2
140
1.0
141
2.0
290
     0
  0
SCALE
  5
1F5
102
{ACAD_REACTORS
330
1F2
102
}
330
1F2
100
AcDbScale
 70
     0
300
1:4
140
1.0
141
4.0
290
     0
  0
SCALE
  5
1F6
102
{ACAD_REACTORS
330
1F2
102
}
330
1F2
100
AcDbScale
 70
     0
300
1:5
140
1.0
141
5.0
290
     0
  0
SCALE
  5
1F7
102
{ACAD_REACTORS
330
1F2
102
}
330
1F2
100
AcDbScale
 70
     0
300
1:8
140
1.0
141
8.0
290
     0
  0
SCALE
  5
1F8
102
{ACAD_REACTORS
330
1F2
102
}
330
1F2
100
AcDbScale
 70
     0
300
1:10
140
1.0
141
10.0
290
     0
  0
SCALE
  5
1F9
102
{ACAD_REACTORS
330
1F2
102
}
330
1F2
100
AcDbScale
 70
     0
300
1:16
140
1.0
141
16.0
290
     0
  0
SCALE
  5
1FA
102
{ACAD_REACTORS
330
1F2
102
}
330
1F2
100
AcDbScale
 70
     0
300
1:20
140
1.0
141
20.0
290
     0
  0
SCALE
  5
1FB
102
{ACAD_REACTORS
330
1F2
102
}
330
1F2
100
AcDbScale
 70
     0
300
1:30
140
1.0
141
30.0
290
     0
  0
SCALE
  5
1FC
102
{ACAD_REACTORS
330
1F2
102
}
330
1F2
100
AcDbScale
 70
     0
300
1:40
140
1.0
141
40.0
290
     0
  0
SCALE
  5
1FD
102
{ACAD_REACTORS
330
1F2
102
}
330
1F2
100
AcDbScale
 70
     0
300
1:50
140
1.0
141
50.0
290
     0
  0
SCALE
  5
1FE
102
{ACAD_REACTORS
330
1F2
102
}
330
1F2
100
AcDbScale
 70
     0
300
1:100
140
1.0
141
100.0
290
     0
  0
SCALE
  5
1FF
102
{ACAD_REACTORS
330
1F2
102
}
330
1F2
100
AcDbScale
 70
     0
300
2:1
140
2.0
141
1.0
290
     0
  0
SCALE
  5
200
102
{ACAD_REACTORS
330
1F2
102
}
330
1F2
100
AcDbScale
 70
     0
300
4:1
140
4.0
141
1.0
290
     0
  0
SCALE
  5
201
102
{ACAD_REACTORS
330
1F2
102
}
330
1F2
100
AcDbScale
 70
     0
300
8:1
140
8.0
141
1.0
290
     0
  0
SCALE
  5
202
102
{ACAD_REACTORS
330
1F2
102
}
330
1F2
100
AcDbScale
 70
     0
300
10:1
140
10.0
141
1.0
290
     0
  0
SCALE
  5
203
102
{ACAD_REACTORS
330
1F2
102
}
330
1F2
100
AcDbScale
 70
     0
300
100:1
140
100.0
141
1.0
290
     0
  0
ACDBSECTIONVIEWSTYLE
  5
207
102
{ACAD_XDICTIONARY
360
D7D
102
}
102
{ACAD_REACTORS
330
206
102
}
330
206
100
AcDbModelDocViewStyle
 70
     0
  3
Metric50
290
     0
100
AcDbSectionViewStyle
 70
     0
 71
     0
 90
      102
 71
     1
340
11
 62
   256
 40
5.0
340
0
340
0
 62
   256
 40
5.0
300
I, O, Q, S, X, Z
 40
10.0
 90
        0
 40
2.5
 90
        0
 71
     2
340
16
 90
       25
 62
   256
340
16
 90
       50
 62
   256
 40
5.0
 40
2.5
 40
5.0
 71
     3
340
11
 62
   256
 40
5.0
 90
        0
 40
15.0
 90
        1
300
%<\AcVar ViewSectionStartId>%-%<\AcVar ViewSectionEndId>% (%<\AcVar ViewScale \f "%sn">%)
 71
     4
 62
   256
 62
   257
300
ANSI31
 40
1.0
 90
        0
290
     0
290
     0
 90
        6
 40
0.0
 40
1.570796326794896
 40
0.2617993877991494
 40
1.308996938995747
 40
-0.2617993877991494
 40
1.832595714594044
  0
TABLESTYLE
  5
153
102
{ACAD_XDICTIONARY
360
269
102
}
102
{ACAD_REACTORS
330
152
102
}
330
152
100
AcDbTableStyle
280
     0
  3
Standard
 70
     0
 71
     0
 40
1.5
 41
1.5
280
     0
281
     0
  7
Standard
140
4.5
170
     2
 62
     0
 63
     7
283
     0
 90
      512
 91
        0
  1

274
    -2
284
     1
 64
     0
275
    -2
285
     1
 65
     0
276
    -2
286
     1
 66
     0
277
    -2
287
     1
 67
     0
278
    -2
288
     1
 68
     0
279
    -2
289
     1
 69
     0
  7
Standard
140
6.0
170
     5
 62
     0
 63
     7
283
     0
 90
      512
 91
        0
  1

274
    -2
284
     1
 64
     0
275
    -2
285
     1
 65
     0
276
    -2
286
     1
 66
     0
277
    -2
287
     1
 67
     0
278
    -2
288
     1
 68
     0
279
    -2
289
     1
 69
     0
  7
Standard
140
4.5
170
     5
 62
     0
 63
     7
283
     0
 90
      512
 91
        0
  1

274
    -2
284
     1
 64
     0
275
    -2
285
     1
 65
     0
276
    -2
286
     1
 66
     0
277
    -2
287
     1
 67
     0
278
    -2
288
     1
 68
     0
279
    -2
289
     1
 69
     0
  0
VISUALSTYLE
  5
146
102
{ACAD_REACTORS
330
140
102
}
330
140
100
AcDbVisualStyle
  2

 70
     4
177
     3
291
     0
 70
    58
 90
        0
176
     1
 90
        2
176
     1
 90
        0
176
     1
 90
        0
176
     1
 40
0.6
176
     1
 40
30.0
176
     1
 62
     7
176
     1
 90
        1
176
     1
 90
        4
176
     1
 62
     7
176
     1
 62
   257
176
     1
 90
        1
176
     1
 90
        1
176
     1
 40
1.0
176
     1
 90
        0
176
     1
 62
   257
176
     1
 40
1.0
176
     1
 90
        1
176
     1
 90
        6
176
     1
 90
        2
176
     1
 62
     7
176
     1
 90
        5
176
     1
 90
        0
176
     1
 90
        0
176
     1
290
     0
176
     1
 90
        1
176
     1
 40
0.0
176
     1
 90
        0
176
     1
290
     1
176
     1
290
     1
176
     1
290
     0
176
     1
290
     0
176
     1
290
     0
176
     1
290
     0
176
     1
290
     0
176
     1
290
     0
176
     1
290
     0
176
     1
 90
       50
176
     1
 40
0.0
176
     1
 40
1.0
176
     1
 90
        0
176
     1
 62
    18
176
     1
 90
       50
176
     1
 90
        3
176
     1
 62
     5
420
      255
176
     1
290
     0
176
     1
 90
       50
176
     1
 90
       50
176
     1
 90
       50
176
     1
290
     0
176
     1
 90
       50
176
     1
 62
   256
176
     0
 40
1.0
176
     0
 90
        2
176
     1
  1
strokes_ogs.tif
176
     1
290
     0
176
     1
 40
1.0
176
     1
 40
1.0
176
     1
1001
ACAD
1000
AcDbSavedByObjectVersion
1070
     0
  0
VISUALSTYLE
  5
148
102
{ACAD_REACTORS
330
140
102
}
330
140
100
AcDbVisualStyle
  2

 70
     6
177
     3
291
     0
 70
    58
 90
        1
176
     1
 90
        2
176
     1
 90
        2
176
     1
 90
        0
176
     1
 40
0.6
176
     1
 40
30.0
176
     1
 62
     7
176
     1
 90
        2
176
     1
 90
        2
176
     1
 62
     7
176
     1
 62
   257
176
     1
 90
        2
176
     1
 90
        1
176
     1
 40
40.0
176
     1
 90
        0
176
     1
 62
   257
176
     1
 40
1.0
176
     1
 90
        1
176
     1
 90
        6
176
     1
 90
        2
176
     1
 62
     7
176
     1
 90
        3
176
     1
 90
        0
176
     1
 90
        0
176
     1
290
     0
176
     1
 90
        1
176
     1
 40
0.0
176
     1
 90
        0
176
     1
290
     0
176
     1
290
     1
176
     1
290
     1
176
     1
290
     0
176
     1
290
     0
176
     1
290
     0
176
     1
290
     0
176
     1
290
     0
176
     1
290
     0
176
     1
 90
       50
176
     1
 40
0.0
176
     1
 40
1.0
176
     1
 90
        0
176
     1
 62
    18
176
     1
 90
       50
176
     1
 90
        3
176
     1
 62
     5
420
      255
176
     1
290
     0
176
     1
 90
       50
176
     1
 90
       50
176
     1
 90
       50
176
     1
290
     0
176
     1
 90
       50
176
     1
 62
   256
176
     0
 40
1.0
176
     0
 90
        2
176
     1
  1
strokes_ogs.tif
176
     1
290
     0
176
     1
 40
1.0
176
     1
 40
1.0
176
     1
1001
ACAD
1000
AcDbSavedByObjectVersion
1070
     0
  0
VISUALSTYLE
  5
147
102
{ACAD_REACTORS
330
140
102
}
330
140
100
AcDbVisualStyle
  2

 70
     5
177
     3
291
     0
 70
    58
 90
        0
176
     1
 90
        2
176
     1
 90
        0
176
     1
 90
        0
176
     1
 40
0.6
176
     1
 40
30.0
176
     1
 62
     7
176
     1
 90
        1
176
     1
 90
        4
176
     1
 62
     7
176
     1
 62
   257
176
     1
 90
        1
176
     1
 90
        1
176
     1
 40
1.0
176
     1
 90
        0
176
     1
 62
   257
176
     1
 40
1.0
176
     1
 90
        1
176
     1
 90
        6
176
     1
 90
        2
176
     1
 62
     7
176
     1
 90
        5
176
     1
 90
        0
176
     1
 90
        0
176
     1
290
     0
176
     1
 90
        1
176
     1
 40
0.0
176
     1
 90
        0
176
     1
290
     0
176
     1
290
     1
176
     1
290
     1
176
     1
290
     0
176
     1
290
     0
176
     1
290
     0
176
     1
290
     0
176
     1
290
     0
176
     1
290
     0
176
     1
 90
       50
176
     1
 40
0.0
176
     1
 40
1.0
176
     1
 90
        0
176
     1
 62
    18
176
     1
 90
       50
176
     1
 90
        3
176
     1
 62
     5
420
      255
176
     1
290
     0
176
     1
 90
       50
176
     1
 90
       50
176
     1
 90
       50
176
     1
290
     0
176
     1
 90
       50
176
     1
 62
   256
176
     0
 40
1.0
176
     0
 90
        2
176
     1
  1
strokes_ogs.tif
176
     1
290
     0
176
     1
 40
1.0
176
     1
 40
1.0
176
     1
1001
ACAD
1000
AcDbSavedByObjectVersion
1070
     0
  0
VISUALSTYLE
  5
145
102
{ACAD_REACTORS
330
140
102
}
330
140
100
AcDbVisualStyle
  2

 70
     7
177
     3
291
     1
 70
    58
 90
        1
176
     1
 90
        0
176
     1
 90
        1
176
     1
 90
        0
176
     1
 40
0.6
176
     1
 40
30.0
176
     1
 62
     7
176
     1
 90
        0
176
     1
 90
        4
176
     1
 62
     7
176
     1
 62
   257
176
     1
 90
        1
176
     1
 90
        1
176
     1
 40
1.0
176
     1
 90
        8
176
     1
 62
     7
176
     1
 40
1.0
176
     1
 90
        1
176
     1
 90
        6
176
     1
 90
        2
176
     1
 62
     7
176
     1
 90
        5
176
     1
 90
        0
176
     1
 90
        0
176
     1
290
     0
176
     1
 90
        1
176
     1
 40
0.0
176
     1
 90
        0
176
     1
290
     0
176
     1
290
     1
176
     1
290
     1
176
     1
290
     0
176
     1
290
     0
176
     1
290
     0
176
     1
290
     0
176
     1
290
     0
176
     1
290
     0
176
     1
 90
       50
176
     1
 40
0.0
176
     1
 40
1.0
176
     1
 90
        0
176
     1
 62
    18
176
     1
 90
       50
176
     1
 90
        3
176
     1
 62
     5
420
      255
176
     1
290
     0
176
     1
 90
       50
176
     1
 90
       50
176
     1
 90
       50
176
     1
290
     0
176
     1
 90
       50
176
     1
 62
   256
176
     0
 40
1.0
176
     0
 90
        2
176
     1
  1
strokes_ogs.tif
176
     1
290
     0
176
     1
 40
1.0
176
     1
 40
1.0
176
     1
1001
ACAD
1000
AcDbSavedByObjectVersion
1070
     0
  0
VISUALSTYLE
  5
14C
102
{ACAD_REACTORS
330
140
102
}
330
140
100
AcDbVisualStyle
  2

 70
    12
177
     3
291
     1
 70
    58
 90
        2
176
     1
 90
        2
176
     1
 90
        0
176
     1
 90
        0
176
     1
 40
0.6
176
     1
 40
30.0
176
     1
 62
     7
176
     1
 90
        1
176
     1
 90
        4
176
     1
 62
     7
176
     1
 62
   257
176
     1
 90
        1
176
     1
 90
        1
176
     1
 40
1.0
176
     1
 90
        8
176
     1
 62
     7
176
     1
 40
1.0
176
     1
 90
        1
176
     1
 90
        6
176
     1
 90
        2
176
     1
 62
     7
176
     1
 90
        5
176
     1
 90
        0
176
     1
 90
        0
176
     1
290
     0
176
     1
 90
        1
176
     1
 40
50.0
176
     1
 90
        0
176
     1
290
     0
176
     1
290
     1
176
     1
290
     1
176
     1
290
     0
176
     1
290
     0
176
     1
290
     0
176
     1
290
     0
176
     1
290
     0
176
     1
290
     0
176
     1
 90
       50
176
     1
 40
0.0
176
     1
 40
1.0
176
     1
 90
        0
176
     1
 62
    18
176
     1
 90
       50
176
     1
 90
        3
176
     1
 62
     5
420
      255
176
     1
290
     0
176
     1
 90
       50
176
     1
 90
       50
176
     1
 90
       50
176
     1
290
     0
176
     1
 90
       50
176
     1
 62
   256
176
     0
 40
1.0
176
     0
 90
        2
176
     1
  1
strokes_ogs.tif
176
     1
290
     0
176
     1
 40
1.0
176
     1
 40
1.0
176
     1
1001
ACAD
1000
AcDbSavedByObjectVersion
1070
     0
  0
VISUALSTYLE
  5
150
102
{ACAD_REACTORS
330
140
102
}
330
140
100
AcDbVisualStyle
  2

 70
    16
177
     3
291
     1
 70
    58
 90
        2
176
     1
 90
        2
176
     1
 90
        3
176
     1
 90
        0
176
     1
 40
0.6
176
     1
 40
30.0
176
     1
 62
     8
176
     1
 90
        1
176
     1
 90
        4
176
     1
 62
     7
176
     1
 62
   257
176
     1
 90
        1
176
     1
 90
        1
176
     1
 40
1.0
176
     1
 90
        8
176
     1
 62
     8
176
     1
 40
1.0
176
     1
 90
        1
176
     1
 90
        6
176
     1
 90
        2
176
     1
 62
     7
176
     1
 90
        5
176
     1
 90
        0
176
     1
 90
        0
176
     1
290
     0
176
     1
 90
        1
176
     1
 40
0.0
176
     1
 90
        0
176
     1
290
     0
176
     1
290
     1
176
     1
290
     1
176
     1
290
     0
176
     1
290
     0
176
     1
290
     0
176
     1
290
     0
176
     1
290
     0
176
     1
290
     0
176
     1
 90
       50
176
     1
 40
0.0
176
     1
 40
1.0
176
     1
 90
        0
176
     1
 62
    18
176
     1
 90
       50
176
     1
 90
        3
176
     1
 62
     5
420
      255
176
     1
290
     0
176
     1
 90
       50
176
     1
 90
       50
176
     1
 90
       50
176
     1
290
     0
176
     1
 90
       50
176
     1
 62
   256
176
     0
 40
1.0
176
     0
 90
        2
176
     1
  1
strokes_ogs.tif
176
     1
290
     0
176
     1
 40
1.0
176
     1
 40
1.0
176
     1
1001
ACAD
1000
AcDbSavedByObjectVersion
1070
     0
  0
VISUALSTYLE
  5
149
102
{ACAD_REACTORS
330
140
102
}
330
140
100
AcDbVisualStyle
  2

 70
     9
177
     3
291
     0
 70
    58
 90
        3
176
     1
 90
        2
176
     1
 90
        0
176
     1
 90
        0
176
     1
 40
0.6
176
     1
 40
30.0
176
     1
 62
     7
176
     1
 90
        2
176
     1
 90
        2
176
     1
 62
     7
176
     1
 62
   257
176
     1
 90
        1
176
     1
 90
        1
176
     1
 40
40.0
176
     1
 90
        8
176
     1
 62
     7
176
     1
 40
1.0
176
     1
 90
        1
176
     1
 90
        6
176
     1
 90
        2
176
     1
 62
     7
176
     1
 90
        3
176
     1
 90
        0
176
     1
 90
        0
176
     1
290
     0
176
     1
 90
        1
176
     1
 40
0.0
176
     1
 90
        0
176
     1
290
     0
176
     1
290
     1
176
     1
290
     1
176
     1
290
     0
176
     1
290
     0
176
     1
290
     0
176
     1
290
     0
176
     1
290
     0
176
     1
290
     0
176
     1
 90
       50
176
     1
 40
0.0
176
     1
 40
1.0
176
     1
 90
        0
176
     1
 62
    18
176
     1
 90
       50
176
     1
 90
        3
176
     1
 62
     5
420
      255
176
     1
290
     0
176
     1
 90
       50
176
     1
 90
       50
176
     1
 90
       50
176
     1
290
     0
176
     1
 90
       50
176
     1
 62
   256
176
     0
 40
1.0
176
     0
 90
        2
176
     1
  1
strokes_ogs.tif
176
     1
290
     0
176
     1
 40
1.0
176
     1
 40
1.0
176
     1
1001
ACAD
1000
AcDbSavedByObjectVersion
1070
     0
  0
VISUALSTYLE
  5
14B
102
{ACAD_REACTORS
330
140
102
}
330
140
100
AcDbVisualStyle
  2

 70
    11
177
     3
291
     1
 70
    58
 90
        2
176
     1
 90
        2
176
     1
 90
        0
176
     1
 90
        0
176
     1
 40
0.6
176
     1
 40
30.0
176
     1
 62
     7
176
     1
 90
        1
176
     1
 90
        4
176
     1
 62
     7
176
     1
 62
   257
176
     1
 90
        1
176
     1
 90
        1
176
     1
 40
1.0
176
     1
 90
        8
176
     1
 62
     7
176
     1
 40
1.0
176
     1
 90
        1
176
     1
 90
        6
176
     1
 90
        2
176
     1
 62
     7
176
     1
 90
        5
176
     1
 90
        0
176
     1
 90
        0
176
     1
290
     0
176
     1
 90
        1
176
     1
 40
-50.0
176
     1
 90
        0
176
     1
290
     0
176
     1
290
     1
176
     1
290
     1
176
     1
290
     0
176
     1
290
     0
176
     1
290
     0
176
     1
290
     0
176
     1
290
     0
176
     1
290
     0
176
     1
 90
       50
176
     1
 40
0.0
176
     1
 40
1.0
176
     1
 90
        0
176
     1
 62
    18
176
     1
 90
       50
176
     1
 90
        3
176
     1
 62
     5
420
      255
176
     1
290
     0
176
     1
 90
       50
176
     1
 90
       50
176
     1
 90
       50
176
     1
290
     0
176
     1
 90
       50
176
     1
 62
   256
176
     0
 40
1.0
176
     0
 90
        2
176
     1
  1
strokes_ogs.tif
176
     1
290
     0
176
     1
 40
1.0
176
     1
 40
1.0
176
     1
1001
ACAD
1000
AcDbSavedByObjectVersion
1070
     0
  0
VISUALSTYLE
  5
1F1
102
{ACAD_REACTORS
330
140
102
}
330
140
100
AcDbVisualStyle
  2
EdgeColorOff
 70
    22
177
     3
291
     1
 70
    58
 90
        2
176
     0
 90
        2
176
     0
 90
        0
176
     0
 90
        0
176
     0
 40
0.6
176
     0
 40
30.0
176
     0
 62
     7
420
 16777215
176
     0
 90
        1
176
     0
 90
        4
176
     0
 62
     7
176
     0
 62
   257
176
     0
 90
        1
176
     0
 90
        1
176
     0
 40
1.0
176
     0
 90
        8
176
     2
 62
     7
176
     0
 40
1.0
176
     0
 90
        1
176
     0
 90
        6
176
     0
 90
        2
176
     0
 62
     7
176
     0
 90
        5
176
     0
 90
        0
176
     0
 90
        0
176
     0
290
     0
176
     0
 90
        1
176
     0
 40
0.0
176
     0
 90
        0
176
     0
290
     0
176
     1
290
     1
176
     1
290
     1
176
     1
290
     0
176
     1
290
     0
176
     1
290
     0
176
     1
290
     0
176
     1
290
     0
176
     1
290
     0
176
     1
 90
       50
176
     0
 40
0.0
176
     0
 40
1.0
176
     0
 90
        0
176
     0
 62
    18
176
     0
 90
       50
176
     0
 90
        3
176
     0
 62
     5
420
      255
176
     0
290
     0
176
     1
 90
       50
176
     0
 90
       50
176
     0
 90
       50
176
     0
290
     0
176
     1
 90
       50
176
     0
 62
   256
176
     0
 40
1.0
176
     0
 90
        2
176
     0
  1
strokes_ogs.tif
176
     0
290
     0
176
     1
 40
1.0
176
     0
 40
1.0
176
     0
1001
ACAD
1000
AcDbSavedByObjectVersion
1070
     0
  0
VISUALSTYLE
  5
14F
102
{ACAD_REACTORS
330
140
102
}
330
140
100
AcDbVisualStyle
  2

 70
    15
177
     3
291
     1
 70
    58
 90
        2
176
     1
 90
        2
176
     1
 90
        0
176
     1
 90
        0
176
     1
 40
0.6
176
     1
 40
30.0
176
     1
 62
     7
176
     1
 90
        1
176
     1
 90
        4
176
     1
 62
     7
176
     1
 62
   257
176
     1
 90
        1
176
     1
 90
        1
176
     1
 40
1.0
176
     1
 90
        8
176
     1
 62
     7
176
     1
 40
1.0
176
     1
 90
        1
176
     1
 90
        6
176
     1
 90
        2
176
     1
 62
     7
176
     1
 90
        5
176
     1
 90
        0
176
     1
 90
        0
176
     1
290
     0
176
     1
 90
        1
176
     1
 40
0.0
176
     1
 90
        0
176
     1
290
     0
176
     1
290
     1
176
     1
290
     1
176
     1
290
     0
176
     1
290
     0
176
     1
290
     0
176
     1
290
     0
176
     1
290
     0
176
     1
290
     0
176
     1
 90
       50
176
     1
 40
0.0
176
     1
 40
1.0
176
     1
 90
        0
176
     1
 62
    18
176
     1
 90
       50
176
     1
 90
        3
176
     1
 62
     5
420
      255
176
     1
290
     0
176
     1
 90
       50
176
     1
 90
       50
176
     1
 90
       50
176
     1
290
     0
176
     1
 90
       50
176
     1
 62
   256
176
     0
 40
1.0
176
     0
 90
        2
176
     1
  1
strokes_ogs.tif
176
     1
290
     0
176
     1
 40
1.0
176
     1
 40
1.0
176
     1
1001
ACAD
1000
AcDbSavedByObjectVersion
1070
     0
  0
VISUALSTYLE
  5
141
102
{ACAD_REACTORS
330
140
102
}
330
140
100
AcDbVisualStyle
  2

 70
     0
177
     3
291
     1
 70
    58
 90
        2
176
     1
 90
        1
176
     1
 90
        1
176
     1
 90
        2
176
     1
 40
0.6
176
     1
 40
30.0
176
     1
 62
     7
176
     1
 90
        0
176
     1
 90
        4
176
     1
 62
     7
176
     1
 62
   257
176
     1
 90
        1
176
     1
 90
        1
176
     1
 40
1.0
176
     1
 90
        8
176
     1
 62
     7
176
     1
 40
1.0
176
     1
 90
        1
176
     1
 90
        6
176
     1
 90
        2
176
     1
 62
     7
176
     1
 90
        5
176
     1
 90
        0
176
     1
 90
        0
176
     1
290
     0
176
     1
 90
       13
176
     1
 40
0.0
176
     1
 90
        0
176
     1
290
     0
176
     1
290
     1
176
     1
290
     1
176
     1
290
     0
176
     1
290
     0
176
     1
290
     0
176
     1
290
     0
176
     1
290
     0
176
     1
290
     0
176
     1
 90
       50
176
     1
 40
0.0
176
     1
 40
1.0
176
     1
 90
        0
176
     1
 62
    18
176
     1
 90
       50
176
     1
 90
        3
176
     1
 62
     5
420
      255
176
     1
290
     0
176
     1
 90
       50
176
     1
 90
       50
176
     1
 90
       50
176
     1
290
     0
176
     1
 90
       50
176
     1
 62
   256
176
     0
 40
1.0
176
     0
 90
        2
176
     1
  1
strokes_ogs.tif
176
     1
290
     0
176
     1
 40
1.0
176
     1
 40
1.0
176
     1
1001
ACAD
1000
AcDbSavedByObjectVersion
1070
     0
  0
VISUALSTYLE
  5
142
102
{ACAD_REACTORS
330
140
102
}
330
140
100
AcDbVisualStyle
  2

 70
     1
177
     3
291
     1
 70
    58
 90
        2
176
     1
 90
        1
176
     1
 90
        1
176
     1
 90
        2
176
     1
 40
0.6
176
     1
 40
30.0
176
     1
 62
     7
176
     1
 90
        1
176
     1
 90
        4
176
     1
 62
     7
176
     1
 62
   257
176
     1
 90
        1
176
     1
 90
        1
176
     1
 40
1.0
176
     1
 90
        0
176
     1
 62
   257
176
     1
 40
1.0
176
     1
 90
        1
176
     1
 90
        6
176
     1
 90
        2
176
     1
 62
     7
176
     1
 90
        5
176
     1
 90
        0
176
     1
 90
        0
176
     1
290
     0
176
     1
 90
       13
176
     1
 40
0.0
176
     1
 90
        0
176
     1
290
     0
176
     1
290
     1
176
     1
290
     1
176
     1
290
     0
176
     1
290
     0
176
     1
290
     0
176
     1
290
     0
176
     1
290
     0
176
     1
290
     0
176
     1
 90
       50
176
     1
 40
0.0
176
     1
 40
1.0
176
     1
 90
        0
176
     1
 62
    18
176
     1
 90
       50
176
     1
 90
        3
176
     1
 62
     5
420
      255
176
     1
290
     0
176
     1
 90
       50
176
     1
 90
       50
176
     1
 90
       50
176
     1
290
     0
176
     1
 90
       50
176
     1
 62
   256
176
     0
 40
1.0
176
     0
 90
        2
176
     1
  1
strokes_ogs.tif
176
     1
290
     0
176
     1
 40
1.0
176
     1
 40
1.0
176
     1
1001
ACAD
1000
AcDbSavedByObjectVersion
1070
     0
  0
VISUALSTYLE
  5
143
102
{ACAD_REACTORS
330
140
102
}
330
140
100
AcDbVisualStyle
  2

 70
     2
177
     3
291
     1
 70
    58
 90
        2
176
     1
 90
        2
176
     1
 90
        1
176
     1
 90
        2
176
     1
 40
0.6
176
     1
 40
30.0
176
     1
 62
     7
176
     1
 90
        0
176
     1
 90
        4
176
     1
 62
     7
176
     1
 62
   257
176
     1
 90
        1
176
     1
 90
        1
176
     1
 40
1.0
176
     1
 90
        0
176
     1
 62
     7
176
     1
 40
1.0
176
     1
 90
        1
176
     1
 90
        6
176
     1
 90
        2
176
     1
 62
     7
176
     1
 90
        5
176
     1
 90
        0
176
     1
 90
        0
176
     1
290
     0
176
     1
 90
       13
176
     1
 40
0.0
176
     1
 90
        0
176
     1
290
     0
176
     1
290
     1
176
     1
290
     1
176
     1
290
     0
176
     1
290
     0
176
     1
290
     0
176
     1
290
     0
176
     1
290
     0
176
     1
290
     0
176
     1
 90
       50
176
     1
 40
0.0
176
     1
 40
1.0
176
     1
 90
        0
176
     1
 62
    18
176
     1
 90
       50
176
     1
 90
        3
176
     1
 62
     5
420
      255
176
     1
290
     0
176
     1
 90
       50
176
     1
 90
       50
176
     1
 90
       50
176
     1
290
     0
176
     1
 90
       50
176
     1
 62
   256
176
     0
 40
1.0
176
     0
 90
        2
176
     1
  1
strokes_ogs.tif
176
     1
290
     0
176
     1
 40
1.0
176
     1
 40
1.0
176
     1
1001
ACAD
1000
AcDbSavedByObjectVersion
1070
     0
  0
VISUALSTYLE
  5
144
102
{ACAD_REACTORS
330
140
102
}
330
140
100
AcDbVisualStyle
  2

 70
     3
177
     3
291
     1
 70
    58
 90
        2
176
     1
 90
        2
176
     1
 90
        1
176
     1
 90
        2
176
     1
 40
0.6
176
     1
 40
30.0
176
     1
 62
     7
176
     1
 90
        1
176
     1
 90
        4
176
     1
 62
     7
176
     1
 62
   257
176
     1
 90
        1
176
     1
 90
        1
176
     1
 40
1.0
176
     1
 90
        0
176
     1
 62
   257
176
     1
 40
1.0
176
     1
 90
        1
176
     1
 90
        6
176
     1
 90
        2
176
     1
 62
     7
176
     1
 90
        5
176
     1
 90
        0
176
     1
 90
        0
176
     1
290
     0
176
     1
 90
       13
176
     1
 40
0.0
176
     1
 90
        0
176
     1
290
     0
176
     1
290
     1
176
     1
290
     1
176
     1
290
     0
176
     1
290
     0
176
     1
290
     0
176
     1
290
     0
176
     1
290
     0
176
     1
290
     0
176
     1
 90
       50
176
     1
 40
0.0
176
     1
 40
1.0
176
     1
 90
        0
176
     1
 62
    18
176
     1
 90
       50
176
     1
 90
        3
176
     1
 62
     5
420
      255
176
     1
290
     0
176
     1
 90
       50
176
     1
 90
       50
176
     1
 90
       50
176
     1
290
     0
176
     1
 90
       50
176
     1
 62
   256
176
     0
 40
1.0
176
     0
 90
        2
176
     1
  1
strokes_ogs.tif
176
     1
290
     0
176
     1
 40
1.0
176
     1
 40
1.0
176
     1
1001
ACAD
1000
AcDbSavedByObjectVersion
1070
     0
  0
VISUALSTYLE
  5
1E9
102
{ACAD_REACTORS
330
140
102
}
330
140
100
AcDbVisualStyle
  2
Hidden
 70
     6
177
     3
291
     0
 70
    58
 90
        1
176
     1
 90
        2
176
     1
 90
        2
176
     1
 90
        0
176
     1
 40
0.6
176
     1
 40
30.0
176
     1
 62
     7
420
 16777215
176
     1
 90
        2
176
     1
 90
        2
176
     1
 62
     7
176
     1
 62
   257
176
     1
 90
        2
176
     1
 90
        1
176
     1
 40
40.0
176
     1
 90
        0
176
     1
 62
   257
176
     1
 40
1.0
176
     1
 90
        1
176
     1
 90
        6
176
     1
 90
        2
176
     1
 62
     7
176
     1
 90
        3
176
     1
 90
        0
176
     1
 90
        0
176
     1
290
     0
176
     1
 90
        1
176
     1
 40
0.0
176
     1
 90
        0
176
     1
290
     0
176
     1
290
     1
176
     1
290
     1
176
     1
290
     0
176
     1
290
     0
176
     1
290
     0
176
     1
290
     0
176
     1
290
     0
176
     1
290
     0
176
     1
 90
       50
176
     1
 40
0.0
176
     1
 40
1.0
176
     1
 90
        0
176
     1
 62
    18
176
     1
 90
       50
176
     1
 90
        3
176
     1
 62
     5
420
      255
176
     1
290
     0
176
     1
 90
       50
176
     1
 90
       50
176
     1
 90
       50
176
     1
290
     0
176
     1
 90
       50
176
     1
 62
   256
176
     0
 40
1.0
176
     0
 90
        2
176
     1
  1
strokes_ogs.tif
176
     1
290
     0
176
     1
 40
1.0
176
     1
 40
1.0
176
     1
1001
ACAD
1000
AcDbSavedByObjectVersion
1070
     0
  0
VISUALSTYLE
  5
1EF
102
{ACAD_REACTORS
330
140
102
}
330
140
100
AcDbVisualStyle
  2
JitterOff
 70
    20
177
     3
291
     1
 70
    58
 90
        2
176
     0
 90
        2
176
     0
 90
        0
176
     0
 90
        0
176
     0
 40
0.6
176
     0
 40
30.0
176
     0
 62
     7
420
 16777215
176
     0
 90
        1
176
     0
 90
        4
176
     0
 62
     7
176
     0
 62
   257
176
     0
 90
        1
176
     0
 90
        1
176
     0
 40
1.0
176
     0
 90
       10
176
     2
 62
     7
176
     0
 40
1.0
176
     0
 90
        1
176
     0
 90
        6
176
     0
 90
        2
176
     0
 62
     7
176
     0
 90
        5
176
     0
 90
        0
176
     0
 90
        0
176
     0
290
     0
176
     0
 90
        1
176
     0
 40
0.0
176
     0
 90
        0
176
     0
290
     0
176
     1
290
     1
176
     1
290
     1
176
     1
290
     0
176
     1
290
     0
176
     1
290
     0
176
     1
290
     0
176
     1
290
     0
176
     1
290
     0
176
     1
 90
       50
176
     0
 40
0.0
176
     0
 40
1.0
176
     0
 90
        0
176
     0
 62
    18
176
     0
 90
       50
176
     0
 90
        3
176
     0
 62
     5
420
      255
176
     0
290
     0
176
     1
 90
       50
176
     0
 90
       50
176
     0
 90
       50
176
     0
290
     0
176
     1
 90
       50
176
     0
 62
   256
176
     0
 40
1.0
176
     0
 90
        2
176
     0
  1
strokes_ogs.tif
176
     0
290
     0
176
     1
 40
1.0
176
     0
 40
1.0
176
     0
1001
ACAD
1000
AcDbSavedByObjectVersion
1070
     0
  0
VISUALSTYLE
  5
14E
102
{ACAD_REACTORS
330
140
102
}
330
140
100
AcDbVisualStyle
  2

 70
    14
177
     3
291
     1
 70
    58
 90
        2
176
     1
 90
        2
176
     1
 90
        0
176
     1
 90
        0
176
     1
 40
0.6
176
     1
 40
30.0
176
     1
 62
     7
176
     1
 90
        1
176
     1
 90
        4
176
     1
 62
     7
176
     1
 62
   257
176
     1
 90
        7
176
     1
 90
        7
176
     1
 40
1.0
176
     1
 90
        8
176
     1
 62
     7
176
     1
 40
1.0
176
     1
 90
        1
176
     1
 90
        6
176
     1
 90
        2
176
     1
 62
     7
176
     1
 90
        5
176
     1
 90
        0
176
     1
 90
        0
176
     1
290
     0
176
     1
 90
        1
176
     1
 40
0.0
176
     1
 90
        0
176
     1
290
     0
176
     1
290
     1
176
     1
290
     1
176
     1
290
     0
176
     1
290
     0
176
     1
290
     0
176
     1
290
     0
176
     1
290
     0
176
     1
290
     0
176
     1
 90
       50
176
     1
 40
0.0
176
     1
 40
1.0
176
     1
 90
        0
176
     1
 62
    18
176
     1
 90
       50
176
     1
 90
        3
176
     1
 62
     5
420
      255
176
     1
290
     0
176
     1
 90
       50
176
     1
 90
       50
176
     1
 90
       50
176
     1
290
     0
176
     1
 90
       50
176
     1
 62
   256
176
     0
 40
1.0
176
     0
 90
        2
176
     1
  1
strokes_ogs.tif
176
     1
290
     0
176
     1
 40
1.0
176
     1
 40
1.0
176
     1
1001
ACAD
1000
AcDbSavedByObjectVersion
1070
     0
  0
VISUALSTYLE
  5
1F0
102
{ACAD_REACTORS
330
140
102
}
330
140
100
AcDbVisualStyle
  2
OverhangOff
 70
    21
177
     3
291
     1
 70
    58
 90
        2
176
     0
 90
        2
176
     0
 90
        0
176
     0
 90
        0
176
     0
 40
0.6
176
     0
 40
30.0
176
     0
 62
     7
420
 16777215
176
     0
 90
        1
176
     0
 90
        4
176
     0
 62
     7
176
     0
 62
   257
176
     0
 90
        1
176
     0
 90
        1
176
     0
 40
1.0
176
     0
 90
        9
176
     2
 62
     7
176
     0
 40
1.0
176
     0
 90
        1
176
     0
 90
        6
176
     0
 90
        2
176
     0
 62
     7
176
     0
 90
        5
176
     0
 90
        0
176
     0
 90
        0
176
     0
290
     0
176
     0
 90
        1
176
     0
 40
0.0
176
     0
 90
        0
176
     0
290
     0
176
     1
290
     1
176
     1
290
     1
176
     1
290
     0
176
     1
290
     0
176
     1
290
     0
176
     1
290
     0
176
     1
290
     0
176
     1
290
     0
176
     1
 90
       50
176
     0
 40
0.0
176
     0
 40
1.0
176
     0
 90
        0
176
     0
 62
    18
176
     0
 90
       50
176
     0
 90
        3
176
     0
 62
     5
420
      255
176
     0
290
     0
176
     1
 90
       50
176
     0
 90
       50
176
     0
 90
       50
176
     0
290
     0
176
     1
 90
       50
176
     0
 62
   256
176
     0
 40
1.0
176
     0
 90
        2
176
     0
  1
strokes_ogs.tif
176
     0
290
     0
176
     1
 40
1.0
176
     0
 40
1.0
176
     0
1001
ACAD
1000
AcDbSavedByObjectVersion
1070
     0
  0
VISUALSTYLE
  5
14A
102
{ACAD_REACTORS
330
140
102
}
330
140
100
AcDbVisualStyle
  2

 70
     8
177
     3
291
     0
 70
    58
 90
        2
176
     1
 90
        2
176
     1
 90
        0
176
     1
 90
        0
176
     1
 40
0.6
176
     1
 40
30.0
176
     1
 62
     7
176
     1
 90
        1
176
     1
 90
        0
176
     1
 62
     7
176
     1
 62
   257
176
     1
 90
        1
176
     1
 90
        1
176
     1
 40
1.0
176
     1
 90
        8
176
     1
 62
     8
176
     1
 40
1.0
176
     1
 90
        1
176
     1
 90
        6
176
     1
 90
        2
176
     1
 62
     7
176
     1
 90
        5
176
     1
 90
        0
176
     1
 90
        0
176
     1
290
     0
176
     1
 90
       13
176
     1
 40
0.0
176
     1
 90
        0
176
     1
290
     0
176
     1
290
     1
176
     1
290
     1
176
     1
290
     0
176
     1
290
     0
176
     1
290
     0
176
     1
290
     0
176
     1
290
     0
176
     1
290
     0
176
     1
 90
       50
176
     1
 40
0.0
176
     1
 40
1.0
176
     1
 90
        0
176
     1
 62
    18
176
     1
 90
       50
176
     1
 90
        3
176
     1
 62
     5
420
      255
176
     1
290
     0
176
     1
 90
       50
176
     1
 90
       50
176
     1
 90
       50
176
     1
290
     0
176
     1
 90
       50
176
     1
 62
   256
176
     0
 40
1.0
176
     0
 90
        2
176
     1
  1
strokes_ogs.tif
176
     1
290
     0
176
     1
 40
1.0
176
     1
 40
1.0
176
     1
1001
ACAD
1000
AcDbSavedByObjectVersion
1070
     0
  0
VISUALSTYLE
  5
1EE
102
{ACAD_REACTORS
330
140
102
}
330
140
100
AcDbVisualStyle
  2
Shaded
 70
    27
177
     3
291
     0
 70
    58
 90
        2
176
     1
 90
        2
176
     1
 90
        1
176
     1
 90
        2
176
     1
 40
0.6
176
     1
 40
30.0
176
     1
 62
     7
420
 16777215
176
     1
 90
        0
176
     1
 90
        4
176
     1
 62
     7
176
     1
 62
   257
176
     1
 90
        1
176
     1
 90
        1
176
     1
 40
1.0
176
     1
 90
        8
176
     1
 62
   257
176
     1
 40
1.0
176
     1
 90
        1
176
     1
 90
        6
176
     1
 90
        2
176
     1
 62
     8
420
  7895160
176
     1
 90
        3
176
     1
 90
        0
176
     1
 90
        0
176
     1
290
     0
176
     1
 90
        5
176
     1
 40
0.0
176
     1
 90
        0
176
     1
290
     0
176
     1
290
     1
176
     1
290
     1
176
     1
290
     0
176
     1
290
     0
176
     1
290
     0
176
     1
290
     0
176
     1
290
     0
176
     1
290
     0
176
     1
 90
       50
176
     1
 40
0.0
176
     1
 40
1.0
176
     1
 90
        0
176
     1
 62
    18
176
     1
 90
       50
176
     1
 90
        3
176
     1
 62
     5
420
      255
176
     1
290
     0
176
     1
 90
       50
176
     1
 90
       50
176
     1
 90
       50
176
     1
290
     0
176
     1
 90
       50
176
     1
 62
   256
176
     0
 40
1.0
176
     0
 90
        2
176
     1
  1
strokes_ogs.tif
176
     1
290
     0
176
     1
 40
1.0
176
     1
 40
1.0
176
     1
1001
ACAD
1000
AcDbSavedByObjectVersion
1070
     0
  0
VISUALSTYLE
  5
1ED
102
{ACAD_REACTORS
330
140
102
}
330
140
100
AcDbVisualStyle
  2
Shaded with edges
 70
    26
177
     3
291
     0
 70
    58
 90
        2
176
     1
 90
        2
176
     1
 90
        1
176
     1
 90
        2
176
     1
 40
0.6
176
     1
 40
30.0
176
     1
 62
     7
420
 16777215
176
     1
 90
        1
176
     1
 90
        2
176
     1
 62
     7
176
     1
 62
   257
176
     1
 90
        2
176
     1
 90
        1
176
     1
 40
1.0
176
     1
 90
        8
176
     1
 62
   257
176
     1
 40
1.0
176
     1
 90
        1
176
     1
 90
        6
176
     1
 90
        2
176
     1
 62
     7
176
     1
 90
        3
176
     1
 90
        0
176
     1
 90
        0
176
     1
290
     0
176
     1
 90
        5
176
     1
 40
0.0
176
     1
 90
        0
176
     1
290
     0
176
     1
290
     1
176
     1
290
     1
176
     1
290
     0
176
     1
290
     0
176
     1
290
     0
176
     1
290
     0
176
     1
290
     0
176
     1
290
     0
176
     1
 90
       50
176
     1
 40
0.0
176
     1
 40
1.0
176
     1
 90
        0
176
     1
 62
    18
176
     1
 90
       50
176
     1
 90
        3
176
     1
 62
     5
420
      255
176
     1
290
     0
176
     1
 90
       50
176
     1
 90
       50
176
     1
 90
       50
176
     1
290
     0
176
     1
 90
       50
176
     1
 62
   256
176
     0
 40
1.0
176
     0
 90
        2
176
     1
  1
strokes_ogs.tif
176
     1
290
     0
176
     1
 40
1.0
176
     1
 40
1.0
176
     1
1001
ACAD
1000
AcDbSavedByObjectVersion
1070
     0
  0
VISUALSTYLE
  5
1EA
102
{ACAD_REACTORS
330
140
102
}
330
140
100
AcDbVisualStyle
  2
Shades of Gray
 70
    23
177
     3
291
     0
 70
    58
 90
        2
176
     1
 90
        2
176
     1
 90
        3
176
     1
 90
        0
176
     1
 40
0.6
176
     1
 40
30.0
176
     1
 62
     7
420
 16777215
176
     1
 90
        2
176
     1
 90
        2
176
     1
 62
     7
176
     1
 62
     7
176
     1
 90
        1
176
     1
 90
        1
176
     1
 40
40.0
176
     1
 90
        8
176
     1
 62
     7
176
     1
 40
1.0
176
     1
 90
        1
176
     1
 90
        6
176
     1
 90
        2
176
     1
 62
     7
176
     1
 90
        3
176
     1
 90
        0
176
     1
 90
        0
176
     1
290
     0
176
     1
 90
        1
176
     1
 40
0.0
176
     1
 90
        0
176
     1
290
     0
176
     1
290
     1
176
     1
290
     1
176
     1
290
     0
176
     1
290
     0
176
     1
290
     0
176
     1
290
     0
176
     1
290
     0
176
     1
290
     0
176
     1
 90
       50
176
     1
 40
0.0
176
     1
 40
1.0
176
     1
 90
        0
176
     1
 62
    18
176
     1
 90
       50
176
     1
 90
        3
176
     1
 62
     5
420
      255
176
     1
290
     0
176
     1
 90
       50
176
     1
 90
       50
176
     1
 90
       50
176
     1
290
     0
176
     1
 90
       50
176
     1
 62
   256
176
     0
 40
1.0
176
     0
 90
        2
176
     1
  1
strokes_ogs.tif
176
     1
290
     0
176
     1
 40
1.0
176
     1
 40
1.0
176
     1
1001
ACAD
1000
AcDbSavedByObjectVersion
1070
     0
  0
VISUALSTYLE
  5
1EB
102
{ACAD_REACTORS
330
140
102
}
330
140
100
AcDbVisualStyle
  2
Sketchy
 70
    24
177
     3
291
     0
 70
    58
 90
        1
176
     1
 90
        2
176
     1
 90
        2
176
     1
 90
        0
176
     1
 40
0.6
176
     1
 40
30.0
176
     1
 62
     7
420
 16777215
176
     1
 90
        2
176
     1
 90
        2
176
     1
 62
     7
176
     1
 62
     7
176
     1
 90
        1
176
     1
 90
        1
176
     1
 40
40.0
176
     1
 90
       11
176
     1
 62
     7
176
     1
 40
1.0
176
     1
 90
        1
176
     1
 90
        6
176
     1
 90
        2
176
     1
 62
     7
176
     1
 90
        6
176
     1
 90
        0
176
     1
 90
        0
176
     1
290
     0
176
     1
 90
        1
176
     1
 40
0.0
176
     1
 90
        0
176
     1
290
     0
176
     1
290
     1
176
     1
290
     1
176
     1
290
     0
176
     1
290
     0
176
     1
290
     0
176
     1
290
     0
176
     1
290
     0
176
     1
290
     0
176
     1
 90
       50
176
     1
 40
0.0
176
     1
 40
1.0
176
     1
 90
        0
176
     1
 62
    18
176
     1
 90
       50
176
     1
 90
        3
176
     1
 62
     5
420
      255
176
     1
290
     0
176
     1
 90
       50
176
     1
 90
       50
176
     1
 90
       50
176
     1
290
     0
176
     1
 90
       50
176
     1
 62
   256
176
     0
 40
1.0
176
     0
 90
        2
176
     1
  1
strokes_ogs.tif
176
     1
290
     0
176
     1
 40
1.0
176
     1
 40
1.0
176
     1
1001
ACAD
1000
AcDbSavedByObjectVersion
1070
     0
  0
VISUALSTYLE
  5
14D
102
{ACAD_REACTORS
330
140
102
}
330
140
100
AcDbVisualStyle
  2

 70
    13
177
     3
291
     1
 70
    58
 90
        2
176
     1
 90
        2
176
     1
 90
        0
176
     1
 90
        0
176
     1
 40
0.6
176
     1
 40
30.0
176
     1
 62
     7
176
     1
 90
        1
176
     1
 90
        4
176
     1
 62
     7
176
     1
 62
   257
176
     1
 90
        1
176
     1
 90
        1
176
     1
 40
1.0
176
     1
 90
       12
176
     1
 62
     7
176
     1
 40
1.0
176
     1
 90
        1
176
     1
 90
        6
176
     1
 90
        2
176
     1
 62
     7
176
     1
 90
        5
176
     1
 90
        0
176
     1
 90
        0
176
     1
290
     0
176
     1
 90
        1
176
     1
 40
0.0
176
     1
 90
        0
176
     1
290
     0
176
     1
290
     1
176
     1
290
     1
176
     1
290
     0
176
     1
290
     0
176
     1
290
     0
176
     1
290
     0
176
     1
290
     0
176
     1
290
     0
176
     1
 90
       50
176
     1
 40
0.0
176
     1
 40
1.0
176
     1
 90
        0
176
     1
 62
    18
176
     1
 90
       50
176
     1
 90
        3
176
     1
 62
     5
420
      255
176
     1
290
     0
176
     1
 90
       50
176
     1
 90
       50
176
     1
 90
       50
176
     1
290
     0
176
     1
 90
       50
176
     1
 62
   256
176
     0
 40
1.0
176
     0
 90
        2
176
     1
  1
strokes_ogs.tif
176
     1
290
     0
176
     1
 40
1.0
176
     1
 40
1.0
176
     1
1001
ACAD
1000
AcDbSavedByObjectVersion
1070
     0
  0
VISUALSTYLE
  5
1E8
102
{ACAD_REACTORS
330
140
102
}
330
140
100
AcDbVisualStyle
  2
Wireframe
 70
     5
177
     3
291
     0
 70
    58
 90
        0
176
     1
 90
        2
176
     1
 90
        0
176
     1
 90
        0
176
     1
 40
0.6
176
     1
 40
30.0
176
     1
 62
     7
420
 16777215
176
     1
 90
        1
176
     1
 90
        4
176
     1
 62
     7
176
     1
 62
   257
176
     1
 90
        1
176
     1
 90
        1
176
     1
 40
1.0
176
     1
 90
        0
176
     1
 62
   257
176
     1
 40
1.0
176
     1
 90
        1
176
     1
 90
        6
176
     1
 90
        2
176
     1
 62
     7
176
     1
 90
        3
176
     1
 90
        0
176
     1
 90
        0
176
     1
290
     0
176
     1
 90
        1
176
     1
 40
0.0
176
     1
 90
        0
176
     1
290
     0
176
     1
290
     1
176
     1
290
     1
176
     1
290
     0
176
     1
290
     0
176
     1
290
     0
176
     1
290
     0
176
     1
290
     0
176
     1
290
     0
176
     1
 90
       50
176
     1
 40
0.0
176
     1
 40
1.0
176
     1
 90
        0
176
     1
 62
    18
176
     1
 90
       50
176
     1
 90
        3
176
     1
 62
     5
420
      255
176
     1
290
     0
176
     1
 90
       50
176
     1
 90
       50
176
     1
 90
       50
176
     1
290
     0
176
     1
 90
       50
176
     1
 62
   256
176
     0
 40
1.0
176
     0
 90
        2
176
     1
  1
strokes_ogs.tif
176
     1
290
     0
176
     1
 40
1.0
176
     1
 40
1.0
176
     1
1001
ACAD
1000
AcDbSavedByObjectVersion
1070
     0
  0
VISUALSTYLE
  5
1EC
102
{ACAD_REACTORS
330
140
102
}
330
140
100
AcDbVisualStyle
  2
X-Ray
 70
    25
177
     3
291
     0
 70
    58
 90
        2
176
     1
 90
        2
176
     1
 90
        1
176
     1
 90
        1
176
     1
 40
0.5
176
     1
 40
30.0
176
     1
 62
     7
420
 16777215
176
     1
 90
        1
176
     1
 90
        0
176
     1
 62
     7
176
     1
 62
   257
176
     1
 90
        1
176
     1
 90
        1
176
     1
 40
1.0
176
     1
 90
        8
176
     1
 62
     7
176
     1
 40
1.0
176
     1
 90
        1
176
     1
 90
        6
176
     1
 90
        2
176
     1
 62
     7
176
     1
 90
        3
176
     1
 90
        0
176
     1
 90
        0
176
     1
290
     0
176
     1
 90
       13
176
     1
 40
0.0
176
     1
 90
        0
176
     1
290
     0
176
     1
290
     1
176
     1
290
     1
176
     1
290
     0
176
     1
290
     0
176
     1
290
     0
176
     1
290
     0
176
     1
290
     0
176
     1
290
     0
176
     1
 90
       50
176
     1
 40
0.0
176
     1
 40
1.0
176
     1
 90
        0
176
     1
 62
    18
176
     1
 90
       50
176
     1
 90
        3
176
     1
 62
     5
420
      255
176
     1
290
     0
176
     1
 90
       50
176
     1
 90
       50
176
     1
 90
       50
176
     1
290
     0
176
     1
 90
       50
176
     1
 62
   256
176
     0
 40
1.0
176
     0
 90
        2
176
     1
  1
strokes_ogs.tif
176
     1
290
     0
176
     1
 40
1.0
176
     1
 40
1.0
176
     1
1001
ACAD
1000
AcDbSavedByObjectVersion
1070
     0
  0
DICTIONARYVAR
  5
265
102
{ACAD_REACTORS
330
17F
102
}
330
17F
100
DictionaryVariables
280
     0
  1
1:1
  0
DICTIONARYVAR
  5
261
102
{ACAD_REACTORS
330
17F
102
}
330
17F
100
DictionaryVariables
280
     0
  1
STANDARD
  0
DICTIONARYVAR
  5
180
102
{ACAD_REACTORS
330
17F
102
}
330
17F
100
DictionaryVariables
280
     0
  1
STANDARD
  0
DICTIONARYVAR
  5
262
102
{ACAD_REACTORS
330
17F
102
}
330
17F
100
DictionaryVariables
280
     0
  1
Metric50
  0
DICTIONARYVAR
  5
263
102
{ACAD_REACTORS
330
17F
102
}
330
17F
100
DictionaryVariables
280
     0
  1
Metric50
  0
DICTIONARYVAR
  5
183
102
{ACAD_REACTORS
330
17F
102
}
330
17F
100
DictionaryVariables
280
     0
  1
1
  0
DICTIONARYVAR
  5
182
102
{ACAD_REACTORS
330
17F
102
}
330
17F
100
DictionaryVariables
280
     0
  1
0
  0
DICTIONARYVAR
  5
267
102
{ACAD_REACTORS
330
17F
102
}
330
17F
100
DictionaryVariables
280
     0
  1
1
  0
DICTIONARYVAR
  5
268
102
{ACAD_REACTORS
330
17F
102
}
330
17F
100
DictionaryVariables
280
     0
  1
15
  0
DICTIONARYVAR
  5
266
102
{ACAD_REACTORS
330
17F
102
}
330
17F
100
DictionaryVariables
280
     0
  1
0
  0
DICTIONARYVAR
  5
264
102
{ACAD_REACTORS
330
17F
102
}
330
17F
100
DictionaryVariables
280
     0
  1
0
  0
DICTIONARYVAR
  5
181
102
{ACAD_REACTORS
330
17F
102
}
330
17F
100
DictionaryVariables
280
     0
  1
127
  0
DICTIONARY
  5
D7F
330
209
100
AcDbDictionary
280
     1
281
     1
  3
ACAD_XREC_ROUNDTRIP
360
D80
  0
DICTIONARY
  5
1C5
330
13E
100
AcDbDictionary
280
     1
281
     1
  3
ACAD_XREC_ROUNDTRIP
360
1C6
  0
DICTIONARY
  5
1C3
330
13D
100
AcDbDictionary
280
     1
281
     1
  3
ACAD_XREC_ROUNDTRIP
360
1C4
  0
DICTIONARY
  5
1C7
330
13F
100
AcDbDictionary
280
     1
281
     1
  3
ACAD_XREC_ROUNDTRIP
360
1C8
  0
DICTIONARY
  5
D7D
330
207
100
AcDbDictionary
280
     1
281
     1
  3
ACAD_XREC_ROUNDTRIP
360
D7E
  0
DICTIONARY
  5
269
330
153
100
AcDbDictionary
280
     1
281
     1
  3
ACAD_ROUNDTRIP_2008_TABLESTYLE_CELLSTYLEMAP
360
D7B
  0
XRECORD
  5
D80
102
{ACAD_REACTORS
330
D7F
102
}
330
D7F
100
AcDbXrecord
280
     1
102
DISPLAYNAME
  1
Metric50
102
FLAGS
 90
        0
  0
XRECORD
  5
1C6
102
{ACAD_REACTORS
330
1C5
102
}
330
1C5
100
AcDbXrecord
280
     1
102
MATERIAL
148
0.0
149
0.0
149
0.0
 93
        0
 94
       63
282
     0
 72
     1
 77
     1
171
     1
175
     1
179
     1
273
     0
  0
XRECORD
  5
1C4
102
{ACAD_REACTORS
330
1C3
102
}
330
1C3
100
AcDbXrecord
280
     1
102
MATERIAL
148
0.0
149
0.0
149
0.0
 93
        0
 94
       63
282
     0
 72
     1
 77
     1
171
     1
175
     1
179
     1
273
     0
  0
XRECORD
  5
1C8
102
{ACAD_REACTORS
330
1C7
102
}
330
1C7
100
AcDbXrecord
280
     1
102
MATERIAL
148
0.0
149
0.0
149
0.0
 93
        0
 94
       63
282
     0
 72
     1
 77
     1
171
     1
175
     1
179
     1
273
     0
  0
XRECORD
  5
D7E
102
{ACAD_REACTORS
330
D7D
102
}
330
D7D
100
AcDbXrecord
280
     1
102
DISPLAYNAME
  1
Metric50
102
FLAGS
 90
        0
  0
CELLSTYLEMAP
  5
D7B
102
{ACAD_REACTORS
330
269
102
}
330
269
100
AcDbCellStyleMap
 90
        3
300
CELLSTYLE
  1
TABLEFORMAT_BEGIN
 90
        5
170
     1
 91
        0
 92
    32768
 62
   257
 93
        1
300
CONTENTFORMAT
  1
CONTENTFORMAT_BEGIN
 90
        0
 91
        0
 92
      512
 93
        0
300

 40
0.0
140
1.0
 94
        5
 62
     0
340
11
144
6.0
309
CONTENTFORMAT_END
171
     1
301
MARGIN
  1
CELLMARGIN_BEGIN
 40
1.5
 40
1.5
 40
1.5
 40
1.5
 40
0.18
 40
0.18
309
CELLMARGIN_END
 94
        6
 95
        1
302
GRIDFORMAT
  1
GRIDFORMAT_BEGIN
 90
        0
 91
        1
 62
     0
 92
       -2
340
0
 93
        0
 40
0.045
309
GRIDFORMAT_END
 95
        2
302
GRIDFORMAT
  1
GRIDFORMAT_BEGIN
 90
        0
 91
        1
 62
     0
 92
       -2
340
0
 93
        0
 40
0.045
309
GRIDFORMAT_END
 95
        4
302
GRIDFORMAT
  1
GRIDFORMAT_BEGIN
 90
        0
 91
        1
 62
     0
 92
       -2
340
0
 93
        0
 40
0.045
309
GRIDFORMAT_END
 95
        8
302
GRIDFORMAT
  1
GRIDFORMAT_BEGIN
 90
        0
 91
        1
 62
     0
 92
       -2
340
0
 93
        0
 40
0.045
309
GRIDFORMAT_END
 95
       16
302
GRIDFORMAT
  1
GRIDFORMAT_BEGIN
 90
        0
 91
        1
 62
     0
 92
       -2
340
0
 93
        0
 40
0.045
309
GRIDFORMAT_END
 95
       32
302
GRIDFORMAT
  1
GRIDFORMAT_BEGIN
 90
        0
 91
        1
 62
     0
 92
       -2
340
0
 93
        0
 40
0.045
309
GRIDFORMAT_END
309
TABLEFORMAT_END
  1
CELLSTYLE_BEGIN
 90
        1
 91
        1
300
_TITLE
309
CELLSTYLE_END
300
CELLSTYLE
  1
TABLEFORMAT_BEGIN
 90
        5
170
     1
 91
        0
 92
        0
 62
   257
 93
        1
300
CONTENTFORMAT
  1
CONTENTFORMAT_BEGIN
 90
        0
 91
        0
 92
      512
 93
        0
300

 40
0.0
140
1.0
 94
        5
 62
     0
340
11
144
4.5
309
CONTENTFORMAT_END
171
     1
301
MARGIN
  1
CELLMARGIN_BEGIN
 40
1.5
 40
1.5
 40
1.5
 40
1.5
 40
0.18
 40
0.18
309
CELLMARGIN_END
 94
        6
 95
        1
302
GRIDFORMAT
  1
GRIDFORMAT_BEGIN
 90
        0
 91
        1
 62
     0
 92
       -2
340
0
 93
        0
 40
0.045
309
GRIDFORMAT_END
 95
        2
302
GRIDFORMAT
  1
GRIDFORMAT_BEGIN
 90
        0
 91
        1
 62
     0
 92
       -2
340
0
 93
        0
 40
0.045
309
GRIDFORMAT_END
 95
        4
302
GRIDFORMAT
  1
GRIDFORMAT_BEGIN
 90
        0
 91
        1
 62
     0
 92
       -2
340
0
 93
        0
 40
0.045
309
GRIDFORMAT_END
 95
        8
302
GRIDFORMAT
  1
GRIDFORMAT_BEGIN
 90
        0
 91
        1
 62
     0
 92
       -2
340
0
 93
        0
 40
0.045
309
GRIDFORMAT_END
 95
       16
302
GRIDFORMAT
  1
GRIDFORMAT_BEGIN
 90
        0
 91
        1
 62
     0
 92
       -2
340
0
 93
        0
 40
0.045
309
GRIDFORMAT_END
 95
       32
302
GRIDFORMAT
  1
GRIDFORMAT_BEGIN
 90
        0
 91
        1
 62
     0
 92
       -2
340
0
 93
        0
 40
0.045
309
GRIDFORMAT_END
309
TABLEFORMAT_END
  1
CELLSTYLE_BEGIN
 90
        2
 91
        1
300
_HEADER
309
CELLSTYLE_END
300
CELLSTYLE
  1
TABLEFORMAT_BEGIN
 90
        5
170
     1
 91
        0
 92
        0
 62
   257
 93
        1
300
CONTENTFORMAT
  1
CONTENTFORMAT_BEGIN
 90
        0
 91
        0
 92
      512
 93
        0
300

 40
0.0
140
1.0
 94
        2
 62
     0
340
11
144
4.5
309
CONTENTFORMAT_END
171
     1
301
MARGIN
  1
CELLMARGIN_BEGIN
 40
1.5
 40
1.5
 40
1.5
 40
1.5
 40
0.18
 40
0.18
309
CELLMARGIN_END
 94
        6
 95
        1
302
GRIDFORMAT
  1
GRIDFORMAT_BEGIN
 90
        0
 91
        1
 62
     0
 92
       -2
340
0
 93
        0
 40
0.045
309
GRIDFORMAT_END
 95
        2
302
GRIDFORMAT
  1
GRIDFORMAT_BEGIN
 90
        0
 91
        1
 62
     0
 92
       -2
340
0
 93
        0
 40
0.045
309
GRIDFORMAT_END
 95
        4
302
GRIDFORMAT
  1
GRIDFORMAT_BEGIN
 90
        0
 91
        1
 62
     0
 92
       -2
340
0
 93
        0
 40
0.045
309
GRIDFORMAT_END
 95
        8
302
GRIDFORMAT
  1
GRIDFORMAT_BEGIN
 90
        0
 91
        1
 62
     0
 92
       -2
340
0
 93
        0
 40
0.045
309
GRIDFORMAT_END
 95
       16
302
GRIDFORMAT
  1
GRIDFORMAT_BEGIN
 90
        0
 91
        1
 62
     0
 92
       -2
340
0
 93
        0
 40
0.045
309
GRIDFORMAT_END
 95
       32
302
GRIDFORMAT
  1
GRIDFORMAT_BEGIN
 90
        0
 91
        1
 62
     0
 92
       -2
340
0
 93
        0
 40
0.045
309
GRIDFORMAT_END
309
TABLEFORMAT_END
  1
CELLSTYLE_BEGIN
 90
        3
 91
        2
300
_DATA
309
CELLSTYLE_END
  0
ENDSEC
  0
EOF
