  0
SECTION
  2
HEADER
  9
$ACADVER
  1
AC1015
  9
$ACADMAINTVER
 70
    20
  9
$DWGCODEPAGE
  3
ANSI_1252
  9
$INSBASE
 10
0.0
 20
0.0
 30
0.0
  9
$EXTMIN
 10
-277.0557498350444
 20
57.25108928548116
 30
-0.0000000000022673
  9
$EXTMAX
 10
424.3094528175502
 20
614.9165852054323
 30
0.0000000000023103
  9
$LIMMIN
 10
0.0
 20
0.0
  9
$LIMMAX
 10
12.0
 20
9.0
  9
$ORTHOMODE
 70
     0
  9
$REGENMODE
 70
     1
  9
$FILLMODE
 70
     1
  9
$QTEXTMODE
 70
     0
  9
$MIRRTEXT
 70
     1
  9
$LTSCALE
 40
1.0
  9
$ATTMODE
 70
     1
  9
$TEXTSIZE
 40
0.2
  9
$TRACEWID
 40
0.05
  9
$TEXTSTYLE
  7
STANDARD
  9
$CLAYER
  8
0
  9
$CELTYPE
  6
BYLAYER
  9
$CECOLOR
 62
   256
  9
$CELTSCALE
 40
1.0
  9
$DISPSILH
 70
     0
  9
$DIMSCALE
 40
1.0
  9
$DIMASZ
 40
0.18
  9
$DIMEXO
 40
0.0625
  9
$DIMDLI
 40
0.38
  9
$DIMRND
 40
0.0
  9
$DIMDLE
 40
0.0
  9
$DIMEXE
 40
0.18
  9
$DIMTP
 40
0.0
  9
$DIMTM
 40
0.0
  9
$DIMTXT
 40
0.18
  9
$DIMCEN
 40
0.09
  9
$DIMTSZ
 40
0.0
  9
$DIMTOL
 70
     0
  9
$DIMLIM
 70
     0
  9
$DIMTIH
 70
     1
  9
$DIMTOH
 70
     1
  9
$DIMSE1
 70
     0
  9
$DIMSE2
 70
     0
  9
$DIMTAD
 70
     0
  9
$DIMZIN
 70
     0
  9
$DIMBLK
  1

  9
$DIMASO
 70
     1
  9
$DIMSHO
 70
     1
  9
$DIMPOST
  1

  9
$DIMAPOST
  1

  9
$DIMALT
 70
     0
  9
$DIMALTD
 70
     2
  9
$DIMALTF
 40
25.4
  9
$DIMLFAC
 40
1.0
  9
$DIMTOFL
 70
     0
  9
$DIMTVP
 40
0.0
  9
$DIMTIX
 70
     0
  9
$DIMSOXD
 70
     0
  9
$DIMSAH
 70
     0
  9
$DIMBLK1
  1

  9
$DIMBLK2
  1

  9
$DIMSTYLE
  2
STANDARD
  9
$DIMCLRD
 70
     0
  9
$DIMCLRE
 70
     0
  9
$DIMCLRT
 70
     0
  9
$DIMTFAC
 40
1.0
  9
$DIMGAP
 40
0.09
  9
$DIMJUST
 70
     0
  9
$DIMSD1
 70
     0
  9
$DIMSD2
 70
     0
  9
$DIMTOLJ
 70
     1
  9
$DIMTZIN
 70
     0
  9
$DIMALTZ
 70
     0
  9
$DIMALTTZ
 70
     0
  9
$DIMUPT
 70
     0
  9
$DIMDEC
 70
     4
  9
$DIMTDEC
 70
     4
  9
$DIMALTU
 70
     2
  9
$DIMALTTD
 70
     2
  9
$DIMTXSTY
  7
STANDARD
  9
$DIMAUNIT
 70
     0
  9
$DIMADEC
 70
     0
  9
$DIMALTRND
 40
0.0
  9
$DIMAZIN
 70
     0
  9
$DIMDSEP
 70
    46
  9
$DIMATFIT
 70
     3
  9
$DIMFRAC
 70
     0
  9
$DIMLDRBLK
  1

  9
$DIMLUNIT
 70
     2
  9
$DIMLWD
 70
    -2
  9
$DIMLWE
 70
    -2
  9
$DIMTMOVE
 70
     0
  9
$LUNITS
 70
     2
  9
$LUPREC
 70
     4
  9
$SKETCHINC
 40
0.1
  9
$FILLETRAD
 40
0.5
  9
$AUNITS
 70
     0
  9
$AUPREC
 70
     0
  9
$MENU
  1
.
  9
$ELEVATION
 40
0.0
  9
$PELEVATION
 40
0.0
  9
$THICKNESS
 40
0.0
  9
$LIMCHECK
 70
     0
  9
$CHAMFERA
 40
0.5
  9
$CHAMFERB
 40
0.5
  9
$CHAMFERC
 40
1.0
  9
$CHAMFERD
 40
0.0
  9
$SKPOLY
 70
     0
  9
$TDCREATE
 40
2451762.575520602
  9
$TDUCREATE
 40
2451762.492187269
  9
$TDUPDATE
 40
2455708.724303704
  9
$TDUUPDATE
 40
2455708.640970371
  9
$TDINDWG
 40
0.0069235185
  9
$TDUSRTIMER
 40
0.0069231481
  9
$USRTIMER
 70
     1
  9
$ANGBASE
 50
0.0
  9
$ANGDIR
 70
     0
  9
$PDMODE
 70
     0
  9
$PDSIZE
 40
0.0
  9
$PLINEWID
 40
0.0
  9
$SPLFRAME
 70
     0
  9
$SPLINETYPE
 70
     6
  9
$SPLINESEGS
 70
     8
  9
$HANDSEED
  5
1D7
  9
$SURFTAB1
 70
     6
  9
$SURFTAB2
 70
     6
  9
$SURFTYPE
 70
     6
  9
$SURFU
 70
     6
  9
$SURFV
 70
     6
  9
$UCSBASE
  2

  9
$UCSNAME
  2

  9
$UCSORG
 10
0.0
 20
0.0
 30
0.0
  9
$UCSXDIR
 10
1.0
 20
0.0
 30
0.0
  9
$UCSYDIR
 10
0.0
 20
1.0
 30
0.0
  9
$UCSORTHOREF
  2

  9
$UCSORTHOVIEW
 70
     0
  9
$UCSORGTOP
 10
0.0
 20
0.0
 30
0.0
  9
$UCSORGBOTTOM
 10
0.0
 20
0.0
 30
0.0
  9
$UCSORGLEFT
 10
0.0
 20
0.0
 30
0.0
  9
$UCSORGRIGHT
 10
0.0
 20
0.0
 30
0.0
  9
$UCSORGFRONT
 10
0.0
 20
0.0
 30
0.0
  9
$UCSORGBACK
 10
0.0
 20
0.0
 30
0.0
  9
$PUCSBASE
  2

  9
$PUCSNAME
  2

  9
$PUCSORG
 10
0.0
 20
0.0
 30
0.0
  9
$PUCSXDIR
 10
1.0
 20
0.0
 30
0.0
  9
$PUCSYDIR
 10
0.0
 20
1.0
 30
0.0
  9
$PUCSORTHOREF
  2

  9
$PUCSORTHOVIEW
 70
     0
  9
$PUCSORGTOP
 10
0.0
 20
0.0
 30
0.0
  9
$PUCSORGBOTTOM
 10
0.0
 20
0.0
 30
0.0
  9
$PUCSORGLEFT
 10
0.0
 20
0.0
 30
0.0
  9
$PUCSORGRIGHT
 10
0.0
 20
0.0
 30
0.0
  9
$PUCSORGFRONT
 10
0.0
 20
0.0
 30
0.0
  9
$PUCSORGBACK
 10
0.0
 20
0.0
 30
0.0
  9
$USERI1
 70
     0
  9
$USERI2
 70
     0
  9
$USERI3
 70
     0
  9
$USERI4
 70
     0
  9
$USERI5
 70
     0
  9
$USERR1
 40
0.0
  9
$USERR2
 40
0.0
  9
$USERR3
 40
0.0
  9
$USERR4
 40
0.0
  9
$USERR5
 40
0.0
  9
$WORLDVIEW
 70
     1
  9
$SHADEDGE
 70
     3
  9
$SHADEDIF
 70
    70
  9
$TILEMODE
 70
     1
  9
$MAXACTVP
 70
    64
  9
$PINSBASE
 10
0.0
 20
0.0
 30
0.0
  9
$PLIMCHECK
 70
     0
  9
$PEXTMIN
 10
1.000000000000000E+20
 20
1.000000000000000E+20
 30
1.000000000000000E+20
  9
$PEXTMAX
 10
-1.000000000000000E+20
 20
-1.000000000000000E+20
 30
-1.000000000000000E+20
  9
$PLIMMIN
 10
0.0
 20
0.0
  9
$PLIMMAX
 10
12.0
 20
9.0
  9
$UNITMODE
 70
     0
  9
$VISRETAIN
 70
     1
  9
$PLINEGEN
 70
     0
  9
$PSLTSCALE
 70
     1
  9
$TREEDEPTH
 70
  3020
  9
$CMLSTYLE
  2
STANDARD
  9
$CMLJUST
 70
     0
  9
$CMLSCALE
 40
1.0
  9
$PROXYGRAPHICS
 70
     1
  9
$MEASUREMENT
 70
     0
  9
$CELWEIGHT
370
    -1
  9
$ENDCAPS
280
     0
  9
$JOINSTYLE
280
     0
  9
$LWDISPLAY
290
     0
  9
$INSUNITS
 70
     0
  9
$HYPERLINKBASE
  1

  9
$STYLESHEET
  1

  9
$XEDIT
290
     1
  9
$CEPSNTYPE
380
     0
  9
$PSTYLEMODE
290
     1
  9
$FINGERPRINTGUID
  2
{B08082D0-72DA-4115-A5BB-830B238385F0}
  9
$VERSIONGUID
  2
{6D812AE8-FAD6-4B94-8F12-1C7F6313F8E0}
  9
$EXTNAMES
290
     1
  9
$PSVPSCALE
 40
0.0
  9
$OLESTARTUP
290
     0
  0
ENDSEC
  0
SECTION
  2
CLASSES
  0
CLASS
  1
ACDBDICTIONARYWDFLT
  2
AcDbDictionaryWithDefault
  3
ObjectDBX Classes
 90
        0
280
     0
281
     0
  0
CLASS
  1
ACDBPLACEHOLDER
  2
AcDbPlaceHolder
  3
ObjectDBX Classes
 90
        0
280
     0
281
     0
  0
CLASS
  1
LAYOUT
  2
AcDbLayout
  3
ObjectDBX Classes
 90
        0
280
     0
281
     0
  0
CLASS
  1
MATERIAL
  2
AcDbMaterial
  3
ObjectDBX Classes
 90
     1024
280
     0
281
     0
  0
CLASS
  1
VISUALSTYLE
  2
AcDbVisualStyle
  3
ObjectDBX Classes
 90
     4095
280
     0
281
     0
  0
CLASS
  1
TABLESTYLE
  2
AcDbTableStyle
  3
ObjectDBX Classes
 90
     4095
280
     0
281
     0
  0
CLASS
  1
DICTIONARYVAR
  2
AcDbDictionaryVar
  3
ObjectDBX Classes
 90
        0
280
     0
281
     0
  0
CLASS
  1
SORTENTSTABLE
  2
AcDbSortentsTable
  3
ObjectDBX Classes
 90
        0
280
     0
281
     0
  0
ENDSEC
  0
SECTION
  2
TABLES
  0
TABLE
  2
VPORT
  5
8
330
0
100
AcDbSymbolTable
 70
     1
  0
VPORT
  5
DE
330
8
100
AcDbSymbolTableRecord
100
AcDbViewportTableRecord
  2
*ACTIVE
 70
     0
 10
0.0
 20
0.0
 11
1.0
 21
1.0
 12
255.8693812270744
 22
324.9626470307452
 13
0.0
 23
0.0
 14
0.5
 24
0.5
 15
0.5
 25
0.5
 16
0.0
 26
0.0
 36
1.0
 17
0.0
 27
0.0
 37
0.0
 40
991.9795024143775
 41
1.872894333843797
 42
50.0
 43
0.0
 44
0.0
 50
0.0
 51
0.0
 71
     0
 72
   100
 73
     1
 74
     3
 75
     0
 76
     0
 77
     0
 78
     0
281
     0
 65
     1
110
0.0
120
0.0
130
0.0
111
1.0
121
0.0
131
0.0
112
0.0
122
1.0
132
0.0
 79
     0
146
0.0
  0
ENDTAB
  0
TABLE
  2
LTYPE
  5
5
330
0
100
AcDbSymbolTable
 70
     2
  0
LTYPE
  5
14
330
5
100
AcDbSymbolTableRecord
100
AcDbLinetypeTableRecord
  2
BYBLOCK
 70
     0
  3

 72
    65
 73
     0
 40
0.0
  0
LTYPE
  5
15
330
5
100
AcDbSymbolTableRecord
100
AcDbLinetypeTableRecord
  2
BYLAYER
 70
     0
  3

 72
    65
 73
     0
 40
0.0
  0
LTYPE
  5
16
330
5
100
AcDbSymbolTableRecord
100
AcDbLinetypeTableRecord
  2
CONTINUOUS
 70
     0
  3
Solid line
 72
    65
 73
     0
 40
0.0
  0
ENDTAB
  0
TABLE
  2
LAYER
  5
2
330
0
100
AcDbSymbolTable
 70
     3
  0
LAYER
  5
10
330
2
100
AcDbSymbolTableRecord
100
AcDbLayerTableRecord
  2
0
 70
     0
 62
     7
  6
CONTINUOUS
370
    -3
390
A4
  0
LAYER
  5
5B
330
2
100
AcDbSymbolTableRecord
100
AcDbLayerTableRecord
  2
PV-86
 70
     2
 62
     7
  6
CONTINUOUS
370
    -3
390
A4
  0
LAYER
  5
141
330
2
100
AcDbSymbolTableRecord
100
AcDbLayerTableRecord
  2
Defpoints
 70
     0
 62
     7
  6
CONTINUOUS
290
     0
370
    -3
390
A4
  0
ENDTAB
  0
TABLE
  2
STYLE
  5
3
330
0
100
AcDbSymbolTable
 70
     1
  0
STYLE
  5
11
330
3
100
AcDbSymbolTableRecord
100
AcDbTextStyleTableRecord
  2
STANDARD
 70
     0
 40
0.0
 41
1.0
 50
0.0
 71
     0
 42
0.2
  3
txt
  4

  0
ENDTAB
  0
TABLE
  2
VIEW
  5
6
330
0
100
AcDbSymbolTable
 70
     0
  0
ENDTAB
  0
TABLE
  2
UCS
  5
7
330
0
100
AcDbSymbolTable
 70
     0
  0
ENDTAB
  0
TABLE
  2
APPID
  5
9
330
0
100
AcDbSymbolTable
 70
     2
  0
APPID
  5
12
330
9
100
AcDbSymbolTableRecord
100
AcDbRegAppTableRecord
  2
ACAD
 70
     0
  0
APPID
  5
139
330
9
100
AcDbSymbolTableRecord
100
AcDbRegAppTableRecord
  2
ACAD_EXEMPT_FROM_CAD_STANDARDS
 70
     0
  0
ENDTAB
  0
TABLE
  2
DIMSTYLE
  5
A
330
0
100
AcDbSymbolTable
 70
     2
100
AcDbDimStyleTable
 71
     1
340
27
  0
DIMSTYLE
105
27
330
A
100
AcDbSymbolTableRecord
100
AcDbDimStyleTableRecord
  2
STANDARD
 70
     0
340
11
  0
ENDTAB
  0
TABLE
  2
BLOCK_RECORD
  5
1
330
0
100
AcDbSymbolTable
 70
    14
  0
BLOCK_RECORD
  5
1F
102
{ACAD_XDICTIONARY
360
9D
102
}
330
1
100
AcDbSymbolTableRecord
100
AcDbBlockTableRecord
  2
*MODEL_SPACE
340
11C
  0
BLOCK_RECORD
  5
1B
102
{ACAD_XDICTIONARY
360
9B
102
}
330
1
100
AcDbSymbolTableRecord
100
AcDbBlockTableRecord
  2
*PAPER_SPACE
340
11D
  0
BLOCK_RECORD
  5
48
330
1
100
AcDbSymbolTableRecord
100
AcDbBlockTableRecord
  2
*U0
340
0
102
{BLKREFS
331
5D
102
}
  0
BLOCK_RECORD
  5
5C
330
1
100
AcDbSymbolTableRecord
100
AcDbBlockTableRecord
  2
FRONT
340
0
  0
BLOCK_RECORD
  5
61
330
1
100
AcDbSymbolTableRecord
100
AcDbBlockTableRecord
  2
*U2
340
0
102
{BLKREFS
331
6F
102
}
  0
BLOCK_RECORD
  5
6E
330
1
100
AcDbSymbolTableRecord
100
AcDbBlockTableRecord
  2
LEFT
340
0
  0
BLOCK_RECORD
  5
73
330
1
100
AcDbSymbolTableRecord
100
AcDbBlockTableRecord
  2
*U4
340
0
102
{BLKREFS
331
82
102
}
  0
BLOCK_RECORD
  5
81
330
1
100
AcDbSymbolTableRecord
100
AcDbBlockTableRecord
  2
RIGHT
340
0
  0
BLOCK_RECORD
  5
86
330
1
100
AcDbSymbolTableRecord
100
AcDbBlockTableRecord
  2
*U6
340
0
102
{BLKREFS
331
96
102
}
  0
BLOCK_RECORD
  5
95
330
1
100
AcDbSymbolTableRecord
100
AcDbBlockTableRecord
  2
TOP
340
0
  0
BLOCK_RECORD
  5
142
330
1
100
AcDbSymbolTableRecord
100
AcDbBlockTableRecord
  2
*D9
340
0
  0
BLOCK_RECORD
  5
150
330
1
100
AcDbSymbolTableRecord
100
AcDbBlockTableRecord
  2
*D10
340
0
  0
BLOCK_RECORD
  5
168
330
1
100
AcDbSymbolTableRecord
100
AcDbBlockTableRecord
  2
*D11
340
0
  0
BLOCK_RECORD
  5
176
330
1
100
AcDbSymbolTableRecord
100
AcDbBlockTableRecord
  2
*D12
340
0
  0
BLOCK_RECORD
  5
184
330
1
100
AcDbSymbolTableRecord
100
AcDbBlockTableRecord
  2
*D13
340
0
  0
ENDTAB
  0
ENDSEC
  0
SECTION
  2
BLOCKS
  0
BLOCK
  5
20
330
1F
100
AcDbEntity
  8
0
100
AcDbBlockBegin
  2
*MODEL_SPACE
 70
     0
 10
0.0
 20
0.0
 30
0.0
  3
*MODEL_SPACE
  1

  0
ENDBLK
  5
21
330
1F
100
AcDbEntity
  8
0
100
AcDbBlockEnd
  0
BLOCK
  5
1C
330
1B
100
AcDbEntity
 67
     1
  8
0
100
AcDbBlockBegin
  2
*PAPER_SPACE
 70
     0
 10
0.0
 20
0.0
 30
0.0
  3
*PAPER_SPACE
  1

  0
ENDBLK
  5
1D
330
1B
100
AcDbEntity
 67
     1
  8
0
100
AcDbBlockEnd
  0
BLOCK
  5
59
330
48
100
AcDbEntity
  8
0
100
AcDbBlockBegin
  2
*U0
 70
     1
 10
0.0
 20
0.0
 30
0.0
  3
*U0
  1
*ANON
  0
LINE
  5
49
330
48
100
AcDbEntity
  8
PV-86
100
AcDbLine
 10
343.5
 20
0.0
 30
-0.0000000000000031
 11
376.5
 21
0.0
 31
0.0000000000000031
  0
LINE
  5
4A
330
48
100
AcDbEntity
  8
PV-86
100
AcDbLine
 10
-16.50000000000006
 20
0.0
 30
0.0
 11
16.50000000000006
 21
0.0
 31
0.0
  0
LINE
  5
4B
330
48
100
AcDbEntity
  8
PV-86
100
AcDbLine
 10
16.50000000000006
 20
0.0
 30
0.0
 11
16.50000000000006
 21
0.0
 31
27.0
  0
LINE
  5
4C
330
48
100
AcDbEntity
  8
PV-86
100
AcDbLine
 10
-16.50000000000006
 20
0.0
 30
0.0
 11
-16.50000000000006
 21
0.0
 31
27.0
  0
LINE
  5
4D
330
48
100
AcDbEntity
  8
PV-86
100
AcDbLine
 10
150.6550688917084
 20
0.0
 30
85.00000000000005
 11
29.34493144952551
 21
0.0
 31
85.00000000000001
  0
LINE
  5
4E
330
48
100
AcDbEntity
  8
PV-86
100
AcDbLine
 10
150.6550688917084
 20
0.0
 30
51.99999999999993
 11
29.34493144952551
 21
0.0
 31
51.99999999999989
  0
LINE
  5
4F
330
48
100
AcDbEntity
  8
PV-86
100
AcDbLine
 10
330.6550686110421
 20
0.0
 30
85.00000000000005
 11
209.3449317301919
 21
0.0
 31
85.00000000000005
  0
LINE
  5
50
330
48
100
AcDbEntity
  8
PV-86
100
AcDbLine
 10
330.6550686110421
 20
0.0
 30
51.99999999999993
 11
209.3449317301919
 21
0.0
 31
51.99999999999993
  0
LINE
  5
51
330
48
100
AcDbEntity
  8
PV-86
100
AcDbLine
 10
376.5
 20
0.0
 30
0.0000000000000029
 11
376.5
 21
0.0
 31
26.99999999999997
  0
LINE
  5
52
330
48
100
AcDbEntity
  8
PV-86
100
AcDbLine
 10
343.5
 20
0.0
 30
-0.0000000000000029
 11
343.5
 21
0.0
 31
26.99999999999997
  0
SPLINE
  5
53
330
48
100
AcDbEntity
  8
PV-86
100
AcDbSpline
210
0.0
220
-1.0
230
0.0
 70
     8
 71
     3
 72
    24
 73
    20
 74
     0
 42
0.0000000001
 43
0.0000000001
 40
152.0689436408359
 40
152.0689436408359
 40
152.0689436408359
 40
152.0689436408359
 40
152.7557143322215
 40
152.7557143322215
 40
162.3191339528121
 40
162.3191339528121
 40
172.1696173951575
 40
172.1696173951575
 40
182.560109705386
 40
182.560109705386
 40
198.8088904157919
 40
198.8088904157919
 40
211.9486135395149
 40
211.9486135395149
 40
223.6927965283125
 40
223.6927965283125
 40
235.3415170436462
 40
235.3415170436462
 40
240.1891360395798
 40
240.1891360395798
 40
240.1891360395798
 40
240.1891360395798
 10
29.34492310302026
 20
0.0
 30
85.00000131334862
 10
29.1450895974873
 20
0.0
 30
85.00000048049473
 10
28.94515863994371
 20
0.0
 30
84.99839185824059
 10
25.95989020229296
 20
0.0
 30
84.95031948274123
 10
23.19226164835554
 20
0.0
 30
84.59329663746753
 10
17.68375266535537
 20
0.0
 30
83.25462573006808
 10
14.97009629313446
 20
0.0
 30
82.26037131971354
 10
9.629323950337767
 20
0.0
 30
79.62404027564328
 10
7.03179622145171
 20
0.0
 30
77.95766336843439
 10
0.8145586475802083
 20
0.0
 30
72.98900368563938
 10
-2.535453690790129
 20
0.0
 30
69.31063022409448
 10
-7.679452171993583
 20
0.0
 30
61.78300954539004
 10
-9.643162966827956
 20
0.0
 30
58.11083293952442
 10
-12.69119582552353
 20
0.0
 30
50.72410385874795
 10
-13.8415661759213
 20
0.0
 30
47.0683068695575
 10
-15.54186237288261
 20
0.0
 30
39.55812924749358
 10
-16.09270051516622
 20
0.0
 30
35.72319143085381
 10
-16.44788074581303
 20
0.0
 30
30.23338267230225
 10
-16.50006290573337
 20
0.0
 30
28.61655149439616
 10
-16.50007721253772
 20
0.0
 30
27.0000000018458
  0
SPLINE
  5
54
330
48
100
AcDbEntity
  8
PV-86
100
AcDbSpline
210
0.0
220
-1.0
230
0.0
 70
     8
 71
     3
 72
    22
 73
    18
 74
     0
 42
0.0000000001
 43
0.0000000001
 40
57.60455804106339
 40
57.60455804106339
 40
57.60455804106339
 40
57.60455804106339
 40
63.31352509452639
 40
63.31352509452639
 40
72.13094890570231
 40
72.13094890570231
 40
79.68397091045199
 40
79.68397091045199
 40
84.07388394782975
 40
84.07388394782975
 40
88.56595550164305
 40
88.56595550164305
 40
93.4862830952496
 40
93.4862830952496
 40
97.81480625573177
 40
97.81480625573177
 40
103.1552773895814
 40
103.1552773895814
 40
103.1552773895814
 40
103.1552773895814
 10
16.50063953902007
 20
0.0
 30
26.9999998898654
 10
16.500864015069
 20
0.0
 30
28.92649847184658
 10
16.63245293241708
 20
0.0
 30
30.85128367744278
 10
17.29711937618536
 20
0.0
 30
35.63467307606439
 10
18.00397419434435
 20
0.0
 30
38.38731476448239
 10
19.7462622776283
 20
0.0
 30
42.94582017388687
 10
20.70562712065352
 20
0.0
 30
44.79369057994743
 10
22.32698277776685
 20
0.0
 30
47.22204113275004
 10
22.9368996762119
 20
0.0
 30
47.99820703649003
 10
24.15675355917795
 20
0.0
 30
49.33946109663654
 10
24.75612668264271
 20
0.0
 30
49.88862610112922
 10
25.93870504513521
 20
0.0
 30
50.8110644698382
 10
26.49905530980013
 20
0.0
 30
51.15179520252143
 10
27.44083573719546
 20
0.0
 30
51.61291789823343
 10
27.82664294584989
 20
0.0
 30
51.75096871463086
 10
28.60355009264797
 20
0.0
 30
51.95562134719367
 10
28.99102946397174
 20
0.0
 30
51.99995966361743
 10
29.34488932826301
 20
0.0
 30
51.99999458969536
  0
LINE
  5
55
330
48
100
AcDbEntity
  8
PV-86
100
AcDbLine
 10
209.3449317301919
 20
0.0
 30
85.00000000000005
 11
150.6550688917084
 21
0.0
 31
85.00000000000005
  0
LINE
  5
56
330
48
100
AcDbEntity
  8
PV-86
100
AcDbLine
 10
150.6550688917084
 20
0.0
 30
51.99999999999992
 11
209.3449317301919
 21
0.0
 31
51.99999999999993
  0
SPLINE
  5
57
330
48
100
AcDbEntity
  8
PV-86
100
AcDbSpline
210
0.0
220
1.0
230
0.0
 70
     8
 71
     3
 72
    22
 73
    18
 74
     0
 42
0.0000000001
 43
0.0000000001
 40
80.71391664976003
 40
80.71391664976003
 40
80.71391664976003
 40
80.71391664976003
 40
82.64052800889844
 40
82.64052800889844
 40
87.46448970512956
 40
87.46448970512956
 40
93.06592578794505
 40
93.06592578794505
 40
97.88244336847107
 40
97.88244336847107
 40
106.2909779327669
 40
106.2909779327669
 40
113.2773960324181
 40
113.2773960324181
 40
122.3480243938874
 40
122.3480243938874
 40
127.7732340175708
 40
127.7732340175708
 40
127.7732340175708
 40
127.7732340175708
 10
330.6550149037442
 20
0.0
 30
52.00011188682658
 10
330.786473046189
 20
0.0
 30
52.00007580959846
 10
330.9161677844583
 20
0.0
 30
51.99391435849706
 10
331.3673944399702
 20
0.0
 30
51.95276430329616
 10
331.719220402307
 20
0.0
 30
51.88578413410237
 10
332.5859337289567
 20
0.0
 30
51.60536767403971
 10
333.1169039347727
 20
0.0
 30
51.3717613739691
 10
334.2657893553844
 20
0.0
 30
50.66110898568997
 10
334.846533428077
 20
0.0
 30
50.22971083135093
 10
336.5467646365938
 20
0.0
 30
48.67146902204785
 10
337.6924141190146
 20
0.0
 30
47.30796446598463
 10
339.6748271527873
 20
0.0
 30
44.06573606581788
 10
340.5061571335521
 20
0.0
 30
42.35200803081279
 10
342.119171895767
 20
0.0
 30
37.96055581403825
 10
342.7943020430713
 20
0.0
 30
35.19355148060174
 10
343.387706491254
 20
0.0
 30
30.54777907701545
 10
343.4992024443841
 20
0.0
 30
28.7743572742457
 10
343.4993175362803
 20
0.0
 30
26.99999993497273
  0
SPLINE
  5
58
330
48
100
AcDbEntity
  8
PV-86
100
AcDbSpline
210
0.0
220
1.0
230
0.0
 70
     8
 71
     3
 72
    22
 73
    18
 74
     0
 42
0.0000000001
 43
0.0000000001
 40
112.444090530293
 40
112.444090530293
 40
112.444090530293
 40
112.444090530293
 40
116.0181074984298
 40
116.0181074984298
 40
127.5519316184694
 40
127.5519316184694
 40
140.6001665971892
 40
140.6001665971892
 40
163.2431038628318
 40
163.2431038628318
 40
174.1086098604993
 40
174.1086098604993
 40
184.3832101486242
 40
184.3832101486242
 40
196.5619117406848
 40
196.5619117406848
 40
200.6168394240003
 40
200.6168394240003
 40
200.6168394240003
 40
200.6168394240003
 10
376.5000595007025
 20
0.0
 30
27.00000000297061
 10
376.5000375655378
 20
0.0
 30
28.19230965615695
 10
376.4716437709866
 20
0.0
 30
29.38500548043382
 10
376.2315783547088
 20
0.0
 30
34.42175244137156
 10
375.7535209467639
 20
0.0
 30
38.23427002837046
 10
374.1138758505802
 20
0.0
 30
46.17921208697593
 10
372.8756758795953
 20
0.0
 30
50.26421264365221
 10
368.5137075136478
 20
0.0
 30
60.86993123701857
 10
364.6985263352631
 20
0.0
 30
66.90993012941124
 10
357.668876967239
 20
0.0
 30
74.22694726055706
 10
355.1807547202353
 20
0.0
 30
76.33896937854321
 10
349.9827092014666
 20
0.0
 30
79.84395194078129
 10
347.3021967490975
 20
0.0
 30
81.26297623051845
 10
341.1761334834459
 20
0.0
 30
83.66123201560148
 10
337.7142872433442
 20
0.0
 30
84.49710743863986
 10
333.0075771363728
 20
0.0
 30
84.94435789817243
 10
331.8306045149995
 20
0.0
 30
85.00000427352381
 10
330.6551366205833
 20
0.0
 30
85.0000070671817
  0
ENDBLK
  5
5A
330
48
100
AcDbEntity
  8
0
100
AcDbBlockEnd
  0
BLOCK
  5
5E
330
5C
100
AcDbEntity
  8
0
100
AcDbBlockBegin
  2
FRONT
 70
     0
 10
0.0
 20
0.0
 30
0.0
  3
FRONT
  1

  0
INSERT
  5
5D
330
5C
100
AcDbEntity
  8
PV-86
100
AcDbBlockReference
  2
*U0
 10
0.0
 20
0.0
 30
0.0
 50
180.0
210
0.0
220
1.0
230
0.0
  0
ENDBLK
  5
5F
330
5C
100
AcDbEntity
  8
0
100
AcDbBlockEnd
  0
BLOCK
  5
6C
330
61
100
AcDbEntity
  8
0
100
AcDbBlockBegin
  2
*U2
 70
     1
 10
0.0
 20
0.0
 30
0.0
  3
*U2
  1
*ANON
  0
LINE
  5
62
330
61
100
AcDbEntity
  8
PV-86
100
AcDbLine
 10
0.0
 20
16.50000000000006
 30
0.0
 11
0.0
 21
-16.50000000000006
 31
0.0
  0
LINE
  5
63
330
61
100
AcDbEntity
  8
PV-86
100
AcDbLine
 10
0.0
 20
-16.50000000000006
 30
0.0
 11
0.0
 21
-16.50000000000006
 31
27.0
  0
LINE
  5
64
330
61
100
AcDbEntity
  8
PV-86
100
AcDbLine
 10
0.0
 20
16.50000000000006
 30
0.0
 11
0.0
 21
16.50000000000006
 31
27.0
  0
LINE
  5
65
330
61
100
AcDbEntity
  8
PV-86
100
AcDbLine
 10
0.0
 20
150.6550685807583
 30
51.99999999999993
 11
0.0
 21
29.34493138895803
 31
51.99999999999989
  0
LINE
  5
66
330
61
100
AcDbEntity
  8
PV-86
100
AcDbLine
 10
0.0
 20
150.6550685807583
 30
85.00000000000005
 11
0.0
 21
29.34493138895803
 31
85.00000000000001
  0
SPLINE
  5
67
330
61
100
AcDbEntity
  8
PV-86
100
AcDbSpline
210
1.0
220
0.0
230
0.0
 70
     8
 71
     3
 72
    22
 73
    18
 74
     0
 42
0.0000000001
 43
0.0000000001
 40
80.71391664976522
 40
80.71391664976522
 40
80.71391664976522
 40
80.71391664976522
 40
82.64052800855791
 40
82.64052800855791
 40
87.46448970488373
 40
87.46448970488373
 40
93.06592578781874
 40
93.06592578781874
 40
97.88244336838603
 40
97.88244336838603
 40
106.2909779330797
 40
106.2909779330797
 40
113.2773960330756
 40
113.2773960330756
 40
122.3480243942644
 40
122.3480243942644
 40
127.7732340178952
 40
127.7732340178952
 40
127.7732340178952
 40
127.7732340178952
 10
0.0
 20
29.34498509625578
 30
52.00011188682641
 10
0.0
 20
29.21352695383586
 30
52.00007580959833
 10
0.0
 20
29.08383221559124
 30
51.99391435849928
 10
0.0
 20
28.6326055601045
 30
51.95276430330847
 10
0.0
 20
28.28077959776696
 30
51.88578413412023
 10
0.0
 20
27.41406627111862
 30
51.60536767407094
 10
0.0
 20
26.88309606530242
 30
51.37176137400788
 10
0.0
 20
25.73421064469068
 30
50.66110898574279
 10
0.0
 20
25.15346657200077
 30
50.22971083141348
 10
0.0
 20
23.45323536344537
 30
48.67146902209874
 10
0.0
 20
22.30758588097653
 30
47.30796446598566
 10
0.0
 20
20.3251728471261
 30
44.06573606566325
 10
0.0
 20
19.49384286633298
 30
42.35200803056661
 10
0.0
 20
17.88082810415995
 30
37.96055581375267
 10
0.0
 20
17.20569795689787
 30
35.1935514804098
 10
0.0
 20
16.61229350874227
 30
30.54777907695753
 10
0.0
 20
16.50079755561585
 30
28.77435727421663
 10
0.0
 20
16.5006824637197
 30
26.99999993497276
  0
SPLINE
  5
68
330
61
100
AcDbEntity
  8
PV-86
100
AcDbSpline
210
1.0
220
0.0
230
0.0
 70
     8
 71
     3
 72
    22
 73
    18
 74
     0
 42
0.0000000001
 43
0.0000000001
 40
112.4440905302935
 40
112.4440905302935
 40
112.4440905302935
 40
112.4440905302935
 40
116.0181074986776
 40
116.0181074986776
 40
127.551931618715
 40
127.551931618715
 40
140.6001665977
 40
140.6001665977
 40
163.2431038633246
 40
163.2431038633246
 40
174.1086098609658
 40
174.1086098609658
 40
184.3832101490628
 40
184.3832101490628
 40
196.561911741877
 40
196.561911741877
 40
200.6168394239838
 40
200.6168394239838
 40
200.6168394239838
 40
200.6168394239838
 10
0.0
 20
-16.50005950070249
 30
27.00000000297464
 10
0.0
 20
-16.50003756553778
 30
28.19230965624361
 10
0.0
 20
-16.47164377098258
 30
29.38500548060311
 10
0.0
 20
-16.23157835468399
 30
34.42175244162207
 10
0.0
 20
-15.75352094672614
 30
38.23427002861835
 10
0.0
 20
-14.11387585049793
 30
46.17921208730108
 10
0.0
 20
-12.87567587946625
 30
50.26421264405147
 10
0.0
 20
-8.513707513411825
 30
60.86993123744466
 10
0.0
 20
-4.698526334984078
 30
66.90993012979376
 10
0.0
 20
2.33112303309149
 30
74.22694726085691
 10
0.0
 20
4.81924528010725
 30
76.33896937881231
 10
0.0
 20
10.01729079889368
 30
79.84395194098829
 10
0.0
 20
12.69780325126866
 30
81.26297623069431
 10
0.0
 20
18.82386651714113
 30
83.66123201579286
 10
0.0
 20
22.28571275747238
 30
84.49710743881743
 10
0.0
 20
26.99242286432391
 30
84.9443578982054
 10
0.0
 20
28.16939548534847
 30
85.00000427352381
 10
0.0
 20
29.34486337941688
 30
85.0000070671817
  0
LINE
  5
69
330
61
100
AcDbEntity
  8
PV-86
100
AcDbLine
 10
0.0
 20
150.6550685807583
 30
85.00000000000005
 11
0.0
 21
162.8101371615166
 31
85.00000000000005
  0
LINE
  5
6A
330
61
100
AcDbEntity
  8
PV-86
100
AcDbLine
 10
0.0
 20
162.8101371615166
 30
51.99999999999993
 11
0.0
 21
150.6550685807583
 31
51.99999999999992
  0
ARC
  5
6B
330
61
100
AcDbEntity
  8
PV-86
100
AcDbCircle
 10
-162.8101371615166
 20
68.49999999999998
 30
0.0
 40
16.50000000000006
210
-1.0
220
0.0
230
0.0
100
AcDbArc
 50
90.0
 51
270.0000000000012
  0
ENDBLK
  5
6D
330
61
100
AcDbEntity
  8
0
100
AcDbBlockEnd
  0
BLOCK
  5
70
330
6E
100
AcDbEntity
  8
0
100
AcDbBlockBegin
  2
LEFT
 70
     0
 10
0.0
 20
0.0
 30
0.0
  3
LEFT
  1

  0
INSERT
  5
6F
330
6E
100
AcDbEntity
  8
PV-86
100
AcDbBlockReference
  2
*U2
 10
0.0
 20
0.0
 30
0.0
 50
270.0
210
0.0
220
1.0
230
0.0
  0
ENDBLK
  5
71
330
6E
100
AcDbEntity
  8
0
100
AcDbBlockEnd
  0
BLOCK
  5
7F
330
73
100
AcDbEntity
  8
0
100
AcDbBlockBegin
  2
*U4
 70
     1
 10
0.0
 20
0.0
 30
0.0
  3
*U4
  1
*ANON
  0
LINE
  5
74
330
73
100
AcDbEntity
  8
PV-86
100
AcDbLine
 10
0.0
 20
0.0000000000000568
 30
0.0000000000000031
 11
0.0
 21
16.5
 31
0.0000000000000012
  0
LINE
  5
75
330
73
100
AcDbEntity
  8
PV-86
100
AcDbLine
 10
0.0
 20
-16.5
 30
-0.0000000000000012
 11
0.0
 21
0.0000000000002837
 31
0.0000000000000031
  0
LINE
  5
76
330
73
100
AcDbEntity
  8
PV-86
100
AcDbLine
 10
0.0
 20
29.34493144952551
 30
51.99999999999993
 11
0.0
 21
150.6550685807584
 31
51.99999999999993
  0
LINE
  5
77
330
73
100
AcDbEntity
  8
PV-86
100
AcDbLine
 10
0.0
 20
29.34493144952551
 30
85.00000000000005
 11
0.0
 21
150.6550685807584
 31
85.00000000000005
  0
LINE
  5
78
330
73
100
AcDbEntity
  8
PV-86
100
AcDbLine
 10
0.0
 20
16.5
 30
0.0000000000000012
 11
0.0
 21
16.49999999999999
 31
26.99999999999997
  0
LINE
  5
79
330
73
100
AcDbEntity
  8
PV-86
100
AcDbLine
 10
0.0
 20
-16.5
 30
-0.0000000000000012
 11
0.0
 21
-16.5
 31
26.99999999999997
  0
LINE
  5
7A
330
73
100
AcDbEntity
  8
PV-86
100
AcDbLine
 10
0.0
 20
162.8101371615166
 30
85.00000000000005
 11
0.0
 21
150.6550685807583
 31
85.00000000000005
  0
LINE
  5
7B
330
73
100
AcDbEntity
  8
PV-86
100
AcDbLine
 10
0.0
 20
150.6550685807583
 30
51.99999999999993
 11
0.0
 21
162.8101371615166
 31
51.99999999999993
  0
ARC
  5
7C
330
73
100
AcDbEntity
  8
PV-86
100
AcDbCircle
 10
162.8101371615166
 20
68.49999999999998
 30
0.0
 40
16.50000000000006
210
1.0
220
0.0
230
0.0
100
AcDbArc
 50
269.9999999999988
 51
90.0
  0
SPLINE
  5
7D
330
73
100
AcDbEntity
  8
PV-86
100
AcDbSpline
210
1.0
220
0.0
230
0.0
 70
     8
 71
     3
 72
    24
 73
    20
 74
     0
 42
0.0000000001
 43
0.0000000001
 40
152.0689436408526
 40
152.0689436408526
 40
152.0689436408526
 40
152.0689436408526
 40
152.7557143344045
 40
152.7557143344045
 40
162.319133955028
 40
162.319133955028
 40
172.1696173974715
 40
172.1696173974715
 40
182.560109707845
 40
182.560109707845
 40
198.8088904249729
 40
198.8088904249729
 40
211.9486135420435
 40
211.9486135420435
 40
223.6927965308306
 40
223.6927965308306
 40
235.3415170461433
 40
235.3415170461433
 40
240.1891360396037
 40
240.1891360396037
 40
240.1891360396037
 40
240.1891360396037
 10
0.0
 20
29.34492310302019
 30
85.00000131334861
 10
0.0
 20
29.14508959685768
 30
85.0000004804947
 10
0.0
 20
28.94515863868392
 30
84.9983918582304
 10
0.0
 20
25.95989020039532
 30
84.95031948256928
 10
0.0
 20
23.1922616464652
 30
84.59329663715299
 10
0.0
 20
17.68375266348977
 30
83.25462572946539
 10
0.0
 20
14.97009629128694
 30
82.26037131896225
 10
0.0
 20
9.629323948544435
 30
79.62404027458844
 10
0.0
 20
7.031796219694907
 30
77.95766336722241
 10
0.0
 20
0.8145586444341049
 30
72.98900368282469
 10
0.0
 20
-2.535453694989679
 30
69.31063021932536
 10
0.0
 20
-7.679452175171229
 30
61.78300953962671
 10
0.0
 20
-9.643162968700687
 30
58.1108329354009
 10
0.0
 20
-12.69119582632129
 30
50.72410385644356
 10
0.0
 20
-13.84156617659288
 30
47.0683068671969
 10
0.0
 20
-15.5418623732987
 30
39.5581292450545
 10
0.0
 20
-16.09270051545398
 30
35.72319142839303
 10
0.0
 20
-16.44788074586615
 30
30.23338267065334
 10
0.0
 20
-16.50006290573324
 30
28.6165514935714
 10
0.0
 20
-16.50007721253765
 30
27.00000000184576
  0
SPLINE
  5
7E
330
73
100
AcDbEntity
  8
PV-86
100
AcDbSpline
210
1.0
220
0.0
230
0.0
 70
     8
 71
     3
 72
    22
 73
    18
 74
     0
 42
0.0000000001
 43
0.0000000001
 40
57.60455804885292
 40
57.60455804885292
 40
57.60455804885292
 40
57.60455804885292
 40
63.31352513181911
 40
63.31352513181911
 40
72.13094893626372
 40
72.13094893626372
 40
79.6839709438167
 40
79.6839709438167
 40
84.07388398187036
 40
84.07388398187036
 40
88.56595553741581
 40
88.56595553741581
 40
93.48628313531966
 40
93.48628313531966
 40
97.81480626084057
 40
97.81480626084057
 40
103.1552774041127
 40
103.1552774041127
 40
103.1552774041127
 40
103.1552774041127
 10
0.0
 20
16.50063953901659
 30
26.99999988986537
 10
0.0
 20
16.50086401507263
 30
28.92649848153586
 10
0.0
 20
16.63245293375448
 30
30.85128369675274
 10
0.0
 20
17.29711938170217
 30
35.63467310080972
 10
0.0
 20
18.00397420074573
 30
38.38731478539917
 10
0.0
 20
19.74626228526167
 30
42.94582019028852
 10
0.0
 20
20.70562712917371
 30
44.7936905950975
 10
0.0
 20
22.32698278701478
 30
47.22204114521253
 10
0.0
 20
22.93689968550032
 30
47.99820704777133
 10
0.0
 20
24.1567535684025
 30
49.33946110568598
 10
0.0
 20
24.75612669172947
 30
49.88862610906835
 10
0.0
 20
25.93870505394642
 30
50.81106447577894
 10
0.0
 20
26.49905531837001
 30
51.15179520745989
 10
0.0
 20
27.44083574118487
 30
51.61291789953381
 10
0.0
 20
27.82664294655525
 30
51.75096871467147
 10
0.0
 20
28.60355009152714
 30
51.95562134707774
 10
0.0
 20
28.99102946351176
 30
51.99995966361797
 10
0.0
 20
29.34488932826384
 30
51.99999458969556
  0
ENDBLK
  5
80
330
73
100
AcDbEntity
  8
0
100
AcDbBlockEnd
  0
BLOCK
  5
83
330
81
100
AcDbEntity
  8
0
100
AcDbBlockBegin
  2
RIGHT
 70
     0
 10
0.0
 20
0.0
 30
0.0
  3
RIGHT
  1

  0
INSERT
  5
82
330
81
100
AcDbEntity
  8
PV-86
100
AcDbBlockReference
  2
*U4
 10
0.0
 20
0.0
 30
0.0
 50
90.0
210
0.0
220
1.0
230
0.0
  0
ENDBLK
  5
84
330
81
100
AcDbEntity
  8
0
100
AcDbBlockEnd
  0
BLOCK
  5
93
330
86
100
AcDbEntity
  8
0
100
AcDbBlockBegin
  2
*U6
 70
     1
 10
0.0
 20
0.0
 30
0.0
  3
*U6
  1
*ANON
  0
ARC
  5
87
330
86
100
AcDbEntity
  8
PV-86
100
AcDbCircle
 10
360.0
 20
0.0
 30
0.0
 40
16.5
100
AcDbArc
 50
224.9999999408708
 51
44.99999994087132
  0
ARC
  5
88
330
86
100
AcDbEntity
  8
PV-86
100
AcDbCircle
 10
0.0
 20
0.0000000000000066
 30
0.0
 40
16.50000000000006
100
AcDbArc
 50
134.999999940871
 51
314.9999999408718
  0
LINE
  5
89
330
86
100
AcDbEntity
  8
PV-86
100
AcDbLine
 10
138.9878070021302
 20
162.3223304703363
 30
0.0
 11
17.67766955994743
 21
41.01219327853612
 31
0.0
  0
LINE
  5
8A
330
86
100
AcDbEntity
  8
PV-86
100
AcDbLine
 10
162.3223307812865
 20
138.9878066911802
 30
0.0
 11
41.0121933391036
 21
17.67766949937997
 31
0.0
  0
LINE
  5
8B
330
86
100
AcDbEntity
  8
PV-86
100
AcDbLine
 10
342.3223305126607
 20
41.01219332706306
 30
0.0
 11
221.01219361977
 21
162.3223304703364
 31
0.0
  0
LINE
  5
8C
330
86
100
AcDbEntity
  8
PV-86
100
AcDbLine
 10
318.9878067094233
 20
17.67766957198798
 30
0.0
 11
197.6776698406139
 21
138.9878066911802
 31
0.0
  0
LINE
  5
8D
330
86
100
AcDbEntity
  8
PV-86
100
AcDbLine
 10
17.67766955994746
 20
41.01219327853607
 30
0.0
 11
-11.66726187753752
 21
11.66726190161861
 31
0.0
  0
LINE
  5
8E
330
86
100
AcDbEntity
  8
PV-86
100
AcDbLine
 10
11.66726187753754
 20
-11.66726190161859
 30
0.0
 11
41.01219333910361
 21
17.67766949937991
 31
0.0
  0
ARC
  5
8F
330
86
100
AcDbEntity
  8
PV-86
100
AcDbCircle
 10
180.00000031095
 20
121.3101371615165
 30
0.0
 40
58.00000000000011
100
AcDbArc
 50
44.99999999158943
 51
134.9999999915893
  0
ARC
  5
90
330
86
100
AcDbEntity
  8
PV-86
100
AcDbCircle
 10
180.00000031095
 20
121.3101371615165
 30
0.0
 40
25.0
100
AcDbArc
 50
44.99999999999995
 51
135.0
  0
LINE
  5
91
330
86
100
AcDbEntity
  8
PV-86
100
AcDbLine
 10
318.9878067094233
 20
17.67766957198801
 30
0.0
 11
348.3327380983813
 21
-11.6672618775375
 31
0.0
  0
LINE
  5
92
330
86
100
AcDbEntity
  8
PV-86
100
AcDbLine
 10
371.6672619016187
 20
11.66726187753748
 30
0.0
 11
342.3223305126607
 21
41.01219332706299
 31
0.0
  0
ENDBLK
  5
94
330
86
100
AcDbEntity
  8
0
100
AcDbBlockEnd
  0
BLOCK
  5
97
330
95
100
AcDbEntity
  8
0
100
AcDbBlockBegin
  2
TOP
 70
     0
 10
0.0
 20
0.0
 30
0.0
  3
TOP
  1

  0
INSERT
  5
96
330
95
100
AcDbEntity
  8
PV-86
100
AcDbBlockReference
  2
*U6
 10
0.0
 20
0.0
 30
0.0
  0
ENDBLK
  5
98
330
95
100
AcDbEntity
  8
0
100
AcDbBlockEnd
  0
BLOCK
  5
14D
330
142
100
AcDbEntity
  8
0
100
AcDbBlockBegin
  2
*D9
 70
     1
 10
0.0
 20
0.0
 30
0.0
  3
*D9
  1

  0
LINE
  5
143
330
142
100
AcDbEntity
  8
0
 62
     0
370
    -2
100
AcDbLine
 10
-72.64716747835797
 20
-496.4934652823595
 30
0.0
 11
-72.64716747835797
 21
-485.4582743778513
 31
0.0
  0
LINE
  5
144
330
142
100
AcDbEntity
  8
0
 62
     0
370
    -2
100
AcDbLine
 10
-42.64716747835797
 20
-496.4934652823595
 30
0.0
 11
-42.64716747835797
 21
-485.4582743778513
 31
0.0
  0
LINE
  5
145
330
142
100
AcDbEntity
  8
0
 62
     0
370
    -2
100
AcDbLine
 10
-72.46716747835797
 20
-485.6382743778513
 30
0.0
 11
-58.20216747835797
 21
-485.6382743778513
 31
0.0
  0
LINE
  5
146
330
142
100
AcDbEntity
  8
0
 62
     0
370
    -2
100
AcDbLine
 10
-42.82716747835797
 20
-485.6382743778513
 30
0.0
 11
-57.09216747835797
 21
-485.6382743778513
 31
0.0
  0
SOLID
  5
147
330
142
100
AcDbEntity
  8
0
 62
     0
100
AcDbTrace
 10
-72.46716747835797
 20
-485.6082743778513
 30
0.0
 11
-72.46716747835797
 21
-485.6682743778512
 31
0.0
 12
-72.64716747835797
 22
-485.6382743778513
 32
0.0
 13
-72.64716747835797
 23
-485.6382743778513
 33
0.0
  0
SOLID
  5
148
330
142
100
AcDbEntity
  8
0
 62
     0
100
AcDbTrace
 10
-42.82716747835797
 20
-485.6082743778513
 30
0.0
 11
-42.82716747835797
 21
-485.6682743778512
 31
0.0
 12
-42.64716747835797
 22
-485.6382743778513
 32
0.0
 13
-42.64716747835797
 23
-485.6382743778513
 33
0.0
  0
MTEXT
  5
149
330
142
100
AcDbEntity
  8
0
 62
     0
100
AcDbMText
 10
-57.64716747835797
 20
-485.6382743778513
 30
0.0
 40
0.18
 41
0.0
 71
     5
 72
     1
  1
\A1;30.0000
 73
     1
 44
1.0
1001
ACAD
1000
MTEXTBEGIN
1070
    73
1070
     1
1070
    44
1040
1.0
1070
    74
1070
     0
1000
MTEXTEND
  0
POINT
  5
14A
330
142
100
AcDbEntity
  8
Defpoints
 62
     0
100
AcDbPoint
 10
-72.64716747835797
 20
-496.5559652823595
 30
0.000000000000003
  0
POINT
  5
14B
330
142
100
AcDbEntity
  8
Defpoints
 62
     0
100
AcDbPoint
 10
-42.64716747835797
 20
-496.5559652823595
 30
0.000000000000003
  0
POINT
  5
14C
330
142
100
AcDbEntity
  8
Defpoints
 62
     0
100
AcDbPoint
 10
-42.64716747835797
 20
-485.6382743778513
 30
0.0
  0
ENDBLK
  5
14E
330
142
100
AcDbEntity
  8
0
100
AcDbBlockEnd
  0
BLOCK
  5
15B
330
150
100
AcDbEntity
  8
0
100
AcDbBlockBegin
  2
*D10
 70
     1
 10
0.0
 20
0.0
 30
0.0
  3
*D10
  1

  0
LINE
  5
151
330
150
100
AcDbEntity
  8
0
 62
     0
370
    -2
100
AcDbLine
 10
-11.0573537620512
 20
-551.5559652823596
 30
0.0
 11
2.761267209307501
 21
-551.5559652823596
 31
0.0
  0
LINE
  5
152
330
150
100
AcDbEntity
  8
0
 62
     0
370
    -2
100
AcDbLine
 10
-11.0573537620512
 20
-581.5559652823597
 30
0.0
 11
2.761267209307494
 21
-581.5559652823597
 31
0.0
  0
LINE
  5
153
330
150
100
AcDbEntity
  8
0
 62
     0
370
    -2
100
AcDbLine
 10
2.581267209307501
 20
-551.7359652823596
 30
0.0
 11
2.581267209307498
 21
-566.3759652823597
 31
0.0
  0
LINE
  5
154
330
150
100
AcDbEntity
  8
0
 62
     0
370
    -2
100
AcDbLine
 10
2.581267209307495
 20
-581.3759652823597
 30
0.0
 11
2.581267209307498
 21
-566.7359652823596
 31
0.0
  0
SOLID
  5
155
330
150
100
AcDbEntity
  8
0
 62
     0
100
AcDbTrace
 10
2.551267209307502
 20
-551.7359652823596
 30
0.0
 11
2.611267209307501
 21
-551.7359652823596
 31
0.0
 12
2.581267209307501
 22
-551.5559652823596
 32
0.0
 13
2.581267209307501
 23
-551.5559652823596
 33
0.0
  0
SOLID
  5
156
330
150
100
AcDbEntity
  8
0
 62
     0
100
AcDbTrace
 10
2.551267209307495
 20
-581.3759652823597
 30
0.0
 11
2.611267209307495
 21
-581.3759652823597
 31
0.0
 12
2.581267209307495
 22
-581.5559652823597
 32
0.0
 13
2.581267209307495
 23
-581.5559652823597
 33
0.0
  0
MTEXT
  5
157
330
150
100
AcDbEntity
  8
0
 62
     0
100
AcDbMText
 10
2.581267209307589
 20
-566.5559652823596
 30
0.0
 40
0.18
 41
0.0
 71
     5
 72
     1
  1
\A1;30.0000
 73
     1
 44
1.0
1001
ACAD
1000
MTEXTBEGIN
1070
    73
1070
     1
1070
    44
1040
1.0
1070
    74
1070
     0
1000
MTEXTEND
  0
POINT
  5
158
330
150
100
AcDbEntity
  8
Defpoints
 62
     0
100
AcDbPoint
 10
-11.11985376205121
 20
-551.5559652823596
 30
-0.0000000000000083
  0
POINT
  5
159
330
150
100
AcDbEntity
  8
Defpoints
 62
     0
100
AcDbPoint
 10
-11.11985376205121
 20
-581.5559652823597
 30
-0.0000000000000083
  0
POINT
  5
15A
330
150
100
AcDbEntity
  8
Defpoints
 62
     0
100
AcDbPoint
 10
2.581267209307495
 20
-581.5559652823597
 30
0.0
  0
ENDBLK
  5
15C
330
150
100
AcDbEntity
  8
0
100
AcDbBlockEnd
  0
BLOCK
  5
173
330
168
100
AcDbEntity
  8
0
100
AcDbBlockBegin
  2
*D11
 70
     1
 10
0.0
 20
0.0
 30
0.0
  3
*D11
  1

  0
LINE
  5
169
330
168
100
AcDbEntity
  8
0
 62
     0
370
    -2
100
AcDbLine
 10
201.4928832889377
 20
-44.75372839507611
 30
0.0
 11
170.8945327395325
 21
-44.7537283950761
 31
0.0
  0
LINE
  5
16A
330
168
100
AcDbEntity
  8
0
 62
     0
370
    -2
100
AcDbLine
 10
201.4928832889377
 20
-374.7537283950761
 30
0.0
 11
170.8945327395325
 21
-374.7537283950761
 31
0.0
  0
LINE
  5
16B
330
168
100
AcDbEntity
  8
0
 62
     0
370
    -2
100
AcDbLine
 10
171.0745327395325
 20
-44.9337283950761
 30
0.0
 11
171.0745327395325
 21
-209.5737283950761
 31
0.0
  0
LINE
  5
16C
330
168
100
AcDbEntity
  8
0
 62
     0
370
    -2
100
AcDbLine
 10
171.0745327395325
 20
-374.5737283950761
 30
0.0
 11
171.0745327395325
 21
-209.9337283950761
 31
0.0
  0
SOLID
  5
16D
330
168
100
AcDbEntity
  8
0
 62
     0
100
AcDbTrace
 10
171.0445327395325
 20
-44.9337283950761
 30
0.0
 11
171.1045327395325
 21
-44.9337283950761
 31
0.0
 12
171.0745327395325
 22
-44.7537283950761
 32
0.0
 13
171.0745327395325
 23
-44.7537283950761
 33
0.0
  0
SOLID
  5
16E
330
168
100
AcDbEntity
  8
0
 62
     0
100
AcDbTrace
 10
171.0445327395325
 20
-374.5737283950761
 30
0.0
 11
171.1045327395325
 21
-374.5737283950761
 31
0.0
 12
171.0745327395325
 22
-374.7537283950761
 32
0.0
 13
171.0745327395325
 23
-374.7537283950761
 33
0.0
  0
MTEXT
  5
16F
330
168
100
AcDbEntity
  8
0
 62
     0
100
AcDbMText
 10
171.0745327395325
 20
-209.7537283950761
 30
0.0
 40
0.18
 41
0.0
 71
     5
 72
     1
  1
\A1;330.0000
 73
     1
 44
1.0
1001
ACAD
1000
MTEXTBEGIN
1070
    73
1070
     1
1070
    44
1040
1.0
1070
    74
1070
     0
1000
MTEXTEND
  0
POINT
  5
170
330
168
100
AcDbEntity
  8
Defpoints
 62
     0
100
AcDbPoint
 10
201.5553832889377
 20
-44.75372839507611
 30
0.0
  0
POINT
  5
171
330
168
100
AcDbEntity
  8
Defpoints
 62
     0
100
AcDbPoint
 10
201.5553832889377
 20
-374.7537283950761
 30
0.0000000000000461
  0
POINT
  5
172
330
168
100
AcDbEntity
  8
Defpoints
 62
     0
100
AcDbPoint
 10
171.0745327395325
 20
-374.7537283950761
 30
0.0
  0
ENDBLK
  5
174
330
168
100
AcDbEntity
  8
0
100
AcDbBlockEnd
  0
BLOCK
  5
181
330
176
100
AcDbEntity
  8
0
100
AcDbBlockBegin
  2
*D12
 70
     1
 10
0.0
 20
0.0
 30
0.0
  3
*D12
  1

  0
LINE
  5
177
330
176
100
AcDbEntity
  8
0
 62
     0
370
    -2
100
AcDbLine
 10
201.4928832889377
 20
-374.8162283950761
 30
0.0
 11
201.4928832889377
 21
-404.2142068311894
 31
0.0
  0
LINE
  5
178
330
176
100
AcDbEntity
  8
0
 62
     0
370
    -2
100
AcDbLine
 10
286.5553832889377
 20
-309.2569039671543
 30
0.0
 11
286.5553832889377
 21
-404.2142068311894
 31
0.0
  0
LINE
  5
179
330
176
100
AcDbEntity
  8
0
 62
     0
370
    -2
100
AcDbLine
 10
201.6728832889377
 20
-404.0342068311893
 30
0.0
 11
243.4091332889377
 21
-404.0342068311893
 31
0.0
  0
LINE
  5
17A
330
176
100
AcDbEntity
  8
0
 62
     0
370
    -2
100
AcDbLine
 10
286.3753832889377
 20
-404.0342068311893
 30
0.0
 11
244.6391332889377
 21
-404.0342068311893
 31
0.0
  0
SOLID
  5
17B
330
176
100
AcDbEntity
  8
0
 62
     0
100
AcDbTrace
 10
201.6728832889377
 20
-404.0042068311894
 30
0.0
 11
201.6728832889377
 21
-404.0642068311893
 31
0.0
 12
201.4928832889377
 22
-404.0342068311893
 32
0.0
 13
201.4928832889377
 23
-404.0342068311893
 33
0.0
  0
SOLID
  5
17C
330
176
100
AcDbEntity
  8
0
 62
     0
100
AcDbTrace
 10
286.3753832889377
 20
-404.0042068311894
 30
0.0
 11
286.3753832889377
 21
-404.0642068311893
 31
0.0
 12
286.5553832889377
 22
-404.0342068311893
 32
0.0
 13
286.5553832889377
 23
-404.0342068311893
 33
0.0
  0
MTEXT
  5
17D
330
176
100
AcDbEntity
  8
0
 62
     0
100
AcDbMText
 10
244.0241332889377
 20
-404.0342068311893
 30
0.0
 40
0.18
 41
0.0
 71
     5
 72
     1
  1
\A1;85.0625
 73
     1
 44
1.0
1001
ACAD
1000
MTEXTBEGIN
1070
    73
1070
     1
1070
    44
1040
1.0
1070
    74
1070
     0
1000
MTEXTEND
  0
POINT
  5
17E
330
176
100
AcDbEntity
  8
Defpoints
 62
     0
100
AcDbPoint
 10
201.4928832889377
 20
-374.7537283950761
 30
0.0
  0
POINT
  5
17F
330
176
100
AcDbEntity
  8
Defpoints
 62
     0
100
AcDbPoint
 10
286.5553832889377
 20
-309.1944039671544
 30
0.0000000000000362
  0
POINT
  5
180
330
176
100
AcDbEntity
  8
Defpoints
 62
     0
100
AcDbPoint
 10
286.5553832889377
 20
-404.0342068311893
 30
0.0
  0
ENDBLK
  5
182
330
176
100
AcDbEntity
  8
0
100
AcDbBlockEnd
  0
BLOCK
  5
18F
330
184
100
AcDbEntity
  8
0
100
AcDbBlockBegin
  2
*D13
 70
     1
 10
0.0
 20
0.0
 30
0.0
  3
*D13
  1

  0
LINE
  5
185
330
184
100
AcDbEntity
  8
0
 62
     0
370
    -2
100
AcDbLine
 10
201.4928832889377
 20
-44.75372839507611
 30
0.0
 11
166.0584832805647
 21
-44.7537283950761
 31
0.0
  0
LINE
  5
186
330
184
100
AcDbEntity
  8
0
 62
     0
370
    -2
100
AcDbLine
 10
201.4928832889377
 20
-344.7537283950761
 30
0.0
 11
166.0584832805646
 21
-344.7537283950761
 31
0.0
  0
LINE
  5
187
330
184
100
AcDbEntity
  8
0
 62
     0
370
    -2
100
AcDbLine
 10
166.2384832805647
 20
-44.9337283950761
 30
0.0
 11
166.2384832805646
 21
-194.573728395076
 31
0.0
  0
LINE
  5
188
330
184
100
AcDbEntity
  8
0
 62
     0
370
    -2
100
AcDbLine
 10
166.2384832805646
 20
-344.5737283950761
 30
0.0
 11
166.2384832805646
 21
-194.9337283950761
 31
0.0
  0
SOLID
  5
189
330
184
100
AcDbEntity
  8
0
 62
     0
100
AcDbTrace
 10
166.2084832805647
 20
-44.9337283950761
 30
0.0
 11
166.2684832805647
 21
-44.9337283950761
 31
0.0
 12
166.2384832805647
 22
-44.7537283950761
 32
0.0
 13
166.2384832805647
 23
-44.7537283950761
 33
0.0
  0
SOLID
  5
18A
330
184
100
AcDbEntity
  8
0
 62
     0
100
AcDbTrace
 10
166.2084832805646
 20
-344.5737283950761
 30
0.0
 11
166.2684832805646
 21
-344.5737283950761
 31
0.0
 12
166.2384832805646
 22
-344.7537283950761
 32
0.0
 13
166.2384832805646
 23
-344.7537283950761
 33
0.0
  0
MTEXT
  5
18B
330
184
100
AcDbEntity
  8
0
 62
     0
100
AcDbMText
 10
166.2384832805647
 20
-194.753728395076
 30
0.0
 40
0.18
 41
0.0
 71
     5
 72
     1
  1
\A1;300.0000
 73
     1
 44
1.0
1001
ACAD
1000
MTEXTBEGIN
1070
    73
1070
     1
1070
    44
1040
1.0
1070
    74
1070
     0
1000
MTEXTEND
  0
POINT
  5
18C
330
184
100
AcDbEntity
  8
Defpoints
 62
     0
100
AcDbPoint
 10
201.5553832889377
 20
-44.75372839507611
 30
0.0
  0
POINT
  5
18D
330
184
100
AcDbEntity
  8
Defpoints
 62
     0
100
AcDbPoint
 10
201.5553832889377
 20
-344.7537283950761
 30
0.0000000000000461
  0
POINT
  5
18E
330
184
100
AcDbEntity
  8
Defpoints
 62
     0
100
AcDbPoint
 10
166.2384832805646
 20
-344.7537283950761
 30
0.0
  0
ENDBLK
  5
190
330
184
100
AcDbEntity
  8
0
100
AcDbBlockEnd
  0
ENDSEC
  0
SECTION
  2
ENTITIES
  0
LINE
  5
B6
330
1F
100
AcDbEntity
  8
PV-86
100
AcDbLine
 10
339.2560212184286
 20
309.0651062838597
 30
0.0000000000000517
 11
339.2560212184286
 21
279.0651062838597
 31
0.0000000000000517
210
1.0
220
-0.0000000000000002
230
0.0
  0
LINE
  5
B7
330
1F
100
AcDbEntity
  8
PV-86
100
AcDbLine
 10
339.2560212184286
 20
609.0651062838596
 30
0.0000000000000056
 11
339.2560212184285
 21
579.0651062838596
 31
0.0000000000000056
210
1.0
220
-0.0000000000000002
230
0.0
  0
LINE
  5
B9
330
1F
100
AcDbEntity
  8
PV-86
100
AcDbLine
 10
339.2560212184286
 20
609.0651062838596
 30
0.0000000000000056
 11
366.2560212184285
 21
609.0651062838596
 31
0.0000000000000056
210
1.0
220
-0.0000000000000002
230
0.0
  0
LINE
  5
BA
330
1F
100
AcDbEntity
  8
PV-86
100
AcDbLine
 10
424.2560212184286
 20
474.9100373921511
 30
0.000000000000024
 11
424.2560212184286
 21
563.2299215912561
 31
0.0000000000000112
210
1.0
220
-0.0000000000000002
230
0.0
  0
LINE
  5
BC
330
1F
100
AcDbEntity
  8
PV-86
100
AcDbLine
 10
424.2560212184285
 20
324.8871130728907
 30
0.0000000000000461
 11
424.2560212184286
 21
416.2201745536677
 31
0.0000000000000312
210
1.0
220
-0.0000000000000002
230
0.0
  0
LINE
  5
BE
330
1F
100
AcDbEntity
  8
PV-86
100
AcDbLine
 10
339.2560212184286
 20
279.0651062838597
 30
0.0000000000000517
 11
366.2560212184285
 21
279.0651062838597
 31
0.0000000000000517
210
1.0
220
-0.0000000000000002
230
0.0
  0
SPLINE
  5
C0
330
1F
100
AcDbEntity
  8
PV-86
100
AcDbSpline
210
0.0
220
0.0000000000000001
230
1.0
 70
     8
 71
     3
 72
    24
 73
    20
 74
     0
 42
0.0000000001
 43
0.0000000001
 40
152.0689436408359
 40
152.0689436408359
 40
152.0689436408359
 40
152.0689436408359
 40
152.7557143322215
 40
152.7557143322215
 40
162.3191339528121
 40
162.3191339528121
 40
172.1696173951575
 40
172.1696173951575
 40
182.560109705386
 40
182.560109705386
 40
198.8088904157919
 40
198.8088904157919
 40
211.9486135395149
 40
211.9486135395149
 40
223.6927965283125
 40
223.6927965283125
 40
235.3415170436462
 40
235.3415170436462
 40
240.1891360395798
 40
240.1891360395798
 40
240.1891360395798
 40
240.1891360395798
 10
424.2560225317771
 20
563.2201831808393
 30
0.0000000000000112
 10
424.2560216989232
 20
563.4200166863723
 30
0.0000000000000112
 10
424.2544130766691
 20
563.6199476439158
 30
0.0000000000000111
 10
424.2063407011698
 20
566.6052160815667
 30
0.0000000000000108
 10
423.849317855896
 20
569.3728446355041
 30
0.0000000000000104
 10
422.5106469484966
 20
574.8813536185042
 30
0.0000000000000098
 10
421.516392538142
 20
577.5950099907252
 30
0.0000000000000094
 10
418.8800614940718
 20
582.9357823335218
 30
0.0000000000000088
 10
417.2136845868629
 20
585.5333100624078
 30
0.0000000000000085
 10
412.2450249040679
 20
591.7505476362793
 30
0.0000000000000077
 10
408.566651442523
 20
595.1005599746497
 30
0.0000000000000073
 10
401.0390307638186
 20
600.2445584558532
 30
0.0000000000000067
 10
397.366854157953
 20
602.2082692506876
 30
0.0000000000000064
 10
389.9801250771765
 20
605.2563021093831
 30
0.000000000000006
 10
386.324328087986
 20
606.406672459781
 30
0.0000000000000059
 10
378.8141504659221
 20
608.1069686567423
 30
0.0000000000000057
 10
374.9792126492823
 20
608.6578067990258
 30
0.0000000000000056
 10
369.4894038907309
 20
609.0129870296727
 30
0.0000000000000056
 10
367.8725727128247
 20
609.065169189593
 30
0.0000000000000056
 10
366.2560212202743
 20
609.0651834963973
 30
0.0000000000000056
  0
LINE
  5
C2
330
1F
100
AcDbEntity
  8
PV-86
100
AcDbLine
 10
424.2560212184286
 20
416.2201745536677
 30
0.0000000000000312
 11
424.2560212184286
 21
474.9100373921511
 31
0.000000000000024
210
1.0
220
-0.0000000000000002
230
0.0
  0
SPLINE
  5
C5
330
1F
100
AcDbEntity
  8
PV-86
100
AcDbSpline
210
0.0
220
0.0000000000000001
230
1.0
 70
     8
 71
     3
 72
    22
 73
    18
 74
     0
 42
0.0000000001
 43
0.0000000001
 40
112.444090530293
 40
112.444090530293
 40
112.444090530293
 40
112.444090530293
 40
116.0181074984298
 40
116.0181074984298
 40
127.5519316184694
 40
127.5519316184694
 40
140.6001665971892
 40
140.6001665971892
 40
163.2431038628318
 40
163.2431038628318
 40
174.1086098604993
 40
174.1086098604993
 40
184.3832101486242
 40
184.3832101486242
 40
196.5619117406848
 40
196.5619117406848
 40
200.6168394240003
 40
200.6168394240003
 40
200.6168394240003
 40
200.6168394240003
 10
366.2560212213991
 20
279.0650467831572
 30
0.0000000000000517
 10
367.4483308745855
 20
279.0650687183219
 30
0.0000000000000517
 10
368.6410266988624
 20
279.0934625128731
 30
0.0000000000000517
 10
373.6777736598001
 20
279.3335279291508
 30
0.0000000000000517
 10
377.490291246799
 20
279.8115853370958
 30
0.0000000000000516
 10
385.4352333054045
 20
281.4512304332795
 30
0.0000000000000514
 10
389.5202338620808
 20
282.6894304042643
 30
0.0000000000000513
 10
400.1259524554471
 20
287.0513987702119
 30
0.0000000000000507
 10
406.1659513478398
 20
290.8665799485966
 30
0.0000000000000503
 10
413.4829684789855
 20
297.8962293166207
 30
0.0000000000000494
 10
415.5949905969717
 20
300.3843515636244
 30
0.0000000000000491
 10
419.0999731592098
 20
305.5823970823931
 30
0.0000000000000485
 10
420.518997448947
 20
308.2629095347622
 30
0.0000000000000481
 10
422.9172532340299
 20
314.3889728004138
 30
0.0000000000000474
 10
423.7531286570684
 20
317.8508190405154
 30
0.000000000000047
 10
424.2003791166009
 20
322.5575291474869
 30
0.0000000000000464
 10
424.2560254919523
 20
323.7345017688602
 30
0.0000000000000462
 10
424.2560282856102
 20
324.9099696632764
 30
0.0000000000000461
  0
LINE
  5
C8
330
1F
100
AcDbEntity
  8
PV-86
100
AcDbLine
 10
65.05347045113285
 20
142.2628693965762
 30
0.0000000000000086
 11
65.05347045113285
 21
115.2628693965762
 31
0.0000000000000086
210
-0.0000000000000004
220
-1.0
230
0.0
  0
LINE
  5
CB
330
1F
100
AcDbEntity
  8
PV-86
100
AcDbLine
 10
213.0534704511329
 20
57.26286939657621
 30
-0.0000000000000186
 11
110.8984018400909
 21
57.26286939657609
 31
0.0000000000000002
210
-0.0000000000000004
220
-1.0
230
0.0
  0
SPLINE
  5
CD
330
1F
100
AcDbEntity
  8
PV-86
100
AcDbSpline
210
0.0000000000000002
220
0.0
230
1.0
 70
     8
 71
     3
 72
    22
 73
    18
 74
     0
 42
0.0000000001
 43
0.0000000001
 40
112.4440905302935
 40
112.4440905302935
 40
112.4440905302935
 40
112.4440905302935
 40
116.0181074986776
 40
116.0181074986776
 40
127.551931618715
 40
127.551931618715
 40
140.6001665977
 40
140.6001665977
 40
163.2431038633246
 40
163.2431038633246
 40
174.1086098609658
 40
174.1086098609658
 40
184.3832101490628
 40
184.3832101490628
 40
196.561911741877
 40
196.561911741877
 40
200.6168394239838
 40
200.6168394239838
 40
200.6168394239838
 40
200.6168394239838
 10
65.05341095043047
 20
115.2628693936016
 30
0.0000000000000086
 10
65.05343288559515
 20
114.0705597403326
 30
0.0000000000000086
 10
65.08182668015024
 20
112.877863915973
 30
0.0000000000000086
 10
65.32189209644889
 20
107.8411169549541
 30
0.0000000000000086
 10
65.79994950440675
 20
104.0285993679578
 30
0.0000000000000085
 10
67.43959460063502
 20
96.08365730927506
 30
0.0000000000000082
 10
68.67779457166659
 20
91.99865675252466
 30
0.000000000000008
 10
73.03976293772109
 20
81.39293815913163
 30
0.0000000000000072
 10
76.85494411614889
 20
75.35293926678253
 30
0.0000000000000065
 10
83.88459348422442
 20
68.03592213571926
 30
0.0000000000000052
 10
86.37271573124019
 20
65.92390001776391
 30
0.0000000000000047
 10
91.57076125002674
 20
62.4189174555878
 30
0.0000000000000038
 10
94.2512737024016
 20
60.99989316588187
 30
0.0000000000000033
 10
100.3773369682741
 20
58.60163738078324
 30
0.0000000000000021
 10
103.8391832086053
 20
57.76576195775863
 30
0.0000000000000015
 10
108.5458933154569
 20
57.31851149837087
 30
0.0000000000000006
 10
109.7228659364814
 20
57.26286512305239
 30
0.0000000000000004
 10
110.8983338305497
 20
57.26286232939457
 30
0.0000000000000002
  0
SPLINE
  5
133
330
1F
100
AcDbEntity
  8
PV-86
100
AcDbSpline
210
-0.0000000000000008
220
-0.0000000000000006
230
1.0
 70
     8
 71
     3
 72
    26
 73
    22
 74
     0
 42
0.0000000001
 43
0.0000000001
 40
112.4440905302935
 40
112.4440905302935
 40
112.4440905302935
 40
112.4440905302935
 40
120.345502268197
 40
120.345502268197
 40
128.2469140061004
 40
128.2469140061004
 40
136.1483257440039
 40
136.1483257440039
 40
145.7882525382938
 40
145.7882525382938
 40
155.4281793325838
 40
155.4281793325838
 40
165.0681061268737
 40
165.0681061268737
 40
174.7080329211637
 40
174.7080329211637
 40
184.3479597154536
 40
184.3479597154536
 40
193.9878865097436
 40
193.9878865097436
 40
200.6168394239838
 40
200.6168394239838
 40
200.6168394239838
 40
200.6168394239838
 10
95.05341094535362
 20
115.2634213097406
 30
0.000000000000003
 10
95.05344008288593
 20
113.6796191564207
 30
0.000000000000003
 10
95.13743759319243
 20
112.0912070106859
 30
0.000000000000003
 10
95.46710384338059
 20
108.9793256163114
 30
0.0000000000000029
 10
95.71304779718424
 20
107.4507873706301
 30
0.0000000000000029
 10
96.35257065884674
 20
104.4954270370566
 30
0.0000000000000028
 10
96.74449284728209
 20
103.0760347210953
 30
0.0000000000000027
 10
97.74939635407642
 20
100.0911457035769
 30
0.0000000000000025
 10
98.39386199481872
 20
98.55980545823957
 30
0.0000000000000024
 10
99.79423862503807
 20
95.79860708580396
 30
0.0000000000000022
 10
100.5504662567586
 20
94.56642856013933
 30
0.000000000000002
 10
102.1036271959321
 20
92.42074660638786
 30
0.0000000000000017
 10
102.9025871970433
 20
91.50452398987978
 30
0.0000000000000016
 10
104.4654585698684
 20
89.98500998068982
 30
0.0000000000000013
 10
105.2301867839625
 20
89.37971444201981
 30
0.0000000000000011
 10
106.6726077058882
 20
88.4328309552743
 30
0.0000000000000009
 10
107.3513962974492
 20
88.08895955340757
 30
0.0000000000000008
 10
108.6164980092251
 20
87.5925475985133
 30
0.0000000000000005
 10
109.2014871552761
 20
87.43908988636666
 30
0.0000000000000004
 10
110.1482863043775
 20
87.29148155750193
 30
0.0000000000000002
 10
110.5244958247223
 20
87.26286321795567
 30
0.0000000000000002
 10
114.7064785484986
 20
87.2628693965761
 30
-0.0000000000000005
  0
LINE
  5
135
330
1F
100
AcDbEntity
  8
PV-86
100
AcDbLine
 10
95.05347045113285
 20
142.2628693965762
 30
0.0000000000000086
 11
95.05347045113285
 21
115.2628693965762
 31
0.0000000000000086
210
-0.0000000000000004
220
-1.0
230
0.0
  0
LINE
  5
137
330
1F
100
AcDbEntity
  8
PV-86
100
AcDbLine
 10
213.0534704511329
 20
87.2628693965761
 30
-0.0000000000000186
 11
110.8984018400909
 21
87.2628693965761
 31
0.0000000000000002
210
-0.0000000000000004
220
-1.0
230
0.0
  0
LINE
  5
13F
330
1F
100
AcDbEntity
  8
0
100
AcDbLine
 10
65.05347045113285
 20
142.2628693965762
 30
0.0000000000000086
 11
95.05347045113285
 21
142.2628693965762
 31
0.0000000000000086
  0
ARC
  5
15D
330
1F
100
AcDbEntity
  8
PV-86
100
AcDbCircle
 10
213.0534704511329
 20
72.26286939657609
 30
-0.0000000000000047
 40
15.0
100
AcDbArc
 50
270.0
 51
90.0
  0
LINE
  5
160
330
1F
100
AcDbEntity
  8
PV-86
100
AcDbLine
 10
394.2560282856949
 20
324.9100409623196
 30
0.0000000000000461
 11
394.2560212184286
 21
416.2201745536677
 31
0.0000000000000312
210
1.0
220
-0.0000000000000002
230
0.0
  0
LINE
  5
161
330
1F
100
AcDbEntity
  8
PV-86
100
AcDbLine
 10
394.2560212184286
 20
474.9100373921511
 30
0.000000000000024
 11
394.2560212184286
 21
563.2244793823502
 31
0.0000000000000134
210
1.0
220
-0.0000000000000002
230
0.0
  0
LINE
  5
162
330
1F
100
AcDbEntity
  8
PV-86
100
AcDbLine
 10
394.2560212184286
 20
416.2201745536677
 30
0.0000000000000312
 11
394.2560212184286
 21
474.9100373921511
 31
0.000000000000024
210
1.0
220
-0.0000000000000002
230
0.0
  0
SPLINE
  5
163
330
1F
100
AcDbEntity
  8
PV-86
100
AcDbSpline
210
-0.0000000000000005
220
-0.0000000000000009
230
-1.0
 70
     8
 71
     3
 72
    26
 73
    22
 74
     0
 42
0.0000000001
 43
0.0000000001
 40
152.0689436408359
 40
152.0689436408359
 40
152.0689436408359
 40
152.0689436408359
 40
161.7135649393921
 40
161.7135649393921
 40
171.3581862379484
 40
171.3581862379484
 40
181.0028075365046
 40
181.0028075365046
 40
190.6474288350609
 40
190.6474288350609
 40
200.2920501336172
 40
200.2920501336172
 40
209.9366714321734
 40
209.9366714321734
 40
217.9996498397056
 40
217.9996498397056
 40
224.7458081197536
 40
224.7458081197536
 40
231.4919663998016
 40
231.4919663998016
 40
240.1891360395798
 40
240.1891360395798
 40
240.1891360395798
 40
240.1891360395798
 10
394.2560225320377
 20
563.2200581486749
 30
0.0000000000000112
 10
394.2560202540362
 20
563.7666378741557
 30
0.0000000000000115
 10
394.1966457928591
 20
564.3122433095911
 30
0.000000000000011
 10
393.9317466411374
 20
565.4724221574646
 30
0.0000000000000109
 10
393.7255943139102
 20
566.0855700280794
 30
0.0000000000000108
 10
393.1011997777448
 20
567.408808699341
 30
0.0000000000000107
 10
392.6815008477158
 20
568.1186945155599
 30
0.0000000000000106
 10
391.5626412933804
 20
569.6116407432116
 30
0.0000000000000104
 10
390.863163597835
 20
570.393428609345
 30
0.0000000000000103
 10
389.1430264897022
 20
571.9722948304226
 30
0.0000000000000101
 10
388.1240458273511
 20
572.766933074928
 30
0.0000000000000101
 10
385.7681375215286
 20
574.2926359484989
 30
0.0000000000000099
 10
384.435701683716
 20
575.0208221349983
 30
0.0000000000000097
 10
381.7315726462137
 20
576.2338711554185
 30
0.0000000000000096
 10
380.4039351204145
 20
576.7381799942135
 30
0.0000000000000095
 10
377.8311754138185
 20
577.5420395406245
 30
0.0000000000000094
 10
376.6047851906467
 20
577.8627131870082
 30
0.0000000000000094
 10
374.0748946287464
 20
578.3968767027418
 30
0.0000000000000093
 10
372.775098296492
 20
578.6096855879994
 30
0.0000000000000093
 10
369.7457850175433
 20
578.9633242695662
 30
0.0000000000000093
 10
367.9980714172816
 20
579.0651680777293
 30
0.0000000000000093
 10
366.255755714267
 20
579.0651834975721
 30
0.0000000000000093
  0
LINE
  5
164
330
1F
100
AcDbEntity
  8
PV-86
100
AcDbLine
 10
339.2560212184286
 20
579.0651062838596
 30
0.0000000000000056
 11
366.2560212184285
 21
579.0651062838596
 31
0.0000000000000056
210
1.0
220
-0.0000000000000002
230
0.0
  0
LINE
  5
165
330
1F
100
AcDbEntity
  8
PV-86
100
AcDbLine
 10
339.2560212184286
 20
309.0651062838597
 30
0.0000000000000517
 11
366.2560212184285
 21
309.0651062838597
 31
0.0000000000000517
210
1.0
220
-0.0000000000000002
230
0.0
  0
SPLINE
  5
166
330
1F
100
AcDbEntity
  8
PV-86
100
AcDbSpline
210
0.0000000000000005
220
-0.0000000000000008
230
-1.0
 70
     8
 71
     3
 72
    26
 73
    22
 74
     0
 42
0.0000000001
 43
0.0000000001
 40
112.444090530293
 40
112.444090530293
 40
112.444090530293
 40
112.444090530293
 40
120.3455022661704
 40
120.3455022661704
 40
128.2469140020478
 40
128.2469140020478
 40
136.1483257379252
 40
136.1483257379252
 40
145.7882525323864
 40
145.7882525323864
 40
155.4281793268475
 40
155.4281793268475
 40
165.0681061213086
 40
165.0681061213086
 40
174.7080329157698
 40
174.7080329157698
 40
184.3479597102309
 40
184.3479597102309
 40
193.987886504692
 40
193.987886504692
 40
200.6168394240003
 40
200.6168394240003
 40
200.6168394240003
 40
200.6168394240003
 10
366.2554693052601
 20
309.0650467780803
 30
0.000000000000048
 10
367.8392714581713
 20
309.0650759156126
 30
0.000000000000048
 10
369.4276836035037
 20
309.1490734258758
 30
0.000000000000048
 10
372.5395649971089
 20
309.4787396758965
 30
0.000000000000048
 10
374.0681032424171
 20
309.7246836295743
 30
0.0000000000000479
 10
377.0234635753512
 20
310.3642064909248
 30
0.0000000000000478
 10
378.4428558910327
 20
310.7561286791722
 30
0.0000000000000478
 10
381.4277449084908
 20
311.7610321856536
 30
0.0000000000000477
 10
382.9590851540199
 20
312.4054978263133
 30
0.0000000000000476
 10
385.720283526864
 20
313.8058744564196
 30
0.0000000000000474
 10
386.9524620527402
 20
314.5621020881074
 30
0.0000000000000474
 10
389.0981440069051
 20
316.1152630272592
 30
0.0000000000000472
 10
390.0143666236168
 20
316.9142230283831
 30
0.0000000000000471
 10
391.5338806331866
 20
318.4770944012705
 30
0.0000000000000469
 10
392.1391761720352
 20
319.2418226154182
 30
0.0000000000000468
 10
393.0860596590864
 20
320.6842435374584
 30
0.0000000000000466
 10
393.4299310610853
 20
321.3630321290882
 30
0.0000000000000465
 10
393.9263430161943
 20
322.6281338409782
 30
0.0000000000000464
 10
394.0798007284275
 20
323.2131229870861
 30
0.0000000000000463
 10
394.2274090574599
 20
324.1599221365323
 30
0.0000000000000462
 10
394.2560273970491
 20
324.5361316571632
 30
0.0000000000000461
 10
394.2560282856949
 20
324.9100409623196
 30
0.0000000000000461
  0
SPLINE
  5
191
330
1F
100
AcDbEntity
  8
PV-86
100
AcDbSpline
210
0.0000000000000005
220
-0.0000000000000008
230
-1.0
 70
     8
 71
     3
 72
    26
 73
    22
 74
     0
 42
0.0000000001
 43
0.0000000001
 40
112.444090530293
 40
112.444090530293
 40
112.444090530293
 40
112.444090530293
 40
120.3455022661704
 40
120.3455022661704
 40
128.2469140020478
 40
128.2469140020478
 40
136.1483257379252
 40
136.1483257379252
 40
145.7882525323864
 40
145.7882525323864
 40
155.4281793268475
 40
155.4281793268475
 40
165.0681061213086
 40
165.0681061213086
 40
174.7080329157698
 40
174.7080329157698
 40
184.3479597102309
 40
184.3479597102309
 40
193.987886504692
 40
193.987886504692
 40
200.6168394240003
 40
200.6168394240003
 40
200.6168394240003
 40
200.6168394240003
 10
366.2554693052601
 20
309.0650467780803
 30
0.000000000000048
 10
367.8392714581713
 20
309.0650759156126
 30
0.000000000000048
 10
369.4276836035037
 20
309.1490734258758
 30
0.000000000000048
 10
372.5395649971089
 20
309.4787396758965
 30
0.000000000000048
 10
374.0681032424171
 20
309.7246836295743
 30
0.0000000000000479
 10
377.0234635753512
 20
310.3642064909248
 30
0.0000000000000478
 10
378.4428558910327
 20
310.7561286791722
 30
0.0000000000000478
 10
381.4277449084908
 20
311.7610321856536
 30
0.0000000000000477
 10
382.9590851540199
 20
312.4054978263133
 30
0.0000000000000476
 10
385.720283526864
 20
313.8058744564196
 30
0.0000000000000474
 10
386.9524620527402
 20
314.5621020881074
 30
0.0000000000000474
 10
389.0981440069051
 20
316.1152630272592
 30
0.0000000000000472
 10
390.0143666236168
 20
316.9142230283831
 30
0.0000000000000471
 10
391.5338806331866
 20
318.4770944012705
 30
0.0000000000000469
 10
392.1391761720352
 20
319.2418226154182
 30
0.0000000000000468
 10
393.0860596590864
 20
320.6842435374584
 30
0.0000000000000466
 10
393.4299310610853
 20
321.3630321290882
 30
0.0000000000000465
 10
393.9263430161943
 20
322.6281338409782
 30
0.0000000000000464
 10
394.0798007284275
 20
323.2131229870861
 30
0.0000000000000463
 10
394.2274090574599
 20
324.1599221365323
 30
0.0000000000000462
 10
394.2560273970491
 20
324.5361316571632
 30
0.0000000000000461
 10
394.2560282856949
 20
324.9100409623196
 30
0.0000000000000461
  0
LINE
  5
1A2
330
1F
100
AcDbEntity
  8
0
100
AcDbLine
 10
84.14343840719544
 20
610.5651059817075
 30
0.0000000000000276
 11
213.7329445649875
 21
479.3855445336359
 31
0.0000000000000276
  0
LINE
  5
1A3
330
1F
100
AcDbEntity
  8
0
100
AcDbLine
 10
62.9290614815908
 20
589.3522968912167
 30
0.0000000000000276
 11
191.3712094027215
 21
459.33417169498
 31
0.0000000000000276
  0
LINE
  5
1A4
330
1F
100
AcDbEntity
  8
0
100
AcDbLine
 10
191.3712094090493
 20
431.7960402748403
 30
0.0000000000000276
 11
62.9290614815908
 21
301.7779150721984
 31
0.0000000000000276
  0
LINE
  5
1A5
330
1F
100
AcDbEntity
  8
0
100
AcDbLine
 10
213.7329445751567
 20
411.744667440073
 30
0.0000000000000276
 11
84.14343840719556
 21
280.5651059817075
 31
0.0000000000000276
  0
ARC
  5
1A6
330
1F
100
AcDbEntity
  8
0
100
AcDbCircle
 10
73.60013922528281
 20
599.8940282380154
 30
0.0000000000000276
 40
14.99999999999999
100
AcDbArc
 50
44.65063982049887
 51
224.6506398204989
  0
ARC
  5
1A7
330
1F
100
AcDbEntity
  8
0
100
AcDbCircle
 10
73.60013922528287
 20
291.2361837253996
 30
0.0000000000000276
 40
15.00000000000003
100
AcDbArc
 50
135.3493601795011
 51
315.3493601795012
  0
ARC
  5
1A8
330
1F
100
AcDbEntity
  8
PV-86
100
AcDbCircle
 10
173.5263610499328
 20
445.5651059808097
 30
0.0000000000000276
 40
52.5394273080565
100
AcDbArc
 50
310.7681492337743
 51
49.23185074899851
  0
ARC
  5
1A9
330
1F
100
AcDbEntity
  8
PV-86
100
AcDbCircle
 10
173.5263610499328
 20
445.5651059808097
 30
0.0000000000000276
 40
22.53942730805651
100
AcDbArc
 50
310.7681492337743
 51
49.23185074899851
  0
ENDSEC
  0
SECTION
  2
OBJECTS
  0
DICTIONARY
  5
C
330
0
100
AcDbDictionary
281
     1
  3
ACAD_COLOR
350
118
  3
ACAD_GROUP
350
D
  3
ACAD_LAYOUT
350
11B
  3
ACAD_MATERIAL
350
103
  3
ACAD_MLINESTYLE
350
17
  3
ACAD_PLOTSETTINGS
350
19
  3
ACAD_PLOTSTYLENAME
350
A3
  3
ACAD_TABLESTYLE
350
119
  3
ACAD_VISUALSTYLE
350
107
  3
AcDbVariableDictionary
350
120
  3
DWGPROPS
350
1CA
1001
ACAD
1000
TREAT_AS_HARD
1070
     0
  0
DICTIONARY
  5
9D
330
1F
100
AcDbDictionary
280
     1
281
     1
  3
ACAD_LAYOUTSELFREF
360
100
  3
ACAD_SORTENTS
360
134
  0
DICTIONARY
  5
9B
330
1B
100
AcDbDictionary
280
     1
281
     1
  3
ACAD_LAYOUTSELFREF
360
FF
  0
DICTIONARY
  5
118
102
{ACAD_REACTORS
330
C
102
}
330
C
100
AcDbDictionary
281
     1
  0
DICTIONARY
  5
D
102
{ACAD_REACTORS
330
C
102
}
330
C
100
AcDbDictionary
281
     1
1001
ACAD
1000
TREAT_AS_HARD
1070
     0
  0
DICTIONARY
  5
11B
102
{ACAD_REACTORS
330
C
102
}
330
C
100
AcDbDictionary
281
     1
  3
Layout1
350
11D
  3
Model
350
11C
  0
DICTIONARY
  5
103
102
{ACAD_REACTORS
330
C
102
}
330
C
100
AcDbDictionary
281
     1
  3
ByBlock
350
105
  3
ByLayer
350
104
  3
Global
350
106
  0
DICTIONARY
  5
17
102
{ACAD_REACTORS
330
C
102
}
330
C
100
AcDbDictionary
281
     1
  3
STANDARD
350
18
1001
ACAD
1000
TREAT_AS_HARD
1070
     0
  0
DICTIONARY
  5
19
102
{ACAD_REACTORS
330
C
102
}
330
C
100
AcDbDictionary
281
     1
1001
ACAD
1000
TREAT_AS_HARD
1070
     0
  0
ACDBDICTIONARYWDFLT
  5
A3
102
{ACAD_REACTORS
330
C
102
}
330
C
100
AcDbDictionary
281
     1
  3
Normal
350
A4
100
AcDbDictionaryWithDefault
340
A4
  0
DICTIONARY
  5
119
102
{ACAD_REACTORS
330
C
102
}
330
C
100
AcDbDictionary
281
     1
  3
Standard
350
11A
  0
DICTIONARY
  5
107
102
{ACAD_REACTORS
330
C
102
}
330
C
100
AcDbDictionary
281
     1
  3
2dWireframe
350
10D
  3
3D Hidden
350
10F
  3
3dWireframe
350
10E
  3
Basic
350
10C
  3
Brighten
350
113
  3
ColorChange
350
117
  3
Conceptual
350
110
  3
Dim
350
112
  3
Facepattern
350
116
  3
Flat
350
108
  3
FlatWithEdges
350
109
  3
Gouraud
350
10A
  3
GouraudWithEdges
350
10B
  3
Linepattern
350
115
  3
Realistic
350
111
  3
Thicken
350
114
  0
DICTIONARY
  5
120
102
{ACAD_REACTORS
330
C
102
}
330
C
100
AcDbDictionary
281
     1
  3
CTABLESTYLE
350
121
  3
DIMASSOC
350
124
  3
INDEXCTL
350
123
  3
SORTENTS
350
122
  0
XRECORD
  5
1CA
102
{ACAD_REACTORS
330
C
102
}
330
C
100
AcDbXrecord
280
     1
  1
DWGPROPS COOKIE
  2

  3

  4

  6

  7

  8
kaschu
  9

300
=
301
=
302
=
303
=
304
=
305
=
306
=
307
=
308
=
309
=
 40
0.0069235185185185
 41
2451762.575520602
 42
2455708.724303704
  1

 90
        0
  0
XRECORD
  5
100
102
{ACAD_REACTORS
330
9D
102
}
330
9D
100
AcDbXrecord
280
     1
340
1F
  0
SORTENTSTABLE
  5
134
102
{ACAD_REACTORS
330
9D
102
}
330
9D
100
AcDbSortentsTable
330
1F
331
1A5
  5
1A6
331
B6
  5
B6
331
137
  5
DC
331
1A3
  5
1A1
331
C5
  5
D0
331
135
  5
D9
331
133
  5
132
331
166
  5
D7
331
164
  5
BA
331
162
  5
CC
331
160
  5
BF
331
1A8
  5
1A9
331
B9
  5
B9
331
1A6
  5
1A5
331
C8
  5
D8
331
B7
  5
B7
331
1A4
  5
1A8
331
1A2
  5
1A2
331
191
  5
D6
331
C2
  5
C9
331
C0
  5
C4
331
165
  5
C2
331
163
  5
C5
331
BE
  5
C1
331
13F
  5
191
331
BC
  5
BE
331
CD
  5
DD
331
161
  5
BC
331
1A9
  5
1AA
331
CB
  5
DA
331
BA
  5
BB
331
15D
  5
DB
  0
XRECORD
  5
FF
102
{ACAD_REACTORS
330
9B
102
}
330
9B
100
AcDbXrecord
280
     1
340
1B
  0
LAYOUT
  5
11D
102
{ACAD_XDICTIONARY
360
1D5
102
}
102
{ACAD_REACTORS
330
11B
102
}
330
11B
100
AcDbPlotSettings
  1

  2
\\druckserv1\AROBBE04
  4

  6

 40
0.0
 41
0.0
 42
0.0
 43
0.0
 44
0.0
 45
0.0
 46
0.0
 47
0.0
 48
0.0
 49
0.0
140
0.0
141
0.0
142
1.0
143
1.0
 70
   688
 72
     0
 73
     0
 74
     5
  7

 75
    16
147
1.0
148
0.0
149
0.0
100
AcDbLayout
  1
Layout1
 70
     1
 71
     1
 10
0.0
 20
0.0
 11
12.0
 21
9.0
 12
0.0
 22
0.0
 32
0.0
 14
1.000000000000000E+20
 24
1.000000000000000E+20
 34
1.000000000000000E+20
 15
-1.000000000000000E+20
 25
-1.000000000000000E+20
 35
-1.000000000000000E+20
146
0.0
 13
0.0
 23
0.0
 33
0.0
 16
1.0
 26
0.0
 36
0.0
 17
0.0
 27
1.0
 37
0.0
 76
     0
330
1B
  0
LAYOUT
  5
11C
102
{ACAD_XDICTIONARY
360
1D3
102
}
102
{ACAD_REACTORS
330
11B
102
}
330
11B
100
AcDbPlotSettings
  1

  2
\\druckserv1\AROBBE04
  4

  6

 40
0.0
 41
0.0
 42
0.0
 43
0.0
 44
0.0
 45
0.0
 46
0.0
 47
0.0
 48
0.0
 49
0.0
140
0.0
141
0.0
142
1.0
143
1.0
 70
  1712
 72
     0
 73
     0
 74
     0
  7

 75
     0
147
1.0
148
0.0
149
0.0
100
AcDbLayout
  1
Model
 70
     1
 71
     0
 10
0.0
 20
0.0
 11
12.0
 21
9.0
 12
0.0
 22
0.0
 32
0.0
 14
0.0
 24
0.0
 34
0.0
 15
0.0
 25
0.0
 35
0.0
146
0.0
 13
0.0
 23
0.0
 33
0.0
 16
1.0
 26
0.0
 36
0.0
 17
0.0
 27
1.0
 37
0.0
 76
     0
330
1F
331
DE
  0
MATERIAL
  5
105
102
{ACAD_XDICTIONARY
360
1CD
102
}
102
{ACAD_REACTORS
330
103
102
}
330
103
100
AcDbMaterial
  1
ByBlock
  0
MATERIAL
  5
104
102
{ACAD_XDICTIONARY
360
1CB
102
}
102
{ACAD_REACTORS
330
103
102
}
330
103
100
AcDbMaterial
  1
ByLayer
  0
MATERIAL
  5
106
102
{ACAD_XDICTIONARY
360
1CF
102
}
102
{ACAD_REACTORS
330
103
102
}
330
103
100
AcDbMaterial
  1
Global
  0
MLINESTYLE
  5
18
102
{ACAD_REACTORS
330
17
102
}
330
17
100
AcDbMlineStyle
  2
STANDARD
 70
     0
  3

 62
   256
 51
90.0
 52
90.0
 71
     2
 49
0.5
 62
   256
  6
BYLAYER
 49
-0.5
 62
   256
  6
BYLAYER
  0
ACDBPLACEHOLDER
  5
A4
102
{ACAD_REACTORS
330
A3
102
}
330
A3
  0
TABLESTYLE
  5
11A
102
{ACAD_XDICTIONARY
360
1D1
102
}
102
{ACAD_REACTORS
330
119
102
}
330
119
100
AcDbTableStyle
  3
Standard
 70
     0
 71
     0
 40
0.06
 41
0.06
280
     0
281
     0
  7
STANDARD
140
0.18
170
     2
 62
     0
 63
     7
283
     0
274
    -2
284
     1
 64
     0
275
    -2
285
     1
 65
     0
276
    -2
286
     1
 66
     0
277
    -2
287
     1
 67
     0
278
    -2
288
     1
 68
     0
279
    -2
289
     1
 69
     0
  7
STANDARD
140
0.25
170
     5
 62
     0
 63
     7
283
     0
274
    -2
284
     1
 64
     0
275
    -2
285
     1
 65
     0
276
    -2
286
     1
 66
     0
277
    -2
287
     1
 67
     0
278
    -2
288
     1
 68
     0
279
    -2
289
     1
 69
     0
  7
STANDARD
140
0.18
170
     5
 62
     0
 63
     7
283
     0
274
    -2
284
     1
 64
     0
275
    -2
285
     1
 65
     0
276
    -2
286
     1
 66
     0
277
    -2
287
     1
 67
     0
278
    -2
288
     1
 68
     0
279
    -2
289
     1
 69
     0
  0
VISUALSTYLE
  5
10D
102
{ACAD_REACTORS
330
107
102
}
330
107
100
AcDbVisualStyle
  2
2dWireframe
 70
     4
 71
     0
 72
     2
 73
     0
 90
        0
 40
-0.6
 41
-30.0
 62
     5
 63
     7
 74
     1
 91
        4
 64
     7
 65
   257
 75
     1
175
     1
 42
1.0
 92
        0
 66
   257
 43
1.0
 76
     1
 77
     6
 78
     2
 67
     7
 79
     5
170
     0
171
     0
290
     0
174
     0
 93
        1
 44
0.0
173
     0
291
     0
 45
0.0
1001
ACAD
1000
AcDbSavedByObjectVersion
1070
     0
  0
VISUALSTYLE
  5
10F
102
{ACAD_REACTORS
330
107
102
}
330
107
100
AcDbVisualStyle
  2
3D Hidden
 70
     6
 71
     1
 72
     2
 73
     2
 90
        0
 40
-0.6
 41
-30.0
 62
     5
 63
     7
 74
     2
 91
        2
 64
     7
 65
   257
 75
     2
175
     1
 42
40.0
 92
        0
 66
   257
 43
1.0
 76
     1
 77
     6
 78
     2
 67
     7
 79
     3
170
     0
171
     0
290
     0
174
     0
 93
        1
 44
0.0
173
     0
291
     0
 45
0.0
1001
ACAD
1000
AcDbSavedByObjectVersion
1070
     0
  0
VISUALSTYLE
  5
10E
102
{ACAD_REACTORS
330
107
102
}
330
107
100
AcDbVisualStyle
  2
3dWireframe
 70
     5
 71
     0
 72
     2
 73
     0
 90
        0
 40
-0.6
 41
-30.0
 62
     5
 63
     7
 74
     1
 91
        4
 64
     7
 65
   257
 75
     1
175
     1
 42
1.0
 92
        0
 66
   257
 43
1.0
 76
     1
 77
     6
 78
     2
 67
     7
 79
     5
170
     0
171
     0
290
     0
174
     0
 93
        1
 44
0.0
173
     0
291
     0
 45
0.0
1001
ACAD
1000
AcDbSavedByObjectVersion
1070
     0
  0
VISUALSTYLE
  5
10C
102
{ACAD_REACTORS
330
107
102
}
330
107
100
AcDbVisualStyle
  2
Basic
 70
     7
 71
     1
 72
     0
 73
     1
 90
        0
 40
-0.6
 41
-30.0
 62
     5
 63
     7
 74
     0
 91
        4
 64
     7
 65
   257
 75
     1
175
     1
 42
1.0
 92
        8
 66
     7
 43
1.0
 76
     1
 77
     6
 78
     2
 67
     7
 79
     5
170
     0
171
     0
290
     0
174
     0
 93
        1
 44
0.0
173
     0
291
     1
 45
0.0
1001
ACAD
1000
AcDbSavedByObjectVersion
1070
     0
  0
VISUALSTYLE
  5
113
102
{ACAD_REACTORS
330
107
102
}
330
107
100
AcDbVisualStyle
  2
Brighten
 70
    12
 71
     2
 72
     2
 73
     0
 90
        0
 40
-0.6
 41
-30.0
 62
     5
 63
     7
 74
     1
 91
        4
 64
     7
 65
   257
 75
     1
175
     1
 42
1.0
 92
        8
 66
     7
 43
1.0
 76
     1
 77
     6
 78
     2
 67
     7
 79
     5
170
     0
171
     0
290
     0
174
     0
 93
        1
 44
50.0
173
     0
291
     1
 45
0.0
1001
ACAD
1000
AcDbSavedByObjectVersion
1070
     0
  0
VISUALSTYLE
  5
117
102
{ACAD_REACTORS
330
107
102
}
330
107
100
AcDbVisualStyle
  2
ColorChange
 70
    16
 71
     2
 72
     2
 73
     3
 90
        0
 40
-0.6
 41
-30.0
 62
     5
 63
     8
 74
     1
 91
        4
 64
     7
 65
   257
 75
     1
175
     1
 42
1.0
 92
        8
 66
     8
 43
1.0
 76
     1
 77
     6
 78
     2
 67
     7
 79
     5
170
     0
171
     0
290
     0
174
     0
 93
        1
 44
0.0
173
     0
291
     1
 45
0.0
1001
ACAD
1000
AcDbSavedByObjectVersion
1070
     0
  0
VISUALSTYLE
  5
110
102
{ACAD_REACTORS
330
107
102
}
330
107
100
AcDbVisualStyle
  2
Conceptual
 70
     9
 71
     3
 72
     2
 73
     0
 90
        0
 40
-0.6
 41
-30.0
 62
     5
 63
     7
 74
     2
 91
        2
 64
     7
 65
   257
 75
     1
175
     1
 42
40.0
 92
        8
 66
     7
 43
1.0
 76
     1
 77
     6
 78
     2
 67
     7
 79
     3
170
     0
171
     0
290
     0
174
     0
 93
        1
 44
0.0
173
     0
291
     0
 45
0.0
1001
ACAD
1000
AcDbSavedByObjectVersion
1070
     0
  0
VISUALSTYLE
  5
112
102
{ACAD_REACTORS
330
107
102
}
330
107
100
AcDbVisualStyle
  2
Dim
 70
    11
 71
     2
 72
     2
 73
     0
 90
        0
 40
-0.6
 41
-30.0
 62
     5
 63
     7
 74
     1
 91
        4
 64
     7
 65
   257
 75
     1
175
     1
 42
1.0
 92
        8
 66
     7
 43
1.0
 76
     1
 77
     6
 78
     2
 67
     7
 79
     5
170
     0
171
     0
290
     0
174
     0
 93
        1
 44
-50.0
173
     0
291
     1
 45
0.0
1001
ACAD
1000
AcDbSavedByObjectVersion
1070
     0
  0
VISUALSTYLE
  5
116
102
{ACAD_REACTORS
330
107
102
}
330
107
100
AcDbVisualStyle
  2
Facepattern
 70
    15
 71
     2
 72
     2
 73
     0
 90
        0
 40
-0.6
 41
-30.0
 62
     5
 63
     7
 74
     1
 91
        4
 64
     7
 65
   257
 75
     1
175
     1
 42
1.0
 92
        8
 66
     7
 43
1.0
 76
     1
 77
     6
 78
     2
 67
     7
 79
     5
170
     0
171
     0
290
     0
174
     0
 93
        1
 44
0.0
173
     0
291
     1
 45
0.0
1001
ACAD
1000
AcDbSavedByObjectVersion
1070
     0
  0
VISUALSTYLE
  5
108
102
{ACAD_REACTORS
330
107
102
}
330
107
100
AcDbVisualStyle
  2
Flat
 70
     0
 71
     2
 72
     1
 73
     1
 90
        2
 40
-0.6
 41
30.0
 62
     5
 63
     7
 74
     0
 91
        4
 64
     7
 65
   257
 75
     1
175
     1
 42
1.0
 92
        8
 66
     7
 43
1.0
 76
     1
 77
     6
 78
     2
 67
     7
 79
     5
170
     0
171
     0
290
     0
174
     0
 93
       13
 44
0.0
173
     0
291
     1
 45
0.0
1001
ACAD
1000
AcDbSavedByObjectVersion
1070
     0
  0
VISUALSTYLE
  5
109
102
{ACAD_REACTORS
330
107
102
}
330
107
100
AcDbVisualStyle
  2
FlatWithEdges
 70
     1
 71
     2
 72
     1
 73
     1
 90
        2
 40
-0.6
 41
30.0
 62
     5
 63
     7
 74
     1
 91
        4
 64
     7
 65
   257
 75
     1
175
     1
 42
1.0
 92
        0
 66
   257
 43
1.0
 76
     1
 77
     6
 78
     2
 67
     7
 79
     5
170
     0
171
     0
290
     0
174
     0
 93
       13
 44
0.0
173
     0
291
     1
 45
0.0
1001
ACAD
1000
AcDbSavedByObjectVersion
1070
     0
  0
VISUALSTYLE
  5
10A
102
{ACAD_REACTORS
330
107
102
}
330
107
100
AcDbVisualStyle
  2
Gouraud
 70
     2
 71
     2
 72
     2
 73
     1
 90
        2
 40
-0.6
 41
30.0
 62
     5
 63
     7
 74
     0
 91
        4
 64
     7
 65
   257
 75
     1
175
     1
 42
1.0
 92
        0
 66
     7
 43
1.0
 76
     1
 77
     6
 78
     2
 67
     7
 79
     5
170
     0
171
     0
290
     0
174
     0
 93
       13
 44
0.0
173
     0
291
     1
 45
0.0
1001
ACAD
1000
AcDbSavedByObjectVersion
1070
     0
  0
VISUALSTYLE
  5
10B
102
{ACAD_REACTORS
330
107
102
}
330
107
100
AcDbVisualStyle
  2
GouraudWithEdges
 70
     3
 71
     2
 72
     2
 73
     1
 90
        2
 40
-0.6
 41
30.0
 62
     5
 63
     7
 74
     1
 91
        4
 64
     7
 65
   257
 75
     1
175
     1
 42
1.0
 92
        0
 66
   257
 43
1.0
 76
     1
 77
     6
 78
     2
 67
     7
 79
     5
170
     0
171
     0
290
     0
174
     0
 93
       13
 44
0.0
173
     0
291
     1
 45
0.0
1001
ACAD
1000
AcDbSavedByObjectVersion
1070
     0
  0
VISUALSTYLE
  5
115
102
{ACAD_REACTORS
330
107
102
}
330
107
100
AcDbVisualStyle
  2
Linepattern
 70
    14
 71
     2
 72
     2
 73
     0
 90
        0
 40
-0.6
 41
-30.0
 62
     5
 63
     7
 74
     1
 91
        4
 64
     7
 65
   257
 75
     7
175
     7
 42
1.0
 92
        8
 66
     7
 43
1.0
 76
     1
 77
     6
 78
     2
 67
     7
 79
     5
170
     0
171
     0
290
     0
174
     0
 93
        1
 44
0.0
173
     0
291
     1
 45
0.0
1001
ACAD
1000
AcDbSavedByObjectVersion
1070
     0
  0
VISUALSTYLE
  5
111
102
{ACAD_REACTORS
330
107
102
}
330
107
100
AcDbVisualStyle
  2
Realistic
 70
     8
 71
     2
 72
     2
 73
     0
 90
        0
 40
-0.6
 41
-30.0
 62
     5
 63
     7
 74
     1
 91
        0
 64
     7
 65
   257
 75
     1
175
     1
 42
1.0
 92
        8
 66
     8
 43
1.0
 76
     1
 77
     6
 78
     2
 67
     7
 79
     5
170
     0
171
     0
290
     0
174
     0
 93
       13
 44
0.0
173
     0
291
     0
 45
0.0
1001
ACAD
1000
AcDbSavedByObjectVersion
1070
     0
  0
VISUALSTYLE
  5
114
102
{ACAD_REACTORS
330
107
102
}
330
107
100
AcDbVisualStyle
  2
Thicken
 70
    13
 71
     2
 72
     2
 73
     0
 90
        0
 40
-0.6
 41
-30.0
 62
     5
 63
     7
 74
     1
 91
        4
 64
     7
 65
   257
 75
     1
175
     1
 42
1.0
 92
       12
 66
     7
 43
1.0
 76
     1
 77
     6
 78
     2
 67
     7
 79
     5
170
     0
171
     0
290
     0
174
     0
 93
        1
 44
0.0
173
     0
291
     1
 45
0.0
1001
ACAD
1000
AcDbSavedByObjectVersion
1070
     0
  0
DICTIONARYVAR
  5
121
102
{ACAD_REACTORS
330
120
102
}
330
120
100
DictionaryVariables
280
     0
  1
STANDARD
  0
DICTIONARYVAR
  5
124
102
{ACAD_REACTORS
330
120
102
}
330
120
100
DictionaryVariables
280
     0
  1
1
  0
DICTIONARYVAR
  5
123
102
{ACAD_REACTORS
330
120
102
}
330
120
100
DictionaryVariables
280
     0
  1
0
  0
DICTIONARYVAR
  5
122
102
{ACAD_REACTORS
330
120
102
}
330
120
100
DictionaryVariables
280
     0
  1
127
  0
DICTIONARY
  5
1D5
330
11D
100
AcDbDictionary
280
     1
281
     1
  3
ACAD_XREC_ROUNDTRIP
360
1D6
  0
DICTIONARY
  5
1D3
330
11C
100
AcDbDictionary
280
     1
281
     1
  3
ACAD_XREC_ROUNDTRIP
360
1D4
  0
DICTIONARY
  5
1CD
330
105
100
AcDbDictionary
280
     1
281
     1
  3
ACAD_XREC_ROUNDTRIP
360
1CE
  0
DICTIONARY
  5
1CB
330
104
100
AcDbDictionary
280
     1
281
     1
  3
ACAD_XREC_ROUNDTRIP
360
1CC
  0
DICTIONARY
  5
1CF
330
106
100
AcDbDictionary
280
     1
281
     1
  3
ACAD_XREC_ROUNDTRIP
360
1D0
  0
DICTIONARY
  5
1D1
330
11A
100
AcDbDictionary
280
     1
281
     1
  3
ACAD_XREC_ROUNDTRIP
360
1D2
  0
XRECORD
  5
1D6
102
{ACAD_REACTORS
330
1D5
102
}
330
1D5
100
AcDbXrecord
280
     1
102
SHADEPLOT
 70
     0
102
SHADEPLOTRESLEVEL
 70
     2
102
SHADEPLOTCUSTOMDPI
 70
   300
  0
XRECORD
  5
1D4
102
{ACAD_REACTORS
330
1D3
102
}
330
1D3
100
AcDbXrecord
280
     1
102
SHADEPLOT
 70
     0
102
SHADEPLOTRESLEVEL
 70
     2
102
SHADEPLOTCUSTOMDPI
 70
   300
  0
XRECORD
  5
1CE
102
{ACAD_REACTORS
330
1CD
102
}
330
1CD
100
AcDbXrecord
280
     1
102
MATERIAL
148
0.0
149
0.0
149
0.0
 93
        0
 94
       63
282
     0
 72
     1
 77
     1
171
     1
175
     1
179
     1
273
     0
  0
XRECORD
  5
1CC
102
{ACAD_REACTORS
330
1CB
102
}
330
1CB
100
AcDbXrecord
280
     1
102
MATERIAL
148
0.0
149
0.0
149
0.0
 93
        0
 94
       63
282
     0
 72
     1
 77
     1
171
     1
175
     1
179
     1
273
     0
  0
XRECORD
  5
1D0
102
{ACAD_REACTORS
330
1CF
102
}
330
1CF
100
AcDbXrecord
280
     1
102
MATERIAL
148
0.0
149
0.0
149
0.0
 93
        0
 94
       63
282
     0
 72
     1
 77
     1
171
     1
175
     1
179
     1
273
     0
  0
XRECORD
  5
1D2
102
{ACAD_REACTORS
330
1D1
102
}
330
1D1
100
AcDbXrecord
280
     1
102
ACAD_ROUNDTRIP_PRE2007_TABLESTYLE
 90
      512
 91
        0
  1

 92
      512
 93
        0
  2

 94
      512
 95
        0
  3

  0
ENDSEC
  0
EOF
