  0
SECTION
  2
HEADER
  9
$ACADVER
  1
AC1015
  9
$ACADMAINTVER
 70
    20
  9
$DWGCODEPAGE
  3
ANSI_1252
  9
$INSBASE
 10
0.0
 20
0.0
 30
0.0
  9
$EXTMIN
 10
48.7521212147717
 20
27.49167486033662
 30
-0.0000000000000229
  9
$EXTMAX
 10
345.4316817435834
 20
559.119689725365
 30
0.0000000000000534
  9
$LIMMIN
 10
0.0
 20
0.0
  9
$LIMMAX
 10
12.0
 20
9.0
  9
$ORTHOMODE
 70
     0
  9
$REGENMODE
 70
     1
  9
$FILLMODE
 70
     1
  9
$QTEXTMODE
 70
     0
  9
$MIRRTEXT
 70
     1
  9
$LTSCALE
 40
1.0
  9
$ATTMODE
 70
     1
  9
$TEXTSIZE
 40
0.2
  9
$TRACEWID
 40
0.05
  9
$TEXTSTYLE
  7
STANDARD
  9
$CLAYER
  8
0
  9
$CELTYPE
  6
BYLAYER
  9
$CECOLOR
 62
   256
  9
$CELTSCALE
 40
1.0
  9
$DISPSILH
 70
     0
  9
$DIMSCALE
 40
1.0
  9
$DIMASZ
 40
0.18
  9
$DIMEXO
 40
0.0625
  9
$DIMDLI
 40
0.38
  9
$DIMRND
 40
0.0
  9
$DIMDLE
 40
0.0
  9
$DIMEXE
 40
0.18
  9
$DIMTP
 40
0.0
  9
$DIMTM
 40
0.0
  9
$DIMTXT
 40
0.18
  9
$DIMCEN
 40
0.09
  9
$DIMTSZ
 40
0.0
  9
$DIMTOL
 70
     0
  9
$DIMLIM
 70
     0
  9
$DIMTIH
 70
     1
  9
$DIMTOH
 70
     1
  9
$DIMSE1
 70
     0
  9
$DIMSE2
 70
     0
  9
$DIMTAD
 70
     0
  9
$DIMZIN
 70
     0
  9
$DIMBLK
  1

  9
$DIMASO
 70
     1
  9
$DIMSHO
 70
     1
  9
$DIMPOST
  1

  9
$DIMAPOST
  1

  9
$DIMALT
 70
     0
  9
$DIMALTD
 70
     2
  9
$DIMALTF
 40
25.4
  9
$DIMLFAC
 40
1.0
  9
$DIMTOFL
 70
     0
  9
$DIMTVP
 40
0.0
  9
$DIMTIX
 70
     0
  9
$DIMSOXD
 70
     0
  9
$DIMSAH
 70
     0
  9
$DIMBLK1
  1

  9
$DIMBLK2
  1

  9
$DIMSTYLE
  2
STANDARD
  9
$DIMCLRD
 70
     0
  9
$DIMCLRE
 70
     0
  9
$DIMCLRT
 70
     0
  9
$DIMTFAC
 40
1.0
  9
$DIMGAP
 40
0.09
  9
$DIMJUST
 70
     0
  9
$DIMSD1
 70
     0
  9
$DIMSD2
 70
     0
  9
$DIMTOLJ
 70
     1
  9
$DIMTZIN
 70
     0
  9
$DIMALTZ
 70
     0
  9
$DIMALTTZ
 70
     0
  9
$DIMUPT
 70
     0
  9
$DIMDEC
 70
     4
  9
$DIMTDEC
 70
     4
  9
$DIMALTU
 70
     2
  9
$DIMALTTD
 70
     2
  9
$DIMTXSTY
  7
STANDARD
  9
$DIMAUNIT
 70
     0
  9
$DIMADEC
 70
     0
  9
$DIMALTRND
 40
0.0
  9
$DIMAZIN
 70
     0
  9
$DIMDSEP
 70
    46
  9
$DIMATFIT
 70
     3
  9
$DIMFRAC
 70
     0
  9
$DIMLDRBLK
  1

  9
$DIMLUNIT
 70
     2
  9
$DIMLWD
 70
    -2
  9
$DIMLWE
 70
    -2
  9
$DIMTMOVE
 70
     0
  9
$LUNITS
 70
     2
  9
$LUPREC
 70
     4
  9
$SKETCHINC
 40
0.1
  9
$FILLETRAD
 40
0.5
  9
$AUNITS
 70
     0
  9
$AUPREC
 70
     0
  9
$MENU
  1
.
  9
$ELEVATION
 40
0.0
  9
$PELEVATION
 40
0.0
  9
$THICKNESS
 40
0.0
  9
$LIMCHECK
 70
     0
  9
$CHAMFERA
 40
0.5
  9
$CHAMFERB
 40
0.5
  9
$CHAMFERC
 40
1.0
  9
$CHAMFERD
 40
0.0
  9
$SKPOLY
 70
     0
  9
$TDCREATE
 40
2451762.575130209
  9
$TDUCREATE
 40
2451762.491796875
  9
$TDUPDATE
 40
2455414.568367686
  9
$TDUUPDATE
 40
2455414.485034352
  9
$TDINDWG
 40
0.0014181829
  9
$TDUSRTIMER
 40
0.0014179977
  9
$USRTIMER
 70
     1
  9
$ANGBASE
 50
0.0
  9
$ANGDIR
 70
     0
  9
$PDMODE
 70
     0
  9
$PDSIZE
 40
0.0
  9
$PLINEWID
 40
0.0
  9
$SPLFRAME
 70
     0
  9
$SPLINETYPE
 70
     6
  9
$SPLINESEGS
 70
     8
  9
$HANDSEED
  5
169
  9
$SURFTAB1
 70
     6
  9
$SURFTAB2
 70
     6
  9
$SURFTYPE
 70
     6
  9
$SURFU
 70
     6
  9
$SURFV
 70
     6
  9
$UCSBASE
  2

  9
$UCSNAME
  2

  9
$UCSORG
 10
0.0
 20
0.0
 30
0.0
  9
$UCSXDIR
 10
1.0
 20
0.0
 30
0.0
  9
$UCSYDIR
 10
0.0
 20
1.0
 30
0.0
  9
$UCSORTHOREF
  2

  9
$UCSORTHOVIEW
 70
     0
  9
$UCSORGTOP
 10
0.0
 20
0.0
 30
0.0
  9
$UCSORGBOTTOM
 10
0.0
 20
0.0
 30
0.0
  9
$UCSORGLEFT
 10
0.0
 20
0.0
 30
0.0
  9
$UCSORGRIGHT
 10
0.0
 20
0.0
 30
0.0
  9
$UCSORGFRONT
 10
0.0
 20
0.0
 30
0.0
  9
$UCSORGBACK
 10
0.0
 20
0.0
 30
0.0
  9
$PUCSBASE
  2

  9
$PUCSNAME
  2

  9
$PUCSORG
 10
0.0
 20
0.0
 30
0.0
  9
$PUCSXDIR
 10
1.0
 20
0.0
 30
0.0
  9
$PUCSYDIR
 10
0.0
 20
1.0
 30
0.0
  9
$PUCSORTHOREF
  2

  9
$PUCSORTHOVIEW
 70
     0
  9
$PUCSORGTOP
 10
0.0
 20
0.0
 30
0.0
  9
$PUCSORGBOTTOM
 10
0.0
 20
0.0
 30
0.0
  9
$PUCSORGLEFT
 10
0.0
 20
0.0
 30
0.0
  9
$PUCSORGRIGHT
 10
0.0
 20
0.0
 30
0.0
  9
$PUCSORGFRONT
 10
0.0
 20
0.0
 30
0.0
  9
$PUCSORGBACK
 10
0.0
 20
0.0
 30
0.0
  9
$USERI1
 70
     0
  9
$USERI2
 70
     0
  9
$USERI3
 70
     0
  9
$USERI4
 70
     0
  9
$USERI5
 70
     0
  9
$USERR1
 40
0.0
  9
$USERR2
 40
0.0
  9
$USERR3
 40
0.0
  9
$USERR4
 40
0.0
  9
$USERR5
 40
0.0
  9
$WORLDVIEW
 70
     1
  9
$SHADEDGE
 70
     3
  9
$SHADEDIF
 70
    70
  9
$TILEMODE
 70
     1
  9
$MAXACTVP
 70
    64
  9
$PINSBASE
 10
0.0
 20
0.0
 30
0.0
  9
$PLIMCHECK
 70
     0
  9
$PEXTMIN
 10
1.000000000000000E+20
 20
1.000000000000000E+20
 30
1.000000000000000E+20
  9
$PEXTMAX
 10
-1.000000000000000E+20
 20
-1.000000000000000E+20
 30
-1.000000000000000E+20
  9
$PLIMMIN
 10
0.0
 20
0.0
  9
$PLIMMAX
 10
12.0
 20
9.0
  9
$UNITMODE
 70
     0
  9
$VISRETAIN
 70
     1
  9
$PLINEGEN
 70
     0
  9
$PSLTSCALE
 70
     1
  9
$TREEDEPTH
 70
  3020
  9
$CMLSTYLE
  2
STANDARD
  9
$CMLJUST
 70
     0
  9
$CMLSCALE
 40
1.0
  9
$PROXYGRAPHICS
 70
     1
  9
$MEASUREMENT
 70
     0
  9
$CELWEIGHT
370
    -1
  9
$ENDCAPS
280
     0
  9
$JOINSTYLE
280
     0
  9
$LWDISPLAY
290
     0
  9
$INSUNITS
 70
     0
  9
$HYPERLINKBASE
  1

  9
$STYLESHEET
  1

  9
$XEDIT
290
     1
  9
$CEPSNTYPE
380
     0
  9
$PSTYLEMODE
290
     1
  9
$FINGERPRINTGUID
  2
{6AC962C4-E6B5-402A-8B81-D49E0B453A87}
  9
$VERSIONGUID
  2
{D551B721-F9AF-41CF-973F-766EC20AB797}
  9
$EXTNAMES
290
     1
  9
$PSVPSCALE
 40
0.0
  9
$OLESTARTUP
290
     0
  0
ENDSEC
  0
SECTION
  2
CLASSES
  0
CLASS
  1
ACDBDICTIONARYWDFLT
  2
AcDbDictionaryWithDefault
  3
ObjectDBX Classes
 90
        0
280
     0
281
     0
  0
CLASS
  1
ACDBPLACEHOLDER
  2
AcDbPlaceHolder
  3
ObjectDBX Classes
 90
        0
280
     0
281
     0
  0
CLASS
  1
LAYOUT
  2
AcDbLayout
  3
ObjectDBX Classes
 90
        0
280
     0
281
     0
  0
CLASS
  1
MATERIAL
  2
AcDbMaterial
  3
ObjectDBX Classes
 90
     1024
280
     0
281
     0
  0
CLASS
  1
VISUALSTYLE
  2
AcDbVisualStyle
  3
ObjectDBX Classes
 90
     4095
280
     0
281
     0
  0
CLASS
  1
TABLESTYLE
  2
AcDbTableStyle
  3
ObjectDBX Classes
 90
     4095
280
     0
281
     0
  0
CLASS
  1
DICTIONARYVAR
  2
AcDbDictionaryVar
  3
ObjectDBX Classes
 90
        0
280
     0
281
     0
  0
ENDSEC
  0
SECTION
  2
TABLES
  0
TABLE
  2
VPORT
  5
8
330
0
100
AcDbSymbolTable
 70
     1
  0
VPORT
  5
EA
330
8
100
AcDbSymbolTableRecord
100
AcDbViewportTableRecord
  2
*ACTIVE
 70
     0
 10
0.0
 20
0.0
 11
1.0
 21
1.0
 12
172.7158408717917
 22
279.5598448626825
 13
0.0
 23
0.0
 14
0.5
 24
0.5
 15
0.5
 25
0.5
 16
0.0
 26
0.0
 36
1.0
 17
0.0
 27
0.0
 37
0.0
 40
564.1795964197121
 41
1.808157099697885
 42
50.0
 43
0.0
 44
0.0
 50
0.0
 51
0.0
 71
     0
 72
   100
 73
     1
 74
     3
 75
     0
 76
     0
 77
     0
 78
     0
281
     0
 65
     1
110
0.0
120
0.0
130
0.0
111
1.0
121
0.0
131
0.0
112
0.0
122
1.0
132
0.0
 79
     0
146
0.0
  0
ENDTAB
  0
TABLE
  2
LTYPE
  5
5
330
0
100
AcDbSymbolTable
 70
     1
  0
LTYPE
  5
14
330
5
100
AcDbSymbolTableRecord
100
AcDbLinetypeTableRecord
  2
BYBLOCK
 70
     0
  3

 72
    65
 73
     0
 40
0.0
  0
LTYPE
  5
15
330
5
100
AcDbSymbolTableRecord
100
AcDbLinetypeTableRecord
  2
BYLAYER
 70
     0
  3

 72
    65
 73
     0
 40
0.0
  0
LTYPE
  5
16
330
5
100
AcDbSymbolTableRecord
100
AcDbLinetypeTableRecord
  2
CONTINUOUS
 70
     0
  3
Solid line
 72
    65
 73
     0
 40
0.0
  0
ENDTAB
  0
TABLE
  2
LAYER
  5
2
330
0
100
AcDbSymbolTable
 70
     3
  0
LAYER
  5
10
330
2
100
AcDbSymbolTableRecord
100
AcDbLayerTableRecord
  2
0
 70
     0
 62
     7
  6
CONTINUOUS
370
    -3
390
AA
  0
LAYER
  5
5D
330
2
100
AcDbSymbolTableRecord
100
AcDbLayerTableRecord
  2
PV-87
 70
     2
 62
     7
  6
CONTINUOUS
370
    -3
390
AA
  0
LAYER
  5
12D
330
2
100
AcDbSymbolTableRecord
100
AcDbLayerTableRecord
  2
Defpoints
 70
     0
 62
     7
  6
CONTINUOUS
290
     0
370
    -3
390
AA
  0
ENDTAB
  0
TABLE
  2
STYLE
  5
3
330
0
100
AcDbSymbolTable
 70
     1
  0
STYLE
  5
11
330
3
100
AcDbSymbolTableRecord
100
AcDbTextStyleTableRecord
  2
STANDARD
 70
     0
 40
0.0
 41
1.0
 50
0.0
 71
     0
 42
0.2
  3
txt
  4

  0
ENDTAB
  0
TABLE
  2
VIEW
  5
6
330
0
100
AcDbSymbolTable
 70
     0
  0
ENDTAB
  0
TABLE
  2
UCS
  5
7
330
0
100
AcDbSymbolTable
 70
     0
  0
ENDTAB
  0
TABLE
  2
APPID
  5
9
330
0
100
AcDbSymbolTable
 70
     1
  0
APPID
  5
12
330
9
100
AcDbSymbolTableRecord
100
AcDbRegAppTableRecord
  2
ACAD
 70
     0
  0
ENDTAB
  0
TABLE
  2
DIMSTYLE
  5
A
330
0
100
AcDbSymbolTable
 70
     1
100
AcDbDimStyleTable
 71
     1
340
27
  0
DIMSTYLE
105
27
330
A
100
AcDbSymbolTableRecord
100
AcDbDimStyleTableRecord
  2
STANDARD
 70
     0
340
11
  0
ENDTAB
  0
TABLE
  2
BLOCK_RECORD
  5
1
330
0
100
AcDbSymbolTable
 70
    11
  0
BLOCK_RECORD
  5
1F
102
{ACAD_XDICTIONARY
360
A3
102
}
330
1
100
AcDbSymbolTableRecord
100
AcDbBlockTableRecord
  2
*MODEL_SPACE
340
128
  0
BLOCK_RECORD
  5
1B
102
{ACAD_XDICTIONARY
360
A1
102
}
330
1
100
AcDbSymbolTableRecord
100
AcDbBlockTableRecord
  2
*PAPER_SPACE
340
129
  0
BLOCK_RECORD
  5
48
330
1
100
AcDbSymbolTableRecord
100
AcDbBlockTableRecord
  2
*U0
340
0
102
{BLKREFS
331
5F
102
}
  0
BLOCK_RECORD
  5
5E
330
1
100
AcDbSymbolTableRecord
100
AcDbBlockTableRecord
  2
FRONT
340
0
  0
BLOCK_RECORD
  5
63
330
1
100
AcDbSymbolTableRecord
100
AcDbBlockTableRecord
  2
*U2
340
0
102
{BLKREFS
331
71
102
}
  0
BLOCK_RECORD
  5
70
330
1
100
AcDbSymbolTableRecord
100
AcDbBlockTableRecord
  2
LEFT
340
0
  0
BLOCK_RECORD
  5
75
330
1
100
AcDbSymbolTableRecord
100
AcDbBlockTableRecord
  2
*U4
340
0
102
{BLKREFS
331
84
102
}
  0
BLOCK_RECORD
  5
83
330
1
100
AcDbSymbolTableRecord
100
AcDbBlockTableRecord
  2
RIGHT
340
0
  0
BLOCK_RECORD
  5
88
330
1
100
AcDbSymbolTableRecord
100
AcDbBlockTableRecord
  2
*U6
340
0
102
{BLKREFS
331
9C
102
}
  0
BLOCK_RECORD
  5
9B
330
1
100
AcDbSymbolTableRecord
100
AcDbBlockTableRecord
  2
TOP
340
0
  0
BLOCK_RECORD
  5
12E
330
1
100
AcDbSymbolTableRecord
100
AcDbBlockTableRecord
  2
*D8
340
0
  0
BLOCK_RECORD
  5
13C
330
1
100
AcDbSymbolTableRecord
100
AcDbBlockTableRecord
  2
*D9
340
0
  0
BLOCK_RECORD
  5
14A
330
1
100
AcDbSymbolTableRecord
100
AcDbBlockTableRecord
  2
*D10
340
0
  0
ENDTAB
  0
ENDSEC
  0
SECTION
  2
BLOCKS
  0
BLOCK
  5
20
330
1F
100
AcDbEntity
  8
0
100
AcDbBlockBegin
  2
*MODEL_SPACE
 70
     0
 10
0.0
 20
0.0
 30
0.0
  3
*MODEL_SPACE
  1

  0
ENDBLK
  5
21
330
1F
100
AcDbEntity
  8
0
100
AcDbBlockEnd
  0
BLOCK
  5
1C
330
1B
100
AcDbEntity
 67
     1
  8
0
100
AcDbBlockBegin
  2
*PAPER_SPACE
 70
     0
 10
0.0
 20
0.0
 30
0.0
  3
*PAPER_SPACE
  1

  0
ENDBLK
  5
1D
330
1B
100
AcDbEntity
 67
     1
  8
0
100
AcDbBlockEnd
  0
BLOCK
  5
5B
330
48
100
AcDbEntity
  8
0
100
AcDbBlockBegin
  2
*U0
 70
     1
 10
0.0
 20
0.0
 30
0.0
  3
*U0
  1
*ANON
  0
LINE
  5
49
330
48
100
AcDbEntity
  8
PV-87
100
AcDbLine
 10
-16.5
 20
0.0
 30
0.0
 11
16.5
 21
0.0
 31
0.0
  0
ARC
  5
4A
330
48
100
AcDbEntity
  8
PV-87
100
AcDbCircle
 10
0.0
 20
68.5
 30
0.0
 40
16.5
210
0.0
220
-1.0
230
0.0
100
AcDbArc
 50
0.0
 51
180.0000000000011
  0
ARC
  5
4B
330
48
100
AcDbEntity
  8
PV-87
100
AcDbCircle
 10
300.0
 20
68.5
 30
0.0
 40
16.5
210
0.0
220
-1.0
230
0.0
100
AcDbArc
 50
359.9999999999996
 51
180.0
  0
LINE
  5
4C
330
48
100
AcDbEntity
  8
PV-87
100
AcDbLine
 10
283.4999999999999
 20
0.0
 30
0.0
 11
316.5
 21
0.0
 31
0.0
  0
LINE
  5
4D
330
48
100
AcDbEntity
  8
PV-87
100
AcDbLine
 10
316.5
 20
0.0
 30
0.0
 11
316.5
 21
0.0
 31
27.0
  0
LINE
  5
4E
330
48
100
AcDbEntity
  8
PV-87
100
AcDbLine
 10
283.4999999999999
 20
0.0
 30
0.0
 11
283.4999999999999
 21
0.0
 31
27.0
  0
LINE
  5
4F
330
48
100
AcDbEntity
  8
PV-87
100
AcDbLine
 10
41.49999999999996
 20
0.0
 30
52.0
 11
258.4999999999999
 21
0.0
 31
52.0
  0
LINE
  5
50
330
48
100
AcDbEntity
  8
PV-87
100
AcDbLine
 10
41.49999999999996
 20
0.0
 30
85.0
 11
258.4999999999999
 21
0.0
 31
85.0
  0
LINE
  5
51
330
48
100
AcDbEntity
  8
PV-87
100
AcDbLine
 10
16.5
 20
0.0
 30
0.0
 11
16.5
 21
0.0
 31
27.0
  0
LINE
  5
52
330
48
100
AcDbEntity
  8
PV-87
100
AcDbLine
 10
-16.5
 20
0.0
 30
0.0
 11
-16.5
 21
0.0
 31
27.0
  0
LINE
  5
53
330
48
100
AcDbEntity
  8
PV-87
100
AcDbLine
 10
283.4999999999999
 20
0.0
 30
68.5
 11
283.4999999999999
 21
0.0
 31
26.99999999999985
  0
LINE
  5
54
330
48
100
AcDbEntity
  8
PV-87
100
AcDbLine
 10
316.5
 20
0.0
 30
26.99999999999985
 11
316.5
 21
0.0
 31
68.5
  0
LINE
  5
55
330
48
100
AcDbEntity
  8
PV-87
100
AcDbLine
 10
258.5
 20
0.0
 30
52.0
 11
283.4999999999999
 21
0.0
 31
52.0
  0
LINE
  5
56
330
48
100
AcDbEntity
  8
PV-87
100
AcDbLine
 10
300.0
 20
0.0
 30
85.0
 11
258.5
 21
0.0
 31
85.0
  0
LINE
  5
57
330
48
100
AcDbEntity
  8
PV-87
100
AcDbLine
 10
16.49999999999999
 20
0.0
 30
52.0
 11
41.49999999999996
 21
0.0
 31
52.0
  0
LINE
  5
58
330
48
100
AcDbEntity
  8
PV-87
100
AcDbLine
 10
41.49999999999996
 20
0.0
 30
85.0
 11
0.0
 21
0.0
 31
85.0
  0
LINE
  5
59
330
48
100
AcDbEntity
  8
PV-87
100
AcDbLine
 10
-16.5
 20
0.0
 30
68.5
 11
-16.5
 21
0.0
 31
26.99999999999985
  0
LINE
  5
5A
330
48
100
AcDbEntity
  8
PV-87
100
AcDbLine
 10
16.5
 20
0.0
 30
26.99999999999985
 11
16.5
 21
0.0
 31
68.5
  0
ENDBLK
  5
5C
330
48
100
AcDbEntity
  8
0
100
AcDbBlockEnd
  0
BLOCK
  5
60
330
5E
100
AcDbEntity
  8
0
100
AcDbBlockBegin
  2
FRONT
 70
     0
 10
0.0
 20
0.0
 30
0.0
  3
FRONT
  1

  0
INSERT
  5
5F
330
5E
100
AcDbEntity
  8
PV-87
100
AcDbBlockReference
  2
*U0
 10
0.0
 20
0.0
 30
0.0
 50
180.0
210
0.0
220
1.0
230
0.0
  0
ENDBLK
  5
61
330
5E
100
AcDbEntity
  8
0
100
AcDbBlockEnd
  0
BLOCK
  5
6E
330
63
100
AcDbEntity
  8
0
100
AcDbBlockBegin
  2
*U2
 70
     1
 10
0.0
 20
0.0
 30
0.0
  3
*U2
  1
*ANON
  0
LINE
  5
64
330
63
100
AcDbEntity
  8
PV-87
100
AcDbLine
 10
0.0
 20
16.5
 30
0.0
 11
0.0
 21
-16.5
 31
0.0
  0
ARC
  5
65
330
63
100
AcDbEntity
  8
PV-87
100
AcDbCircle
 10
-112.0
 20
68.5
 30
0.0
 40
16.5
210
-1.0
220
0.0
230
0.0
100
AcDbArc
 50
90.00000000000019
 51
270.0000000000008
  0
LINE
  5
66
330
63
100
AcDbEntity
  8
PV-87
100
AcDbLine
 10
0.0
 20
41.5
 30
85.0
 11
0.0
 21
70.5
 31
85.0
  0
LINE
  5
67
330
63
100
AcDbEntity
  8
PV-87
100
AcDbLine
 10
0.0
 20
41.5
 30
52.0
 11
0.0
 21
70.5
 31
52.0
  0
LINE
  5
68
330
63
100
AcDbEntity
  8
PV-87
100
AcDbLine
 10
0.0
 20
-16.5
 30
0.0
 11
0.0
 21
-16.5
 31
27.0
  0
LINE
  5
69
330
63
100
AcDbEntity
  8
PV-87
100
AcDbLine
 10
0.0
 20
16.5
 30
0.0
 11
0.0
 21
16.5
 31
27.0
  0
LINE
  5
6A
330
63
100
AcDbEntity
  8
PV-87
100
AcDbLine
 10
0.0
 20
112.0
 30
52.0
 11
0.0
 21
70.5
 31
52.0
  0
LINE
  5
6B
330
63
100
AcDbEntity
  8
PV-87
100
AcDbLine
 10
0.0
 20
70.5
 30
85.0
 11
0.0
 21
112.0
 31
85.0
  0
ARC
  5
6C
330
63
100
AcDbEntity
  8
PV-87
100
AcDbCircle
 10
-41.5
 20
27.0
 30
0.0
 40
58.0
210
-1.0
220
0.0
230
0.0
100
AcDbArc
 50
359.9999999999997
 51
90.0
  0
ARC
  5
6D
330
63
100
AcDbEntity
  8
PV-87
100
AcDbCircle
 10
-41.5
 20
27.0
 30
0.0
 40
25.0
210
-1.0
220
0.0
230
0.0
100
AcDbArc
 50
359.9999999999997
 51
90.0
  0
ENDBLK
  5
6F
330
63
100
AcDbEntity
  8
0
100
AcDbBlockEnd
  0
BLOCK
  5
72
330
70
100
AcDbEntity
  8
0
100
AcDbBlockBegin
  2
LEFT
 70
     0
 10
0.0
 20
0.0
 30
0.0
  3
LEFT
  1

  0
INSERT
  5
71
330
70
100
AcDbEntity
  8
PV-87
100
AcDbBlockReference
  2
*U2
 10
0.0
 20
0.0
 30
0.0
 50
270.0
210
0.0
220
1.0
230
0.0
  0
ENDBLK
  5
73
330
70
100
AcDbEntity
  8
0
100
AcDbBlockEnd
  0
BLOCK
  5
81
330
75
100
AcDbEntity
  8
0
100
AcDbBlockBegin
  2
*U4
 70
     1
 10
0.0
 20
0.0
 30
0.0
  3
*U4
  1
*ANON
  0
ARC
  5
76
330
75
100
AcDbEntity
  8
PV-87
100
AcDbCircle
 10
112.0
 20
68.5
 30
0.0
 40
16.5
210
1.0
220
0.0
230
0.0
100
AcDbArc
 50
269.9999999999993
 51
89.99999999999978
  0
LINE
  5
77
330
75
100
AcDbEntity
  8
PV-87
100
AcDbLine
 10
0.0
 20
0.0
 30
0.0
 11
0.0
 21
16.5
 31
0.0
  0
LINE
  5
78
330
75
100
AcDbEntity
  8
PV-87
100
AcDbLine
 10
0.0
 20
-16.5
 30
0.0
 11
0.0
 21
0.0000000000002304
 31
0.0
  0
LINE
  5
79
330
75
100
AcDbEntity
  8
PV-87
100
AcDbLine
 10
0.0
 20
16.5
 30
0.0
 11
0.0
 21
16.5
 31
27.0
  0
LINE
  5
7A
330
75
100
AcDbEntity
  8
PV-87
100
AcDbLine
 10
0.0
 20
-16.5
 30
0.0
 11
0.0
 21
-16.5
 31
27.0
  0
LINE
  5
7B
330
75
100
AcDbEntity
  8
PV-87
100
AcDbLine
 10
0.0
 20
70.5
 30
85.0
 11
0.0
 21
41.50000000000003
 31
85.0
  0
LINE
  5
7C
330
75
100
AcDbEntity
  8
PV-87
100
AcDbLine
 10
0.0
 20
70.5
 30
52.0
 11
0.0
 21
41.50000000000003
 31
52.0
  0
ARC
  5
7D
330
75
100
AcDbEntity
  8
PV-87
100
AcDbCircle
 10
41.5
 20
27.0
 30
0.0
 40
25.0
210
1.0
220
0.0
230
0.0
100
AcDbArc
 50
89.99999999999992
 51
180.0000000000002
  0
ARC
  5
7E
330
75
100
AcDbEntity
  8
PV-87
100
AcDbCircle
 10
41.5
 20
27.0
 30
0.0
 40
58.0
210
1.0
220
0.0
230
0.0
100
AcDbArc
 50
89.99999999999998
 51
180.0000000000002
  0
LINE
  5
7F
330
75
100
AcDbEntity
  8
PV-87
100
AcDbLine
 10
0.0
 20
70.5
 30
52.0
 11
0.0
 21
112.0
 31
52.0
  0
LINE
  5
80
330
75
100
AcDbEntity
  8
PV-87
100
AcDbLine
 10
0.0
 20
112.0
 30
85.0
 11
0.0
 21
70.5
 31
85.0
  0
ENDBLK
  5
82
330
75
100
AcDbEntity
  8
0
100
AcDbBlockEnd
  0
BLOCK
  5
85
330
83
100
AcDbEntity
  8
0
100
AcDbBlockBegin
  2
RIGHT
 70
     0
 10
0.0
 20
0.0
 30
0.0
  3
RIGHT
  1

  0
INSERT
  5
84
330
83
100
AcDbEntity
  8
PV-87
100
AcDbBlockReference
  2
*U4
 10
0.0
 20
0.0
 30
0.0
 50
90.0
210
0.0
220
1.0
230
0.0
  0
ENDBLK
  5
86
330
83
100
AcDbEntity
  8
0
100
AcDbBlockEnd
  0
BLOCK
  5
99
330
88
100
AcDbEntity
  8
0
100
AcDbBlockBegin
  2
*U6
 70
     1
 10
0.0
 20
0.0
 30
0.0
  3
*U6
  1
*ANON
  0
ARC
  5
89
330
88
100
AcDbEntity
  8
PV-87
100
AcDbCircle
 10
0.0
 20
0.0
 30
0.0
 40
16.5
100
AcDbArc
 50
179.9999999999978
 51
0.0
  0
ARC
  5
8A
330
88
100
AcDbEntity
  8
PV-87
100
AcDbCircle
 10
300.0
 20
0.0
 30
0.0
 40
16.5
100
AcDbArc
 50
179.999999999998
 51
360.0
  0
LINE
  5
8B
330
88
100
AcDbEntity
  8
PV-87
100
AcDbLine
 10
283.4999999999999
 20
70.50000000000003
 30
0.0
 11
283.4999999999999
 21
41.50000000000006
 31
0.0
  0
LINE
  5
8C
330
88
100
AcDbEntity
  8
PV-87
100
AcDbLine
 10
316.5
 20
70.49999999999997
 30
0.0
 11
316.5
 21
41.49999999999999
 31
0.0
  0
LINE
  5
8D
330
88
100
AcDbEntity
  8
PV-87
100
AcDbLine
 10
41.49999999999995
 20
95.50000000000002
 30
0.0
 11
258.4999999999999
 21
95.50000000000002
 31
0.0
  0
LINE
  5
8E
330
88
100
AcDbEntity
  8
PV-87
100
AcDbLine
 10
41.5
 20
128.4999999999999
 30
0.0
 11
258.4999999999999
 21
128.4999999999999
 31
0.0
  0
LINE
  5
8F
330
88
100
AcDbEntity
  8
PV-87
100
AcDbLine
 10
16.5
 20
41.5
 30
0.0
 11
16.5
 21
70.5
 31
0.0
  0
LINE
  5
90
330
88
100
AcDbEntity
  8
PV-87
100
AcDbLine
 10
-16.5
 20
41.5
 30
0.0
 11
-16.5
 21
70.5
 31
0.0
  0
LINE
  5
91
330
88
100
AcDbEntity
  8
PV-87
100
AcDbLine
 10
283.4999999999999
 20
41.50000000000001
 30
0.0
 11
283.4999999999999
 21
0.0
 31
0.0
  0
LINE
  5
92
330
88
100
AcDbEntity
  8
PV-87
100
AcDbLine
 10
316.5
 20
0.0
 30
0.0
 11
316.5
 21
41.49999999999987
 31
0.0
  0
ARC
  5
93
330
88
100
AcDbEntity
  8
PV-87
100
AcDbCircle
 10
258.4999999999999
 20
70.50000000000001
 30
0.0
 40
25.0
100
AcDbArc
 50
359.9999999999975
 51
89.99999999999976
  0
ARC
  5
94
330
88
100
AcDbEntity
  8
PV-87
100
AcDbCircle
 10
258.4999999999999
 20
70.50000000000001
 30
0.0
 40
58.0
100
AcDbArc
 50
359.9999999999975
 51
89.99999999999978
  0
ARC
  5
95
330
88
100
AcDbEntity
  8
PV-87
100
AcDbCircle
 10
41.49999999999996
 20
70.50000000000004
 30
0.0
 40
24.99999999999996
100
AcDbArc
 50
89.99999999999996
 51
180.0
  0
ARC
  5
96
330
88
100
AcDbEntity
  8
PV-87
100
AcDbCircle
 10
41.49999999999996
 20
70.50000000000004
 30
0.0
 40
57.99999999999997
100
AcDbArc
 50
90.0
 51
180.0
  0
LINE
  5
97
330
88
100
AcDbEntity
  8
PV-87
100
AcDbLine
 10
-16.5
 20
41.49999999999987
 30
0.0
 11
-16.5
 21
0.0
 31
0.0
  0
LINE
  5
98
330
88
100
AcDbEntity
  8
PV-87
100
AcDbLine
 10
16.5
 20
0.0
 30
0.0
 11
16.5
 21
41.49999999999987
 31
0.0
  0
ENDBLK
  5
9A
330
88
100
AcDbEntity
  8
0
100
AcDbBlockEnd
  0
BLOCK
  5
9D
330
9B
100
AcDbEntity
  8
0
100
AcDbBlockBegin
  2
TOP
 70
     0
 10
0.0
 20
0.0
 30
0.0
  3
TOP
  1

  0
INSERT
  5
9C
330
9B
100
AcDbEntity
  8
PV-87
100
AcDbBlockReference
  2
*U6
 10
0.0
 20
0.0
 30
0.0
  0
ENDBLK
  5
9E
330
9B
100
AcDbEntity
  8
0
100
AcDbBlockEnd
  0
BLOCK
  5
139
330
12E
100
AcDbEntity
  8
0
100
AcDbBlockBegin
  2
*D8
 70
     1
 10
0.0
 20
0.0
 30
0.0
  3
*D8
  1

  0
LINE
  5
12F
330
12E
100
AcDbEntity
  8
0
 62
     0
370
    -2
100
AcDbLine
 10
-173.7474897011535
 20
73.06518355406506
 30
0.0
 11
-257.060959673725
 21
73.06518355406507
 31
0.0
  0
LINE
  5
130
330
12E
100
AcDbEntity
  8
0
 62
     0
370
    -2
100
AcDbLine
 10
-173.7474897011535
 20
-226.9348164459349
 30
0.0
 11
-257.0609596737251
 21
-226.9348164459349
 31
0.0
  0
LINE
  5
131
330
12E
100
AcDbEntity
  8
0
 62
     0
370
    -2
100
AcDbLine
 10
-256.8809596737251
 20
72.88518355406506
 30
0.0
 11
-256.8809596737251
 21
-76.75481644593491
 31
0.0
  0
LINE
  5
132
330
12E
100
AcDbEntity
  8
0
 62
     0
370
    -2
100
AcDbLine
 10
-256.8809596737251
 20
-226.7548164459349
 30
0.0
 11
-256.8809596737251
 21
-77.11481644593492
 31
0.0
  0
SOLID
  5
133
330
12E
100
AcDbEntity
  8
0
 62
     0
100
AcDbTrace
 10
-256.910959673725
 20
72.88518355406506
 30
0.0
 11
-256.8509596737251
 21
72.88518355406506
 31
0.0
 12
-256.8809596737251
 22
73.06518355406507
 32
0.0
 13
-256.8809596737251
 23
73.06518355406507
 33
0.0
  0
SOLID
  5
134
330
12E
100
AcDbEntity
  8
0
 62
     0
100
AcDbTrace
 10
-256.9109596737251
 20
-226.7548164459349
 30
0.0
 11
-256.8509596737251
 21
-226.7548164459349
 31
0.0
 12
-256.8809596737251
 22
-226.9348164459349
 32
0.0
 13
-256.8809596737251
 23
-226.9348164459349
 33
0.0
  0
MTEXT
  5
135
330
12E
100
AcDbEntity
  8
0
 62
     0
100
AcDbMText
 10
-256.8809596737251
 20
-76.93481644593496
 30
0.0
 40
0.18
 41
0.0
 71
     5
 72
     1
  1
\A1;300.0000
 73
     1
 44
1.0
1001
ACAD
1000
MTEXTBEGIN
1070
    73
1070
     1
1070
    44
1040
1.0
1070
    74
1070
     0
1000
MTEXTEND
  0
POINT
  5
136
330
12E
100
AcDbEntity
  8
Defpoints
 62
     0
100
AcDbPoint
 10
-173.6849897011535
 20
73.06518355406506
 30
0.0
  0
POINT
  5
137
330
12E
100
AcDbEntity
  8
Defpoints
 62
     0
100
AcDbPoint
 10
-173.6849897011535
 20
-226.9348164459349
 30
0.0
  0
POINT
  5
138
330
12E
100
AcDbEntity
  8
Defpoints
 62
     0
100
AcDbPoint
 10
-256.8809596737251
 20
-226.9348164459349
 30
0.0
  0
ENDBLK
  5
13A
330
12E
100
AcDbEntity
  8
0
100
AcDbBlockEnd
  0
BLOCK
  5
147
330
13C
100
AcDbEntity
  8
0
100
AcDbBlockBegin
  2
*D9
 70
     1
 10
0.0
 20
0.0
 30
0.0
  3
*D9
  1

  0
LINE
  5
13D
330
13C
100
AcDbEntity
  8
0
 62
     0
370
    -2
100
AcDbLine
 10
-190.1849897011535
 20
-226.9973164459347
 30
0.0
 11
-190.1849897011535
 21
-320.8071846977753
 31
0.0
  0
LINE
  5
13E
330
13C
100
AcDbEntity
  8
0
 62
     0
370
    -2
100
AcDbLine
 10
-45.18498970115359
 20
-153.3466073968361
 30
0.0
 11
-45.1849897011536
 21
-320.8071846977753
 31
0.0
  0
LINE
  5
13F
330
13C
100
AcDbEntity
  8
0
 62
     0
370
    -2
100
AcDbLine
 10
-190.0049897011535
 20
-320.6271846977753
 30
0.0
 11
-118.3149897011535
 21
-320.6271846977753
 31
0.0
  0
LINE
  5
140
330
13C
100
AcDbEntity
  8
0
 62
     0
370
    -2
100
AcDbLine
 10
-45.3649897011536
 20
-320.6271846977753
 30
0.0
 11
-117.0549897011536
 21
-320.6271846977753
 31
0.0
  0
SOLID
  5
141
330
13C
100
AcDbEntity
  8
0
 62
     0
100
AcDbTrace
 10
-190.0049897011535
 20
-320.5971846977754
 30
0.0
 11
-190.0049897011535
 21
-320.6571846977753
 31
0.0
 12
-190.1849897011535
 22
-320.6271846977753
 32
0.0
 13
-190.1849897011535
 23
-320.6271846977753
 33
0.0
  0
SOLID
  5
142
330
13C
100
AcDbEntity
  8
0
 62
     0
100
AcDbTrace
 10
-45.3649897011536
 20
-320.5971846977754
 30
0.0
 11
-45.3649897011536
 21
-320.6571846977753
 31
0.0
 12
-45.1849897011536
 22
-320.6271846977753
 32
0.0
 13
-45.1849897011536
 23
-320.6271846977753
 33
0.0
  0
MTEXT
  5
143
330
13C
100
AcDbEntity
  8
0
 62
     0
100
AcDbMText
 10
-117.6849897011535
 20
-320.6271846977753
 30
0.0
 40
0.18
 41
0.0
 71
     5
 72
     1
  1
\A1;145.0000
 73
     1
 44
1.0
1001
ACAD
1000
MTEXTBEGIN
1070
    73
1070
     1
1070
    44
1040
1.0
1070
    74
1070
     0
1000
MTEXTEND
  0
POINT
  5
144
330
13C
100
AcDbEntity
  8
Defpoints
 62
     0
100
AcDbPoint
 10
-190.1849897011535
 20
-226.9348164459347
 30
0.0
  0
POINT
  5
145
330
13C
100
AcDbEntity
  8
Defpoints
 62
     0
100
AcDbPoint
 10
-45.18498970115359
 20
-153.2841073968361
 30
0.0
  0
POINT
  5
146
330
13C
100
AcDbEntity
  8
Defpoints
 62
     0
100
AcDbPoint
 10
-45.1849897011536
 20
-320.6271846977753
 30
0.0
  0
ENDBLK
  5
148
330
13C
100
AcDbEntity
  8
0
100
AcDbBlockEnd
  0
BLOCK
  5
155
330
14A
100
AcDbEntity
  8
0
100
AcDbBlockBegin
  2
*D10
 70
     1
 10
0.0
 20
0.0
 30
0.0
  3
*D10
  1

  0
LINE
  5
14B
330
14A
100
AcDbEntity
  8
0
 62
     0
370
    -2
100
AcDbLine
 10
-78.18498970115348
 20
-76.99731644593493
 30
0.0
 11
-78.18498970115348
 21
-142.0912764714764
 31
0.0
  0
LINE
  5
14C
330
14A
100
AcDbEntity
  8
0
 62
     0
370
    -2
100
AcDbLine
 10
-45.18498970115357
 20
-76.99731644593493
 30
0.0
 11
-45.18498970115358
 21
-142.0912764714764
 31
0.0
  0
LINE
  5
14D
330
14A
100
AcDbEntity
  8
0
 62
     0
370
    -2
100
AcDbLine
 10
-78.00498970115348
 20
-141.9112764714764
 30
0.0
 11
-62.25498970115353
 21
-141.9112764714764
 31
0.0
  0
LINE
  5
14E
330
14A
100
AcDbEntity
  8
0
 62
     0
370
    -2
100
AcDbLine
 10
-45.36498970115358
 20
-141.9112764714764
 30
0.0
 11
-61.11498970115352
 21
-141.9112764714764
 31
0.0
  0
SOLID
  5
14F
330
14A
100
AcDbEntity
  8
0
 62
     0
100
AcDbTrace
 10
-78.00498970115348
 20
-141.8812764714764
 30
0.0
 11
-78.00498970115348
 21
-141.9412764714764
 31
0.0
 12
-78.18498970115348
 22
-141.9112764714764
 32
0.0
 13
-78.18498970115348
 23
-141.9112764714764
 33
0.0
  0
SOLID
  5
150
330
14A
100
AcDbEntity
  8
0
 62
     0
100
AcDbTrace
 10
-45.36498970115358
 20
-141.8812764714764
 30
0.0
 11
-45.36498970115358
 21
-141.9412764714764
 31
0.0
 12
-45.18498970115358
 22
-141.9112764714764
 32
0.0
 13
-45.18498970115358
 23
-141.9112764714764
 33
0.0
  0
MTEXT
  5
151
330
14A
100
AcDbEntity
  8
0
 62
     0
100
AcDbMText
 10
-61.68498970115352
 20
-141.9112764714764
 30
0.0
 40
0.18
 41
0.0
 71
     5
 72
     1
  1
\A1;33.0000
 73
     1
 44
1.0
1001
ACAD
1000
MTEXTBEGIN
1070
    73
1070
     1
1070
    44
1040
1.0
1070
    74
1070
     0
1000
MTEXTEND
  0
POINT
  5
152
330
14A
100
AcDbEntity
  8
Defpoints
 62
     0
100
AcDbPoint
 10
-78.18498970115348
 20
-76.93481644593493
 30
0.0
  0
POINT
  5
153
330
14A
100
AcDbEntity
  8
Defpoints
 62
     0
100
AcDbPoint
 10
-45.18498970115357
 20
-76.93481644593493
 30
0.0
  0
POINT
  5
154
330
14A
100
AcDbEntity
  8
Defpoints
 62
     0
100
AcDbPoint
 10
-45.18498970115358
 20
-141.9112764714764
 30
0.0
  0
ENDBLK
  5
156
330
14A
100
AcDbEntity
  8
0
100
AcDbBlockEnd
  0
ENDSEC
  0
SECTION
  2
ENTITIES
  0
LINE
  5
BC
330
1F
100
AcDbEntity
  8
PV-87
100
AcDbLine
 10
260.4055637713504
 20
559.1006149658619
 30
-0.000000000000002
 11
260.4055637713504
 21
526.1006149658618
 31
0.000000000000002
210
1.0
220
-0.0000000000000002
230
0.0
  0
ARC
  5
BD
330
1F
100
AcDbEntity
  8
PV-87
100
AcDbCircle
 10
328.9055637713504
 20
542.6006149658619
 30
0.0
 40
16.5
100
AcDbArc
 50
270.0
 51
90.00000000000161
  0
ARC
  5
BE
330
1F
100
AcDbEntity
  8
PV-87
100
AcDbCircle
 10
328.9055637713503
 20
242.6006149658619
 30
0.0000000000000367
 40
16.5
100
AcDbArc
 50
270.0
 51
90.0
  0
LINE
  5
BF
330
1F
100
AcDbEntity
  8
PV-87
100
AcDbLine
 10
260.4055637713504
 20
259.1006149658621
 30
0.0000000000000347
 11
260.4055637713504
 21
226.1006149658619
 31
0.0000000000000388
210
1.0
220
-0.0000000000000002
230
0.0
  0
LINE
  5
C0
330
1F
100
AcDbEntity
  8
PV-87
100
AcDbLine
 10
260.4055637713504
 20
226.1006149658619
 30
0.0000000000000388
 11
287.4055637713504
 21
226.1006149658619
 31
0.0000000000000388
210
1.0
220
-0.0000000000000002
230
0.0
  0
LINE
  5
C1
330
1F
100
AcDbEntity
  8
PV-87
100
AcDbLine
 10
260.4055637713504
 20
259.1006149658621
 30
0.0000000000000347
 11
287.4055637713504
 21
259.1006149658621
 31
0.0000000000000347
210
1.0
220
-0.0000000000000002
230
0.0
  0
LINE
  5
C2
330
1F
100
AcDbEntity
  8
PV-87
100
AcDbLine
 10
312.4055637713504
 20
501.1006149658619
 30
0.0000000000000051
 11
312.4055637713504
 21
284.1006149658621
 31
0.0000000000000317
210
1.0
220
-0.0000000000000002
230
0.0
  0
LINE
  5
C3
330
1F
100
AcDbEntity
  8
PV-87
100
AcDbLine
 10
345.4055637713504
 20
501.1006149658619
 30
0.0000000000000051
 11
345.4055637713504
 21
284.100614965862
 31
0.0000000000000317
210
1.0
220
-0.0000000000000002
230
0.0
  0
LINE
  5
C4
330
1F
100
AcDbEntity
  8
PV-87
100
AcDbLine
 10
260.4055637713504
 20
526.1006149658618
 30
0.000000000000002
 11
287.4055637713505
 21
526.1006149658618
 31
0.000000000000002
210
1.0
220
-0.0000000000000002
230
0.0
  0
LINE
  5
C5
330
1F
100
AcDbEntity
  8
PV-87
100
AcDbLine
 10
260.4055637713504
 20
559.1006149658619
 30
-0.000000000000002
 11
287.4055637713505
 21
559.1006149658619
 31
-0.000000000000002
210
1.0
220
-0.0000000000000002
230
0.0
  0
LINE
  5
C6
330
1F
100
AcDbEntity
  8
PV-87
100
AcDbLine
 10
328.9055637713503
 20
259.1006149658621
 30
0.0000000000000347
 11
287.4055637713502
 21
259.1006149658621
 31
0.0000000000000347
210
1.0
220
-0.0000000000000002
230
0.0
  0
LINE
  5
C7
330
1F
100
AcDbEntity
  8
PV-87
100
AcDbLine
 10
287.4055637713502
 20
226.1006149658619
 30
0.0000000000000388
 11
328.9055637713503
 21
226.1006149658619
 31
0.0000000000000388
210
1.0
220
-0.0000000000000002
230
0.0
  0
LINE
  5
C8
330
1F
100
AcDbEntity
  8
PV-87
100
AcDbLine
 10
312.4055637713504
 20
284.1006149658619
 30
0.0000000000000317
 11
312.4055637713504
 21
259.1006149658621
 31
0.0000000000000347
210
1.0
220
-0.0000000000000002
230
0.0
  0
LINE
  5
C9
330
1F
100
AcDbEntity
  8
PV-87
100
AcDbLine
 10
345.4055637713503
 20
242.6006149658619
 30
0.0000000000000367
 11
345.4055637713504
 21
284.1006149658619
 31
0.0000000000000317
210
1.0
220
-0.0000000000000002
230
0.0
  0
LINE
  5
CA
330
1F
100
AcDbEntity
  8
PV-87
100
AcDbLine
 10
312.4055637713504
 20
526.1006149658618
 30
0.000000000000002
 11
312.4055637713504
 21
501.1006149658619
 31
0.0000000000000051
210
1.0
220
-0.0000000000000002
230
0.0
  0
LINE
  5
CB
330
1F
100
AcDbEntity
  8
PV-87
100
AcDbLine
 10
345.4055637713504
 20
501.1006149658619
 30
0.0000000000000051
 11
345.4055637713504
 21
542.6006149658619
 31
0.0
210
1.0
220
-0.0000000000000002
230
0.0
  0
LINE
  5
CC
330
1F
100
AcDbEntity
  8
PV-87
100
AcDbLine
 10
328.9055637713504
 20
559.1006149658619
 30
-0.000000000000002
 11
287.4055637713503
 21
559.1006149658619
 31
-0.000000000000002
210
1.0
220
-0.0000000000000002
230
0.0
  0
LINE
  5
CD
330
1F
100
AcDbEntity
  8
PV-87
100
AcDbLine
 10
287.4055637713503
 20
526.1006149658618
 30
0.000000000000002
 11
328.9055637713504
 21
526.1006149658618
 31
0.000000000000002
210
1.0
220
-0.0000000000000002
230
0.0
  0
LINE
  5
CF
330
1F
100
AcDbEntity
  8
PV-87
100
AcDbLine
 10
96.57538433958041
 20
112.4981351382702
 30
-0.000000000000003
 11
63.5753843395804
 21
112.4981351382702
 31
0.000000000000003
210
-0.0000000000000004
220
-1.0
230
0.0
  0
ARC
  5
D0
330
1F
100
AcDbEntity
  8
PV-87
100
AcDbCircle
 10
192.0753843395803
 20
43.99813513827019
 30
-0.0000000000000206
 40
16.5
100
AcDbArc
 50
270.0
 51
90.0
  0
LINE
  5
D1
330
1F
100
AcDbEntity
  8
PV-87
100
AcDbLine
 10
121.5753843395804
 20
27.49813513827019
 30
-0.0000000000000076
 11
150.5753843395805
 21
27.49813513827019
 31
-0.000000000000013
210
-0.0000000000000004
220
-1.0
230
0.0
  0
LINE
  5
D2
330
1F
100
AcDbEntity
  8
PV-87
100
AcDbLine
 10
121.5753843395804
 20
60.49813513827018
 30
-0.0000000000000076
 11
150.5753843395805
 21
60.49813513827018
 31
-0.000000000000013
210
-0.0000000000000004
220
-1.0
230
0.0
  0
LINE
  5
D3
330
1F
100
AcDbEntity
  8
PV-87
100
AcDbLine
 10
63.5753843395804
 20
112.4981351382702
 30
0.000000000000003
 11
63.5753843395804
 21
85.49813513827018
 31
0.000000000000003
210
-0.0000000000000004
220
-1.0
230
0.0
  0
LINE
  5
D4
330
1F
100
AcDbEntity
  8
PV-87
100
AcDbLine
 10
96.57538433958041
 20
112.4981351382702
 30
-0.000000000000003
 11
96.57538433958041
 21
85.49813513827018
 31
-0.000000000000003
210
-0.0000000000000004
220
-1.0
230
0.0
  0
LINE
  5
D5
330
1F
100
AcDbEntity
  8
PV-87
100
AcDbLine
 10
192.0753843395803
 20
60.49813513827018
 30
-0.0000000000000206
 11
150.5753843395805
 21
60.49813513827018
 31
-0.000000000000013
210
-0.0000000000000004
220
-1.0
230
0.0
  0
LINE
  5
D6
330
1F
100
AcDbEntity
  8
PV-87
100
AcDbLine
 10
150.5753843395805
 20
27.49813513827019
 30
-0.000000000000013
 11
192.0753843395803
 21
27.49813513827019
 31
-0.0000000000000206
210
-0.0000000000000004
220
-1.0
230
0.0
  0
ARC
  5
D7
330
1F
100
AcDbEntity
  8
PV-87
100
AcDbCircle
 10
121.5753843395804
 20
85.49813513827018
 30
-0.0000000000000076
 40
58.0
100
AcDbArc
 50
180.0
 51
270.0
  0
ARC
  5
D8
330
1F
100
AcDbEntity
  8
PV-87
100
AcDbCircle
 10
121.5753843395804
 20
85.49813513827018
 30
-0.0000000000000076
 40
25.0
100
AcDbArc
 50
180.0
 51
270.0
  0
ARC
  5
DA
330
1F
100
AcDbEntity
  8
PV-87
100
AcDbCircle
 10
65.3055637573504
 20
542.6006149658619
 30
0.0
 40
16.5
100
AcDbArc
 50
89.99999999999836
 51
270.0
  0
ARC
  5
DB
330
1F
100
AcDbEntity
  8
PV-87
100
AcDbCircle
 10
65.30556375735034
 20
242.600614965862
 30
0.0
 40
16.5
100
AcDbArc
 50
89.99999999999836
 51
270.0
  0
LINE
  5
DC
330
1F
100
AcDbEntity
  8
PV-87
100
AcDbLine
 10
135.8055637573504
 20
259.1006149658622
 30
0.0
 11
106.8055637573504
 21
259.1006149658622
 31
0.0
  0
LINE
  5
DD
330
1F
100
AcDbEntity
  8
PV-87
100
AcDbLine
 10
135.8055637573504
 20
226.1006149658619
 30
0.0
 11
106.8055637573503
 21
226.1006149658619
 31
0.0
  0
LINE
  5
DE
330
1F
100
AcDbEntity
  8
PV-87
100
AcDbLine
 10
160.8055637573504
 20
501.1006149658619
 30
0.0
 11
160.8055637573504
 21
284.1006149658621
 31
0.0
  0
LINE
  5
DF
330
1F
100
AcDbEntity
  8
PV-87
100
AcDbLine
 10
193.8055637573503
 20
501.1006149658618
 30
0.0
 11
193.8055637573503
 21
284.1006149658621
 31
0.0
  0
LINE
  5
E0
330
1F
100
AcDbEntity
  8
PV-87
100
AcDbLine
 10
106.8055637573504
 20
526.1006149658618
 30
0.0
 11
135.8055637573504
 21
526.1006149658618
 31
0.0
  0
LINE
  5
E1
330
1F
100
AcDbEntity
  8
PV-87
100
AcDbLine
 10
106.8055637573504
 20
559.1006149658619
 30
0.0
 11
135.8055637573504
 21
559.1006149658619
 31
0.0
  0
LINE
  5
E2
330
1F
100
AcDbEntity
  8
PV-87
100
AcDbLine
 10
106.8055637573503
 20
259.1006149658622
 30
0.0
 11
65.30556375735034
 21
259.1006149658622
 31
0.0
  0
LINE
  5
E3
330
1F
100
AcDbEntity
  8
PV-87
100
AcDbLine
 10
65.30556375735034
 20
226.100614965862
 30
0.0
 11
106.8055637573503
 21
226.1006149658619
 31
0.0
  0
ARC
  5
E4
330
1F
100
AcDbEntity
  8
PV-87
100
AcDbCircle
 10
135.8055637573504
 20
284.1006149658621
 30
0.0
 40
25.0
100
AcDbArc
 50
269.9999999999968
 51
0.0
  0
ARC
  5
E5
330
1F
100
AcDbEntity
  8
PV-87
100
AcDbCircle
 10
135.8055637573504
 20
284.1006149658621
 30
0.0
 40
58.0
100
AcDbArc
 50
269.9999999999968
 51
0.0
  0
ARC
  5
E6
330
1F
100
AcDbEntity
  8
PV-87
100
AcDbCircle
 10
135.8055637573504
 20
501.1006149658619
 30
0.0
 40
24.99999999999996
100
AcDbArc
 50
0.0
 51
90.0
  0
ARC
  5
E7
330
1F
100
AcDbEntity
  8
PV-87
100
AcDbCircle
 10
135.8055637573504
 20
501.1006149658619
 30
0.0
 40
57.99999999999997
100
AcDbArc
 50
0.0
 51
90.0
  0
LINE
  5
E8
330
1F
100
AcDbEntity
  8
PV-87
100
AcDbLine
 10
106.8055637573503
 20
559.1006149658619
 30
0.0
 11
65.3055637573504
 21
559.1006149658619
 31
0.0
  0
LINE
  5
E9
330
1F
100
AcDbEntity
  8
PV-87
100
AcDbLine
 10
65.3055637573504
 20
526.1006149658619
 30
0.0
 11
106.8055637573503
 21
526.1006149658618
 31
0.0
  0
ENDSEC
  0
SECTION
  2
OBJECTS
  0
DICTIONARY
  5
C
330
0
100
AcDbDictionary
281
     1
  3
ACAD_COLOR
350
124
  3
ACAD_GROUP
350
D
  3
ACAD_LAYOUT
350
127
  3
ACAD_MATERIAL
350
10F
  3
ACAD_MLINESTYLE
350
17
  3
ACAD_PLOTSETTINGS
350
19
  3
ACAD_PLOTSTYLENAME
350
A9
  3
ACAD_TABLESTYLE
350
125
  3
ACAD_VISUALSTYLE
350
113
  3
AcDbVariableDictionary
350
157
  3
DWGPROPS
350
15C
1001
ACAD
1000
TREAT_AS_HARD
1070
     0
  0
DICTIONARY
  5
A3
330
1F
100
AcDbDictionary
281
     1
  3
ACAD_LAYOUTSELFREF
350
10C
  0
DICTIONARY
  5
A1
330
1B
100
AcDbDictionary
281
     1
  3
ACAD_LAYOUTSELFREF
350
10B
  0
DICTIONARY
  5
124
102
{ACAD_REACTORS
330
C
102
}
330
C
100
AcDbDictionary
281
     1
  0
DICTIONARY
  5
D
102
{ACAD_REACTORS
330
C
102
}
330
C
100
AcDbDictionary
281
     1
1001
ACAD
1000
TREAT_AS_HARD
1070
     0
  0
DICTIONARY
  5
127
102
{ACAD_REACTORS
330
C
102
}
330
C
100
AcDbDictionary
281
     1
  3
Layout1
350
129
  3
Model
350
128
  0
DICTIONARY
  5
10F
102
{ACAD_REACTORS
330
C
102
}
330
C
100
AcDbDictionary
281
     1
  3
ByBlock
350
111
  3
ByLayer
350
110
  3
Global
350
112
  0
DICTIONARY
  5
17
102
{ACAD_REACTORS
330
C
102
}
330
C
100
AcDbDictionary
281
     1
  3
STANDARD
350
18
1001
ACAD
1000
TREAT_AS_HARD
1070
     0
  0
DICTIONARY
  5
19
102
{ACAD_REACTORS
330
C
102
}
330
C
100
AcDbDictionary
281
     1
1001
ACAD
1000
TREAT_AS_HARD
1070
     0
  0
ACDBDICTIONARYWDFLT
  5
A9
102
{ACAD_REACTORS
330
C
102
}
330
C
100
AcDbDictionary
281
     1
  3
Normal
350
AA
100
AcDbDictionaryWithDefault
340
AA
  0
DICTIONARY
  5
125
102
{ACAD_REACTORS
330
C
102
}
330
C
100
AcDbDictionary
281
     1
  3
Standard
350
126
  0
DICTIONARY
  5
113
102
{ACAD_REACTORS
330
C
102
}
330
C
100
AcDbDictionary
281
     1
  3
2dWireframe
350
119
  3
3D Hidden
350
11B
  3
3dWireframe
350
11A
  3
Basic
350
118
  3
Brighten
350
11F
  3
ColorChange
350
123
  3
Conceptual
350
11C
  3
Dim
350
11E
  3
Facepattern
350
122
  3
Flat
350
114
  3
FlatWithEdges
350
115
  3
Gouraud
350
116
  3
GouraudWithEdges
350
117
  3
Linepattern
350
121
  3
Realistic
350
11D
  3
Thicken
350
120
  0
DICTIONARY
  5
157
102
{ACAD_REACTORS
330
C
102
}
330
C
100
AcDbDictionary
281
     1
  3
CTABLESTYLE
350
158
  3
DIMASSOC
350
15B
  3
INDEXCTL
350
15A
  3
SORTENTS
350
159
  0
XRECORD
  5
15C
102
{ACAD_REACTORS
330
C
102
}
330
C
100
AcDbXrecord
280
     1
  1
DWGPROPS COOKIE
  2

  3

  4

  6

  7

  8
kaschu
  9

300
=
301
=
302
=
303
=
304
=
305
=
306
=
307
=
308
=
309
=
 40
0.0014181828703704
 41
2451762.575130209
 42
2455414.568367686
  1

 90
        0
  0
XRECORD
  5
10C
102
{ACAD_REACTORS
330
A3
102
}
330
A3
100
AcDbXrecord
280
     1
340
1F
  0
XRECORD
  5
10B
102
{ACAD_REACTORS
330
A1
102
}
330
A1
100
AcDbXrecord
280
     1
340
1B
  0
LAYOUT
  5
129
102
{ACAD_XDICTIONARY
360
167
102
}
102
{ACAD_REACTORS
330
127
102
}
330
127
100
AcDbPlotSettings
  1

  2
\\druckserv1\AROBBE04
  4

  6

 40
0.0
 41
0.0
 42
0.0
 43
0.0
 44
0.0
 45
0.0
 46
0.0
 47
0.0
 48
0.0
 49
0.0
140
0.0
141
0.0
142
1.0
143
1.0
 70
   688
 72
     0
 73
     0
 74
     5
  7

 75
    16
147
1.0
148
0.0
149
0.0
100
AcDbLayout
  1
Layout1
 70
     1
 71
     1
 10
0.0
 20
0.0
 11
12.0
 21
9.0
 12
0.0
 22
0.0
 32
0.0
 14
1.000000000000000E+20
 24
1.000000000000000E+20
 34
1.000000000000000E+20
 15
-1.000000000000000E+20
 25
-1.000000000000000E+20
 35
-1.000000000000000E+20
146
0.0
 13
0.0
 23
0.0
 33
0.0
 16
1.0
 26
0.0
 36
0.0
 17
0.0
 27
1.0
 37
0.0
 76
     0
330
1B
  0
LAYOUT
  5
128
102
{ACAD_XDICTIONARY
360
165
102
}
102
{ACAD_REACTORS
330
127
102
}
330
127
100
AcDbPlotSettings
  1

  2
\\druckserv1\AROBBE04
  4

  6

 40
0.0
 41
0.0
 42
0.0
 43
0.0
 44
0.0
 45
0.0
 46
0.0
 47
0.0
 48
0.0
 49
0.0
140
0.0
141
0.0
142
1.0
143
1.0
 70
  1712
 72
     0
 73
     0
 74
     0
  7

 75
     0
147
1.0
148
0.0
149
0.0
100
AcDbLayout
  1
Model
 70
     1
 71
     0
 10
0.0
 20
0.0
 11
12.0
 21
9.0
 12
0.0
 22
0.0
 32
0.0
 14
0.0
 24
0.0
 34
0.0
 15
0.0
 25
0.0
 35
0.0
146
0.0
 13
0.0
 23
0.0
 33
0.0
 16
1.0
 26
0.0
 36
0.0
 17
0.0
 27
1.0
 37
0.0
 76
     0
330
1F
331
EA
  0
MATERIAL
  5
111
102
{ACAD_XDICTIONARY
360
15F
102
}
102
{ACAD_REACTORS
330
10F
102
}
330
10F
100
AcDbMaterial
  1
ByBlock
  0
MATERIAL
  5
110
102
{ACAD_XDICTIONARY
360
15D
102
}
102
{ACAD_REACTORS
330
10F
102
}
330
10F
100
AcDbMaterial
  1
ByLayer
  0
MATERIAL
  5
112
102
{ACAD_XDICTIONARY
360
161
102
}
102
{ACAD_REACTORS
330
10F
102
}
330
10F
100
AcDbMaterial
  1
Global
  0
MLINESTYLE
  5
18
102
{ACAD_REACTORS
330
17
102
}
330
17
100
AcDbMlineStyle
  2
STANDARD
 70
     0
  3

 62
   256
 51
90.0
 52
90.0
 71
     2
 49
0.5
 62
   256
  6
BYLAYER
 49
-0.5
 62
   256
  6
BYLAYER
  0
ACDBPLACEHOLDER
  5
AA
102
{ACAD_REACTORS
330
A9
102
}
330
A9
  0
TABLESTYLE
  5
126
102
{ACAD_XDICTIONARY
360
163
102
}
102
{ACAD_REACTORS
330
125
102
}
330
125
100
AcDbTableStyle
  3
Standard
 70
     0
 71
     0
 40
0.06
 41
0.06
280
     0
281
     0
  7
STANDARD
140
0.18
170
     2
 62
     0
 63
     7
283
     0
274
    -2
284
     1
 64
     0
275
    -2
285
     1
 65
     0
276
    -2
286
     1
 66
     0
277
    -2
287
     1
 67
     0
278
    -2
288
     1
 68
     0
279
    -2
289
     1
 69
     0
  7
STANDARD
140
0.25
170
     5
 62
     0
 63
     7
283
     0
274
    -2
284
     1
 64
     0
275
    -2
285
     1
 65
     0
276
    -2
286
     1
 66
     0
277
    -2
287
     1
 67
     0
278
    -2
288
     1
 68
     0
279
    -2
289
     1
 69
     0
  7
STANDARD
140
0.18
170
     5
 62
     0
 63
     7
283
     0
274
    -2
284
     1
 64
     0
275
    -2
285
     1
 65
     0
276
    -2
286
     1
 66
     0
277
    -2
287
     1
 67
     0
278
    -2
288
     1
 68
     0
279
    -2
289
     1
 69
     0
  0
VISUALSTYLE
  5
119
102
{ACAD_REACTORS
330
113
102
}
330
113
100
AcDbVisualStyle
  2
2dWireframe
 70
     4
 71
     0
 72
     2
 73
     0
 90
        0
 40
-0.6
 41
-30.0
 62
     5
 63
     7
 74
     1
 91
        4
 64
     7
 65
   257
 75
     1
175
     1
 42
1.0
 92
        0
 66
   257
 43
1.0
 76
     1
 77
     6
 78
     2
 67
     7
 79
     5
170
     0
171
     0
290
     0
174
     0
 93
        1
 44
0.0
173
     0
291
     0
 45
0.0
1001
ACAD
1000
AcDbSavedByObjectVersion
1070
     0
  0
VISUALSTYLE
  5
11B
102
{ACAD_REACTORS
330
113
102
}
330
113
100
AcDbVisualStyle
  2
3D Hidden
 70
     6
 71
     1
 72
     2
 73
     2
 90
        0
 40
-0.6
 41
-30.0
 62
     5
 63
     7
 74
     2
 91
        2
 64
     7
 65
   257
 75
     2
175
     1
 42
40.0
 92
        0
 66
   257
 43
1.0
 76
     1
 77
     6
 78
     2
 67
     7
 79
     3
170
     0
171
     0
290
     0
174
     0
 93
        1
 44
0.0
173
     0
291
     0
 45
0.0
1001
ACAD
1000
AcDbSavedByObjectVersion
1070
     0
  0
VISUALSTYLE
  5
11A
102
{ACAD_REACTORS
330
113
102
}
330
113
100
AcDbVisualStyle
  2
3dWireframe
 70
     5
 71
     0
 72
     2
 73
     0
 90
        0
 40
-0.6
 41
-30.0
 62
     5
 63
     7
 74
     1
 91
        4
 64
     7
 65
   257
 75
     1
175
     1
 42
1.0
 92
        0
 66
   257
 43
1.0
 76
     1
 77
     6
 78
     2
 67
     7
 79
     5
170
     0
171
     0
290
     0
174
     0
 93
        1
 44
0.0
173
     0
291
     0
 45
0.0
1001
ACAD
1000
AcDbSavedByObjectVersion
1070
     0
  0
VISUALSTYLE
  5
118
102
{ACAD_REACTORS
330
113
102
}
330
113
100
AcDbVisualStyle
  2
Basic
 70
     7
 71
     1
 72
     0
 73
     1
 90
        0
 40
-0.6
 41
-30.0
 62
     5
 63
     7
 74
     0
 91
        4
 64
     7
 65
   257
 75
     1
175
     1
 42
1.0
 92
        8
 66
     7
 43
1.0
 76
     1
 77
     6
 78
     2
 67
     7
 79
     5
170
     0
171
     0
290
     0
174
     0
 93
        1
 44
0.0
173
     0
291
     1
 45
0.0
1001
ACAD
1000
AcDbSavedByObjectVersion
1070
     0
  0
VISUALSTYLE
  5
11F
102
{ACAD_REACTORS
330
113
102
}
330
113
100
AcDbVisualStyle
  2
Brighten
 70
    12
 71
     2
 72
     2
 73
     0
 90
        0
 40
-0.6
 41
-30.0
 62
     5
 63
     7
 74
     1
 91
        4
 64
     7
 65
   257
 75
     1
175
     1
 42
1.0
 92
        8
 66
     7
 43
1.0
 76
     1
 77
     6
 78
     2
 67
     7
 79
     5
170
     0
171
     0
290
     0
174
     0
 93
        1
 44
50.0
173
     0
291
     1
 45
0.0
1001
ACAD
1000
AcDbSavedByObjectVersion
1070
     0
  0
VISUALSTYLE
  5
123
102
{ACAD_REACTORS
330
113
102
}
330
113
100
AcDbVisualStyle
  2
ColorChange
 70
    16
 71
     2
 72
     2
 73
     3
 90
        0
 40
-0.6
 41
-30.0
 62
     5
 63
     8
 74
     1
 91
        4
 64
     7
 65
   257
 75
     1
175
     1
 42
1.0
 92
        8
 66
     8
 43
1.0
 76
     1
 77
     6
 78
     2
 67
     7
 79
     5
170
     0
171
     0
290
     0
174
     0
 93
        1
 44
0.0
173
     0
291
     1
 45
0.0
1001
ACAD
1000
AcDbSavedByObjectVersion
1070
     0
  0
VISUALSTYLE
  5
11C
102
{ACAD_REACTORS
330
113
102
}
330
113
100
AcDbVisualStyle
  2
Conceptual
 70
     9
 71
     3
 72
     2
 73
     0
 90
        0
 40
-0.6
 41
-30.0
 62
     5
 63
     7
 74
     2
 91
        2
 64
     7
 65
   257
 75
     1
175
     1
 42
40.0
 92
        8
 66
     7
 43
1.0
 76
     1
 77
     6
 78
     2
 67
     7
 79
     3
170
     0
171
     0
290
     0
174
     0
 93
        1
 44
0.0
173
     0
291
     0
 45
0.0
1001
ACAD
1000
AcDbSavedByObjectVersion
1070
     0
  0
VISUALSTYLE
  5
11E
102
{ACAD_REACTORS
330
113
102
}
330
113
100
AcDbVisualStyle
  2
Dim
 70
    11
 71
     2
 72
     2
 73
     0
 90
        0
 40
-0.6
 41
-30.0
 62
     5
 63
     7
 74
     1
 91
        4
 64
     7
 65
   257
 75
     1
175
     1
 42
1.0
 92
        8
 66
     7
 43
1.0
 76
     1
 77
     6
 78
     2
 67
     7
 79
     5
170
     0
171
     0
290
     0
174
     0
 93
        1
 44
-50.0
173
     0
291
     1
 45
0.0
1001
ACAD
1000
AcDbSavedByObjectVersion
1070
     0
  0
VISUALSTYLE
  5
122
102
{ACAD_REACTORS
330
113
102
}
330
113
100
AcDbVisualStyle
  2
Facepattern
 70
    15
 71
     2
 72
     2
 73
     0
 90
        0
 40
-0.6
 41
-30.0
 62
     5
 63
     7
 74
     1
 91
        4
 64
     7
 65
   257
 75
     1
175
     1
 42
1.0
 92
        8
 66
     7
 43
1.0
 76
     1
 77
     6
 78
     2
 67
     7
 79
     5
170
     0
171
     0
290
     0
174
     0
 93
        1
 44
0.0
173
     0
291
     1
 45
0.0
1001
ACAD
1000
AcDbSavedByObjectVersion
1070
     0
  0
VISUALSTYLE
  5
114
102
{ACAD_REACTORS
330
113
102
}
330
113
100
AcDbVisualStyle
  2
Flat
 70
     0
 71
     2
 72
     1
 73
     1
 90
        2
 40
-0.6
 41
30.0
 62
     5
 63
     7
 74
     0
 91
        4
 64
     7
 65
   257
 75
     1
175
     1
 42
1.0
 92
        8
 66
     7
 43
1.0
 76
     1
 77
     6
 78
     2
 67
     7
 79
     5
170
     0
171
     0
290
     0
174
     0
 93
       13
 44
0.0
173
     0
291
     1
 45
0.0
1001
ACAD
1000
AcDbSavedByObjectVersion
1070
     0
  0
VISUALSTYLE
  5
115
102
{ACAD_REACTORS
330
113
102
}
330
113
100
AcDbVisualStyle
  2
FlatWithEdges
 70
     1
 71
     2
 72
     1
 73
     1
 90
        2
 40
-0.6
 41
30.0
 62
     5
 63
     7
 74
     1
 91
        4
 64
     7
 65
   257
 75
     1
175
     1
 42
1.0
 92
        0
 66
   257
 43
1.0
 76
     1
 77
     6
 78
     2
 67
     7
 79
     5
170
     0
171
     0
290
     0
174
     0
 93
       13
 44
0.0
173
     0
291
     1
 45
0.0
1001
ACAD
1000
AcDbSavedByObjectVersion
1070
     0
  0
VISUALSTYLE
  5
116
102
{ACAD_REACTORS
330
113
102
}
330
113
100
AcDbVisualStyle
  2
Gouraud
 70
     2
 71
     2
 72
     2
 73
     1
 90
        2
 40
-0.6
 41
30.0
 62
     5
 63
     7
 74
     0
 91
        4
 64
     7
 65
   257
 75
     1
175
     1
 42
1.0
 92
        0
 66
     7
 43
1.0
 76
     1
 77
     6
 78
     2
 67
     7
 79
     5
170
     0
171
     0
290
     0
174
     0
 93
       13
 44
0.0
173
     0
291
     1
 45
0.0
1001
ACAD
1000
AcDbSavedByObjectVersion
1070
     0
  0
VISUALSTYLE
  5
117
102
{ACAD_REACTORS
330
113
102
}
330
113
100
AcDbVisualStyle
  2
GouraudWithEdges
 70
     3
 71
     2
 72
     2
 73
     1
 90
        2
 40
-0.6
 41
30.0
 62
     5
 63
     7
 74
     1
 91
        4
 64
     7
 65
   257
 75
     1
175
     1
 42
1.0
 92
        0
 66
   257
 43
1.0
 76
     1
 77
     6
 78
     2
 67
     7
 79
     5
170
     0
171
     0
290
     0
174
     0
 93
       13
 44
0.0
173
     0
291
     1
 45
0.0
1001
ACAD
1000
AcDbSavedByObjectVersion
1070
     0
  0
VISUALSTYLE
  5
121
102
{ACAD_REACTORS
330
113
102
}
330
113
100
AcDbVisualStyle
  2
Linepattern
 70
    14
 71
     2
 72
     2
 73
     0
 90
        0
 40
-0.6
 41
-30.0
 62
     5
 63
     7
 74
     1
 91
        4
 64
     7
 65
   257
 75
     7
175
     7
 42
1.0
 92
        8
 66
     7
 43
1.0
 76
     1
 77
     6
 78
     2
 67
     7
 79
     5
170
     0
171
     0
290
     0
174
     0
 93
        1
 44
0.0
173
     0
291
     1
 45
0.0
1001
ACAD
1000
AcDbSavedByObjectVersion
1070
     0
  0
VISUALSTYLE
  5
11D
102
{ACAD_REACTORS
330
113
102
}
330
113
100
AcDbVisualStyle
  2
Realistic
 70
     8
 71
     2
 72
     2
 73
     0
 90
        0
 40
-0.6
 41
-30.0
 62
     5
 63
     7
 74
     1
 91
        0
 64
     7
 65
   257
 75
     1
175
     1
 42
1.0
 92
        8
 66
     8
 43
1.0
 76
     1
 77
     6
 78
     2
 67
     7
 79
     5
170
     0
171
     0
290
     0
174
     0
 93
       13
 44
0.0
173
     0
291
     0
 45
0.0
1001
ACAD
1000
AcDbSavedByObjectVersion
1070
     0
  0
VISUALSTYLE
  5
120
102
{ACAD_REACTORS
330
113
102
}
330
113
100
AcDbVisualStyle
  2
Thicken
 70
    13
 71
     2
 72
     2
 73
     0
 90
        0
 40
-0.6
 41
-30.0
 62
     5
 63
     7
 74
     1
 91
        4
 64
     7
 65
   257
 75
     1
175
     1
 42
1.0
 92
       12
 66
     7
 43
1.0
 76
     1
 77
     6
 78
     2
 67
     7
 79
     5
170
     0
171
     0
290
     0
174
     0
 93
        1
 44
0.0
173
     0
291
     1
 45
0.0
1001
ACAD
1000
AcDbSavedByObjectVersion
1070
     0
  0
DICTIONARYVAR
  5
158
102
{ACAD_REACTORS
330
157
102
}
330
157
100
DictionaryVariables
280
     0
  1
STANDARD
  0
DICTIONARYVAR
  5
15B
102
{ACAD_REACTORS
330
157
102
}
330
157
100
DictionaryVariables
280
     0
  1
1
  0
DICTIONARYVAR
  5
15A
102
{ACAD_REACTORS
330
157
102
}
330
157
100
DictionaryVariables
280
     0
  1
0
  0
DICTIONARYVAR
  5
159
102
{ACAD_REACTORS
330
157
102
}
330
157
100
DictionaryVariables
280
     0
  1
127
  0
DICTIONARY
  5
167
330
129
100
AcDbDictionary
280
     1
281
     1
  3
ACAD_XREC_ROUNDTRIP
360
168
  0
DICTIONARY
  5
165
330
128
100
AcDbDictionary
280
     1
281
     1
  3
ACAD_XREC_ROUNDTRIP
360
166
  0
DICTIONARY
  5
15F
330
111
100
AcDbDictionary
280
     1
281
     1
  3
ACAD_XREC_ROUNDTRIP
360
160
  0
DICTIONARY
  5
15D
330
110
100
AcDbDictionary
280
     1
281
     1
  3
ACAD_XREC_ROUNDTRIP
360
15E
  0
DICTIONARY
  5
161
330
112
100
AcDbDictionary
280
     1
281
     1
  3
ACAD_XREC_ROUNDTRIP
360
162
  0
DICTIONARY
  5
163
330
126
100
AcDbDictionary
280
     1
281
     1
  3
ACAD_XREC_ROUNDTRIP
360
164
  0
XRECORD
  5
168
102
{ACAD_REACTORS
330
167
102
}
330
167
100
AcDbXrecord
280
     1
102
SHADEPLOT
 70
     0
102
SHADEPLOTRESLEVEL
 70
     2
102
SHADEPLOTCUSTOMDPI
 70
   300
  0
XRECORD
  5
166
102
{ACAD_REACTORS
330
165
102
}
330
165
100
AcDbXrecord
280
     1
102
SHADEPLOT
 70
     0
102
SHADEPLOTRESLEVEL
 70
     2
102
SHADEPLOTCUSTOMDPI
 70
   300
  0
XRECORD
  5
160
102
{ACAD_REACTORS
330
15F
102
}
330
15F
100
AcDbXrecord
280
     1
102
MATERIAL
148
0.0
149
0.0
149
0.0
 93
        0
 94
       63
282
     0
 72
     1
 77
     1
171
     1
175
     1
179
     1
273
     0
  0
XRECORD
  5
15E
102
{ACAD_REACTORS
330
15D
102
}
330
15D
100
AcDbXrecord
280
     1
102
MATERIAL
148
0.0
149
0.0
149
0.0
 93
        0
 94
       63
282
     0
 72
     1
 77
     1
171
     1
175
     1
179
     1
273
     0
  0
XRECORD
  5
162
102
{ACAD_REACTORS
330
161
102
}
330
161
100
AcDbXrecord
280
     1
102
MATERIAL
148
0.0
149
0.0
149
0.0
 93
        0
 94
       63
282
     0
 72
     1
 77
     1
171
     1
175
     1
179
     1
273
     0
  0
XRECORD
  5
164
102
{ACAD_REACTORS
330
163
102
}
330
163
100
AcDbXrecord
280
     1
102
ACAD_ROUNDTRIP_PRE2007_TABLESTYLE
 90
      512
 91
        0
  1

 92
      512
 93
        0
  2

 94
      512
 95
        0
  3

  0
ENDSEC
  0
EOF
