  0
SECTION
  2
HEADER
  9
$ACADVER
  1
AC1014
  9
$ACADMAINTVER
 70
     9
  9
$DWGCODEPAGE
  3
ANSI_1252
  9
$INSBASE
 10
0.0
 20
0.0
 30
0.0
  9
$EXTMIN
 10
-516.9698288844121
 20
-340.5183843329115
 30
-0.0000000100000105
  9
$EXTMAX
 10
516.9698288844121
 20
46.883313465743
 30
0.0000000100000541
  9
$LIMMIN
 10
0.0
 20
0.0
  9
$LIMMAX
 10
12.0
 20
9.0
  9
$ORTHOMODE
 70
     0
  9
$REGENMODE
 70
     1
  9
$FILLMODE
 70
     1
  9
$QTEXTMODE
 70
     0
  9
$MIRRTEXT
 70
     1
  9
$DRAGMODE
 70
     2
  9
$LTSCALE
 40
1.0
  9
$OSMODE
 70
    37
  9
$ATTMODE
 70
     1
  9
$TEXTSIZE
 40
0.2
  9
$TRACEWID
 40
0.05
  9
$TEXTSTYLE
  7
STANDARD
  9
$CLAYER
  8
0
  9
$CELTYPE
  6
BYLAYER
  9
$CECOLOR
 62
   256
  9
$CELTSCALE
 40
1.0
  9
$DELOBJ
 70
     1
  9
$DISPSILH
 70
     0
  9
$DIMSCALE
 40
1.0
  9
$DIMASZ
 40
0.18
  9
$DIMEXO
 40
0.0625
  9
$DIMDLI
 40
0.38
  9
$DIMRND
 40
0.0
  9
$DIMDLE
 40
0.0
  9
$DIMEXE
 40
0.18
  9
$DIMTP
 40
0.0
  9
$DIMTM
 40
0.0
  9
$DIMTXT
 40
0.18
  9
$DIMCEN
 40
0.09
  9
$DIMTSZ
 40
0.0
  9
$DIMTOL
 70
     0
  9
$DIMLIM
 70
     0
  9
$DIMTIH
 70
     1
  9
$DIMTOH
 70
     1
  9
$DIMSE1
 70
     0
  9
$DIMSE2
 70
     0
  9
$DIMTAD
 70
     0
  9
$DIMZIN
 70
     0
  9
$DIMBLK
  1

  9
$DIMASO
 70
     1
  9
$DIMSHO
 70
     1
  9
$DIMPOST
  1

  9
$DIMAPOST
  1

  9
$DIMALT
 70
     0
  9
$DIMALTD
 70
     2
  9
$DIMALTF
 40
25.4
  9
$DIMLFAC
 40
1.0
  9
$DIMTOFL
 70
     0
  9
$DIMTVP
 40
0.0
  9
$DIMTIX
 70
     0
  9
$DIMSOXD
 70
     0
  9
$DIMSAH
 70
     0
  9
$DIMBLK1
  1

  9
$DIMBLK2
  1

  9
$DIMSTYLE
  2
STANDARD
  9
$DIMCLRD
 70
     0
  9
$DIMCLRE
 70
     0
  9
$DIMCLRT
 70
     0
  9
$DIMTFAC
 40
1.0
  9
$DIMGAP
 40
0.09
  9
$DIMJUST
 70
     0
  9
$DIMSD1
 70
     0
  9
$DIMSD2
 70
     0
  9
$DIMTOLJ
 70
     1
  9
$DIMTZIN
 70
     0
  9
$DIMALTZ
 70
     0
  9
$DIMALTTZ
 70
     0
  9
$DIMFIT
 70
     3
  9
$DIMUPT
 70
     0
  9
$DIMUNIT
 70
     2
  9
$DIMDEC
 70
     4
  9
$DIMTDEC
 70
     4
  9
$DIMALTU
 70
     2
  9
$DIMALTTD
 70
     2
  9
$DIMTXSTY
  7
STANDARD
  9
$DIMAUNIT
 70
     0
  9
$LUNITS
 70
     2
  9
$LUPREC
 70
     4
  9
$SKETCHINC
 40
0.1
  9
$FILLETRAD
 40
0.5
  9
$AUNITS
 70
     0
  9
$AUPREC
 70
     0
  9
$MENU
  1
.
  9
$ELEVATION
 40
0.0
  9
$PELEVATION
 40
0.0
  9
$THICKNESS
 40
0.0
  9
$LIMCHECK
 70
     0
  9
$BLIPMODE
 70
     0
  9
$CHAMFERA
 40
0.5
  9
$CHAMFERB
 40
0.5
  9
$CHAMFERC
 40
1.0
  9
$CHAMFERD
 40
0.0
  9
$SKPOLY
 70
     0
  9
$TDCREATE
 40
2451762.576034258
  9
$TDUPDATE
 40
2452857.456958911
  9
$TDINDWG
 40
0.0008496644
  9
$TDUSRTIMER
 40
0.0008496644
  9
$USRTIMER
 70
     1
  9
$ANGBASE
 50
0.0
  9
$ANGDIR
 70
     0
  9
$PDMODE
 70
     0
  9
$PDSIZE
 40
0.0
  9
$PLINEWID
 40
0.0
  9
$COORDS
 70
     1
  9
$SPLFRAME
 70
     0
  9
$SPLINETYPE
 70
     6
  9
$SPLINESEGS
 70
     8
  9
$ATTDIA
 70
     0
  9
$ATTREQ
 70
     1
  9
$HANDLING
 70
  4097
  9
$HANDSEED
  5
111
  9
$SURFTAB1
 70
     6
  9
$SURFTAB2
 70
     6
  9
$SURFTYPE
 70
     6
  9
$SURFU
 70
     6
  9
$SURFV
 70
     6
  9
$UCSNAME
  2

  9
$UCSORG
 10
0.0
 20
0.0
 30
0.0
  9
$UCSXDIR
 10
1.0
 20
0.0
 30
0.0
  9
$UCSYDIR
 10
0.0
 20
1.0
 30
0.0
  9
$PUCSNAME
  2

  9
$PUCSORG
 10
0.0
 20
0.0
 30
0.0
  9
$PUCSXDIR
 10
1.0
 20
0.0
 30
0.0
  9
$PUCSYDIR
 10
0.0
 20
1.0
 30
0.0
  9
$USERI1
 70
     0
  9
$USERI2
 70
     0
  9
$USERI3
 70
     0
  9
$USERI4
 70
     0
  9
$USERI5
 70
     0
  9
$USERR1
 40
0.0
  9
$USERR2
 40
0.0
  9
$USERR3
 40
0.0
  9
$USERR4
 40
0.0
  9
$USERR5
 40
0.0
  9
$WORLDVIEW
 70
     1
  9
$SHADEDGE
 70
     3
  9
$SHADEDIF
 70
    70
  9
$TILEMODE
 70
     1
  9
$MAXACTVP
 70
    64
  9
$PINSBASE
 10
0.0
 20
0.0
 30
0.0
  9
$PLIMCHECK
 70
     0
  9
$PEXTMIN
 10
1.000000000000000E+20
 20
1.000000000000000E+20
 30
1.000000000000000E+20
  9
$PEXTMAX
 10
-1.000000000000000E+20
 20
-1.000000000000000E+20
 30
-1.000000000000000E+20
  9
$PLIMMIN
 10
0.0
 20
0.0
  9
$PLIMMAX
 10
12.0
 20
9.0
  9
$UNITMODE
 70
     0
  9
$VISRETAIN
 70
     1
  9
$PLINEGEN
 70
     0
  9
$PSLTSCALE
 70
     1
  9
$TREEDEPTH
 70
  3020
  9
$PICKSTYLE
 70
     1
  9
$CMLSTYLE
  2
STANDARD
  9
$CMLJUST
 70
     0
  9
$CMLSCALE
 40
1.0
  9
$PROXYGRAPHICS
 70
     1
  9
$MEASUREMENT
 70
     0
  0
ENDSEC
  0
SECTION
  2
CLASSES
  0
CLASS
  1
ACDBDICTIONARYWDFLT
  2
AcDbDictionaryWithDefault
  3
AutoCAD 2000
 90
        0
280
     0
281
     0
  0
CLASS
  1
ACDBPLACEHOLDER
  2
AcDbPlaceHolder
  3
AutoCAD 2000
 90
        0
280
     0
281
     0
  0
CLASS
  1
LAYOUT
  2
AcDbLayout
  3
AutoCAD 2000
 90
        0
280
     0
281
     0
  0
CLASS
  1
LONG_TRANSACTION
  2
AcDbLongTransaction
  3
AutoCAD 2000
 90
        0
280
     0
281
     0
  0
CLASS
  1
LWPOLYLINE
  2
AcDbPolyline
  3
AutoCAD 2000
 90
        0
280
     0
281
     1
  0
CLASS
  1
HATCH
  2
AcDbHatch
  3
AutoCAD 2000
 90
        0
280
     0
281
     1
  0
CLASS
  1
XRECORD
  2
AcDbXrecord
  3
AutoCAD 2000
 90
        0
280
     0
281
     0
  0
CLASS
  1
LONG_TRANSACTION
  2
AcDbLongTransaction
  3
AutoCAD 2000
 90
        0
280
     0
281
     0
  0
CLASS
  1
LWPOLYLINE
  2
AcDbPolyline
  3
AutoCAD 2000
 90
        0
280
     0
281
     1
  0
CLASS
  1
HATCH
  2
AcDbHatch
  3
AutoCAD 2000
 90
        0
280
     0
281
     1
  0
CLASS
  1
XRECORD
  2
AcDbXrecord
  3
AutoCAD 2000
 90
        0
280
     0
281
     0
  0
ENDSEC
  0
SECTION
  2
TABLES
  0
TABLE
  2
VPORT
  5
8
330
0
100
AcDbSymbolTable
 70
     2
  0
VPORT
  5
EE
330
8
100
AcDbSymbolTableRecord
100
AcDbViewportTableRecord
  2
*ACTIVE
 70
     0
 10
0.0
 20
0.0
 11
1.0
 21
1.0
 12
0.0000000000001137
 22
-110.9566094303242
 13
0.0
 23
0.0
 14
0.5
 24
0.5
 15
0.5
 25
0.5
 16
0.0
 26
0.0
 36
1.0
 17
0.0
 27
0.0
 37
0.0
 40
572.0911135333093
 41
1.818713450292397
 42
50.0
 43
0.0
 44
0.0
 50
0.0
 51
0.0
 71
     0
 72
   100
 73
     1
 74
     3
 75
     0
 76
     0
 77
     0
 78
     0
  0
ENDTAB
  0
TABLE
  2
LTYPE
  5
5
330
0
100
AcDbSymbolTable
 70
     1
  0
LTYPE
  5
14
330
5
100
AcDbSymbolTableRecord
100
AcDbLinetypeTableRecord
  2
BYBLOCK
 70
     0
  3

 72
    65
 73
     0
 40
0.0
  0
LTYPE
  5
15
330
5
100
AcDbSymbolTableRecord
100
AcDbLinetypeTableRecord
  2
BYLAYER
 70
     0
  3

 72
    65
 73
     0
 40
0.0
  0
LTYPE
  5
16
330
5
100
AcDbSymbolTableRecord
100
AcDbLinetypeTableRecord
  2
CONTINUOUS
 70
     0
  3
Solid line
 72
    65
 73
     0
 40
0.0
  0
ENDTAB
  0
TABLE
  2
LAYER
  5
2
330
0
100
AcDbSymbolTable
 70
     2
  0
LAYER
  5
10
330
2
100
AcDbSymbolTableRecord
100
AcDbLayerTableRecord
  2
0
 70
     0
 62
     7
  6
CONTINUOUS
  0
LAYER
  5
5D
330
2
100
AcDbSymbolTableRecord
100
AcDbLayerTableRecord
  2
PV-B7
 70
     2
 62
     7
  6
CONTINUOUS
  0
ENDTAB
  0
TABLE
  2
STYLE
  5
3
330
0
100
AcDbSymbolTable
 70
     1
  0
STYLE
  5
11
330
3
100
AcDbSymbolTableRecord
100
AcDbTextStyleTableRecord
  2
STANDARD
 70
     0
 40
0.0
 41
1.0
 50
0.0
 71
     0
 42
0.2
  3
txt
  4

  0
ENDTAB
  0
TABLE
  2
VIEW
  5
6
330
0
100
AcDbSymbolTable
 70
     0
  0
ENDTAB
  0
TABLE
  2
UCS
  5
7
330
0
100
AcDbSymbolTable
 70
     0
  0
ENDTAB
  0
TABLE
  2
APPID
  5
9
330
0
100
AcDbSymbolTable
 70
     1
  0
APPID
  5
12
330
9
100
AcDbSymbolTableRecord
100
AcDbRegAppTableRecord
  2
ACAD
 70
     0
  0
ENDTAB
  0
TABLE
  2
DIMSTYLE
  5
A
330
0
100
AcDbSymbolTable
 70
     1
  0
DIMSTYLE
105
27
330
A
100
AcDbSymbolTableRecord
100
AcDbDimStyleTableRecord
  2
STANDARD
 70
     0
  3

  4

  5

  6

  7

 40
1.0
 41
0.18
 42
0.0625
 43
0.38
 44
0.18
 45
0.0
 46
0.0
 47
0.0
 48
0.0
140
0.18
141
0.09
142
0.0
143
25.4
144
1.0
145
0.0
146
1.0
147
0.09
 71
     0
 72
     0
 73
     1
 74
     1
 75
     0
 76
     0
 77
     0
 78
     0
170
     0
171
     2
172
     0
173
     0
174
     0
175
     0
176
     0
177
     0
178
     0
270
     2
271
     4
272
     4
273
     2
274
     2
340
11
275
     0
280
     0
281
     0
282
     0
283
     1
284
     0
285
     0
286
     0
287
     3
288
     0
  0
ENDTAB
  0
TABLE
  2
BLOCK_RECORD
  5
1
330
0
100
AcDbSymbolTable
 70
     8
  0
BLOCK_RECORD
  5
1F
102
{ACAD_XDICTIONARY
360
A5
102
}
330
1
100
AcDbSymbolTableRecord
100
AcDbBlockTableRecord
  2
*MODEL_SPACE
  0
BLOCK_RECORD
  5
1B
102
{ACAD_XDICTIONARY
360
A3
102
}
330
1
100
AcDbSymbolTableRecord
100
AcDbBlockTableRecord
  2
*PAPER_SPACE
  0
BLOCK_RECORD
  5
48
330
1
100
AcDbSymbolTableRecord
100
AcDbBlockTableRecord
  2
*U0
  0
BLOCK_RECORD
  5
5E
330
1
100
AcDbSymbolTableRecord
100
AcDbBlockTableRecord
  2
FRONT
  0
BLOCK_RECORD
  5
63
330
1
100
AcDbSymbolTableRecord
100
AcDbBlockTableRecord
  2
*U2
  0
BLOCK_RECORD
  5
72
330
1
100
AcDbSymbolTableRecord
100
AcDbBlockTableRecord
  2
LEFT
  0
BLOCK_RECORD
  5
77
330
1
100
AcDbSymbolTableRecord
100
AcDbBlockTableRecord
  2
*U4
  0
BLOCK_RECORD
  5
88
330
1
100
AcDbSymbolTableRecord
100
AcDbBlockTableRecord
  2
RIGHT
  0
BLOCK_RECORD
  5
8D
330
1
100
AcDbSymbolTableRecord
100
AcDbBlockTableRecord
  2
*U6
  0
BLOCK_RECORD
  5
9D
330
1
100
AcDbSymbolTableRecord
100
AcDbBlockTableRecord
  2
TOP
  0
ENDTAB
  0
ENDSEC
  0
SECTION
  2
BLOCKS
  0
BLOCK
  5
20
330
1F
100
AcDbEntity
  8
0
100
AcDbBlockBegin
  2
*MODEL_SPACE
 70
     0
 10
0.0
 20
0.0
 30
0.0
  3
*MODEL_SPACE
  1

  0
ENDBLK
  5
21
330
1F
100
AcDbEntity
  8
0
100
AcDbBlockEnd
  0
BLOCK
  5
1C
330
1B
100
AcDbEntity
 67
     1
  8
0
100
AcDbBlockBegin
  2
*PAPER_SPACE
 70
     0
 10
0.0
 20
0.0
 30
0.0
  3
*PAPER_SPACE
  1

  0
ENDBLK
  5
1D
330
1B
100
AcDbEntity
 67
     1
  8
0
100
AcDbBlockEnd
  0
BLOCK
  5
5B
330
48
100
AcDbEntity
  8
0
100
AcDbBlockBegin
  2
*U0
 70
     1
 10
0.0
 20
0.0
 30
0.0
  3
*U0
  1
*ANON
  0
LINE
  5
49
330
48
100
AcDbEntity
  8
PV-B7
100
AcDbLine
 10
422.0482309258533
 20
0.0
 30
65.00000000000001
 11
420.8266314435383
 21
0.0
 31
65.00000000000001
  0
SPLINE
  5
4A
330
48
100
AcDbEntity
  8
PV-B7
100
AcDbSpline
210
0.0
220
-1.0
230
0.0
 70
     8
 71
     3
 72
    12
 73
     8
 74
     0
 42
0.0000000001
 43
0.0000000001
 40
0.1872935404127729
 40
0.1872935404127729
 40
0.1872935404127729
 40
0.1872935404127729
 40
1.368947104454635
 40
1.368947104454635
 40
3.726510382600636
 40
3.726510382600636
 40
5.346415671881053
 40
5.346415671881053
 40
5.346415671881053
 40
5.346415671881053
 10
401.9784458260624
 20
0.0
 30
45.00013723932823
 10
402.369853709113
 20
0.0
 30
44.99870234585072
 10
402.7642752585749
 20
0.0
 30
45.01236501965943
 10
403.9412233358008
 20
0.0
 30
45.08686220181964
 10
404.7383072047763
 20
0.0
 30
45.18079582989149
 10
406.0423632317093
 20
0.0
 30
45.4009784045276
 10
406.5702370700285
 20
0.0
 30
45.50978740567962
 10
407.0850225152656
 20
0.0
 30
45.64373786205879
  0
LINE
  5
4B
330
48
100
AcDbEntity
  8
PV-B7
100
AcDbLine
 10
420.4837131930951
 20
0.0
 30
-0.0000000000000897
 11
387.4837131930953
 21
0.0
 31
-0.0000000000000776
  0
SPLINE
  5
4C
330
48
100
AcDbEntity
  8
PV-B7
100
AcDbSpline
210
0.0
220
1.0
230
0.0
 70
     8
 71
     3
 72
    16
 73
    12
 74
     0
 42
0.0000000001
 43
0.0000000001
 40
-23.84135255739687
 40
-23.84135255739687
 40
-23.84135255739687
 40
-23.84135255739687
 40
-22.74604170271367
 40
-22.74604170271367
 40
-20.96300788572885
 40
-20.96300788572885
 40
-18.60870754203268
 40
-18.60870754203268
 40
-16.27248712837994
 40
-16.27248712837994
 40
-14.90589806218038
 40
-14.90589806218038
 40
-14.90589806218038
 40
-14.90589806218038
 10
387.4835963932395
 20
0.0
 30
49.50038235371772
 10
387.4833643659607
 20
0.0
 30
49.6261126962597
 10
387.5692470704795
 20
0.0
 30
49.68025154135769
 10
388.0288431604463
 20
0.0
 30
49.60629619743146
 10
388.5342163953366
 20
0.0
 30
49.343315399382
 10
390.1490033903818
 20
0.0
 30
48.43592529931985
 10
391.4079026042207
 20
0.0
 30
47.70059042002471
 10
394.4889360023773
 20
0.0
 30
46.33175926382707
 10
396.2973233743861
 20
0.0
 30
45.70467656475384
 10
399.4911026507606
 20
0.0
 30
45.12595995763171
 10
400.7196183420964
 20
0.0
 30
45.00475207572772
 10
401.9784458260624
 20
0.0
 30
45.00013723932823
  0
LINE
  5
4D
330
48
100
AcDbEntity
  8
PV-B7
100
AcDbLine
 10
-17.0482309258534
 20
0.0
 30
65.00000000000001
 11
-15.82663144353852
 21
0.0
 31
65.00000000000001
  0
SPLINE
  5
4E
330
48
100
AcDbEntity
  8
PV-B7
100
AcDbSpline
210
0.0
220
1.0
230
0.0
 70
     8
 71
     3
 72
    12
 73
     8
 74
     0
 42
0.0000000001
 43
0.0000000001
 40
0.3106905365913586
 40
0.3106905365913586
 40
0.3106905365913586
 40
0.3106905365913586
 40
2.020784579303225
 40
2.020784579303225
 40
3.641965856470912
 40
3.641965856470912
 40
4.707457518994401
 40
4.707457518994401
 40
4.707457518994401
 40
4.707457518994401
 10
-0.2624156110422158
 20
0.0
 30
45.25935473733753
 10
0.2938127911303132
 20
0.0
 30
45.16881555569424
 10
0.8625173267560859
 20
0.0
 30
45.10585960449357
 10
1.969613793547823
 20
0.0
 30
45.02489887444331
 10
2.515472145998705
 20
0.0
 30
45.00426774220139
 10
3.411802478354585
 20
0.0
 30
45.00463271578567
 10
3.767957075015176
 20
0.0
 30
45.01389901609376
 10
4.121503667498361
 20
0.0
 30
45.0345110018592
  0
SPLINE
  5
4F
330
48
100
AcDbEntity
  8
PV-B7
100
AcDbSpline
210
0.0
220
-1.0
230
0.0
 70
     8
 71
     3
 72
    18
 73
    14
 74
     0
 42
0.0000000001
 43
0.0000000001
 40
-66.2720714369579
 40
-66.2720714369579
 40
-66.2720714369579
 40
-66.2720714369579
 40
-65.67287237878429
 40
-65.67287237878429
 40
-61.6629289247971
 40
-61.6629289247971
 40
-55.79797580746274
 40
-55.79797580746274
 40
-50.84681335293367
 40
-50.84681335293367
 40
-47.04159323623083
 40
-47.04159323623083
 40
-44.99265700244023
 40
-44.99265700244023
 40
-44.99265700244023
 40
-44.99265700244023
 10
4.121503667498361
 20
0.0
 30
45.0345110018592
 10
4.365080563036424
 20
0.0
 30
45.04871168604156
 10
4.608275527624375
 20
0.0
 30
45.06726231482582
 10
6.47483617338964
 20
0.0
 30
45.24289328487907
 10
8.02058584288394
 20
0.0
 30
45.58320757327211
 10
11.55083180495988
 20
0.0
 30
46.72757682223214
 10
13.32447538385437
 20
0.0
 30
47.64716000732923
 10
15.93625036355181
 20
0.0
 30
49.23372594686679
 10
16.93445714486485
 20
0.0
 30
49.95551390069446
 10
18.2261620084407
 20
0.0
 30
50.80815563973565
 10
18.62242063695828
 20
0.0
 30
51.02546054025911
 10
18.9453813881293
 20
0.0
 30
51.0128808136103
 10
19.00032400472776
 20
0.0
 30
50.94376328017691
 10
19.00018304356102
 20
0.0
 30
50.82024099296782
  0
LINE
  5
50
330
48
100
AcDbEntity
  8
PV-B7
100
AcDbLine
 10
-14.0
 20
0.0
 30
-0.0000000000000099
 11
19.0
 21
0.0
 31
-0.0000000000000099
  0
LINE
  5
51
330
48
100
AcDbEntity
  8
PV-B7
100
AcDbLine
 10
19.0
 20
0.0
 30
-0.0000000000000099
 11
19.0
 21
0.0
 31
50.8204541772336
  0
LINE
  5
52
330
48
100
AcDbEntity
  8
PV-B7
100
AcDbLine
 10
-14.0
 20
0.0
 30
-0.0000000000000099
 11
-14.0
 21
0.0
 31
54.38571979926326
  0
LINE
  5
53
330
48
100
AcDbEntity
  8
PV-B7
100
AcDbLine
 10
387.4837131930953
 20
0.0
 30
49.50053532309084
 11
387.4837131930953
 21
0.0
 31
-0.0000000000000782
  0
LINE
  5
54
330
48
100
AcDbEntity
  8
PV-B7
100
AcDbLine
 10
420.4837131930951
 20
0.0
 30
57.24452904671831
 11
420.4837131930951
 21
0.0
 31
-0.0000000000000853
  0
SPLINE
  5
55
330
48
100
AcDbEntity
  8
PV-B7
100
AcDbSpline
210
0.0
220
-1.0
230
0.0
 70
     8
 71
     3
 72
    16
 73
    12
 74
     0
 42
0.0000000001
 43
0.0000000001
 40
39.50466637743649
 40
39.50466637743649
 40
39.50466637743649
 40
39.50466637743649
 40
42.78794737186497
 40
42.78794737186497
 40
50.39670255377107
 40
50.39670255377107
 40
57.9374516898007
 40
57.9374516898007
 40
65.94973603203789
 40
65.94973603203789
 40
71.0245340151079
 40
71.0245340151079
 40
71.0245340151079
 40
71.0245340151079
 10
-17.04822442454861
 20
0.0
 30
65.00000000000513
 10
-17.04822590512925
 20
0.0
 30
66.08970779486135
 10
-16.95919468686198
 20
0.0
 30
67.17994023470513
 10
-16.36760550013852
 20
0.0
 30
70.76200329763877
 10
-15.48225353278796
 20
0.0
 30
73.16288150354008
 10
-12.8738473593645
 20
0.0
 30
77.48595649203889
 10
-11.18161358331958
 20
0.0
 30
79.37369177312622
 10
-7.062294840349967
 20
0.0
 30
82.5184260995695
 10
-4.637280212010619
 20
0.0
 30
83.69699856990127
 10
-0.4157754903407823
 20
0.0
 30
84.78746971712348
 10
1.264448589115553
 20
0.0
 30
84.99998674315291
 10
2.947487932318741
 20
0.0
 30
84.99999242564973
  0
SPLINE
  5
56
330
48
100
AcDbEntity
  8
PV-B7
100
AcDbSpline
210
0.0
220
1.0
230
0.0
 70
     8
 71
     3
 72
    16
 73
    12
 74
     0
 42
0.0000000001
 43
0.0000000001
 40
11.23588416623358
 40
11.23588416623358
 40
11.23588416623358
 40
11.23588416623358
 40
14.46342802377817
 40
14.46342802377817
 40
20.89456281131498
 40
20.89456281131498
 40
28.34201865021308
 40
28.34201865021308
 40
35.25799375943868
 40
35.25799375943868
 40
39.50466637743649
 40
39.50466637743649
 40
39.50466637743649
 40
39.50466637743649
 10
-0.2624148307923764
 20
0.0
 30
45.25936547332332
 10
-1.319887583398622
 20
0.0
 30
45.43137738748193
 10
-2.363763010187208
 20
0.0
 30
45.68842594743406
 10
-5.416075717670335
 20
0.0
 30
46.70746958009732
 10
-7.326328084489554
 20
0.0
 30
47.70835298526721
 10
-11.0271805269961
 20
0.0
 30
50.48140173263981
 10
-12.71904013318798
 20
0.0
 30
52.32638867128656
 10
-15.24759449854942
 20
0.0
 30
56.39110923316282
 10
-16.11773822601517
 20
0.0
 30
58.54422505813478
 10
-16.89927385641607
 20
0.0
 30
62.18197047948912
 10
-17.04822250953091
 20
0.0
 30
63.59054638884984
 10
-17.04822442454861
 20
0.0
 30
65.00000000000513
  0
LINE
  5
57
330
48
100
AcDbEntity
  8
PV-B7
100
AcDbLine
 10
19.0
 20
0.0
 30
45.0
 11
387.4837131930953
 21
0.0
 31
45.0
  0
LINE
  5
58
330
48
100
AcDbEntity
  8
PV-B7
100
AcDbLine
 10
402.0525120809393
 20
0.0
 30
85.00000000000001
 11
2.947487919060676
 21
0.0
 31
85.00000000000001
  0
SPLINE
  5
59
330
48
100
AcDbEntity
  8
PV-B7
100
AcDbSpline
210
0.0
220
-1.0
230
0.0
 70
     8
 71
     3
 72
    14
 73
    10
 74
     0
 42
0.0000000001
 43
0.0000000001
 40
39.50466638259375
 40
39.50466638259375
 40
39.50466638259375
 40
39.50466638259375
 40
42.78794922962762
 40
42.78794922962762
 40
50.39670421571806
 40
50.39670421571806
 40
57.9374521171554
 40
57.9374521171554
 40
65.91638403187724
 40
65.91638403187724
 40
65.91638403187724
 40
65.91638403187724
 10
422.0482244245456
 20
0.0
 30
64.99999999999495
 10
422.048225905122
 20
0.0
 30
63.91029159093829
 10
421.95919458649
 20
0.0
 30
62.82005853828318
 10
421.3676049795155
 20
0.0
 30
59.23799498509016
 10
420.4822528256555
 20
0.0
 30
56.83711691949721
 10
417.8738465419448
 20
0.0
 30
52.51404255456883
 10
416.1816129498618
 20
0.0
 30
50.62630767586683
 10
412.0711280672248
 20
0.0
 30
47.48831735665576
 10
409.6574635953379
 20
0.0
 30
46.31282091432928
 10
407.0850216494666
 20
0.0
 30
45.64374759780868
  0
SPLINE
  5
5A
330
48
100
AcDbEntity
  8
PV-B7
100
AcDbSpline
210
0.0
220
1.0
230
0.0
 70
     8
 71
     3
 72
    16
 73
    12
 74
     0
 42
0.0000000001
 43
0.0000000001
 40
8.001320711898387
 40
8.001320711898387
 40
8.001320711898387
 40
8.001320711898387
 40
14.46342802115286
 40
14.46342802115286
 40
20.89456283180014
 40
20.89456283180014
 40
28.34201834451732
 40
28.34201834451732
 40
35.25799554494319
 40
35.25799554494319
 40
39.50466638259375
 40
39.50466638259375
 40
39.50466638259375
 40
39.50466638259375
 10
402.0525120751488
 20
0.0
 30
84.9999999563974
 10
404.2035772596878
 20
0.0
 30
84.99999930950998
 10
406.341583940671
 20
0.0
 30
84.65283825817147
 10
410.4160757227214
 20
0.0
 30
83.29253041849458
 10
412.3263280960421
 20
0.0
 30
82.29164700882071
 10
416.0271804548923
 20
0.0
 30
79.51859831820951
 10
417.7190399987337
 20
0.0
 30
77.67361147369759
 10
420.2475947363429
 20
0.0
 30
73.60889045065437
 10
421.117738651712
 20
0.0
 30
71.45577393303115
 10
421.8992739815051
 20
0.0
 30
67.81802834104303
 10
422.0482225095355
 20
0.0
 30
66.40945301939111
 10
422.0482244245456
 20
0.0
 30
64.99999999999495
  0
ENDBLK
  5
5C
330
48
100
AcDbEntity
  8
0
100
AcDbBlockEnd
  0
BLOCK
  5
60
330
5E
100
AcDbEntity
  8
0
100
AcDbBlockBegin
  2
FRONT
 70
     0
 10
0.0
 20
0.0
 30
0.0
  3
FRONT
  1

  0
INSERT
  5
5F
330
5E
100
AcDbEntity
  8
PV-B7
100
AcDbBlockReference
  2
*U0
 10
0.0
 20
0.0
 30
0.0
 50
180.0
210
0.0
220
1.0
230
0.0
  0
ENDBLK
  5
61
330
5E
100
AcDbEntity
  8
0
100
AcDbBlockEnd
  0
BLOCK
  5
70
330
63
100
AcDbEntity
  8
0
100
AcDbBlockBegin
  2
*U2
 70
     1
 10
0.0
 20
0.0
 30
0.0
  3
*U2
  1
*ANON
  0
LINE
  5
64
330
63
100
AcDbEntity
  8
PV-B7
100
AcDbLine
 10
0.0
 20
24.73790726583962
 30
65.00000000000001
 11
0.0
 21
23.16756104533385
 31
65.00000000000001
  0
SPLINE
  5
65
330
63
100
AcDbEntity
  8
PV-B7
100
AcDbSpline
210
1.0
220
0.0
230
0.0
 70
     8
 71
     3
 72
    10
 73
     6
 74
     0
 42
0.0000000001
 43
0.0000000001
 40
0.1889778448673339
 40
0.1889778448673339
 40
0.1889778448673339
 40
0.1889778448673339
 40
2.020784579303225
 40
2.020784579303225
 40
3.087381541281136
 40
3.087381541281136
 40
3.087381541281136
 40
3.087381541281136
 10
0.0
 20
24.09775594286112
 30
45.27910800829278
 10
0.0
 20
23.99244985557244
 30
45.17788547542314
 10
0.0
 20
23.91849735780759
 30
45.10881761529488
 10
0.0
 20
23.8559503902373
 30
45.0383770612399
 10
0.0
 20
23.84437307185629
 30
45.02057939318139
 10
0.0
 20
23.84434192923831
 30
45.01149887000986
  0
SPLINE
  5
66
330
63
100
AcDbEntity
  8
PV-B7
100
AcDbSpline
210
1.0
220
0.0
230
0.0
 70
     8
 71
     3
 72
    33
 73
    29
 74
     0
 42
0.0000000001
 43
0.0000000001
 40
-23.02414917146227
 40
-23.02414917146227
 40
-23.02414917146227
 40
-23.02414917146227
 40
-21.89565974393832
 40
-21.89565974393832
 40
-16.69073265551221
 40
-16.69073265551221
 40
-12.09385993120068
 40
-12.09385993120068
 40
-5.984076648609612
 40
-5.984076648609612
 40
-2.508240075312736
 40
-2.508240075312736
 40
0.0
 40
0.0
 40
0.0
 40
1.927664758091808
 40
1.927664758091808
 40
3.909368238411076
 40
3.909368238411076
 40
9.040644298459396
 40
9.040644298459396
 40
12.65709978552581
 40
12.65709978552581
 40
16.26191485652777
 40
16.26191485652777
 40
21.72365536025249
 40
21.72365536025249
 40
24.46268391694776
 40
24.46268391694776
 40
24.46268391694776
 40
24.46268391694776
 10
0.0
 20
56.84435224142753
 30
45.7088294631315
 10
0.0
 20
56.84432575838382
 30
45.82993027510386
 10
0.0
 20
56.82551713220842
 30
45.96550332685072
 10
0.0
 20
56.61872989067884
 30
46.80298136861559
 10
0.0
 20
56.07183029320267
 30
47.7602305964283
 10
0.0
 20
54.55065948435382
 30
49.82906552515864
 10
0.0
 20
53.63312669474414
 30
50.91179459554385
 10
0.0
 20
51.15810071152873
 30
53.4846912546104
 10
0.0
 20
49.5791248627978
 30
54.89868315224343
 10
0.0
 20
47.17022850015544
 30
56.5503361822479
 10
0.0
 20
46.18722874888863
 30
57.11959506883427
 10
0.0
 20
44.38331592045005
 30
57.7507934984386
 10
0.0
 20
43.59864007037261
 30
57.90704574947781
 10
0.0
 20
42.77165686057612
 30
57.90704574947781
 10
0.0
 20
42.13609314211526
 30
57.90704574947781
 10
0.0
 20
41.51264473636799
 30
57.81514512145264
 10
0.0
 20
40.25633254359457
 30
57.47935470558575
 10
0.0
 20
39.63699377634066
 30
57.23494584789995
 10
0.0
 20
37.50947586704656
 30
56.22476210107301
 10
0.0
 20
35.89105322650908
 30
55.12358630100687
 10
0.0
 20
33.14755437996559
 30
53.05634123578211
 10
0.0
 20
32.05714319919427
 30
52.17573786257844
 10
0.0
 20
30.02164236334611
 30
50.49022224911084
 10
0.0
 20
29.06396055105554
 30
49.67350409888889
 10
0.0
 20
26.87564021698417
 30
47.78300010132682
 10
0.0
 20
25.75758349341934
 30
46.79311727689087
 10
0.0
 20
24.58867047949004
 30
45.73855130490771
 10
0.0
 20
24.29046385884857
 30
45.46434310592267
 10
0.0
 20
24.09775594286112
 30
45.27910800829278
  0
LINE
  5
67
330
63
100
AcDbEntity
  8
PV-B7
100
AcDbLine
 10
0.0
 20
56.84429140834582
 30
-0.0000000000000099
 11
0.0
 21
23.84429140834581
 31
-0.0000000000000099
  0
LINE
  5
68
330
63
100
AcDbEntity
  8
PV-B7
100
AcDbLine
 10
0.0
 20
23.84429140834581
 30
-0.0000000000000099
 11
0.0
 21
23.84429140834581
 31
45.01156666071564
  0
LINE
  5
69
330
63
100
AcDbEntity
  8
PV-B7
100
AcDbLine
 10
0.0
 20
56.84429140834582
 30
-0.0000000000000099
 11
0.0
 21
56.84429140834582
 31
45.70877206855903
  0
ARC
  5
6A
330
63
100
AcDbEntity
  8
PV-B7
100
AcDbCircle
 10
-145.9957255609786
 20
65.0
 30
0.0
 40
125.0
210
-1.0
220
0.0
230
0.0
100
AcDbArc
 50
351.6368930938005
 51
8.363106906199449
  0
SPLINE
  5
6B
330
63
100
AcDbEntity
  8
PV-B7
100
AcDbSpline
210
1.0
220
0.0
230
0.0
 70
     8
 71
     3
 72
    18
 73
    14
 74
     0
 42
0.0000000001
 43
0.0000000001
 40
0.9820706565035987
 40
0.9820706565035987
 40
0.9820706565035987
 40
0.9820706565035987
 40
3.379034189376751
 40
3.379034189376751
 40
5.53507301578342
 40
5.53507301578342
 40
6.65563032237358
 40
6.65563032237358
 40
8.254447806768251
 40
8.254447806768251
 40
10.03865798822823
 40
10.03865798822823
 40
11.47688805038602
 40
11.47688805038602
 40
11.47688805038602
 40
11.47688805038602
 10
0.0
 20
22.32469826223672
 30
46.81921899720378
 10
0.0
 20
22.35478685035762
 30
46.61273352876443
 10
0.0
 20
22.38505327245389
 30
46.45779715861514
 10
0.0
 20
22.45180385601984
 30
46.19400647654345
 10
0.0
 20
22.48717978885669
 30
46.08034378254639
 10
0.0
 20
22.57380789928308
 30
45.88541518850821
 10
0.0
 20
22.61137492684626
 30
45.81019918033734
 10
0.0
 20
22.74315356519251
 30
45.60305212528843
 10
0.0
 20
22.8413020081096
 30
45.48600283897481
 10
0.0
 20
23.07726122615933
 30
45.2768112776582
 10
0.0
 20
23.22789407001553
 30
45.17924963182111
 10
0.0
 20
23.54195394300322
 30
45.05340668392642
 10
0.0
 20
23.69107058328007
 30
45.01777835358853
 10
0.0
 20
23.84427800984409
 30
45.005150213413
  0
SPLINE
  5
6C
330
63
100
AcDbEntity
  8
PV-B7
100
AcDbSpline
210
1.0
220
0.0
230
0.0
 70
     8
 71
     3
 72
    18
 73
    14
 74
     0
 42
0.0000000001
 43
0.0000000001
 40
0.0339373886710505
 40
0.0339373886710505
 40
0.0339373886710505
 40
0.0339373886710505
 40
0.7242711203091266
 40
0.7242711203091266
 40
1.450886087639254
 40
1.450886087639254
 40
2.055917953687443
 40
2.055917953687443
 40
2.447143055457309
 40
2.447143055457309
 40
3.334746910643961
 40
3.334746910643961
 40
3.722084131987517
 40
3.722084131987517
 40
3.722084131987517
 40
3.722084131987517
 10
0.0
 20
23.96945223705894
 30
84.99999998867732
 10
0.0
 20
23.75940137652377
 30
84.99999947868777
 10
0.0
 20
23.55486656935239
 30
84.95657047482035
 10
0.0
 20
23.17077106060071
 30
84.79182448272776
 10
0.0
 20
23.00702830288896
 30
84.67243661732196
 10
0.0
 20
22.7713458748478
 30
84.43415948616594
 10
0.0
 20
22.66897611364325
 30
84.29548554566434
 10
0.0
 20
22.54154424327578
 30
84.05013489157807
 10
0.0
 20
22.50933882295713
 30
83.9678158857397
 10
0.0
 20
22.42895184733295
 30
83.73832302469025
 10
0.0
 20
22.39482926302927
 30
83.58866853211845
 10
0.0
 20
22.34886013091312
 30
83.33620455853194
 10
0.0
 20
22.33644641888962
 30
83.26006395172898
 10
0.0
 20
22.32478300093565
 30
83.18074282786689
  0
LINE
  5
6D
330
63
100
AcDbEntity
  8
PV-B7
100
AcDbLine
 10
0.0
 20
210.598031139196
 30
45.0
 11
0.0
 21
56.84429140834584
 31
45.0
  0
LINE
  5
6E
330
63
100
AcDbEntity
  8
PV-B7
100
AcDbLine
 10
0.0
 20
23.96945298530407
 30
85.00000000000001
 11
0.0
 21
210.598031139196
 31
85.00000000000001
  0
ARC
  5
6F
330
63
100
AcDbEntity
  8
PV-B7
100
AcDbCircle
 10
-210.598031139196
 20
65.00000000000001
 30
0.0
 40
20.0
210
-1.0
220
0.0
230
0.0
100
AcDbArc
 50
89.99999999999877
 51
269.9999999999997
  0
ENDBLK
  5
71
330
63
100
AcDbEntity
  8
0
100
AcDbBlockEnd
  0
BLOCK
  5
74
330
72
100
AcDbEntity
  8
0
100
AcDbBlockBegin
  2
LEFT
 70
     0
 10
0.0
 20
0.0
 30
0.0
  3
LEFT
  1

  0
INSERT
  5
73
330
72
100
AcDbEntity
  8
PV-B7
100
AcDbBlockReference
  2
*U2
 10
0.0
 20
0.0
 30
0.0
 50
270.0
210
0.0
220
1.0
230
0.0
  0
ENDBLK
  5
75
330
72
100
AcDbEntity
  8
0
100
AcDbBlockEnd
  0
BLOCK
  5
86
330
77
100
AcDbEntity
  8
0
100
AcDbBlockBegin
  2
*U4
 70
     1
 10
0.0
 20
0.0
 30
0.0
  3
*U4
  1
*ANON
  0
LINE
  5
78
330
77
100
AcDbEntity
  8
PV-B7
100
AcDbLine
 10
0.0
 20
24.73790726583962
 30
65.00000000000001
 11
0.0
 21
23.16756104533383
 31
65.00000000000001
  0
LINE
  5
79
330
77
100
AcDbEntity
  8
PV-B7
100
AcDbLine
 10
0.0
 20
40.31523053309185
 30
64.99999999999992
 11
0.0
 21
45.14016820176717
 31
64.99999999999992
  0
SPLINE
  5
7A
330
77
100
AcDbEntity
  8
PV-B7
100
AcDbSpline
210
1.0
220
0.0
230
0.0
 70
     8
 71
     3
 72
    10
 73
     6
 74
     0
 42
0.0000000001
 43
0.0000000001
 40
2.194200836464808
 40
2.194200836464808
 40
2.194200836464808
 40
2.194200836464808
 40
3.726510382600636
 40
3.726510382600636
 40
5.512960014651413
 40
5.512960014651413
 40
5.512960014651413
 40
5.512960014651413
 10
0.0
 20
23.84452266257413
 30
45.10530624731965
 10
0.0
 20
23.84465574163951
 30
45.15710584184922
 10
0.0
 20
23.86844199366343
 30
45.22647978398484
 10
0.0
 20
23.96961039834887
 30
45.41019787705404
 10
0.0
 20
24.05568946770634
 30
45.53236322618515
 10
0.0
 20
24.16947726629282
 30
45.68585644061252
  0
LINE
  5
7B
330
77
100
AcDbEntity
  8
PV-B7
100
AcDbLine
 10
0.0
 20
56.84429140834582
 30
-0.0000000000000836
 11
0.0
 21
23.84429140834581
 31
-0.0000000000000836
  0
SPLINE
  5
7C
330
77
100
AcDbEntity
  8
PV-B7
100
AcDbSpline
210
1.0
220
0.0
230
0.0
 70
     8
 71
     3
 72
    24
 73
    20
 74
     0
 42
0.0000000001
 43
0.0000000001
 40
-43.67801840706454
 40
-43.67801840706454
 40
-43.67801840706454
 40
-43.67801840706454
 40
-43.43084239078089
 40
-43.43084239078089
 40
-43.06040753802128
 40
-43.06040753802128
 40
-42.54737785613222
 40
-42.54737785613222
 40
-41.86945032056995
 40
-41.86945032056995
 40
-40.58988837389128
 40
-40.58988837389128
 40
-38.49329772182722
 40
-38.49329772182722
 40
-35.87147774321032
 40
-35.87147774321032
 40
-33.51129826250657
 40
-33.51129826250657
 40
-33.43746360248974
 40
-33.43746360248974
 40
-33.43746360248974
 40
-33.43746360248974
 10
0.0
 20
45.14016820176659
 30
64.99999999999992
 10
0.0
 20
45.14016820176659
 30
64.7730883909182
 10
0.0
 20
45.16722993205084
 30
64.55141318616753
 10
0.0
 20
45.29197202193517
 30
64.00031533210874
 10
0.0
 20
45.4168223311403
 30
63.67986825068427
 10
0.0
 20
45.7603853911161
 30
62.96158209935246
 10
0.0
 20
46.01450917579821
 30
62.54456162898697
 10
0.0
 20
46.59560686013714
 30
61.6637048925883
 10
0.0
 20
46.96288014403888
 30
61.1618286769881
 10
0.0
 20
48.00837517896123
 30
59.77627754736206
 10
0.0
 20
48.72065017790855
 30
58.8845549446226
 10
0.0
 20
50.56212097000385
 30
56.56357549471266
 10
0.0
 20
51.66587385940989
 30
55.16351565263574
 10
0.0
 20
53.8899771756987
 30
52.17261214421597
 10
0.0
 20
54.96195253566195
 30
50.60615443137503
 10
0.0
 20
56.3973668939921
 30
48.02913779459995
 10
0.0
 20
56.81807525663416
 30
46.98444105908306
 10
0.0
 20
56.84389856580359
 30
46.20988564642138
 10
0.0
 20
56.84429211115995
 30
46.18670349833807
 10
0.0
 20
56.84429338333973
 30
46.16383691407672
  0
SPLINE
  5
7D
330
77
100
AcDbEntity
  8
PV-B7
100
AcDbSpline
210
1.0
220
0.0
230
0.0
 70
     8
 71
     3
 72
    20
 73
    16
 74
     0
 42
0.0000000001
 43
0.0000000001
 40
-12.98274434307755
 40
-12.98274434307755
 40
-12.98274434307755
 40
-12.98274434307755
 40
-11.3083172778678
 40
-11.3083172778678
 40
-8.751257944213547
 40
-8.751257944213547
 40
-6.263885900021295
 40
-6.263885900021295
 40
-4.022399031808397
 40
-4.022399031808397
 40
-2.093241166998093
 40
-2.093241166998093
 40
-0.8065514724091048
 40
-0.8065514724091048
 40
0.0
 40
0.0
 40
0.0
 40
0.0
 10
0.0
 20
24.16947726629282
 30
45.68585644061252
 10
0.0
 20
24.46608884152437
 30
46.08596844502812
 10
0.0
 20
24.95164367294734
 30
46.64805624761556
 10
0.0
 20
26.53273291983911
 30
48.38842263484714
 10
0.0
 20
27.79327109476586
 30
49.71184106329904
 10
0.0
 20
30.55138459726487
 30
52.59588080178985
 10
0.0
 20
32.04975288326277
 30
54.15502141840729
 10
0.0
 20
34.95439345267478
 30
57.2454353706915
 10
0.0
 20
36.23181046793568
 30
58.63276069955568
 10
0.0
 20
38.219648620412
 30
60.94223667295196
 10
0.0
 20
39.00465992189282
 30
61.9251823465154
 10
0.0
 20
39.88043110013609
 30
63.3352511292306
 10
0.0
 20
40.09035108665828
 30
63.79913552155976
 10
0.0
 20
40.27550167750585
 30
64.47037955579396
 10
0.0
 20
40.31523053309219
 30
64.73114950919688
 10
0.0
 20
40.31523053309221
 30
64.99999999999992
  0
LINE
  5
7E
330
77
100
AcDbEntity
  8
PV-B7
100
AcDbLine
 10
0.0
 20
23.84429140834581
 30
45.10561454346095
 11
0.0
 21
23.84429140834581
 31
-0.0000000000000853
  0
LINE
  5
7F
330
77
100
AcDbEntity
  8
PV-B7
100
AcDbLine
 10
0.0
 20
56.84429140834582
 30
46.16383469792015
 11
0.0
 21
56.84429140834582
 31
-0.0000000000000853
  0
ARC
  5
80
330
77
100
AcDbEntity
  8
PV-B7
100
AcDbCircle
 10
145.9957255609786
 20
64.99999999999992
 30
0.0
 40
124.9999999999999
210
1.0
220
0.0
230
0.0
100
AcDbArc
 50
171.6368930938005
 51
188.3631069061993
  0
LINE
  5
81
330
77
100
AcDbEntity
  8
PV-B7
100
AcDbLine
 10
0.0
 20
56.84429140834581
 30
45.0
 11
0.0
 21
210.598031139196
 31
45.0
  0
LINE
  5
82
330
77
100
AcDbEntity
  8
PV-B7
100
AcDbLine
 10
0.0
 20
210.598031139196
 30
85.00000000000001
 11
0.0
 21
23.96945298530412
 31
85.00000000000001
  0
ARC
  5
83
330
77
100
AcDbEntity
  8
PV-B7
100
AcDbCircle
 10
210.598031139196
 20
65.00000000000001
 30
0.0
 40
20.0
210
1.0
220
0.0
230
0.0
100
AcDbArc
 50
269.9999999999997
 51
90.00000000000122
  0
SPLINE
  5
84
330
77
100
AcDbEntity
  8
PV-B7
100
AcDbSpline
210
1.0
220
0.0
230
0.0
 70
     8
 71
     3
 72
    18
 73
    14
 74
     0
 42
0.0000000001
 43
0.0000000001
 40
0.9820706565338888
 40
0.9820706565338888
 40
0.9820706565338888
 40
0.9820706565338888
 40
3.379034189387962
 40
3.379034189387962
 40
5.535073015780876
 40
5.535073015780876
 40
6.655630322364888
 40
6.655630322364888
 40
8.254447806738335
 40
8.254447806738335
 40
10.03865798815203
 40
10.03865798815203
 40
11.86606730997654
 40
11.86606730997654
 40
11.86606730997654
 40
11.86606730997654
 10
0.0
 20
22.32469826223856
 30
83.18078100280883
 10
0.0
 20
22.3547868503593
 30
83.38726647124492
 10
0.0
 20
22.38505327245551
 30
83.54220284139241
 10
0.0
 20
22.45180385602155
 30
83.80599352346214
 10
0.0
 20
22.48717978885857
 30
83.91965621745875
 10
0.0
 20
22.5738078992853
 30
84.11458481149628
 10
0.0
 20
22.61137492684862
 30
84.18980081966687
 10
0.0
 20
22.74315356519437
 30
84.39694787471372
 10
0.0
 20
22.84130200811087
 30
84.5139971610269
 10
0.0
 20
23.07726122616333
 30
84.72318872234472
 10
0.0
 20
23.22789407002023
 30
84.82075036818152
 10
0.0
 20
23.57988345593551
 30
84.9617915700688
 10
0.0
 20
23.77242637933313
 30
84.9999996093762
 10
0.0
 20
23.96945234909203
 30
84.99999999164655
  0
SPLINE
  5
85
330
77
100
AcDbEntity
  8
PV-B7
100
AcDbSpline
210
1.0
220
0.0
230
0.0
 70
     8
 71
     3
 72
    18
 73
    14
 74
     0
 42
0.0000000001
 43
0.0000000001
 40
0.1718970133933356
 40
0.1718970133933356
 40
0.1718970133933356
 40
0.1718970133933356
 40
0.7242711203092185
 40
0.7242711203092185
 40
1.450886087638658
 40
1.450886087638658
 40
2.055917953689299
 40
2.055917953689299
 40
2.44714305546163
 40
2.44714305546163
 40
3.334746910656253
 40
3.334746910656253
 40
3.722084131995128
 40
3.722084131995128
 40
3.722084131995128
 40
3.722084131995128
 10
0.0
 20
23.84427528962399
 30
45.00515102599556
 10
0.0
 20
23.6783460294675
 30
45.01882975200506
 10
0.0
 20
23.51746953988737
 30
45.05946983437392
 10
0.0
 20
23.17077106060043
 30
45.20817551727247
 10
0.0
 20
23.00702830288864
 30
45.32756338267829
 10
0.0
 20
22.77134587484691
 30
45.56584051383504
 10
0.0
 20
22.66897611364274
 30
45.70451445433652
 10
0.0
 20
22.54154424327566
 30
45.9498651084222
 10
0.0
 20
22.50933882295703
 30
46.03218411426058
 10
0.0
 20
22.4289518473331
 30
46.26167697530925
 10
0.0
 20
22.39482926302946
 30
46.41133146788066
 10
0.0
 20
22.34886013091375
 30
46.66379544146436
 10
0.0
 20
22.33644641889051
 30
46.73993604826532
 10
0.0
 20
22.32478300093679
 30
46.8192571721251
  0
ENDBLK
  5
87
330
77
100
AcDbEntity
  8
0
100
AcDbBlockEnd
  0
BLOCK
  5
8A
330
88
100
AcDbEntity
  8
0
100
AcDbBlockBegin
  2
RIGHT
 70
     0
 10
0.0
 20
0.0
 30
0.0
  3
RIGHT
  1

  0
INSERT
  5
89
330
88
100
AcDbEntity
  8
PV-B7
100
AcDbBlockReference
  2
*U4
 10
0.0
 20
0.0
 30
0.0
 50
90.0
210
0.0
220
1.0
230
0.0
  0
ENDBLK
  5
8B
330
88
100
AcDbEntity
  8
0
100
AcDbBlockEnd
  0
BLOCK
  5
9B
330
8D
100
AcDbEntity
  8
0
100
AcDbBlockBegin
  2
*U6
 70
     1
 10
0.0
 20
0.0
 30
0.0
  3
*U6
  1
*ANON
  0
ARC
  5
8E
330
8D
100
AcDbEntity
  8
PV-B7
100
AcDbCircle
 10
420.5482309258533
 20
24.64149901952157
 30
0.0
 40
1.5
100
AcDbArc
 50
280.6961358307635
 51
3.685063837189121
  0
ARC
  5
8F
330
8D
100
AcDbEntity
  8
PV-B7
100
AcDbCircle
 10
403.9837131930951
 20
40.34429140834581
 30
0.0
 40
16.5
100
AcDbArc
 50
359.8990868871596
 51
16.89742545695729
  0
ARC
  5
90
330
8D
100
AcDbEntity
  8
PV-B7
100
AcDbCircle
 10
202.4999999999999
 20
10.59803113919602
 30
0.0
 40
220.0
100
AcDbArc
 50
7.763140627694866
 51
9.033371716421427
  0
ARC
  5
91
330
8D
100
AcDbEntity
  8
PV-B7
100
AcDbCircle
 10
-15.54823092585339
 20
24.64149901952159
 30
0.0
 40
1.499999999999999
100
AcDbArc
 50
176.3149361628123
 51
259.303864169235
  0
ARC
  5
92
330
8D
100
AcDbEntity
  8
PV-B7
100
AcDbCircle
 10
397.6265883031117
 20
145.9957255609786
 30
0.0
 40
124.9999999999999
100
AcDbArc
 50
263.4575070944466
 51
280.6961358307645
  0
ARC
  5
93
330
8D
100
AcDbEntity
  8
PV-B7
100
AcDbCircle
 10
7.373411696888316
 20
145.9957255609786
 30
0.0
 40
124.9999999999999
100
AcDbArc
 50
259.3038641692355
 51
276.5424929055533
  0
SPLINE
  5
94
330
8D
100
AcDbEntity
  8
PV-B7
100
AcDbSpline
210
0.0
220
0.0
230
1.0
 70
     8
 71
     3
 72
    14
 73
    10
 74
     0
 42
0.0000000001
 43
0.0000000001
 40
0.0094678687644511
 40
0.0094678687644511
 40
0.0094678687644511
 40
0.0094678687644511
 40
0.5859667100803884
 40
0.5859667100803884
 40
1.171933420160782
 40
1.171933420160782
 40
1.684831946393943
 40
1.684831946393943
 40
2.188262786728163
 40
2.188262786728163
 40
2.188262786728163
 40
2.188262786728163
 10
-15.82663144350791
 20
23.16756104549594
 30
0.0
 10
-16.01540156594797
 20
23.20321635497907
 30
0.0
 10
-16.19560727761396
 20
23.27481261126298
 30
0.0
 10
-16.52187810426795
 20
23.48384538042555
 30
0.0
 10
-16.66418918935652
 20
23.62032913636502
 30
0.0
 10
-16.87450033932037
 20
23.92022315271567
 30
0.0
 10
-16.94801381711721
 20
24.07595742913251
 30
0.0
 10
-17.03853291715416
 20
24.40241688962471
 30
0.0
 10
-17.05591220214841
 20
24.57048832722259
 30
0.0
 10
-17.04512953621839
 20
24.73790726583253
 30
0.0
  0
SPLINE
  5
95
330
8D
100
AcDbEntity
  8
PV-B7
100
AcDbSpline
210
0.0
220
0.0
230
1.0
 70
     8
 71
     3
 72
    14
 73
    10
 74
     0
 42
0.0000000001
 43
0.0000000001
 40
0.0559107147798664
 40
0.0559107147798664
 40
0.0559107147798664
 40
0.0559107147798664
 40
0.5859667100803902
 40
0.5859667100803902
 40
1.171933420160778
 40
1.171933420160778
 40
1.684831946393951
 40
1.684831946393951
 40
2.141826096816829
 40
2.141826096816829
 40
2.141826096816829
 40
2.141826096816829
 10
22.94133086643758
 20
23.19502873737764
 30
0.0
 10
22.92898589186072
 20
23.01906562503253
 30
0.0
 10
22.88568555830614
 20
22.84649764833689
 30
0.0
 10
22.7332429619018
 20
22.50715875314028
 30
0.0
 10
22.61916785861247
 20
22.34632613398623
 30
0.0
 10
22.35345724962733
 20
22.09420498629171
 30
0.0
 10
22.21022497906819
 20
21.99859163503082
 30
0.0
 10
21.91476951723448
 20
21.86733851448181
 30
0.0
 10
21.76704407465393
 20
21.82710451859075
 30
0.0
 10
21.61591873273461
 20
21.80977229294055
 30
0.0
  0
ARC
  5
96
330
8D
100
AcDbEntity
  8
PV-B7
100
AcDbCircle
 10
202.4999999999999
 20
10.59803113919602
 30
0.0
 40
180.0
100
AcDbArc
 50
4.013029173756961
 51
175.9869708262429
  0
ARC
  5
97
330
8D
100
AcDbEntity
  8
PV-B7
100
AcDbCircle
 10
202.4999999999999
 20
10.59803113919602
 30
0.0
 40
220.0
100
AcDbArc
 50
9.033371716421427
 51
176.3149361628124
  0
ARC
  5
98
330
8D
100
AcDbEntity
  8
PV-B7
100
AcDbCircle
 10
202.4999999999999
 20
10.59803113919602
 30
0.0
 40
220.0
100
AcDbArc
 50
3.685063837187616
 51
7.763140627694866
  0
SPLINE
  5
99
330
8D
100
AcDbEntity
  8
PV-B7
100
AcDbSpline
210
0.0
220
0.0
230
1.0
 70
     8
 71
     3
 72
    14
 73
    10
 74
     0
 42
0.0000000001
 43
0.0000000001
 40
0.0559107159247655
 40
0.0559107159247655
 40
0.0559107159247655
 40
0.0559107159247655
 40
0.5859667100804024
 40
0.5859667100804024
 40
1.171933420160778
 40
1.171933420160778
 40
1.684831946393383
 40
1.684831946393383
 40
2.141826097961603
 40
2.141826097961603
 40
2.141826097961603
 40
2.141826097961603
 10
383.3840812683398
 20
21.80977230231117
 30
0.0
 10
383.208834426891
 20
21.82987105175998
 30
0.0
 10
383.0383455699648
 20
21.88074516100019
 30
0.0
 10
382.7060650760019
 20
22.04801531386539
 30
0.0
 10
382.5504236541275
 20
22.16907731604333
 30
0.0
 10
382.3102747994555
 20
22.44565592772846
 30
0.0
 10
382.2210758967179
 20
22.59296835768333
 30
0.0
 10
382.1029900358167
 20
22.89392855651898
 30
0.0
 10
382.0693148277749
 20
23.04328571668807
 30
0.0
 10
382.0586691241533
 20
23.19502873671793
 30
0.0
  0
SPLINE
  5
9A
330
8D
100
AcDbEntity
  8
PV-B7
100
AcDbSpline
210
0.0
220
0.0
230
1.0
 70
     8
 71
     3
 72
    14
 73
    10
 74
     0
 42
0.0000000001
 43
0.0000000001
 40
0.0094678687638719
 40
0.0094678687638719
 40
0.0094678687638719
 40
0.0094678687638719
 40
0.5859667100803893
 40
0.5859667100803893
 40
1.17193342016079
 40
1.17193342016079
 40
1.684831946393373
 40
1.684831946393373
 40
2.188262786727638
 40
2.188262786727638
 40
2.188262786727638
 40
2.188262786727638
 10
422.0451295361637
 20
24.73790726582901
 30
0.0
 10
422.0574767193063
 20
24.54619652724381
 30
0.0
 10
422.0328820153
 20
24.35385510433694
 30
0.0
 10
421.9114359040092
 20
23.98589016991826
 30
0.0
 10
421.81457500263
 20
23.81413969289286
 30
0.0
 10
421.5763136644126
 20
23.53593341051817
 30
0.0
 10
421.4437180600884
 20
23.42604345655187
 30
0.0
 10
421.1499707160069
 20
23.25727739165369
 30
0.0
 10
420.9914823742001
 20
23.19869844326374
 30
0.0
 10
420.826631443518
 20
23.1675610454421
 30
0.0
  0
ENDBLK
  5
9C
330
8D
100
AcDbEntity
  8
0
100
AcDbBlockEnd
  0
BLOCK
  5
9F
330
9D
100
AcDbEntity
  8
0
100
AcDbBlockBegin
  2
TOP
 70
     0
 10
0.0
 20
0.0
 30
0.0
  3
TOP
  1

  0
INSERT
  5
9E
330
9D
100
AcDbEntity
  8
PV-B7
100
AcDbBlockReference
  2
*U6
 10
0.0
 20
0.0
 30
0.0
  0
ENDBLK
  5
A0
330
9D
100
AcDbEntity
  8
0
100
AcDbBlockEnd
  0
ENDSEC
  0
SECTION
  2
ENTITIES
  0
LINE
  5
B2
330
1F
100
AcDbEntity
  8
PV-B7
100
AcDbLine
 10
-513.2276471795511
 20
22.49999999500005
 30
0.0000000000000015
 11
-514.7979934000569
 21
22.49999999500005
 31
0.0000000000000014
210
0.0
220
1.0
230
0.0
  0
LINE
  5
B3
330
1F
100
AcDbEntity
  8
PV-B7
100
AcDbLine
 10
-497.6503239122989
 20
22.49999999499996
 30
0.0000000000000025
 11
-492.8253862436236
 21
22.49999999499996
 31
0.0000000000000028
210
0.0
220
1.0
230
0.0
  0
SPLINE
  5
B4
330
1F
100
AcDbEntity
  8
PV-B7
100
AcDbSpline
210
0.0
220
0.0
230
1.0
 70
     8
 71
     3
 72
    10
 73
     6
 74
     0
 42
0.0000000001
 43
0.0000000001
 40
2.194200836464808
 40
2.194200836464808
 40
2.194200836464808
 40
2.194200836464808
 40
3.726510382600636
 40
3.726510382600636
 40
5.512960014651413
 40
5.512960014651413
 40
5.512960014651413
 40
5.512960014651413
 10
-514.1210317828166
 20
2.605306242319691
 30
0.0000000000000015
 10
-514.1208987037513
 20
2.657105836849261
 30
0.0000000000000015
 10
-514.0971124517274
 20
2.726479778984881
 30
0.0000000000000015
 10
-513.9959440470419
 20
2.910197872054084
 30
0.0000000000000015
 10
-513.9098649776845
 20
3.032363221185185
 30
0.0000000000000015
 10
-513.796077179098
 20
3.185856435612564
 30
0.0000000000000015
  0
LINE
  5
B5
330
1F
100
AcDbEntity
  8
PV-B7
100
AcDbLine
 10
-481.1212630370449
 20
-42.50000000500004
 30
0.0000000000000035
 11
-514.1212630370449
 21
-42.50000000500004
 31
0.0000000000000015
210
0.0
220
1.0
230
0.0
  0
SPLINE
  5
B6
330
1F
100
AcDbEntity
  8
PV-B7
100
AcDbSpline
210
0.0
220
0.0
230
1.0
 70
     8
 71
     3
 72
    24
 73
    20
 74
     0
 42
0.0000000001
 43
0.0000000001
 40
-43.67801840706454
 40
-43.67801840706454
 40
-43.67801840706454
 40
-43.67801840706454
 40
-43.43084239078089
 40
-43.43084239078089
 40
-43.06040753802128
 40
-43.06040753802128
 40
-42.54737785613222
 40
-42.54737785613222
 40
-41.86945032056995
 40
-41.86945032056995
 40
-40.58988837389128
 40
-40.58988837389128
 40
-38.49329772182722
 40
-38.49329772182722
 40
-35.87147774321032
 40
-35.87147774321032
 40
-33.51129826250657
 40
-33.51129826250657
 40
-33.43746360248974
 40
-33.43746360248974
 40
-33.43746360248974
 40
-33.43746360248974
 10
-492.8253862436242
 20
22.49999999499996
 30
0.0000000000000028
 10
-492.8253862436242
 20
22.27308838591824
 30
0.0000000000000028
 10
-492.7983245133399
 20
22.05141318116757
 30
0.0000000000000028
 10
-492.6735824234556
 20
21.50031532710877
 30
0.0000000000000028
 10
-492.5487321142504
 20
21.17986824568431
 30
0.0000000000000028
 10
-492.2051690542747
 20
20.4615820943525
 30
0.0000000000000028
 10
-491.9510452695925
 20
20.044561623987
 30
0.0000000000000028
 10
-491.3699475852537
 20
19.16370488758833
 30
0.0000000000000029
 10
-491.0026743013519
 20
18.66182867198814
 30
0.0000000000000029
 10
-489.9571792664295
 20
17.2762775423621
 30
0.0000000000000029
 10
-489.2449042674822
 20
16.38455493962263
 30
0.000000000000003
 10
-487.4034334753869
 20
14.06357548971269
 30
0.0000000000000031
 10
-486.2996805859808
 20
12.66351564763578
 30
0.0000000000000032
 10
-484.0755772696921
 20
9.672612139216006
 30
0.0000000000000033
 10
-483.0036019097288
 20
8.106154426375063
 30
0.0000000000000034
 10
-481.5681875513987
 20
5.529137789599992
 30
0.0000000000000035
 10
-481.1474791887566
 20
4.484441054083099
 30
0.0000000000000035
 10
-481.1216558795871
 20
3.709885641421422
 30
0.0000000000000035
 10
-481.1212623342308
 20
3.686703493338107
 30
0.0000000000000035
 10
-481.121261062051
 20
3.663836909076763
 30
0.0000000000000035
  0
SPLINE
  5
B7
330
1F
100
AcDbEntity
  8
PV-B7
100
AcDbSpline
210
0.0
220
0.0
230
1.0
 70
     8
 71
     3
 72
    20
 73
    16
 74
     0
 42
0.0000000001
 43
0.0000000001
 40
-12.98274434307755
 40
-12.98274434307755
 40
-12.98274434307755
 40
-12.98274434307755
 40
-11.3083172778678
 40
-11.3083172778678
 40
-8.751257944213547
 40
-8.751257944213547
 40
-6.263885900021295
 40
-6.263885900021295
 40
-4.022399031808397
 40
-4.022399031808397
 40
-2.093241166998093
 40
-2.093241166998093
 40
-0.8065514724091048
 40
-0.8065514724091048
 40
0.0
 40
0.0
 40
0.0
 40
0.0
 10
-513.796077179098
 20
3.185856435612564
 30
0.0000000000000015
 10
-513.4994656038664
 20
3.585968440028153
 30
0.0000000000000015
 10
-513.0139107724435
 20
4.148056242615602
 30
0.0000000000000015
 10
-511.4328215255516
 20
5.888422629847184
 30
0.0000000000000016
 10
-510.1722833506249
 20
7.211841058299071
 30
0.0000000000000017
 10
-507.4141698481259
 20
10.09588079678988
 30
0.0000000000000019
 10
-505.915801562128
 20
11.65502141340732
 30
0.000000000000002
 10
-503.011160992716
 20
14.74543536569154
 30
0.0000000000000021
 10
-501.7337439774551
 20
16.13276069455572
 30
0.0000000000000022
 10
-499.7459058249788
 20
18.44223666795199
 30
0.0000000000000023
 10
-498.9608945234979
 20
19.42518234151543
 30
0.0000000000000024
 10
-498.0851233452547
 20
20.83525112423064
 30
0.0000000000000024
 10
-497.8752033587324
 20
21.29913551655979
 30
0.0000000000000025
 10
-497.6900527678849
 20
21.970379550794
 30
0.0000000000000025
 10
-497.6503239122986
 20
22.23114950419692
 30
0.0000000000000025
 10
-497.6503239122986
 20
22.49999999499996
 30
0.0000000000000025
  0
LINE
  5
B8
330
1F
100
AcDbEntity
  8
PV-B7
100
AcDbLine
 10
-514.1212630370449
 20
2.605614538460983
 30
0.0000000000000015
 11
-514.1212630370449
 21
-42.50000000500004
 31
0.0000000000000015
210
0.0
220
1.0
230
0.0
  0
LINE
  5
B9
330
1F
100
AcDbEntity
  8
PV-B7
100
AcDbLine
 10
-481.1212630370449
 20
3.663834692920197
 30
0.0000000000000035
 11
-481.1212630370449
 21
-42.50000000500004
 31
0.0000000000000035
210
0.0
220
1.0
230
0.0
  0
ARC
  5
BA
330
1F
100
AcDbEntity
  8
PV-B7
100
AcDbCircle
 10
-391.969828884412
 20
22.49999999499996
 30
0.0000000000000089
 40
124.9999999999999
100
AcDbArc
 50
171.6368930938005
 51
188.3631069061994
  0
LINE
  5
BB
330
1F
100
AcDbEntity
  8
PV-B7
100
AcDbLine
 10
-481.1212630370449
 20
2.499999995000045
 30
0.0000000000000035
 11
-327.3675233061948
 21
2.499999995000045
 31
0.0000000000000129
210
0.0
220
1.0
230
0.0
  0
LINE
  5
BC
330
1F
100
AcDbEntity
  8
PV-B7
100
AcDbLine
 10
-327.3675233061948
 20
42.49999999500005
 30
0.0000000000000129
 11
-513.9961014600867
 21
42.49999999500005
 31
0.0000000000000015
210
0.0
220
1.0
230
0.0
  0
ARC
  5
BD
330
1F
100
AcDbEntity
  8
PV-B7
100
AcDbCircle
 10
-327.3675233061948
 20
22.49999999500005
 30
0.0000000000000129
 40
20.0
100
AcDbArc
 50
270.0
 51
90.0
  0
SPLINE
  5
BE
330
1F
100
AcDbEntity
  8
PV-B7
100
AcDbSpline
210
0.0
220
0.0
230
1.0
 70
     8
 71
     3
 72
    18
 73
    14
 74
     0
 42
0.0000000001
 43
0.0000000001
 40
0.9820706565338888
 40
0.9820706565338888
 40
0.9820706565338888
 40
0.9820706565338888
 40
3.379034189387962
 40
3.379034189387962
 40
5.535073015780876
 40
5.535073015780876
 40
6.655630322364888
 40
6.655630322364888
 40
8.254447806738335
 40
8.254447806738335
 40
10.03865798815203
 40
10.03865798815203
 40
11.86606730997654
 40
11.86606730997654
 40
11.86606730997654
 40
11.86606730997654
 10
-515.6408561831522
 20
40.68078099780886
 30
0.0000000000000014
 10
-515.6107675950314
 20
40.88726646624495
 30
0.0000000000000014
 10
-515.5805011729353
 20
41.04220283639245
 30
0.0000000000000014
 10
-515.5137505893692
 20
41.30599351846218
 30
0.0000000000000014
 10
-515.4783746565321
 20
41.41965621245879
 30
0.0000000000000014
 10
-515.3917465461055
 20
41.6145848064963
 30
0.0000000000000014
 10
-515.3541795185422
 20
41.68980081466691
 30
0.0000000000000014
 10
-515.2224008801964
 20
41.89694786971377
 30
0.0000000000000014
 10
-515.1242524372799
 20
42.01399715602694
 30
0.0000000000000014
 10
-514.8882932192275
 20
42.22318871734475
 30
0.0000000000000014
 10
-514.7376603753705
 20
42.32075036318156
 30
0.0000000000000014
 10
-514.3856709894553
 20
42.46179156506883
 30
0.0000000000000014
 10
-514.1931280660576
 20
42.49999960437624
 30
0.0000000000000015
 10
-513.9961020962987
 20
42.49999998664658
 30
0.0000000000000015
  0
SPLINE
  5
BF
330
1F
100
AcDbEntity
  8
PV-B7
100
AcDbSpline
210
0.0
220
0.0
230
1.0
 70
     8
 71
     3
 72
    18
 73
    14
 74
     0
 42
0.0000000001
 43
0.0000000001
 40
0.1718970133933356
 40
0.1718970133933356
 40
0.1718970133933356
 40
0.1718970133933356
 40
0.7242711203092185
 40
0.7242711203092185
 40
1.450886087638658
 40
1.450886087638658
 40
2.055917953689299
 40
2.055917953689299
 40
2.44714305546163
 40
2.44714305546163
 40
3.334746910656253
 40
3.334746910656253
 40
3.722084131995128
 40
3.722084131995128
 40
3.722084131995128
 40
3.722084131995128
 10
-514.1212791557668
 20
2.505151020995604
 30
0.0000000000000015
 10
-514.2872084159233
 20
2.518829747005099
 30
0.0000000000000014
 10
-514.4480849055034
 20
2.559469829373959
 30
0.0000000000000014
 10
-514.7947833847904
 20
2.708175512272511
 30
0.0000000000000014
 10
-514.9585261425021
 20
2.82756337767833
 30
0.0000000000000014
 10
-515.1942085705439
 20
3.06584050883508
 30
0.0000000000000014
 10
-515.296578331748
 20
3.204514449336564
 30
0.0000000000000014
 10
-515.4240102021151
 20
3.44986510342224
 30
0.0000000000000014
 10
-515.4562156224337
 20
3.532184109260619
 30
0.0000000000000014
 10
-515.5366025980576
 20
3.761676970309288
 30
0.0000000000000014
 10
-515.5707251823613
 20
3.911331462880696
 30
0.0000000000000014
 10
-515.616694314477
 20
4.163795436464397
 30
0.0000000000000014
 10
-515.6291080265003
 20
4.239936043265359
 30
0.0000000000000014
 10
-515.6407714444539
 20
4.319257167125137
 30
0.0000000000000014
  0
LINE
  5
C1
330
1F
100
AcDbEntity
  8
PV-B7
100
AcDbLine
 10
219.5482309258534
 20
22.50000000000006
 30
0.0000000000000517
 11
218.3266314435384
 21
22.50000000000006
 31
0.0000000000000515
210
0.0
220
1.0
230
0.0
  0
SPLINE
  5
C2
330
1F
100
AcDbEntity
  8
PV-B7
100
AcDbSpline
210
0.0000000000000018
220
-0.0000000000000146
230
1.0
 70
     8
 71
     3
 72
    12
 73
     8
 74
     0
 42
0.0000000001
 43
0.0000000001
 40
0.1872935404127729
 40
0.1872935404127729
 40
0.1872935404127729
 40
0.1872935404127729
 40
1.368947104454635
 40
1.368947104454635
 40
3.726510382600636
 40
3.726510382600636
 40
5.346415671881053
 40
5.346415671881053
 40
5.346415671881053
 40
5.346415671881053
 10
199.4784458260625
 20
2.500137239328275
 30
0.0000000000000492
 10
199.869853709113
 20
2.498702345850773
 30
0.0000000000000493
 10
200.264275258575
 20
2.512365019659483
 30
0.0000000000000493
 10
201.4412233358009
 20
2.586862201819691
 30
0.0000000000000495
 10
202.2383072047764
 20
2.680795829891543
 30
0.0000000000000496
 10
203.5423632317094
 20
2.900978404527648
 30
0.0000000000000497
 10
204.0702370700286
 20
3.009787405679666
 30
0.0000000000000498
 10
204.5850225152657
 20
3.143737862058841
 30
0.0000000000000499
  0
LINE
  5
C3
330
1F
100
AcDbEntity
  8
PV-B7
100
AcDbLine
 10
217.9837131930952
 20
-42.50000000000004
 30
0.0000000000000515
 11
184.9837131930953
 21
-42.50000000000002
 31
0.0000000000000475
210
0.0
220
1.0
230
0.0
  0
SPLINE
  5
C4
330
1F
100
AcDbEntity
  8
PV-B7
100
AcDbSpline
210
0.000000000000003
220
0.0000000000000085
230
1.0
 70
     8
 71
     3
 72
    16
 73
    12
 74
     0
 42
0.0000000001
 43
0.0000000001
 40
-23.84135255739687
 40
-23.84135255739687
 40
-23.84135255739687
 40
-23.84135255739687
 40
-22.74604170271367
 40
-22.74604170271367
 40
-20.96300788572885
 40
-20.96300788572885
 40
-18.60870754203268
 40
-18.60870754203268
 40
-16.27248712837994
 40
-16.27248712837994
 40
-14.90589806218038
 40
-14.90589806218038
 40
-14.90589806218038
 40
-14.90589806218038
 10
184.9835963932396
 20
7.000382353717768
 30
0.0000000000000475
 10
184.9833643659607
 20
7.126112696259745
 30
0.0000000000000475
 10
185.0692470704795
 20
7.180251541357741
 30
0.0000000000000475
 10
185.5288431604464
 20
7.106296197431511
 30
0.0000000000000475
 10
186.0342163953367
 20
6.843315399382049
 30
0.0000000000000476
 10
187.6490033903819
 20
5.935925299319897
 30
0.0000000000000478
 10
188.9079026042208
 20
5.200590420024759
 30
0.0000000000000479
 10
191.9889360023774
 20
3.831759263827116
 30
0.0000000000000483
 10
193.7973233743862
 20
3.204676564753896
 30
0.0000000000000485
 10
196.9911026507607
 20
2.625959957631764
 30
0.0000000000000489
 10
198.2196183420964
 20
2.504752075727779
 30
0.0000000000000491
 10
199.4784458260625
 20
2.500137239328275
 30
0.0000000000000492
  0
LINE
  5
C5
330
1F
100
AcDbEntity
  8
PV-B7
100
AcDbLine
 10
-219.5482309258533
 20
22.50000000000006
 30
-0.0000000000000021
 11
-218.3266314435384
 21
22.50000000000006
 31
-0.0000000000000019
210
0.0
220
1.0
230
0.0
  0
SPLINE
  5
C6
330
1F
100
AcDbEntity
  8
PV-B7
100
AcDbSpline
210
0.0000000000000004
220
0.0000000000000076
230
1.0
 70
     8
 71
     3
 72
    12
 73
     8
 74
     0
 42
0.0000000001
 43
0.0000000001
 40
0.3106905365913586
 40
0.3106905365913586
 40
0.3106905365913586
 40
0.3106905365913586
 40
2.020784579303225
 40
2.020784579303225
 40
3.641965856470912
 40
3.641965856470912
 40
4.707457518994401
 40
4.707457518994401
 40
4.707457518994401
 40
4.707457518994401
 10
-202.7624156110421
 20
2.759354737337581
 30
0.0
 10
-202.2061872088696
 20
2.668815555694294
 30
0.0
 10
-201.6374826732438
 20
2.605859604493616
 30
0.0000000000000001
 10
-200.530386206452
 20
2.524898874443358
 30
0.0000000000000002
 10
-199.9845278540012
 20
2.504267742201442
 30
0.0000000000000003
 10
-199.0881975216453
 20
2.504632715785724
 30
0.0000000000000004
 10
-198.7320429249847
 20
2.513899016093809
 30
0.0000000000000005
 10
-198.3784963325015
 20
2.534511001859257
 30
0.0000000000000005
  0
SPLINE
  5
C7
330
1F
100
AcDbEntity
  8
PV-B7
100
AcDbSpline
210
0.0000000000000038
220
-0.0000000000000089
230
1.0
 70
     8
 71
     3
 72
    18
 73
    14
 74
     0
 42
0.0000000001
 43
0.0000000001
 40
-66.2720714369579
 40
-66.2720714369579
 40
-66.2720714369579
 40
-66.2720714369579
 40
-65.67287237878429
 40
-65.67287237878429
 40
-61.6629289247971
 40
-61.6629289247971
 40
-55.79797580746274
 40
-55.79797580746274
 40
-50.84681335293367
 40
-50.84681335293367
 40
-47.04159323623083
 40
-47.04159323623083
 40
-44.99265700244023
 40
-44.99265700244023
 40
-44.99265700244023
 40
-44.99265700244023
 10
-198.3784963325015
 20
2.534511001859257
 30
0.0000000000000005
 10
-198.1349194369634
 20
2.54871168604162
 30
0.0000000000000005
 10
-197.8917244723755
 20
2.567262314825867
 30
0.0000000000000006
 10
-196.0251638266102
 20
2.742893284879123
 30
0.0000000000000008
 10
-194.4794141571159
 20
3.083207573272161
 30
0.000000000000001
 10
-190.94916819504
 20
4.227576822232194
 30
0.0000000000000014
 10
-189.1755246161455
 20
5.147160007329276
 30
0.0000000000000016
 10
-186.5637496364481
 20
6.73372594686684
 30
0.000000000000002
 10
-185.565542855135
 20
7.455513900694512
 30
0.0000000000000021
 10
-184.2738379915592
 20
8.308155639735701
 30
0.0000000000000022
 10
-183.8775793630416
 20
8.52546054025916
 30
0.0000000000000023
 10
-183.5546186118706
 20
8.512880813610344
 30
0.0000000000000023
 10
-183.4996759952721
 20
8.443763280176959
 30
0.0000000000000023
 10
-183.4998169564389
 20
8.320240992967875
 30
0.0000000000000023
  0
LINE
  5
C8
330
1F
100
AcDbEntity
  8
PV-B7
100
AcDbLine
 10
-216.4999999999999
 20
-42.49999999999995
 30
-0.0000000000000017
 11
-183.4999999999999
 21
-42.49999999999995
 31
0.0000000000000023
210
0.0
220
1.0
230
0.0
  0
LINE
  5
C9
330
1F
100
AcDbEntity
  8
PV-B7
100
AcDbLine
 10
-183.4999999999999
 20
-42.49999999999995
 30
0.0000000000000023
 11
-183.4999999999999
 21
8.320454177233656
 31
0.0000000000000023
210
0.0
220
1.0
230
0.0
  0
LINE
  5
CA
330
1F
100
AcDbEntity
  8
PV-B7
100
AcDbLine
 10
-216.4999999999999
 20
-42.49999999999995
 30
-0.0000000000000017
 11
-216.4999999999999
 21
11.8857197992633
 31
-0.0000000000000017
210
0.0
220
1.0
230
0.0
  0
LINE
  5
CB
330
1F
100
AcDbEntity
  8
PV-B7
100
AcDbLine
 10
184.9837131930953
 20
7.000535323090886
 30
0.0000000000000475
 11
184.9837131930953
 21
-42.50000000000002
 31
0.0000000000000475
210
0.0
220
1.0
230
0.0
  0
LINE
  5
CC
330
1F
100
AcDbEntity
  8
PV-B7
100
AcDbLine
 10
217.9837131930952
 20
14.74452904671836
 30
0.0000000000000515
 11
217.9837131930952
 21
-42.50000000000003
 31
0.0000000000000515
210
0.0
220
1.0
230
0.0
  0
SPLINE
  5
CD
330
1F
100
AcDbEntity
  8
PV-B7
100
AcDbSpline
210
-0.0000000000000006
220
0.0000000000000007
230
-1.0
 70
     8
 71
     3
 72
    16
 73
    12
 74
     0
 42
0.0000000001
 43
0.0000000001
 40
39.50466637743649
 40
39.50466637743649
 40
39.50466637743649
 40
39.50466637743649
 40
42.78794737186497
 40
42.78794737186497
 40
50.39670255377107
 40
50.39670255377107
 40
57.9374516898007
 40
57.9374516898007
 40
65.94973603203789
 40
65.94973603203789
 40
71.0245340151079
 40
71.0245340151079
 40
71.0245340151079
 40
71.0245340151079
 10
-219.5482244245485
 20
22.50000000000518
 30
-0.0000000000000021
 10
-219.5482259051292
 20
23.5897077948614
 30
-0.0000000000000021
 10
-219.4591946868619
 20
24.67994023470517
 30
-0.0000000000000021
 10
-218.8676055001384
 20
28.26200329763882
 30
-0.000000000000002
 10
-217.9822535327878
 20
30.66288150354012
 30
-0.0000000000000019
 10
-215.3738473593644
 20
34.98595649203894
 30
-0.0000000000000016
 10
-213.6816135833194
 20
36.87369177312627
 30
-0.0000000000000014
 10
-209.5622948403498
 20
40.01842609956955
 30
-0.0000000000000009
 10
-207.1372802120105
 20
41.19699856990131
 30
-0.0000000000000006
 10
-202.9157754903406
 20
42.28746971712353
 30
-0.0000000000000001
 10
-201.2355514108843
 20
42.49998674315295
 30
0.0000000000000002
 10
-199.5525120676811
 20
42.49999242564978
 30
0.0000000000000004
  0
SPLINE
  5
CE
330
1F
100
AcDbEntity
  8
PV-B7
100
AcDbSpline
210
0.0000000000000008
220
0.0000000000000008
230
1.0
 70
     8
 71
     3
 72
    16
 73
    12
 74
     0
 42
0.0000000001
 43
0.0000000001
 40
11.23588416623358
 40
11.23588416623358
 40
11.23588416623358
 40
11.23588416623358
 40
14.46342802377817
 40
14.46342802377817
 40
20.89456281131498
 40
20.89456281131498
 40
28.34201865021308
 40
28.34201865021308
 40
35.25799375943868
 40
35.25799375943868
 40
39.50466637743649
 40
39.50466637743649
 40
39.50466637743649
 40
39.50466637743649
 10
-202.7624148307923
 20
2.759365473323377
 30
0.0
 10
-203.8198875833985
 20
2.93137738748198
 30
-0.0000000000000002
 10
-204.8637630101871
 20
3.188425947434112
 30
-0.0000000000000003
 10
-207.9160757176702
 20
4.207469580097374
 30
-0.0000000000000007
 10
-209.8263280844894
 20
5.208352985267261
 30
-0.0000000000000009
 10
-213.5271805269959
 20
7.981401732639859
 30
-0.0000000000000014
 10
-215.2190401331878
 20
9.826388671286615
 30
-0.0000000000000016
 10
-217.7475944985493
 20
13.89110923316287
 30
-0.0000000000000019
 10
-218.617738226015
 20
16.04422505813483
 30
-0.000000000000002
 10
-219.3992738564159
 20
19.68197047948916
 30
-0.0000000000000021
 10
-219.5482225095308
 20
21.09054638884988
 30
-0.0000000000000021
 10
-219.5482244245485
 20
22.50000000000518
 30
-0.0000000000000021
  0
LINE
  5
CF
330
1F
100
AcDbEntity
  8
PV-B7
100
AcDbLine
 10
-183.4999999999999
 20
2.500000000000056
 30
0.0000000000000023
 11
184.9837131930953
 21
2.500000000000056
 31
0.0000000000000475
210
0.0
220
1.0
230
0.0
  0
LINE
  5
D0
330
1F
100
AcDbEntity
  8
PV-B7
100
AcDbLine
 10
199.5525120809394
 20
42.50000000000006
 30
0.0000000000000492
 11
-199.5525120809392
 21
42.50000000000006
 31
0.0000000000000004
210
0.0
220
1.0
230
0.0
  0
SPLINE
  5
D1
330
1F
100
AcDbEntity
  8
PV-B7
100
AcDbSpline
210
-0.0000000000000008
220
0.0000000000000007
230
-1.0
 70
     8
 71
     3
 72
    14
 73
    10
 74
     0
 42
0.0000000001
 43
0.0000000001
 40
39.50466638259375
 40
39.50466638259375
 40
39.50466638259375
 40
39.50466638259375
 40
42.78794922962762
 40
42.78794922962762
 40
50.39670421571806
 40
50.39670421571806
 40
57.9374521171554
 40
57.9374521171554
 40
65.91638403187724
 40
65.91638403187724
 40
65.91638403187724
 40
65.91638403187724
 10
219.5482244245457
 20
22.499999999995
 30
0.0000000000000517
 10
219.548225905122
 20
21.41029159093834
 30
0.0000000000000517
 10
219.4591945864901
 20
20.32005853828323
 30
0.0000000000000517
 10
218.8676049795156
 20
16.73799498509021
 30
0.0000000000000516
 10
217.9822528256555
 20
14.33711691949726
 30
0.0000000000000515
 10
215.3738465419449
 20
10.01404255456887
 30
0.0000000000000512
 10
213.6816129498619
 20
8.126307675866883
 30
0.000000000000051
 10
209.5711280672249
 20
4.988317356655812
 30
0.0000000000000505
 10
207.1574635953379
 20
3.812820914329329
 30
0.0000000000000502
 10
204.5850216494667
 20
3.143747597808733
 30
0.0000000000000499
  0
SPLINE
  5
D2
330
1F
100
AcDbEntity
  8
PV-B7
100
AcDbSpline
210
0.0000000000000006
220
0.0000000000000006
230
1.0
 70
     8
 71
     3
 72
    16
 73
    12
 74
     0
 42
0.0000000001
 43
0.0000000001
 40
8.001320711898387
 40
8.001320711898387
 40
8.001320711898387
 40
8.001320711898387
 40
14.46342802115286
 40
14.46342802115286
 40
20.89456283180014
 40
20.89456283180014
 40
28.34201834451732
 40
28.34201834451732
 40
35.25799554494319
 40
35.25799554494319
 40
39.50466638259375
 40
39.50466638259375
 40
39.50466638259375
 40
39.50466638259375
 10
199.5525120751489
 20
42.49999995639745
 30
0.0000000000000492
 10
201.7035772596878
 20
42.49999930951004
 30
0.0000000000000495
 10
203.841583940671
 20
42.15283825817151
 30
0.0000000000000498
 10
207.9160757227215
 20
40.79253041849463
 30
0.0000000000000503
 10
209.8263280960422
 20
39.79164700882075
 30
0.0000000000000505
 10
213.5271804548924
 20
37.01859831820956
 30
0.0000000000000509
 10
215.2190399987339
 20
35.17361147369764
 30
0.0000000000000512
 10
217.7475947363429
 20
31.10889045065442
 30
0.0000000000000515
 10
218.6177386517121
 20
28.9557739330312
 30
0.0000000000000516
 10
219.3992739815052
 20
25.31802834104308
 30
0.0000000000000517
 10
219.5482225095356
 20
23.90945301939115
 30
0.0000000000000517
 10
219.5482244245457
 20
22.499999999995
 30
0.0000000000000517
  0
LINE
  5
D4
330
1F
100
AcDbEntity
  8
PV-B7
100
AcDbLine
 10
513.2276471795512
 20
22.49999999500001
 30
-0.0000000000000045
 11
514.7979934000569
 21
22.49999999500001
 31
-0.0000000000000043
210
0.0
220
1.0
230
0.0
  0
SPLINE
  5
D5
330
1F
100
AcDbEntity
  8
PV-B7
100
AcDbSpline
210
-0.0000000000000385
220
-0.0000000000000372
230
-1.0
 70
     8
 71
     3
 72
    10
 73
     6
 74
     0
 42
0.0000000001
 43
0.0000000001
 40
0.1889778448673339
 40
0.1889778448673339
 40
0.1889778448673339
 40
0.1889778448673339
 40
2.020784579303225
 40
2.020784579303225
 40
3.087381541281136
 40
3.087381541281136
 40
3.087381541281136
 40
3.087381541281136
 10
513.8677985025297
 20
2.77910800329279
 30
-0.0000000000000044
 10
513.9731045898184
 20
2.677885470423149
 30
-0.0000000000000044
 10
514.0470570875832
 20
2.608817610294892
 30
-0.0000000000000044
 10
514.1096040551534
 20
2.538377056239902
 30
-0.0000000000000044
 10
514.1211813735345
 20
2.520579388181396
 30
-0.0000000000000044
 10
514.1212125161525
 20
2.511498865009862
 30
-0.0000000000000044
  0
SPLINE
  5
D6
330
1F
100
AcDbEntity
  8
PV-B7
100
AcDbSpline
210
0.0
220
0.0
230
1.0
 70
     8
 71
     3
 72
    33
 73
    29
 74
     0
 42
0.0000000001
 43
0.0000000001
 40
-23.02414917146227
 40
-23.02414917146227
 40
-23.02414917146227
 40
-23.02414917146227
 40
-21.89565974393832
 40
-21.89565974393832
 40
-16.69073265551221
 40
-16.69073265551221
 40
-12.09385993120068
 40
-12.09385993120068
 40
-5.984076648609612
 40
-5.984076648609612
 40
-2.508240075312736
 40
-2.508240075312736
 40
0.0
 40
0.0
 40
0.0
 40
1.927664758091808
 40
1.927664758091808
 40
3.909368238411076
 40
3.909368238411076
 40
9.040644298459396
 40
9.040644298459396
 40
12.65709978552581
 40
12.65709978552581
 40
16.26191485652777
 40
16.26191485652777
 40
21.72365536025249
 40
21.72365536025249
 40
24.46268391694776
 40
24.46268391694776
 40
24.46268391694776
 40
24.46268391694776
 10
481.1212022039632
 20
3.208829458131503
 30
-0.0000000000000104
 10
481.121228687007
 20
3.329930270103858
 30
-0.0000000000000104
 10
481.1400373131824
 20
3.465503321850725
 30
-0.0000000000000104
 10
481.3468245547119
 20
4.3029813636156
 30
-0.0000000000000104
 10
481.8937241521881
 20
5.260230591428303
 30
-0.0000000000000103
 10
483.4148949610369
 20
7.32906552015865
 30
-0.00000000000001
 10
484.3324277506466
 20
8.411794590543856
 30
-0.0000000000000099
 10
486.807453733862
 20
10.9846912496104
 30
-0.0000000000000094
 10
488.3864295825929
 20
12.39868314724343
 30
-0.0000000000000091
 10
490.7953259452353
 20
14.0503361772479
 30
-0.0000000000000087
 10
491.7783256965021
 20
14.61959506383428
 30
-0.0000000000000085
 10
493.5822385249407
 20
15.2507934934386
 30
-0.0000000000000082
 10
494.3669143750182
 20
15.40704574447782
 30
-0.000000000000008
 10
495.1938975848147
 20
15.40704574447782
 30
-0.0000000000000079
 10
495.8294613032755
 20
15.40704574447782
 30
-0.0000000000000077
 10
496.4529097090228
 20
15.31514511645264
 30
-0.0000000000000076
 10
497.7092219017962
 20
14.97935470058575
 30
-0.0000000000000074
 10
498.3285606690501
 20
14.73494584289995
 30
-0.0000000000000073
 10
500.4560785783442
 20
13.724762096073
 30
-0.0000000000000069
 10
502.0745012188817
 20
12.62358629600687
 30
-0.0000000000000066
 10
504.8180000654252
 20
10.5563412307821
 30
-0.0000000000000061
 10
505.9084112461965
 20
9.67573785757844
 30
-0.0000000000000059
 10
507.9439120820446
 20
7.990222244110846
 30
-0.0000000000000055
 10
508.9015938943353
 20
7.173504093888894
 30
-0.0000000000000053
 10
511.0899142284067
 20
5.283000096326823
 30
-0.0000000000000049
 10
512.2079709519714
 20
4.293117271890878
 30
-0.0000000000000047
 10
513.3768839659007
 20
3.238551299907719
 30
-0.0000000000000045
 10
513.6750905865421
 20
2.964343100922675
 30
-0.0000000000000045
 10
513.8677985025297
 20
2.77910800329279
 30
-0.0000000000000044
  0
LINE
  5
D7
330
1F
100
AcDbEntity
  8
PV-B7
100
AcDbLine
 10
481.1212630370449
 20
-42.500000005
 30
-0.0000000000000104
 11
514.1212630370449
 21
-42.500000005
 31
-0.0000000000000044
210
0.0
220
1.0
230
0.0
  0
LINE
  5
D8
330
1F
100
AcDbEntity
  8
PV-B7
100
AcDbLine
 10
514.1212630370449
 20
-42.500000005
 30
-0.0000000000000044
 11
514.1212630370449
 21
2.51156665571564
 31
-0.0000000000000044
210
0.0
220
1.0
230
0.0
  0
LINE
  5
D9
330
1F
100
AcDbEntity
  8
PV-B7
100
AcDbLine
 10
481.1212630370449
 20
-42.500000005
 30
-0.0000000000000104
 11
481.1212630370449
 21
3.208772063559031
 31
-0.0000000000000104
210
0.0
220
1.0
230
0.0
  0
ARC
  5
DA
330
1F
100
AcDbEntity
  8
PV-B7
100
AcDbCircle
 10
391.969828884412
 20
22.499999995
 30
-0.0000000000000268
 40
125.0
100
AcDbArc
 50
351.6368930938005
 51
8.36310690619949
  0
SPLINE
  5
DB
330
1F
100
AcDbEntity
  8
PV-B7
100
AcDbSpline
210
-0.0000000000000009
220
0.0000000000000008
230
-1.0
 70
     8
 71
     3
 72
    18
 73
    14
 74
     0
 42
0.0000000001
 43
0.0000000001
 40
0.9820706565035987
 40
0.9820706565035987
 40
0.9820706565035987
 40
0.9820706565035987
 40
3.379034189376751
 40
3.379034189376751
 40
5.53507301578342
 40
5.53507301578342
 40
6.65563032237358
 40
6.65563032237358
 40
8.254447806768251
 40
8.254447806768251
 40
10.03865798822823
 40
10.03865798822823
 40
11.47688805038602
 40
11.47688805038602
 40
11.47688805038602
 40
11.47688805038602
 10
515.6408561831541
 20
4.319218992203779
 30
-0.0000000000000041
 10
515.6107675950331
 20
4.112733523764433
 30
-0.0000000000000041
 10
515.5805011729369
 20
3.957797153615146
 30
-0.0000000000000041
 10
515.5137505893709
 20
3.69400647154346
 30
-0.0000000000000041
 10
515.4783746565341
 20
3.580343777546389
 30
-0.0000000000000041
 10
515.3917465461076
 20
3.385415183508214
 30
-0.0000000000000041
 10
515.3541795185446
 20
3.310199175337345
 30
-0.0000000000000042
 10
515.2224008801982
 20
3.103052120288431
 30
-0.0000000000000042
 10
515.1242524372812
 20
2.986002833974815
 30
-0.0000000000000042
 10
514.8882932192314
 20
2.776811272658207
 30
-0.0000000000000042
 10
514.7376603753753
 20
2.679249626821118
 30
-0.0000000000000043
 10
514.4236005023875
 20
2.553406678926421
 30
-0.0000000000000043
 10
514.2744838621107
 20
2.517778348588542
 30
-0.0000000000000044
 10
514.1212764355467
 20
2.505150208413006
 30
-0.0000000000000044
  0
SPLINE
  5
DC
330
1F
100
AcDbEntity
  8
PV-B7
100
AcDbSpline
210
0.0000000000000008
220
0.0000000000000008
230
1.0
 70
     8
 71
     3
 72
    18
 73
    14
 74
     0
 42
0.0000000001
 43
0.0000000001
 40
0.0339373886710505
 40
0.0339373886710505
 40
0.0339373886710505
 40
0.0339373886710505
 40
0.7242711203091266
 40
0.7242711203091266
 40
1.450886087639254
 40
1.450886087639254
 40
2.055917953687443
 40
2.055917953687443
 40
2.447143055457309
 40
2.447143055457309
 40
3.334746910643961
 40
3.334746910643961
 40
3.722084131987517
 40
3.722084131987517
 40
3.722084131987517
 40
3.722084131987517
 10
513.9961022083318
 20
42.49999998367732
 30
-0.0000000000000044
 10
514.206153068867
 20
42.49999947368777
 30
-0.0000000000000044
 10
514.4106878760384
 20
42.45657046982035
 30
-0.0000000000000043
 10
514.7947833847901
 20
42.29182447772776
 30
-0.0000000000000043
 10
514.9585261425017
 20
42.17243661232196
 30
-0.0000000000000042
 10
515.1942085705429
 20
41.93415948116594
 30
-0.0000000000000042
 10
515.2965783317475
 20
41.79548554066434
 30
-0.0000000000000042
 10
515.424010202115
 20
41.55013488657806
 30
-0.0000000000000041
 10
515.4562156224336
 20
41.46781588073969
 30
-0.0000000000000041
 10
515.5366025980578
 20
41.23832301969026
 30
-0.0000000000000041
 10
515.5707251823615
 20
41.08866852711845
 30
-0.0000000000000041
 10
515.6166943144776
 20
40.83620455353194
 30
-0.0000000000000041
 10
515.6291080265011
 20
40.76006394672898
 30
-0.0000000000000041
 10
515.6407714444551
 20
40.6807428228669
 30
-0.0000000000000041
  0
LINE
  5
DD
330
1F
100
AcDbEntity
  8
PV-B7
100
AcDbLine
 10
327.3675233061948
 20
2.49999999500001
 30
-0.0000000000000387
 11
481.1212630370449
 21
2.49999999500001
 31
-0.0000000000000104
210
0.0
220
1.0
230
0.0
  0
LINE
  5
DE
330
1F
100
AcDbEntity
  8
PV-B7
100
AcDbLine
 10
513.9961014600867
 20
42.49999999500001
 30
-0.0000000000000044
 11
327.3675233061948
 21
42.49999999500001
 31
-0.0000000000000387
210
0.0
220
1.0
230
0.0
  0
ARC
  5
DF
330
1F
100
AcDbEntity
  8
PV-B7
100
AcDbCircle
 10
327.3675233061948
 20
22.49999999500001
 30
-0.0000000000000387
 40
20.0
100
AcDbArc
 50
90.0
 51
270.0
  0
ARC
  5
E1
330
1F
100
AcDbEntity
  8
PV-B7
100
AcDbCircle
 10
218.0474486672744
 20
-336.2758245000158
 30
0.0
 40
1.5
100
AcDbArc
 50
280.696135830763
 51
3.685063837190737
  0
ARC
  5
E2
330
1F
100
AcDbEntity
  8
PV-B7
100
AcDbCircle
 10
201.4829309345162
 20
-320.5730321111915
 30
0.0
 40
16.5
100
AcDbArc
 50
359.899086887159
 51
16.89742545695707
  0
ARC
  5
E3
330
1F
100
AcDbEntity
  8
PV-B7
100
AcDbCircle
 10
-0.0007822585789938
 20
-350.3192923803414
 30
0.0
 40
220.0
100
AcDbArc
 50
7.763140627694577
 51
9.033371716421891
  0
ARC
  5
E4
330
1F
100
AcDbEntity
  8
PV-B7
100
AcDbCircle
 10
-218.0490131844323
 20
-336.2758245000158
 30
0.0
 40
1.499999999999999
100
AcDbArc
 50
176.3149361628126
 51
259.3038641692353
  0
ARC
  5
E5
330
1F
100
AcDbEntity
  8
PV-B7
100
AcDbCircle
 10
195.1258060445328
 20
-214.9215979585587
 30
0.0
 40
124.9999999999999
100
AcDbArc
 50
263.4575070944474
 51
280.6961358307646
  0
ARC
  5
E6
330
1F
100
AcDbEntity
  8
PV-B7
100
AcDbCircle
 10
-195.1273705616905
 20
-214.9215979585587
 30
0.0
 40
124.9999999999999
100
AcDbArc
 50
259.3038641692353
 51
276.5424929055525
  0
SPLINE
  5
E7
330
1F
100
AcDbEntity
  8
PV-B7
100
AcDbSpline
210
0.0
220
0.0
230
1.0
 70
     8
 71
     3
 72
    14
 73
    10
 74
     0
 42
0.0000000001
 43
0.0000000001
 40
0.0094678687644511
 40
0.0094678687644511
 40
0.0094678687644511
 40
0.0094678687644511
 40
0.5859667100803884
 40
0.5859667100803884
 40
1.171933420160782
 40
1.171933420160782
 40
1.684831946393943
 40
1.684831946393943
 40
2.188262786728163
 40
2.188262786728163
 40
2.188262786728163
 40
2.188262786728163
 10
-218.3274137020868
 20
-337.7497624740414
 30
0.0
 10
-218.5161838245268
 20
-337.7141071645583
 30
0.0
 10
-218.6963895361928
 20
-337.6425109082743
 30
0.0
 10
-219.0226603628468
 20
-337.4334781391118
 30
0.0
 10
-219.1649714479354
 20
-337.2969943831723
 30
0.0
 10
-219.3752825978993
 20
-336.9971003668217
 30
0.0
 10
-219.4487960756961
 20
-336.8413660904048
 30
0.0
 10
-219.539315175733
 20
-336.5149066299126
 30
0.0
 10
-219.5566944607273
 20
-336.3468351923147
 30
0.0
 10
-219.5459117947972
 20
-336.1794162537048
 30
0.0
  0
SPLINE
  5
E8
330
1F
100
AcDbEntity
  8
PV-B7
100
AcDbSpline
210
0.0
220
0.0
230
1.0
 70
     8
 71
     3
 72
    14
 73
    10
 74
     0
 42
0.0000000001
 43
0.0000000001
 40
0.0559107147798664
 40
0.0559107147798664
 40
0.0559107147798664
 40
0.0559107147798664
 40
0.5859667100803902
 40
0.5859667100803902
 40
1.171933420160778
 40
1.171933420160778
 40
1.684831946393951
 40
1.684831946393951
 40
2.141826096816829
 40
2.141826096816829
 40
2.141826096816829
 40
2.141826096816829
 10
-179.5594513921413
 20
-337.7222947821597
 30
0.0
 10
-179.5717963667181
 20
-337.8982578945048
 30
0.0
 10
-179.6150967002727
 20
-338.0708258712004
 30
0.0
 10
-179.7675392966771
 20
-338.4101647663971
 30
0.0
 10
-179.8816143999664
 20
-338.5709973855511
 30
0.0
 10
-180.1473250089515
 20
-338.8231185332456
 30
0.0
 10
-180.2905572795107
 20
-338.9187318845065
 30
0.0
 10
-180.5860127413444
 20
-339.0499850050555
 30
0.0
 10
-180.7337381839249
 20
-339.0902190009466
 30
0.0
 10
-180.8848635258443
 20
-339.1075512265968
 30
0.0
  0
ARC
  5
E9
330
1F
100
AcDbEntity
  8
PV-B7
100
AcDbCircle
 10
-0.0007822585789938
 20
-350.3192923803414
 30
0.0
 40
180.0
100
AcDbArc
 50
4.013029173758058
 51
175.9869708262419
  0
ARC
  5
EA
330
1F
100
AcDbEntity
  8
PV-B7
100
AcDbCircle
 10
-0.0007822585789938
 20
-350.3192923803414
 30
0.0
 40
220.0
100
AcDbArc
 50
9.033371716421891
 51
176.3149361628126
  0
ARC
  5
EB
330
1F
100
AcDbEntity
  8
PV-B7
100
AcDbCircle
 10
-0.0007822585789938
 20
-350.3192923803414
 30
0.0
 40
220.0
100
AcDbArc
 50
3.685063837187382
 51
7.763140627694577
  0
SPLINE
  5
EC
330
1F
100
AcDbEntity
  8
PV-B7
100
AcDbSpline
210
0.0
220
0.0
230
1.0
 70
     8
 71
     3
 72
    14
 73
    10
 74
     0
 42
0.0000000001
 43
0.0000000001
 40
0.0559107159247655
 40
0.0559107159247655
 40
0.0559107159247655
 40
0.0559107159247655
 40
0.5859667100804024
 40
0.5859667100804024
 40
1.171933420160778
 40
1.171933420160778
 40
1.684831946393383
 40
1.684831946393383
 40
2.141826097961603
 40
2.141826097961603
 40
2.141826097961603
 40
2.141826097961603
 10
180.8832990097609
 20
-339.1075512172262
 30
0.0
 10
180.7080521683121
 20
-339.0874524677773
 30
0.0
 10
180.5375633113859
 20
-339.0365783585372
 30
0.0
 10
180.2052828174229
 20
-338.869308205672
 30
0.0
 10
180.0496413955485
 20
-338.748246203494
 30
0.0
 10
179.8094925408765
 20
-338.4716675918089
 30
0.0
 10
179.720293638139
 20
-338.324355161854
 30
0.0
 10
179.6022077772378
 20
-338.0233949630184
 30
0.0
 10
179.568532569196
 20
-337.8740378028493
 30
0.0
 10
179.5578868655744
 20
-337.7222947828194
 30
0.0
  0
SPLINE
  5
ED
330
1F
100
AcDbEntity
  8
PV-B7
100
AcDbSpline
210
0.0
220
0.0
230
1.0
 70
     8
 71
     3
 72
    14
 73
    10
 74
     0
 42
0.0000000001
 43
0.0000000001
 40
0.0094678687638719
 40
0.0094678687638719
 40
0.0094678687638719
 40
0.0094678687638719
 40
0.5859667100803893
 40
0.5859667100803893
 40
1.17193342016079
 40
1.17193342016079
 40
1.684831946393373
 40
1.684831946393373
 40
2.188262786727638
 40
2.188262786727638
 40
2.188262786727638
 40
2.188262786727638
 10
219.5443472775847
 20
-336.1794162537083
 30
0.0
 10
219.5566944607274
 20
-336.3711269922935
 30
0.0
 10
219.5320997567211
 20
-336.5634684152004
 30
0.0
 10
219.4106536454302
 20
-336.9314333496191
 30
0.0
 10
219.3137927440511
 20
-337.1031838266445
 30
0.0
 10
219.0755314058337
 20
-337.3813901090191
 30
0.0
 10
218.9429358015095
 20
-337.4912800629854
 30
0.0
 10
218.6491884574279
 20
-337.6600461278836
 30
0.0
 10
218.4907001156212
 20
-337.7186250762736
 30
0.0
 10
218.325849184939
 20
-337.7497624740953
 30
0.0
  0
ENDSEC
  0
SECTION
  2
OBJECTS
  0
DICTIONARY
  5
C
330
0
100
AcDbDictionary
  3
ACAD_GROUP
350
D
  3
ACAD_LAYOUT
350
1A
  3
ACAD_MLINESTYLE
350
17
  3
ACAD_PLOTSETTINGS
350
19
  3
ACAD_PLOTSTYLENAME
350
AB
  3
ACDBHEADERROUNDTRIPXREC
350
EF
1001
ACAD
1000
TREAT_AS_HARD
1070
     0
  0
DICTIONARY
  5
A5
330
1F
100
AcDbDictionary
  3
ACAD_LAYOUTSELFREF
350
110
  0
DICTIONARY
  5
A3
330
1B
100
AcDbDictionary
  3
ACAD_LAYOUTSELFREF
350
10F
  0
DICTIONARY
  5
D
102
{ACAD_REACTORS
330
C
102
}
330
C
100
AcDbDictionary
1001
ACAD
1000
TREAT_AS_HARD
1070
     0
  0
DICTIONARY
  5
1A
102
{ACAD_REACTORS
330
C
102
}
330
C
100
AcDbDictionary
1001
ACAD
1000
TREAT_AS_HARD
1070
     0
  0
DICTIONARY
  5
17
102
{ACAD_REACTORS
330
C
102
}
330
C
100
AcDbDictionary
  3
STANDARD
350
18
1001
ACAD
1000
TREAT_AS_HARD
1070
     0
  0
DICTIONARY
  5
19
102
{ACAD_REACTORS
330
C
102
}
330
C
100
AcDbDictionary
1001
ACAD
1000
TREAT_AS_HARD
1070
     0
  0
ACDBDICTIONARYWDFLT
  5
AB
102
{ACAD_REACTORS
330
C
102
}
330
C
100
AcDbDictionary
281
     1
  3
Normal
350
AC
100
AcDbDictionaryWithDefault
340
AC
  0
DICTIONARY
  5
EF
102
{ACAD_REACTORS
330
C
102
}
330
C
100
AcDbDictionary
  3
TSTACKALIGN
350
F0
  3
TSTACKSIZE
350
F1
  3
HYPERLINKBASE
350
F2
  3
STYLESHEET
350
F3
  3
LAYOUTDICT
350
F4
  3
PLOTSETDICT
350
F5
  3
PLOTSTYLNAMDICT
350
F6
  3
LWETCUNION
350
F7
  3
INSUNITS
350
F8
  3
CEPSNTYPE
350
F9
  3
FINGERPRINTGUID
350
FA
  3
VERSIONGUID
350
FB
  3
PSVPSCALE
350
FC
  3
PUCSORTHOREF
350
FD
  3
PUCSORTHOVIEW
350
FE
  3
PUCSBASE
350
FF
  3
PUCSORGTOP
350
100
  3
PUCSORGBOTTOM
350
101
  3
PUCSORGLEFT
350
102
  3
PUCSORGRIGHT
350
103
  3
PUCSORGFRONT
350
104
  3
PUCSORGBACK
350
105
  3
UCSORTHOREF
350
106
  3
UCSORTHOVIEW
350
107
  3
UCSBASE
350
108
  3
UCSORGTOP
350
109
  3
UCSORGBOTTOM
350
10A
  3
UCSORGLEFT
350
10B
  3
UCSORGRIGHT
350
10C
  3
UCSORGFRONT
350
10D
  3
UCSORGBACK
350
10E
  0
XRECORD
  5
110
102
{ACAD_REACTORS
330
A5
102
}
330
A5
100
AcDbXrecord
340
1F
  0
XRECORD
  5
10F
102
{ACAD_REACTORS
330
A3
102
}
330
A3
100
AcDbXrecord
340
1B
  0
MLINESTYLE
  5
18
102
{ACAD_REACTORS
330
17
102
}
330
17
100
AcDbMlineStyle
  2
STANDARD
 70
     0
  3

 62
   256
 51
90.0
 52
90.0
 71
     2
 49
0.5
 62
   256
  6
BYLAYER
 49
-0.5
 62
   256
  6
BYLAYER
  0
ACDBPLACEHOLDER
  5
AC
102
{ACAD_REACTORS
330
AB
102
}
330
AB
100
AcDbPlaceHolder
280
     0
  0
XRECORD
  5
F0
102
{ACAD_REACTORS
330
EF
102
}
330
EF
100
AcDbXrecord
 90
        1
  0
XRECORD
  5
F1
102
{ACAD_REACTORS
330
EF
102
}
330
EF
100
AcDbXrecord
 90
       70
  0
XRECORD
  5
F2
102
{ACAD_REACTORS
330
EF
102
}
330
EF
100
AcDbXrecord
  1

  0
XRECORD
  5
F3
102
{ACAD_REACTORS
330
EF
102
}
330
EF
100
AcDbXrecord
  1

  0
XRECORD
  5
F4
102
{ACAD_REACTORS
330
EF
102
}
330
EF
100
AcDbXrecord
340
1A
  0
XRECORD
  5
F5
102
{ACAD_REACTORS
330
EF
102
}
330
EF
100
AcDbXrecord
340
19
  0
XRECORD
  5
F6
102
{ACAD_REACTORS
330
EF
102
}
330
EF
100
AcDbXrecord
340
AB
  0
XRECORD
  5
F7
102
{ACAD_REACTORS
330
EF
102
}
330
EF
100
AcDbXrecord
 90
    10781
  0
XRECORD
  5
F8
102
{ACAD_REACTORS
330
EF
102
}
330
EF
100
AcDbXrecord
 90
        0
  0
XRECORD
  5
F9
102
{ACAD_REACTORS
330
EF
102
}
330
EF
100
AcDbXrecord
 90
        0
  0
XRECORD
  5
FA
102
{ACAD_REACTORS
330
EF
102
}
330
EF
100
AcDbXrecord
  1
{417A1CB5-B58D-4129-A47C-30959F7E9AE1}
  0
XRECORD
  5
FB
102
{ACAD_REACTORS
330
EF
102
}
330
EF
100
AcDbXrecord
  1
{CF972955-D75B-4077-AA31-B92B0F919F13}
  0
XRECORD
  5
FC
102
{ACAD_REACTORS
330
EF
102
}
330
EF
100
AcDbXrecord
 40
0.0
  0
XRECORD
  5
FD
102
{ACAD_REACTORS
330
EF
102
}
330
EF
100
AcDbXrecord
340
0
  0
XRECORD
  5
FE
102
{ACAD_REACTORS
330
EF
102
}
330
EF
100
AcDbXrecord
 70
     0
  0
XRECORD
  5
FF
102
{ACAD_REACTORS
330
EF
102
}
330
EF
100
AcDbXrecord
340
0
  0
XRECORD
  5
100
102
{ACAD_REACTORS
330
EF
102
}
330
EF
100
AcDbXrecord
 10
0.0
 20
0.0
 30
0.0
  0
XRECORD
  5
101
102
{ACAD_REACTORS
330
EF
102
}
330
EF
100
AcDbXrecord
 10
0.0
 20
0.0
 30
0.0
  0
XRECORD
  5
102
102
{ACAD_REACTORS
330
EF
102
}
330
EF
100
AcDbXrecord
 10
0.0
 20
0.0
 30
0.0
  0
XRECORD
  5
103
102
{ACAD_REACTORS
330
EF
102
}
330
EF
100
AcDbXrecord
 10
0.0
 20
0.0
 30
0.0
  0
XRECORD
  5
104
102
{ACAD_REACTORS
330
EF
102
}
330
EF
100
AcDbXrecord
 10
0.0
 20
0.0
 30
0.0
  0
XRECORD
  5
105
102
{ACAD_REACTORS
330
EF
102
}
330
EF
100
AcDbXrecord
 10
0.0
 20
0.0
 30
0.0
  0
XRECORD
  5
106
102
{ACAD_REACTORS
330
EF
102
}
330
EF
100
AcDbXrecord
340
0
  0
XRECORD
  5
107
102
{ACAD_REACTORS
330
EF
102
}
330
EF
100
AcDbXrecord
 70
     0
  0
XRECORD
  5
108
102
{ACAD_REACTORS
330
EF
102
}
330
EF
100
AcDbXrecord
340
0
  0
XRECORD
  5
109
102
{ACAD_REACTORS
330
EF
102
}
330
EF
100
AcDbXrecord
 10
0.0
 20
0.0
 30
0.0
  0
XRECORD
  5
10A
102
{ACAD_REACTORS
330
EF
102
}
330
EF
100
AcDbXrecord
 10
0.0
 20
0.0
 30
0.0
  0
XRECORD
  5
10B
102
{ACAD_REACTORS
330
EF
102
}
330
EF
100
AcDbXrecord
 10
0.0
 20
0.0
 30
0.0
  0
XRECORD
  5
10C
102
{ACAD_REACTORS
330
EF
102
}
330
EF
100
AcDbXrecord
 10
0.0
 20
0.0
 30
0.0
  0
XRECORD
  5
10D
102
{ACAD_REACTORS
330
EF
102
}
330
EF
100
AcDbXrecord
 10
0.0
 20
0.0
 30
0.0
  0
XRECORD
  5
10E
102
{ACAD_REACTORS
330
EF
102
}
330
EF
100
AcDbXrecord
 10
0.0
 20
0.0
 30
0.0
  0
ENDSEC
  0
EOF
