  0
SECTION
  2
HEADER
  9
$ACADVER
  1
AC1012
  9
$DWGCODEPAGE
  3
ANSI_1252
  9
$INSBASE
 10
0.0
 20
0.0
 30
0.0
  9
$EXTMIN
 10
-17.04512977600097
 20
21.80977249145507
 30
-0.0000000000000897
  9
$EXTMAX
 10
422.0451354980468
 20
229.3928527832031
 30
85.0
  9
$LIMMIN
 10
0.0
 20
0.0
  9
$LIMMAX
 10
420.0
 20
297.0
  9
$ORTHOMODE
 70
     1
  9
$REGENMODE
 70
     1
  9
$FILLMODE
 70
     1
  9
$QTEXTMODE
 70
     0
  9
$MIRRTEXT
 70
     1
  9
$DRAGMODE
 70
     2
  9
$LTSCALE
 40
1.0
  9
$OSMODE
 70
    37
  9
$ATTMODE
 70
     1
  9
$TEXTSIZE
 40
2.5
  9
$TRACEWID
 40
1.0
  9
$TEXTSTYLE
  7
STANDARD
  9
$CLAYER
  8
0
  9
$CELTYPE
  6
BYLAYER
  9
$CECOLOR
 62
   256
  9
$CELTSCALE
 40
1.0
  9
$DELOBJ
 70
     1
  9
$DISPSILH
 70
     0
  9
$DIMSCALE
 40
1.0
  9
$DIMASZ
 40
2.5
  9
$DIMEXO
 40
0.625
  9
$DIMDLI
 40
3.75
  9
$DIMRND
 40
0.0
  9
$DIMDLE
 40
0.0
  9
$DIMEXE
 40
1.25
  9
$DIMTP
 40
0.0
  9
$DIMTM
 40
0.0
  9
$DIMTXT
 40
2.5
  9
$DIMCEN
 40
2.5
  9
$DIMTSZ
 40
0.0
  9
$DIMTOL
 70
     0
  9
$DIMLIM
 70
     0
  9
$DIMTIH
 70
     0
  9
$DIMTOH
 70
     0
  9
$DIMSE1
 70
     0
  9
$DIMSE2
 70
     0
  9
$DIMTAD
 70
     1
  9
$DIMZIN
 70
     8
  9
$DIMBLK
  1

  9
$DIMASO
 70
     1
  9
$DIMSHO
 70
     1
  9
$DIMPOST
  1

  9
$DIMAPOST
  1

  9
$DIMALT
 70
     0
  9
$DIMALTD
 70
     4
  9
$DIMALTF
 40
0.0394
  9
$DIMLFAC
 40
1.0
  9
$DIMTOFL
 70
     1
  9
$DIMTVP
 40
0.0
  9
$DIMTIX
 70
     0
  9
$DIMSOXD
 70
     0
  9
$DIMSAH
 70
     0
  9
$DIMBLK1
  1

  9
$DIMBLK2
  1

  9
$DIMSTYLE
  2
STANDARD
  9
$DIMCLRD
 70
     0
  9
$DIMCLRE
 70
     0
  9
$DIMCLRT
 70
     0
  9
$DIMTFAC
 40
1.0
  9
$DIMGAP
 40
0.625
  9
$DIMJUST
 70
     0
  9
$DIMSD1
 70
     0
  9
$DIMSD2
 70
     0
  9
$DIMTOLJ
 70
     1
  9
$DIMTZIN
 70
     0
  9
$DIMALTZ
 70
     0
  9
$DIMALTTZ
 70
     0
  9
$DIMFIT
 70
     3
  9
$DIMUPT
 70
     0
  9
$DIMUNIT
 70
     2
  9
$DIMDEC
 70
     4
  9
$DIMTDEC
 70
     4
  9
$DIMALTU
 70
     8
  9
$DIMALTTD
 70
     4
  9
$DIMTXSTY
  7
STANDARD
  9
$DIMAUNIT
 70
     0
  9
$LUNITS
 70
     2
  9
$LUPREC
 70
     4
  9
$SKETCHINC
 40
1.0
  9
$FILLETRAD
 40
1.5
  9
$AUNITS
 70
     0
  9
$AUPREC
 70
     0
  9
$MENU
  1
.
  9
$ELEVATION
 40
0.0
  9
$PELEVATION
 40
0.0
  9
$THICKNESS
 40
0.0
  9
$LIMCHECK
 70
     0
  9
$BLIPMODE
 70
     0
  9
$CHAMFERA
 40
10.0
  9
$CHAMFERB
 40
10.0
  9
$CHAMFERC
 40
20.0
  9
$CHAMFERD
 40
0.0
  9
$SKPOLY
 70
     0
  9
$TDCREATE
 40
2451213.648008217
  9
$TDUPDATE
 40
2451213.684874421
  9
$TDINDWG
 40
0.0362902778
  9
$TDUSRTIMER
 40
0.0362902778
  9
$USRTIMER
 70
     1
  9
$ANGBASE
 50
0.0
  9
$ANGDIR
 70
     0
  9
$PDMODE
 70
     0
  9
$PDSIZE
 40
0.0
  9
$PLINEWID
 40
0.0
  9
$COORDS
 70
     1
  9
$SPLFRAME
 70
     0
  9
$SPLINETYPE
 70
     6
  9
$SPLINESEGS
 70
     8
  9
$ATTDIA
 70
     0
  9
$ATTREQ
 70
     1
  9
$HANDLING
 70
  4097
  9
$HANDSEED
  5
4D2
  9
$SURFTAB1
 70
     6
  9
$SURFTAB2
 70
     6
  9
$SURFTYPE
 70
     6
  9
$SURFU
 70
     6
  9
$SURFV
 70
     6
  9
$UCSNAME
  2

  9
$UCSORG
 10
0.0
 20
0.0
 30
0.0
  9
$UCSXDIR
 10
1.0
 20
0.0
 30
0.0
  9
$UCSYDIR
 10
0.0
 20
1.0
 30
0.0000000000000007
  9
$PUCSNAME
  2

  9
$PUCSORG
 10
0.0
 20
0.0
 30
0.0
  9
$PUCSXDIR
 10
1.0
 20
0.0
 30
0.0
  9
$PUCSYDIR
 10
0.0
 20
1.0
 30
0.0
  9
$USERI1
 70
     0
  9
$USERI2
 70
     0
  9
$USERI3
 70
     0
  9
$USERI4
 70
     0
  9
$USERI5
 70
     0
  9
$USERR1
 40
0.0
  9
$USERR2
 40
0.0
  9
$USERR3
 40
0.0
  9
$USERR4
 40
0.0
  9
$USERR5
 40
0.0
  9
$WORLDVIEW
 70
     1
  9
$SHADEDGE
 70
     3
  9
$SHADEDIF
 70
    70
  9
$TILEMODE
 70
     1
  9
$MAXACTVP
 70
    48
  9
$PINSBASE
 10
0.0
 20
0.0
 30
0.0
  9
$PLIMCHECK
 70
     0
  9
$PEXTMIN
 10
1.000000000000000E+20
 20
1.000000000000000E+20
 30
1.000000000000000E+20
  9
$PEXTMAX
 10
-1.000000000000000E+20
 20
-1.000000000000000E+20
 30
-1.000000000000000E+20
  9
$PLIMMIN
 10
0.0
 20
0.0
  9
$PLIMMAX
 10
420.0
 20
297.0
  9
$UNITMODE
 70
     0
  9
$VISRETAIN
 70
     1
  9
$PLINEGEN
 70
     0
  9
$PSLTSCALE
 70
     1
  9
$TREEDEPTH
 70
  3020
  9
$PICKSTYLE
 70
     1
  9
$CMLSTYLE
  2
STANDARD
  9
$CMLJUST
 70
     0
  9
$CMLSCALE
 40
20.0
  9
$SAVEIMAGES
 70
     1
  0
ENDSEC
  0
SECTION
  2
CLASSES
  0
CLASS
  1
LWPOLYLINE
  2
AcDbPolyline
  3
AutoCAD 2000
 90
    32768
280
     0
281
     1
  0
CLASS
  1
ACDBDICTIONARYWDFLT
  2
AcDbDictionaryWithDefault
  3
AutoCAD 2000
 90
    32768
280
     0
281
     0
  0
CLASS
  1
ACDBPLACEHOLDER
  2
AcDbPlaceHolder
  3
AutoCAD 2000
 90
    32768
280
     0
281
     0
  0
CLASS
  1
LAYOUT
  2
AcDbLayout
  3
AutoCAD 2000
 90
    32768
280
     0
281
     0
  0
CLASS
  1
LONG_TRANSACTION
  2
AcDbLongTransaction
  3
AutoCAD 2000
 90
    32768
280
     0
281
     0
  0
CLASS
  1
LWPOLYLINE
  2
AcDbPolyline
  3
AutoCAD 2000
 90
    32768
280
     0
281
     1
  0
CLASS
  1
HATCH
  2
AcDbHatch
  3
AutoCAD 2000
 90
    32768
280
     0
281
     1
  0
CLASS
  1
XRECORD
  2
AcDbXrecord
  3
AutoCAD 2000
 90
    32768
280
     0
281
     0
  0
ENDSEC
  0
SECTION
  2
TABLES
  0
TABLE
  2
VPORT
  5
8
330
0
100
AcDbSymbolTable
 70
     3
  0
VPORT
  5
4CD
330
8
100
AcDbSymbolTableRecord
100
AcDbViewportTableRecord
  2
*ACTIVE
 70
     0
 10
0.0
 20
0.0
 11
1.0
 21
1.0
 12
54.37558532153762
 22
168.6479058405751
 13
0.0
 23
0.0
 14
10.0
 24
10.0
 15
10.0
 25
10.0
 16
-1.0
 26
-1.0
 36
1.0
 17
0.0
 27
0.0
 37
0.0
 40
337.1100027190248
 41
1.743970315398886
 42
50.0
 43
0.0
 44
0.0
 50
0.0
 51
0.0
 71
     0
 72
 10000
 73
     1
 74
     1
 75
     0
 76
     0
 77
     0
 78
     0
  0
ENDTAB
  0
TABLE
  2
LTYPE
  5
5
330
0
100
AcDbSymbolTable
 70
     1
  0
LTYPE
  5
12
330
5
100
AcDbSymbolTableRecord
100
AcDbLinetypeTableRecord
  2
BYBLOCK
 70
     0
  3

 72
    65
 73
     0
 40
0.0
  0
LTYPE
  5
13
330
5
100
AcDbSymbolTableRecord
100
AcDbLinetypeTableRecord
  2
BYLAYER
 70
     0
  3

 72
    65
 73
     0
 40
0.0
  0
LTYPE
  5
14
330
5
100
AcDbSymbolTableRecord
100
AcDbLinetypeTableRecord
  2
CONTINUOUS
 70
     0
  3
Solid line
 72
    65
 73
     0
 40
0.0
  0
ENDTAB
  0
TABLE
  2
LAYER
  5
2
330
0
100
AcDbSymbolTable
 70
     4
  0
LAYER
  5
E
330
2
100
AcDbSymbolTableRecord
100
AcDbLayerTableRecord
  2
0
 70
     0
 62
     7
  6
CONTINUOUS
  0
LAYER
  5
36
330
2
100
AcDbSymbolTableRecord
100
AcDbLayerTableRecord
  2
LAYER1
 70
     0
 62
     7
  6
CONTINUOUS
  0
LAYER
  5
50
330
2
100
AcDbSymbolTableRecord
100
AcDbLayerTableRecord
  2
ASHADE
 70
     4
 62
    -7
  6
CONTINUOUS
  0
LAYER
  5
AE
330
2
100
AcDbSymbolTableRecord
100
AcDbLayerTableRecord
  2
AVLAYER
 70
     0
 62
     7
  6
CONTINUOUS
  0
ENDTAB
  0
TABLE
  2
STYLE
  5
3
330
0
100
AcDbSymbolTable
 70
     2
  0
STYLE
  5
F
330
3
100
AcDbSymbolTableRecord
100
AcDbTextStyleTableRecord
  2
STANDARD
 70
     0
 40
0.0
 41
1.0
 50
0.0
 71
     0
 42
2.5
  3
txt
  4

  0
STYLE
  5
4D
330
3
100
AcDbSymbolTableRecord
100
AcDbTextStyleTableRecord
  2
ASHADE
 70
     0
 40
0.2
 41
1.0
 50
0.0
 71
     0
 42
2.5
  3
simplex.shx
  4

  0
ENDTAB
  0
TABLE
  2
VIEW
  5
6
330
0
100
AcDbSymbolTable
 70
     2
  0
ENDTAB
  0
TABLE
  2
UCS
  5
7
330
0
100
AcDbSymbolTable
 70
     1
  0
ENDTAB
  0
TABLE
  2
APPID
  5
9
330
0
100
AcDbSymbolTable
 70
     6
  0
APPID
  5
10
330
9
100
AcDbSymbolTableRecord
100
AcDbRegAppTableRecord
  2
ACAD
 70
     0
  0
APPID
  5
4E
330
9
100
AcDbSymbolTableRecord
100
AcDbRegAppTableRecord
  2
AVE_RENDER
 70
     0
  0
APPID
  5
4F
330
9
100
AcDbSymbolTableRecord
100
AcDbRegAppTableRecord
  2
AVE_ENTITY_MATERIAL
 70
     0
  0
APPID
  5
5C
330
9
100
AcDbSymbolTableRecord
100
AcDbRegAppTableRecord
  2
AVE_FINISH
 70
     0
  0
APPID
  5
5D
330
9
100
AcDbSymbolTableRecord
100
AcDbRegAppTableRecord
  2
AVE_MATERIAL
 70
     0
  0
APPID
  5
5E
330
9
100
AcDbSymbolTableRecord
100
AcDbRegAppTableRecord
  2
AVE_GLOBAL
 70
     0
  0
ENDTAB
  0
TABLE
  2
DIMSTYLE
  5
A
330
0
100
AcDbSymbolTable
 70
     1
  0
DIMSTYLE
105
1D
330
A
100
AcDbSymbolTableRecord
100
AcDbDimStyleTableRecord
  2
STANDARD
 70
     0
  3

  4

  5

  6

  7

 40
1.0
 41
0.18
 42
0.0625
 43
0.38
 44
0.18
 45
0.0
 46
0.0
 47
0.0
 48
0.0
140
0.18
141
0.09
142
0.0
143
25.4
144
1.0
145
0.0
146
1.0
147
0.09
 71
     0
 72
     0
 73
     1
 74
     1
 75
     0
 76
     0
 77
     0
 78
     0
170
     0
171
     2
172
     0
173
     0
174
     0
175
     0
176
     0
177
     0
178
     0
270
     2
271
     4
272
     4
273
     2
274
     2
340
F
275
     0
280
     0
281
     0
282
     0
283
     1
284
     0
285
     0
286
     0
287
     3
288
     0
  0
ENDTAB
  0
TABLE
  2
BLOCK_RECORD
  5
1
330
0
100
AcDbSymbolTable
 70
     3
  0
BLOCK_RECORD
  5
18
102
{ACAD_XDICTIONARY
360
4D0
102
}
330
1
100
AcDbSymbolTableRecord
100
AcDbBlockTableRecord
  2
*MODEL_SPACE
  0
BLOCK_RECORD
  5
15
102
{ACAD_XDICTIONARY
360
4CE
102
}
330
1
100
AcDbSymbolTableRecord
100
AcDbBlockTableRecord
  2
*PAPER_SPACE
  0
BLOCK_RECORD
  5
51
330
1
100
AcDbSymbolTableRecord
100
AcDbBlockTableRecord
  2
AVE_RENDER
  0
BLOCK_RECORD
  5
5F
330
1
100
AcDbSymbolTableRecord
100
AcDbBlockTableRecord
  2
AVE_GLOBAL
  0
BLOCK_RECORD
  5
49A
330
1
100
AcDbSymbolTableRecord
100
AcDbBlockTableRecord
  2
RM_SDB
  0
ENDTAB
  0
ENDSEC
  0
SECTION
  2
BLOCKS
  0
BLOCK
  5
19
330
18
100
AcDbEntity
  8
0
100
AcDbBlockBegin
  2
*MODEL_SPACE
 70
     0
 10
0.0
 20
0.0
 30
0.0
  3
*MODEL_SPACE
  1

  0
ENDBLK
  5
1A
330
18
100
AcDbEntity
  8
0
100
AcDbBlockEnd
  0
BLOCK
  5
16
330
15
100
AcDbEntity
 67
     1
  8
0
100
AcDbBlockBegin
  2
*PAPER_SPACE
 70
     0
 10
0.0
 20
0.0
 30
0.0
  3
*PAPER_SPACE
  1

  0
ENDBLK
  5
17
330
15
100
AcDbEntity
 67
     1
  8
0
100
AcDbBlockEnd
  0
BLOCK
  5
52
330
51
100
AcDbEntity
  8
0
100
AcDbBlockBegin
  2
AVE_RENDER
 70
     0
 10
0.0
 20
0.0
 30
0.0
  3
AVE_RENDER
  1
AVE_RENDER
  0
ENDBLK
  5
53
330
51
100
AcDbEntity
  8
0
100
AcDbBlockEnd
  0
BLOCK
  5
60
330
5F
100
AcDbEntity
  8
0
100
AcDbBlockBegin
  2
AVE_GLOBAL
 70
     0
 10
0.0
 20
0.0
 30
0.0
  3
AVE_GLOBAL
  1
AVE_GLOBAL
  0
ENDBLK
  5
61
330
5F
100
AcDbEntity
  8
0
100
AcDbBlockEnd
  0
BLOCK
  5
49B
330
49A
100
AcDbEntity
  8
ASHADE
100
AcDbBlockBegin
  2
RM_SDB
 70
     2
 10
0.0
 20
0.0
 30
0.0
  3
RM_SDB
  1
RM_SDB
  0
ATTDEF
  5
49C
330
49A
100
AcDbEntity
  8
0
100
AcDbText
 10
0.0
 20
0.0
 30
0.0
 40
0.2
  1

100
AcDbAttributeDefinition
  3

  2
NAME
 70
     1
  0
ATTDEF
  5
49D
330
49A
100
AcDbEntity
  8
0
100
AcDbText
 10
0.0
 20
0.0
 30
0.0
 40
0.2
  1

100
AcDbAttributeDefinition
  3

  2
ACADCOLOR
 70
     1
  0
ATTDEF
  5
49E
330
49A
100
AcDbEntity
  8
0
100
AcDbText
 10
0.0
 20
0.0
 30
0.0
 40
0.2
  1

100
AcDbAttributeDefinition
  3

  2
COLOR
 70
     1
  0
ATTDEF
  5
49F
330
49A
100
AcDbEntity
  8
0
100
AcDbText
 10
0.0
 20
0.0
 30
0.0
 40
0.2
  1

100
AcDbAttributeDefinition
  3

  2
OPACITY
 70
     1
  0
ATTDEF
  5
4A0
330
49A
100
AcDbEntity
  8
0
100
AcDbText
 10
0.0
 20
0.0
 30
0.0
 40
0.2
  1

100
AcDbAttributeDefinition
  3

  2
SURFACE
 70
     1
  0
ATTDEF
  5
4A1
330
49A
100
AcDbEntity
  8
0
100
AcDbText
 10
0.0
 20
0.0
 30
0.0
 40
0.2
  1

100
AcDbAttributeDefinition
  3

  2
SURF1
 70
     1
  0
ATTDEF
  5
4A2
330
49A
100
AcDbEntity
  8
0
100
AcDbText
 10
0.0
 20
0.0
 30
0.0
 40
0.2
  1

100
AcDbAttributeDefinition
  3

  2
SURF2
 70
     1
  0
ATTDEF
  5
4A3
330
49A
100
AcDbEntity
  8
0
100
AcDbText
 10
0.0
 20
0.0
 30
0.0
 40
0.2
  1

100
AcDbAttributeDefinition
  3

  2
SURF3
 70
     1
  0
ATTDEF
  5
4A4
330
49A
100
AcDbEntity
  8
0
100
AcDbText
 10
0.0
 20
0.0
 30
0.0
 40
0.2
  1

100
AcDbAttributeDefinition
  3

  2
SURF4
 70
     1
  0
ATTDEF
  5
4A5
330
49A
100
AcDbEntity
  8
0
100
AcDbText
 10
0.0
 20
0.0
 30
0.0
 40
0.2
  1

100
AcDbAttributeDefinition
  3

  2
SHADINGRATE
 70
     1
  0
ATTDEF
  5
4A6
330
49A
100
AcDbEntity
  8
0
100
AcDbText
 10
0.0
 20
0.0
 30
0.0
 40
0.2
  1

100
AcDbAttributeDefinition
  3

  2
DISPLACEMENT
 70
     1
  0
ATTDEF
  5
4A7
330
49A
100
AcDbEntity
  8
0
100
AcDbText
 10
0.0
 20
0.0
 30
0.0
 40
0.2
  1

100
AcDbAttributeDefinition
  3

  2
DISP1
 70
     1
  0
ATTDEF
  5
4A8
330
49A
100
AcDbEntity
  8
0
100
AcDbText
 10
0.0
 20
0.0
 30
0.0
 40
0.2
  1

100
AcDbAttributeDefinition
  3

  2
DISP2
 70
     1
  0
ATTDEF
  5
4A9
330
49A
100
AcDbEntity
  8
0
100
AcDbText
 10
0.0
 20
0.0
 30
0.0
 40
0.2
  1

100
AcDbAttributeDefinition
  3

  2
DISP3
 70
     1
  0
ATTDEF
  5
4AA
330
49A
100
AcDbEntity
  8
0
100
AcDbText
 10
0.0
 20
0.0
 30
0.0
 40
0.2
  1

100
AcDbAttributeDefinition
  3

  2
DISP4
 70
     1
  0
ATTDEF
  5
4AB
330
49A
100
AcDbEntity
  8
0
100
AcDbText
 10
0.0
 20
0.0
 30
0.0
 40
0.2
  1

100
AcDbAttributeDefinition
  3

  2
DBOUND
 70
     1
  0
ATTDEF
  5
4AC
330
49A
100
AcDbEntity
  8
0
100
AcDbText
 10
0.0
 20
0.0
 30
0.0
 40
0.2
  1

100
AcDbAttributeDefinition
  3

  2
SMOOTH
 70
     1
  0
ATTDEF
  5
4AD
330
49A
100
AcDbEntity
  8
0
100
AcDbText
 10
0.0
 20
0.0
 30
0.0
 40
0.2
  1

100
AcDbAttributeDefinition
  3

  2
ATMOSHPERE
 70
     1
  0
ATTDEF
  5
4AE
330
49A
100
AcDbEntity
  8
0
100
AcDbText
 10
0.0
 20
0.0
 30
0.0
 40
0.2
  1

100
AcDbAttributeDefinition
  3

  2
ATMO1
 70
     1
  0
ATTDEF
  5
4AF
330
49A
100
AcDbEntity
  8
0
100
AcDbText
 10
0.0
 20
0.0
 30
0.0
 40
0.2
  1

100
AcDbAttributeDefinition
  3

  2
ATMO2
 70
     1
  0
ATTDEF
  5
4B0
330
49A
100
AcDbEntity
  8
0
100
AcDbText
 10
0.0
 20
0.0
 30
0.0
 40
0.2
  1

100
AcDbAttributeDefinition
  3

  2
ATMO3
 70
     1
  0
ATTDEF
  5
4B1
330
49A
100
AcDbEntity
  8
0
100
AcDbText
 10
0.0
 20
0.0
 30
0.0
 40
0.2
  1

100
AcDbAttributeDefinition
  3

  2
ATMO4
 70
     1
  0
ATTDEF
  5
4B2
330
49A
100
AcDbEntity
  8
0
100
AcDbText
 10
0.0
 20
0.0
 30
0.0
 40
0.2
  1

100
AcDbAttributeDefinition
  3

  2
TCCORD
 70
     1
  0
ENDBLK
  5
4B3
330
49A
100
AcDbEntity
  8
0
100
AcDbBlockEnd
  0
ENDSEC
  0
SECTION
  2
ENTITIES
  0
INSERT
  5
54
330
18
100
AcDbEntity
  8
ASHADE
 62
     1
100
AcDbBlockReference
  2
AVE_RENDER
 10
0.0
 20
0.0
 30
0.0
1001
AVE_RENDER
1002
{
1070
     7
1000
Pref
1070
    50
1070
    20
1070
     1
1070
     0
1000

1070
    10
1070
     1
1070
    10
1040
1.0
1070
     1
1040
0.3
1040
0.7
1040
0.0
1040
10.0
1010
-1.0
1020
-1.0
1030
-1.0
1040
0.3000000119209289
1070
    49
1070
     0
1070
     0
1010
1.0
1020
1.0
1030
1.0
1040
45.0
1070
     1
1070
     0
1000
WCS
1040
0.0
1070
     0
1040
10.0
1002
}
  0
INSERT
  5
55
330
18
100
AcDbEntity
  8
ASHADE
 62
     3
100
AcDbBlockReference
  2
AVE_RENDER
 10
0.0
 20
0.0
 30
0.0
1001
AVE_RENDER
1002
{
1070
     0
1000
Full Opt
1070
     0
1070
     1
1070
     1
1070
     1
1070
     0
1070
     0
1070
     0
1070
     1
1070
     1
1040
0.0001
1040
0.0001
1002
}
  0
INSERT
  5
56
330
18
100
AcDbEntity
  8
ASHADE
 62
     4
100
AcDbBlockReference
  2
AVE_RENDER
 10
0.0
 20
0.0
 30
0.0
1001
AVE_RENDER
1002
{
1070
     0
1000
Quick Opt
1070
     0
1070
     1
1070
     1
1070
     1
1070
     0
1070
     0
1070
     1
1002
}
  0
INSERT
  5
57
330
18
100
AcDbEntity
  8
ASHADE
 62
     5
100
AcDbBlockReference
  2
AVE_RENDER
 10
0.0
 20
0.0
 30
0.0
1001
AVE_RENDER
1002
{
1070
     1
1000
Scanl Opt
1070
     2
1070
     0
1070
     2
1040
2.0
1040
4.0
1070
     1
1070
     1
1070
     0
1040
0.03
1002
}
  0
INSERT
  5
58
330
18
100
AcDbEntity
  8
ASHADE
 62
     6
100
AcDbBlockReference
  2
AVE_RENDER
 10
0.0
 20
0.0
 30
0.0
1001
AVE_RENDER
1002
{
1070
     2
1000
Raytr Opt
1070
     2
1070
     0
1070
     2
1040
2.0
1040
4.0
1070
     0
1070
     1
1070
     1
1040
0.03
1070
     3
1040
0.03
1002
}
  0
INSERT
  5
59
330
18
100
AcDbEntity
  8
ASHADE
 62
     7
100
AcDbBlockReference
  2
AVE_RENDER
 10
0.0
 20
0.0
 30
0.0
1001
AVE_RENDER
1002
{
1070
     0
1000
RFile Opt
1070
     1
1070
   640
1070
   480
1070
 10000
1070
     1
1070
     8
1070
     8
1070
     0
1070
     0
1070
     0
1070
     0
1070
     0
1070
     0
1070
     0
1002
}
  0
INSERT
  5
5A
330
18
100
AcDbEntity
  8
ASHADE
 62
     8
100
AcDbBlockReference
  2
AVE_RENDER
 10
0.0
 20
0.0
 30
0.0
1001
AVE_RENDER
1002
{
1070
     0
1000
Fog Opt
1070
     0
1070
     0
1040
0.0
1040
1.0
1040
0.0
1040
1.0
1010
0.5
1020
0.5
1030
0.5
1002
}
  0
INSERT
  5
5B
330
18
100
AcDbEntity
  8
ASHADE
 62
     9
100
AcDbBlockReference
  2
AVE_RENDER
 10
0.0
 20
0.0
 30
0.0
1001
AVE_RENDER
1002
{
1070
     0
1000
BG Opt
1070
     1
1070
     0
1010
0.0
1020
0.0
1030
0.0
1010
1.0
1020
0.0
1030
0.0
1010
0.0
1020
1.0
1030
0.0
1010
0.0
1020
0.0
1030
1.0
1040
0.5
1040
0.5
1040
0.0
1000

1070
     1
1000

1070
     1
1070
     1
1040
1.0
1040
1.0
1040
0.0
1040
0.0
1070
     0
1002
}
  0
INSERT
  5
62
330
18
100
AcDbEntity
  8
ASHADE
 62
     1
100
AcDbBlockReference
  2
AVE_GLOBAL
 10
0.0
 20
0.0
 30
0.0
1001
AVE_MATERIAL
1002
{
1000
*GLOBAL*
1000
1
1000
Globales Material.
1002
{
1002
}
1002
{
1070
    63
1002
{
1002
{
1010
-1.0
1020
-1.0
1030
-1.0
1002
}
1040
0.1
1000

1040
0.0
1002
{
1002
}
1040
0.0
1002
{
1002
}
1040
0.0
1002
}
1002
{
1002
{
1010
-1.0
1020
-1.0
1030
-1.0
1002
}
1040
0.7
1000

1040
0.0
1002
{
1002
}
1040
0.0
1002
{
1002
}
1040
0.0
1002
}
1002
{
1002
{
1010
-1.0
1020
-1.0
1030
-1.0
1002
}
1040
0.2
1000

1040
0.0
1002
{
1002
}
1040
0.0
1002
{
1002
}
1040
0.0
1002
}
1002
{
1070
     0
1002
{
1070
     1
1002
{
1040
1.0
1040
1.0
1000

1040
0.0
1002
{
1002
}
1040
0.0
1002
{
1002
}
1040
0.0
1002
}
1002
}
1040
1.0
1040
0.0
1040
0.0
1002
}
1002
{
1040
1.0
1040
1.0
1000

1040
0.0
1002
{
1002
}
1040
0.0
1002
{
1002
}
1040
0.0
1002
}
1002
{
1040
0.5
1040
1.0
1000

1040
0.0
1002
{
1002
}
1040
0.0
1002
{
1002
}
1040
0.0
1002
}
1002
{
1070
     0
1040
0.0
1002
{
1002
}
1040
1.0
1002
{
1002
}
1040
0.0
1002
}
1002
{
1040
0.0
1002
{
1002
{
1010
0.0
1020
0.0
1030
0.0
1002
}
1040
1.0
1000

1040
0.0
1002
{
1002
}
1040
0.0
1002
{
1002
}
1040
0.0
1002
}
1002
}
1002
{
1002
{
1070
     1
1002
{
1040
0.0
1040
1.0
1000

1040
0.0
1002
{
1002
}
1040
0.0
1002
{
1002
}
1040
0.0
1002
}
1002
}
1040
0.0
1002
{
1002
}
1010
1.0
1020
0.0
1030
0.0
1010
0.0
1020
1.0
1030
0.0
1010
0.0
1020
0.0
1030
1.0
1070
     0
1002
}
1002
{
1002
{
1040
1.0
1040
1.0
1002
{
1070
     1
1002
{
1040
1.0
1040
1.0
1000

1040
0.0
1002
{
1002
}
1040
0.0
1002
{
1002
}
1040
0.0
1002
}
1002
}
1002
}
1070
     0
1040
0.0
1002
{
1002
}
1002
}
1002
{
1002
}
1002
}
1002
{
1071
        3
1070
     3
1070
     0
1002
{
1070
     2
1070
     0
1070
     0
1040
0.0
1002
}
1070
     0
1070
     2
1002
{
1002
}
1002
}
1002
{
1040
8030.0
1040
190.300003
1040
0.305
1040
228.0
1040
545.0
1040
14.0
1040
17.39999999999999
1040
0.4560000000000001
1002
}
1002
}
  0
POLYLINE
  5
AF
330
18
100
AcDbEntity
  8
AVLAYER
 62
     7
100
AcDbPolyFaceMesh
 66
     1
 10
0.0
 20
0.0
 30
0.0
 70
    64
 71
   335
 72
   666
1001
AVE_FINISH
1002
{
1070
     0
1005
4B4
1002
}
1001
AVE_ENTITY_MATERIAL
1002
{
1000

1002
{
1071
        0
1070
     0
1070
     0
1002
{
1070
     0
1070
     0
1070
     0
1040
0.0
1002
}
1070
     0
1070
     0
1002
{
1002
}
1002
}
1002
{
1002
}
1002
{
1002
}
1011
0.0
1021
0.0
1031
0.0
1011
1.0
1021
0.0
1031
0.0
1011
0.0
1021
1.0
1031
0.0
1011
0.0
1021
0.0
1031
1.0
1002
}
  0
VERTEX
  5
B0
330
AF
100
AcDbEntity
  8
AVLAYER
 62
     7
100
AcDbVertex
100
AcDbPolyFaceMeshVertex
 10
16.10002326965332
 20
22.00906944274902
 30
78.27235412597656
 70
   192
  0
VERTEX
  5
B1
330
AF
100
AcDbEntity
  8
AVLAYER
 62
     7
100
AcDbVertex
100
AcDbPolyFaceMeshVertex
 10
16.10002326965332
 20
22.00906944274902
 30
51.72764205932617
 70
   192
  0
VERTEX
  5
B2
330
AF
100
AcDbEntity
  8
AVLAYER
 62
     7
100
AcDbVertex
100
AcDbPolyFaceMeshVertex
 10
20.1755313873291
 20
21.86177062988281
 30
57.79812622070313
 70
   192
  0
VERTEX
  5
B3
330
AF
100
AcDbEntity
  8
AVLAYER
 62
     7
100
AcDbVertex
100
AcDbPolyFaceMeshVertex
 10
2.895756006240844
 20
22.48727989196777
 30
46.27530288696289
 70
   192
  0
VERTEX
  5
B4
330
AF
100
AcDbEntity
  8
AVLAYER
 62
     7
100
AcDbVertex
100
AcDbPolyFaceMeshVertex
 10
-4.241952896118164
 20
22.74633598327636
 30
47.68898391723633
 70
   192
  0
VERTEX
  5
B5
330
AF
100
AcDbEntity
  8
AVLAYER
 62
     7
100
AcDbVertex
100
AcDbPolyFaceMeshVertex
 10
-14.38657855987548
 20
23.11514091491699
 30
57.79827117919921
 70
   192
  0
VERTEX
  5
B6
330
AF
100
AcDbEntity
  8
AVLAYER
 62
     7
100
AcDbVertex
100
AcDbPolyFaceMeshVertex
 10
-15.8266315460205
 20
23.16756057739258
 30
65.0
 70
   192
  0
VERTEX
  5
B7
330
AF
100
AcDbEntity
  8
AVLAYER
 62
     7
100
AcDbVertex
100
AcDbPolyFaceMeshVertex
 10
-14.38657855987548
 20
23.11514091491699
 30
72.20172882080078
 70
   192
  0
VERTEX
  5
B8
330
AF
100
AcDbEntity
  8
AVLAYER
 62
     7
100
AcDbVertex
100
AcDbPolyFaceMeshVertex
 10
383.3840942382812
 20
21.80977249145507
 30
65.0
 70
   192
  0
VERTEX
  5
B9
330
AF
100
AcDbEntity
  8
AVLAYER
 62
     7
100
AcDbVertex
100
AcDbPolyFaceMeshVertex
 10
384.8244628906249
 20
21.86177062988281
 30
57.79812622070313
 70
   192
  0
VERTEX
  5
BA
330
AF
100
AcDbEntity
  8
AVLAYER
 62
     7
100
AcDbVertex
100
AcDbPolyFaceMeshVertex
 10
388.8999633789062
 20
22.00906944274902
 30
78.27235412597656
 70
   192
  0
VERTEX
  5
BB
330
AF
100
AcDbEntity
  8
AVLAYER
 62
     7
100
AcDbVertex
100
AcDbPolyFaceMeshVertex
 10
402.1042480468749
 20
22.48727989196777
 30
46.27530288696289
 70
   192
  0
VERTEX
  5
BC
330
AF
100
AcDbEntity
  8
AVLAYER
 62
     7
100
AcDbVertex
100
AcDbPolyFaceMeshVertex
 10
402.1042480468749
 20
22.48727989196777
 30
83.72469329833984
 70
   192
  0
VERTEX
  5
BD
330
AF
100
AcDbEntity
  8
AVLAYER
 62
     7
100
AcDbVertex
100
AcDbPolyFaceMeshVertex
 10
415.3106689453125
 20
22.9669017791748
 30
78.27333068847656
 70
   192
  0
VERTEX
  5
BE
330
AF
100
AcDbEntity
  8
AVLAYER
 62
     7
100
AcDbVertex
100
AcDbPolyFaceMeshVertex
 10
382.448974609375
 20
23.21021080017089
 30
68.93244171142578
 70
   192
  0
VERTEX
  5
BF
330
AF
100
AcDbEntity
  8
AVLAYER
 62
     7
100
AcDbVertex
100
AcDbPolyFaceMeshVertex
 10
392.6369934082031
 20
23.60560035705566
 30
82.64339447021484
 70
   192
  0
VERTEX
  5
C0
330
AF
100
AcDbEntity
  8
AVLAYER
 62
     7
100
AcDbVertex
100
AcDbPolyFaceMeshVertex
 10
421.1748352050781
 20
24.70455932617187
 30
70.83667755126953
 70
   192
  0
VERTEX
  5
C1
330
AF
100
AcDbEntity
  8
AVLAYER
 62
     7
100
AcDbVertex
100
AcDbPolyFaceMeshVertex
 10
422.0451354980468
 20
24.73790740966796
 30
65.0
 70
   192
  0
VERTEX
  5
C2
330
AF
100
AcDbEntity
  8
AVLAYER
 62
     7
100
AcDbVertex
100
AcDbPolyFaceMeshVertex
 10
419.3865661621093
 20
23.11514472961425
 30
72.20172882080078
 70
   192
  0
VERTEX
  5
C3
330
AF
100
AcDbEntity
  8
AVLAYER
 62
     7
100
AcDbVertex
100
AcDbPolyFaceMeshVertex
 10
416.0756835937499
 20
23.83062744140624
 30
79.07308197021484
 70
   192
  0
VERTEX
  5
C4
330
AF
100
AcDbEntity
  8
AVLAYER
 62
     7
100
AcDbVertex
100
AcDbPolyFaceMeshVertex
 10
409.6896362304687
 20
24.26361274719238
 30
83.48329925537109
 70
   192
  0
VERTEX
  5
C5
330
AF
100
AcDbEntity
  8
AVLAYER
 62
     7
100
AcDbVertex
100
AcDbPolyFaceMeshVertex
 10
418.7003784179687
 20
24.60969352722168
 30
76.07455444335937
 70
   192
  0
VERTEX
  5
C6
330
AF
100
AcDbEntity
  8
AVLAYER
 62
     7
100
AcDbVertex
100
AcDbPolyFaceMeshVertex
 10
421.9187927246093
 20
24.03192329406738
 30
65.0
 70
   192
  0
VERTEX
  5
C7
330
AF
100
AcDbEntity
  8
AVLAYER
 62
     7
100
AcDbVertex
100
AcDbPolyFaceMeshVertex
 10
421.4791259765624
 20
23.46529388427734
 30
65.0
 70
   192
  0
VERTEX
  5
C8
330
AF
100
AcDbEntity
  8
AVLAYER
 62
     7
100
AcDbVertex
100
AcDbPolyFaceMeshVertex
 10
415.7547607421874
 20
23.24298667907715
 30
78.72939300537109
 70
   192
  0
VERTEX
  5
C9
330
AF
100
AcDbEntity
  8
AVLAYER
 62
     7
100
AcDbVertex
100
AcDbPolyFaceMeshVertex
 10
409.2419433593749
 20
22.74633979797363
 30
82.31101226806641
 70
   192
  0
VERTEX
  5
CA
330
AF
100
AcDbEntity
  8
AVLAYER
 62
     7
100
AcDbVertex
100
AcDbPolyFaceMeshVertex
 10
394.9673156738281
 20
22.228609085083
 30
82.30977630615234
 70
   192
  0
VERTEX
  5
CB
330
AF
100
AcDbEntity
  8
AVLAYER
 62
     7
100
AcDbVertex
100
AcDbPolyFaceMeshVertex
 10
402.0743408203125
 20
23.3084487915039
 30
84.84632873535156
 70
   192
  0
VERTEX
  5
CC
330
AF
100
AcDbEntity
  8
AVLAYER
 62
     7
100
AcDbVertex
100
AcDbPolyFaceMeshVertex
 10
402.0950927734374
 20
22.73816299438476
 30
84.35563659667968
 70
   192
  0
VERTEX
  5
CD
330
AF
100
AcDbEntity
  8
AVLAYER
 62
     7
100
AcDbVertex
100
AcDbPolyFaceMeshVertex
 10
388.1025695800781
 20
22.7868366241455
 30
79.0787582397461
 70
   192
  0
VERTEX
  5
CE
330
AF
100
AcDbEntity
  8
AVLAYER
 62
     7
100
AcDbVertex
100
AcDbPolyFaceMeshVertex
 10
382.2456970214843
 20
22.56807327270507
 30
65.0
 70
   192
  0
VERTEX
  5
CF
330
AF
100
AcDbEntity
  8
AVLAYER
 62
     7
100
AcDbVertex
100
AcDbPolyFaceMeshVertex
 10
388.464599609375
 20
22.23465347290038
 30
78.71733093261719
 70
   192
  0
VERTEX
  5
D0
330
AF
100
AcDbEntity
  8
AVLAYER
 62
     7
100
AcDbVertex
100
AcDbPolyFaceMeshVertex
 10
384.8244628906249
 20
21.86177253723144
 30
72.20187377929687
 70
   192
  0
VERTEX
  5
D1
330
AF
100
AcDbEntity
  8
AVLAYER
 62
     7
100
AcDbVertex
100
AcDbPolyFaceMeshVertex
 10
388.0858154296875
 20
22.78622817993164
 30
50.93792724609375
 70
   192
  0
VERTEX
  5
D2
330
AF
100
AcDbEntity
  8
AVLAYER
 62
     7
100
AcDbVertex
100
AcDbPolyFaceMeshVertex
 10
382.7659912109375
 20
22.02427673339844
 30
65.0
 70
   192
  0
VERTEX
  5
D3
330
AF
100
AcDbEntity
  8
AVLAYER
 62
     7
100
AcDbVertex
100
AcDbPolyFaceMeshVertex
 10
388.4567260742187
 20
22.23436737060546
 30
51.29050064086914
 70
   192
  0
VERTEX
  5
D4
330
AF
100
AcDbEntity
  8
AVLAYER
 62
     7
100
AcDbVertex
100
AcDbPolyFaceMeshVertex
 10
388.8999633789062
 20
22.00906944274902
 30
51.72764205932617
 70
   192
  0
VERTEX
  5
D5
330
AF
100
AcDbEntity
  8
AVLAYER
 62
     7
100
AcDbVertex
100
AcDbPolyFaceMeshVertex
 10
394.9673156738281
 20
22.228609085083
 30
47.69022369384765
 70
   192
  0
VERTEX
  5
D6
330
AF
100
AcDbEntity
  8
AVLAYER
 62
     7
100
AcDbVertex
100
AcDbPolyFaceMeshVertex
 10
409.2419433593749
 20
22.74633979797363
 30
47.68898391723633
 70
   192
  0
VERTEX
  5
D7
330
AF
100
AcDbEntity
  8
AVLAYER
 62
     7
100
AcDbVertex
100
AcDbPolyFaceMeshVertex
 10
415.3106689453125
 20
22.9669017791748
 30
51.72667312622071
 70
   192
  0
VERTEX
  5
D8
330
AF
100
AcDbEntity
  8
AVLAYER
 62
     7
100
AcDbVertex
100
AcDbPolyFaceMeshVertex
 10
415.7547607421874
 20
23.24298667907715
 30
51.27060317993164
 70
   192
  0
VERTEX
  5
D9
330
AF
100
AcDbEntity
  8
AVLAYER
 62
     7
100
AcDbVertex
100
AcDbPolyFaceMeshVertex
 10
419.3865661621093
 20
23.11514472961425
 30
57.79827117919921
 70
   192
  0
VERTEX
  5
DA
330
AF
100
AcDbEntity
  8
AVLAYER
 62
     7
100
AcDbVertex
100
AcDbPolyFaceMeshVertex
 10
420.8266296386718
 20
23.16756057739258
 30
65.0
 70
   192
  0
VERTEX
  5
DB
330
AF
100
AcDbEntity
  8
AVLAYER
 62
     7
100
AcDbVertex
100
AcDbPolyFaceMeshVertex
 10
420.9732666015624
 20
24.69683265686035
 30
58.53921508789063
 70
   192
  0
VERTEX
  5
DC
330
AF
100
AcDbEntity
  8
AVLAYER
 62
     7
100
AcDbVertex
100
AcDbPolyFaceMeshVertex
 10
416.0756835937499
 20
23.83062744140624
 30
50.92691802978515
 70
   192
  0
VERTEX
  5
DD
330
AF
100
AcDbEntity
  8
AVLAYER
 62
     7
100
AcDbVertex
100
AcDbPolyFaceMeshVertex
 10
402.0263977050781
 20
23.30670166015625
 30
45.15373992919921
 70
   192
  0
VERTEX
  5
DE
330
AF
100
AcDbEntity
  8
AVLAYER
 62
     7
100
AcDbVertex
100
AcDbPolyFaceMeshVertex
 10
402.0722351074218
 20
22.73733139038085
 30
45.64438247680664
 70
   192
  0
VERTEX
  5
DF
330
AF
100
AcDbEntity
  8
AVLAYER
 62
     7
100
AcDbVertex
100
AcDbPolyFaceMeshVertex
 10
420.4837036132812
 20
40.34429168701172
 30
-0.0000000000000897
 70
   192
  0
VERTEX
  5
E0
330
AF
100
AcDbEntity
  8
AVLAYER
 62
     7
100
AcDbVertex
100
AcDbPolyFaceMeshVertex
 10
389.6943054199218
 20
32.09429168701172
 30
-0.0000000000000784
 70
   192
  0
VERTEX
  5
E1
330
AF
100
AcDbEntity
  8
AVLAYER
 62
     7
100
AcDbVertex
100
AcDbPolyFaceMeshVertex
 10
403.9837036132812
 20
56.84429168701171
 30
-0.0000000000000836
 70
   192
  0
VERTEX
  5
E2
330
AF
100
AcDbEntity
  8
AVLAYER
 62
     7
100
AcDbVertex
100
AcDbPolyFaceMeshVertex
 10
418.2731323242187
 20
48.59429168701172
 30
-0.0000000000000889
 70
   192
  0
VERTEX
  5
E3
330
AF
100
AcDbEntity
  8
AVLAYER
 62
     7
100
AcDbVertex
100
AcDbPolyFaceMeshVertex
 10
387.4837036132812
 20
40.34429168701172
 30
-0.0000000000000776
 70
   192
  0
VERTEX
  5
E4
330
AF
100
AcDbEntity
  8
AVLAYER
 62
     7
100
AcDbVertex
100
AcDbPolyFaceMeshVertex
 10
419.6966247558593
 20
45.37956619262695
 30
63.79961395263672
 70
   192
  0
VERTEX
  5
E5
330
AF
100
AcDbEntity
  8
AVLAYER
 62
     7
100
AcDbVertex
100
AcDbPolyFaceMeshVertex
 10
412.2337036132812
 20
26.05487251281738
 30
-0.0000000000000867
 70
   192
  0
VERTEX
  5
E6
330
AF
100
AcDbEntity
  8
AVLAYER
 62
     7
100
AcDbVertex
100
AcDbPolyFaceMeshVertex
 10
389.6943054199218
 20
48.59429168701172
 30
-0.0000000000000784
 70
   192
  0
VERTEX
  5
E7
330
AF
100
AcDbEntity
  8
AVLAYER
 62
     7
100
AcDbVertex
100
AcDbPolyFaceMeshVertex
 10
395.7337036132812
 20
54.63370895385742
 30
-0.0000000000000806
 70
   192
  0
VERTEX
  5
E8
330
AF
100
AcDbEntity
  8
AVLAYER
 62
     7
100
AcDbVertex
100
AcDbPolyFaceMeshVertex
 10
402.5080261230469
 20
56.77816772460937
 30
45.70690536499023
 70
   192
  0
VERTEX
  5
E9
330
AF
100
AcDbEntity
  8
AVLAYER
 62
     7
100
AcDbVertex
100
AcDbPolyFaceMeshVertex
 10
397.6728820800781
 20
55.58973312377929
 30
45.00220108032226
 70
   192
  0
VERTEX
  5
EA
330
AF
100
AcDbEntity
  8
AVLAYER
 62
     7
100
AcDbVertex
100
AcDbPolyFaceMeshVertex
 10
407.1995849609375
 20
56.52786636352539
 30
47.55950546264648
 70
   192
  0
VERTEX
  5
EB
330
AF
100
AcDbEntity
  8
AVLAYER
 62
     7
100
AcDbVertex
100
AcDbPolyFaceMeshVertex
 10
412.2337036132812
 20
54.63370895385742
 30
-0.0000000000000867
 70
   192
  0
VERTEX
  5
EC
330
AF
100
AcDbEntity
  8
AVLAYER
 62
     7
100
AcDbVertex
100
AcDbPolyFaceMeshVertex
 10
420.4836730957031
 20
40.31523132324219
 30
65.0
 70
   192
  0
VERTEX
  5
ED
330
AF
100
AcDbEntity
  8
AVLAYER
 62
     7
100
AcDbVertex
100
AcDbPolyFaceMeshVertex
 10
414.5188598632812
 20
27.64545631408691
 30
49.55235290527344
 70
   192
  0
VERTEX
  5
EE
330
AF
100
AcDbEntity
  8
AVLAYER
 62
     7
100
AcDbVertex
100
AcDbPolyFaceMeshVertex
 10
418.2731323242187
 20
32.09429168701172
 30
-0.0000000000000889
 70
   192
  0
VERTEX
  5
EF
330
AF
100
AcDbEntity
  8
AVLAYER
 62
     7
100
AcDbVertex
100
AcDbPolyFaceMeshVertex
 10
411.2284545898437
 20
25.519868850708
 30
47.27344512939453
 70
   192
  0
VERTEX
  5
F0
330
AF
100
AcDbEntity
  8
AVLAYER
 62
     7
100
AcDbVertex
100
AcDbPolyFaceMeshVertex
 10
407.2433776855469
 20
24.16947746276855
 30
45.68585586547851
 70
   192
  0
VERTEX
  5
F1
330
AF
100
AcDbEntity
  8
AVLAYER
 62
     7
100
AcDbVertex
100
AcDbPolyFaceMeshVertex
 10
403.9837036132812
 20
23.84429168701172
 30
-0.0000000000000836
 70
   192
  0
VERTEX
  5
F2
330
AF
100
AcDbEntity
  8
AVLAYER
 62
     7
100
AcDbVertex
100
AcDbPolyFaceMeshVertex
 10
395.7337036132812
 20
26.05487251281738
 30
-0.0000000000000806
 70
   192
  0
VERTEX
  5
F3
330
AF
100
AcDbEntity
  8
AVLAYER
 62
     7
100
AcDbVertex
100
AcDbPolyFaceMeshVertex
 10
387.484375
 20
40.49314117431641
 30
49.48059844970703
 70
   192
  0
VERTEX
  5
F4
330
AF
100
AcDbEntity
  8
AVLAYER
 62
     7
100
AcDbVertex
100
AcDbPolyFaceMeshVertex
 10
388.1402282714843
 20
35.73622512817383
 30
49.52067565917968
 70
   192
  0
VERTEX
  5
F5
330
AF
100
AcDbEntity
  8
AVLAYER
 62
     7
100
AcDbVertex
100
AcDbPolyFaceMeshVertex
 10
111.1602554321289
 20
168.8031158447265
 30
75.0
 70
   192
  0
VERTEX
  5
F6
330
AF
100
AcDbEntity
  8
AVLAYER
 62
     7
100
AcDbVertex
100
AcDbPolyFaceMeshVertex
 10
54.70918655395507
 20
117.9743423461914
 30
75.0
 70
   192
  0
VERTEX
  5
F7
330
AF
100
AcDbEntity
  8
AVLAYER
 62
     7
100
AcDbVertex
100
AcDbPolyFaceMeshVertex
 10
48.78676986694336
 20
122.277229309082
 30
82.32051086425782
 70
   192
  0
VERTEX
  5
F8
330
AF
100
AcDbEntity
  8
AVLAYER
 62
     7
100
AcDbVertex
100
AcDbPolyFaceMeshVertex
 10
40.69660186767578
 20
128.1550750732421
 30
85.0
 70
   192
  0
VERTEX
  5
F9
330
AF
100
AcDbEntity
  8
AVLAYER
 62
     7
100
AcDbVertex
100
AcDbPolyFaceMeshVertex
 10
32.60643005371093
 20
134.0329284667968
 30
82.32051086425782
 70
   192
  0
VERTEX
  5
FA
330
AF
100
AcDbEntity
  8
AVLAYER
 62
     7
100
AcDbVertex
100
AcDbPolyFaceMeshVertex
 10
26.68401527404785
 20
138.3358154296874
 30
75.0
 70
   192
  0
VERTEX
  5
FB
330
AF
100
AcDbEntity
  8
AVLAYER
 62
     7
100
AcDbVertex
100
AcDbPolyFaceMeshVertex
 10
24.51626205444336
 20
139.9107818603515
 30
65.0
 70
   192
  0
VERTEX
  5
FC
330
AF
100
AcDbEntity
  8
AVLAYER
 62
     7
100
AcDbVertex
100
AcDbPolyFaceMeshVertex
 10
32.60643005371093
 20
134.0329284667968
 30
47.67949295043945
 70
   192
  0
VERTEX
  5
FD
330
AF
100
AcDbEntity
  8
AVLAYER
 62
     7
100
AcDbVertex
100
AcDbPolyFaceMeshVertex
 10
57.08419799804687
 20
172.098648071289
 30
55.0
 70
   192
  0
VERTEX
  5
FE
330
AF
100
AcDbEntity
  8
AVLAYER
 62
     7
100
AcDbVertex
100
AcDbPolyFaceMeshVertex
 10
54.70918655395507
 20
117.9743423461914
 30
55.0
 70
   192
  0
VERTEX
  5
FF
330
AF
100
AcDbEntity
  8
AVLAYER
 62
     7
100
AcDbVertex
100
AcDbPolyFaceMeshVertex
 10
107.4999999999999
 20
175.1428527832031
 30
82.32051086425782
 70
   192
  0
VERTEX
  5
100
330
AF
100
AcDbEntity
  8
AVLAYER
 62
     7
100
AcDbVertex
100
AcDbPolyFaceMeshVertex
 10
75.36518859863281
 20
151.7955474853515
 30
82.32051086425782
 70
   192
  0
VERTEX
  5
101
330
AF
100
AcDbEntity
  8
AVLAYER
 62
     7
100
AcDbVertex
100
AcDbPolyFaceMeshVertex
 10
68.67388153076172
 20
159.2269897460937
 30
85.0
 70
   192
  0
VERTEX
  5
102
330
AF
100
AcDbEntity
  8
AVLAYER
 62
     7
100
AcDbVertex
100
AcDbPolyFaceMeshVertex
 10
61.98257446289062
 20
166.6584472656249
 30
82.32051086425782
 70
   192
  0
VERTEX
  5
103
330
AF
100
AcDbEntity
  8
AVLAYER
 62
     7
100
AcDbVertex
100
AcDbPolyFaceMeshVertex
 10
57.08419799804687
 20
172.098648071289
 30
75.0
 70
   192
  0
VERTEX
  5
104
330
AF
100
AcDbEntity
  8
AVLAYER
 62
     7
100
AcDbVertex
100
AcDbPolyFaceMeshVertex
 10
92.5
 20
201.1236267089843
 30
65.0
 70
   192
  0
VERTEX
  5
105
330
AF
100
AcDbEntity
  8
AVLAYER
 62
     7
100
AcDbVertex
100
AcDbPolyFaceMeshVertex
 10
55.29126739501953
 20
174.0898895263671
 30
65.0
 70
   192
  0
VERTEX
  5
106
330
AF
100
AcDbEntity
  8
AVLAYER
 62
     7
100
AcDbVertex
100
AcDbPolyFaceMeshVertex
 10
97.5
 20
192.4633636474609
 30
47.67949295043945
 70
   192
  0
VERTEX
  5
107
330
AF
100
AcDbEntity
  8
AVLAYER
 62
     7
100
AcDbVertex
100
AcDbPolyFaceMeshVertex
 10
61.98257446289062
 20
166.6584472656249
 30
47.67949295043945
 70
   192
  0
VERTEX
  5
108
330
AF
100
AcDbEntity
  8
AVLAYER
 62
     7
100
AcDbVertex
100
AcDbPolyFaceMeshVertex
 10
68.67388153076172
 20
159.2269897460937
 30
45.0
 70
   192
  0
VERTEX
  5
109
330
AF
100
AcDbEntity
  8
AVLAYER
 62
     7
100
AcDbVertex
100
AcDbPolyFaceMeshVertex
 10
102.4999999999999
 20
183.8031158447265
 30
45.0
 70
   192
  0
VERTEX
  5
10A
330
AF
100
AcDbEntity
  8
AVLAYER
 62
     7
100
AcDbVertex
100
AcDbPolyFaceMeshVertex
 10
75.36518859863281
 20
151.7955474853515
 30
47.67949295043945
 70
   192
  0
VERTEX
  5
10B
330
AF
100
AcDbEntity
  8
AVLAYER
 62
     7
100
AcDbVertex
100
AcDbPolyFaceMeshVertex
 10
80.26355743408203
 20
146.3553466796875
 30
55.0
 70
   192
  0
VERTEX
  5
10C
330
AF
100
AcDbEntity
  8
AVLAYER
 62
     7
100
AcDbVertex
100
AcDbPolyFaceMeshVertex
 10
146.8769378662109
 20
181.7882080078125
 30
65.0
 70
   192
  0
VERTEX
  5
10D
330
AF
100
AcDbEntity
  8
AVLAYER
 62
     7
100
AcDbVertex
100
AcDbPolyFaceMeshVertex
 10
146.0489349365234
 20
184.3365478515625
 30
75.0
 70
   192
  0
VERTEX
  5
10E
330
AF
100
AcDbEntity
  8
AVLAYER
 62
     7
100
AcDbVertex
100
AcDbPolyFaceMeshVertex
 10
102.4999999999999
 20
183.8031158447265
 30
85.0
 70
   192
  0
VERTEX
  5
10F
330
AF
100
AcDbEntity
  8
AVLAYER
 62
     7
100
AcDbVertex
100
AcDbPolyFaceMeshVertex
 10
143.7867736816406
 20
191.2987670898437
 30
82.32051086425782
 70
   192
  0
VERTEX
  5
110
330
AF
100
AcDbEntity
  8
AVLAYER
 62
     7
100
AcDbVertex
100
AcDbPolyFaceMeshVertex
 10
140.6965942382812
 20
200.809341430664
 30
85.0
 70
   192
  0
VERTEX
  5
111
330
AF
100
AcDbEntity
  8
AVLAYER
 62
     7
100
AcDbVertex
100
AcDbPolyFaceMeshVertex
 10
97.5
 20
192.4633636474609
 30
82.32051086425782
 70
   192
  0
VERTEX
  5
112
330
AF
100
AcDbEntity
  8
AVLAYER
 62
     7
100
AcDbVertex
100
AcDbPolyFaceMeshVertex
 10
93.83974456787109
 20
198.8031158447265
 30
75.0
 70
   192
  0
VERTEX
  5
113
330
AF
100
AcDbEntity
  8
AVLAYER
 62
     7
100
AcDbVertex
100
AcDbPolyFaceMeshVertex
 10
134.5162658691406
 20
219.8304595947265
 30
65.0
 70
   192
  0
VERTEX
  5
114
330
AF
100
AcDbEntity
  8
AVLAYER
 62
     7
100
AcDbVertex
100
AcDbPolyFaceMeshVertex
 10
93.83974456787109
 20
198.8031158447265
 30
55.0
 70
   192
  0
VERTEX
  5
115
330
AF
100
AcDbEntity
  8
AVLAYER
 62
     7
100
AcDbVertex
100
AcDbPolyFaceMeshVertex
 10
137.6064300537109
 20
210.3199005126953
 30
47.67949295043945
 70
   192
  0
VERTEX
  5
116
330
AF
100
AcDbEntity
  8
AVLAYER
 62
     7
100
AcDbVertex
100
AcDbPolyFaceMeshVertex
 10
140.6965942382812
 20
200.809341430664
 30
45.0
 70
   192
  0
VERTEX
  5
117
330
AF
100
AcDbEntity
  8
AVLAYER
 62
     7
100
AcDbVertex
100
AcDbPolyFaceMeshVertex
 10
143.7867736816406
 20
191.2987670898437
 30
47.67949295043945
 70
   192
  0
VERTEX
  5
118
330
AF
100
AcDbEntity
  8
AVLAYER
 62
     7
100
AcDbVertex
100
AcDbPolyFaceMeshVertex
 10
107.4999999999999
 20
175.1428527832031
 30
47.67949295043945
 70
   192
  0
VERTEX
  5
119
330
AF
100
AcDbEntity
  8
AVLAYER
 62
     7
100
AcDbVertex
100
AcDbPolyFaceMeshVertex
 10
183.404800415039
 20
192.2767791748047
 30
75.0
 70
   192
  0
VERTEX
  5
11A
330
AF
100
AcDbEntity
  8
AVLAYER
 62
     7
100
AcDbVertex
100
AcDbPolyFaceMeshVertex
 10
181.5943145751953
 20
209.5024108886718
 30
85.0
 70
   192
  0
VERTEX
  5
11B
330
AF
100
AcDbEntity
  8
AVLAYER
 62
     7
100
AcDbVertex
100
AcDbPolyFaceMeshVertex
 10
137.6064300537109
 20
210.3199005126953
 30
82.32051086425782
 70
   192
  0
VERTEX
  5
11C
330
AF
100
AcDbEntity
  8
AVLAYER
 62
     7
100
AcDbVertex
100
AcDbPolyFaceMeshVertex
 10
179.7838287353515
 20
226.72802734375
 30
75.0
 70
   192
  0
VERTEX
  5
11D
330
AF
100
AcDbEntity
  8
AVLAYER
 62
     7
100
AcDbVertex
100
AcDbPolyFaceMeshVertex
 10
135.3442687988281
 20
217.2821197509765
 30
75.0
 70
   192
  0
VERTEX
  5
11E
330
AF
100
AcDbEntity
  8
AVLAYER
 62
     7
100
AcDbVertex
100
AcDbPolyFaceMeshVertex
 10
179.5037384033203
 20
229.3928527832031
 30
65.0
 70
   192
  0
VERTEX
  5
11F
330
AF
100
AcDbEntity
  8
AVLAYER
 62
     7
100
AcDbVertex
100
AcDbPolyFaceMeshVertex
 10
180.5490264892578
 20
219.4476318359375
 30
47.67949295043945
 70
   192
  0
VERTEX
  5
120
330
AF
100
AcDbEntity
  8
AVLAYER
 62
     7
100
AcDbVertex
100
AcDbPolyFaceMeshVertex
 10
135.3442687988281
 20
217.2821197509765
 30
55.0
 70
   192
  0
VERTEX
  5
121
330
AF
100
AcDbEntity
  8
AVLAYER
 62
     7
100
AcDbVertex
100
AcDbPolyFaceMeshVertex
 10
182.6395874023437
 20
199.5571899414062
 30
47.67949295043945
 70
   192
  0
VERTEX
  5
122
330
AF
100
AcDbEntity
  8
AVLAYER
 62
     7
100
AcDbVertex
100
AcDbPolyFaceMeshVertex
 10
146.0489349365234
 20
184.3365478515625
 30
55.0
 70
   192
  0
VERTEX
  5
123
330
AF
100
AcDbEntity
  8
AVLAYER
 62
     7
100
AcDbVertex
100
AcDbPolyFaceMeshVertex
 10
221.5951995849609
 20
192.2767791748047
 30
75.0
 70
   192
  0
VERTEX
  5
124
330
AF
100
AcDbEntity
  8
AVLAYER
 62
     7
100
AcDbVertex
100
AcDbPolyFaceMeshVertex
 10
182.6395874023437
 20
199.5571899414062
 30
82.32051086425782
 70
   192
  0
VERTEX
  5
125
330
AF
100
AcDbEntity
  8
AVLAYER
 62
     7
100
AcDbVertex
100
AcDbPolyFaceMeshVertex
 10
224.4509735107421
 20
219.4476318359375
 30
82.32051086425782
 70
   192
  0
VERTEX
  5
126
330
AF
100
AcDbEntity
  8
AVLAYER
 62
     7
100
AcDbVertex
100
AcDbPolyFaceMeshVertex
 10
180.5490264892578
 20
219.4476318359375
 30
82.32051086425782
 70
   192
  0
VERTEX
  5
127
330
AF
100
AcDbEntity
  8
AVLAYER
 62
     7
100
AcDbVertex
100
AcDbPolyFaceMeshVertex
 10
179.7838287353515
 20
226.72802734375
 30
55.0
 70
   192
  0
VERTEX
  5
128
330
AF
100
AcDbEntity
  8
AVLAYER
 62
     7
100
AcDbVertex
100
AcDbPolyFaceMeshVertex
 10
225.2161712646484
 20
226.72802734375
 30
55.0
 70
   192
  0
VERTEX
  5
129
330
AF
100
AcDbEntity
  8
AVLAYER
 62
     7
100
AcDbVertex
100
AcDbPolyFaceMeshVertex
 10
224.4509735107421
 20
219.4476318359375
 30
47.67949295043945
 70
   192
  0
VERTEX
  5
12A
330
AF
100
AcDbEntity
  8
AVLAYER
 62
     7
100
AcDbVertex
100
AcDbPolyFaceMeshVertex
 10
223.4056854248046
 20
209.5024108886718
 30
45.0
 70
   192
  0
VERTEX
  5
12B
330
AF
100
AcDbEntity
  8
AVLAYER
 62
     7
100
AcDbVertex
100
AcDbPolyFaceMeshVertex
 10
181.5943145751953
 20
209.5024108886718
 30
45.0
 70
   192
  0
VERTEX
  5
12C
330
AF
100
AcDbEntity
  8
AVLAYER
 62
     7
100
AcDbVertex
100
AcDbPolyFaceMeshVertex
 10
183.404800415039
 20
192.2767791748047
 30
55.0
 70
   192
  0
VERTEX
  5
12D
330
AF
100
AcDbEntity
  8
AVLAYER
 62
     7
100
AcDbVertex
100
AcDbPolyFaceMeshVertex
 10
222.3604125976562
 20
199.5571899414062
 30
82.32051086425782
 70
   192
  0
VERTEX
  5
12E
330
AF
100
AcDbEntity
  8
AVLAYER
 62
     7
100
AcDbVertex
100
AcDbPolyFaceMeshVertex
 10
223.4056854248046
 20
209.5024108886718
 30
85.0
 70
   192
  0
VERTEX
  5
12F
330
AF
100
AcDbEntity
  8
AVLAYER
 62
     7
100
AcDbVertex
100
AcDbPolyFaceMeshVertex
 10
267.3935546875
 20
210.3199005126953
 30
82.32051086425782
 70
   192
  0
VERTEX
  5
130
330
AF
100
AcDbEntity
  8
AVLAYER
 62
     7
100
AcDbVertex
100
AcDbPolyFaceMeshVertex
 10
225.4962615966797
 20
229.3928527832031
 30
65.0
 70
   192
  0
VERTEX
  5
131
330
AF
100
AcDbEntity
  8
AVLAYER
 62
     7
100
AcDbVertex
100
AcDbPolyFaceMeshVertex
 10
225.2161712646484
 20
226.72802734375
 30
75.0
 70
   192
  0
VERTEX
  5
132
330
AF
100
AcDbEntity
  8
AVLAYER
 62
     7
100
AcDbVertex
100
AcDbPolyFaceMeshVertex
 10
269.6557312011718
 20
217.2821197509765
 30
55.0
 70
   192
  0
VERTEX
  5
133
330
AF
100
AcDbEntity
  8
AVLAYER
 62
     7
100
AcDbVertex
100
AcDbPolyFaceMeshVertex
 10
267.3935546875
 20
210.3199005126953
 30
47.67949295043945
 70
   192
  0
VERTEX
  5
134
330
AF
100
AcDbEntity
  8
AVLAYER
 62
     7
100
AcDbVertex
100
AcDbPolyFaceMeshVertex
 10
261.2132263183593
 20
191.2987670898437
 30
47.67949295043945
 70
   192
  0
VERTEX
  5
135
330
AF
100
AcDbEntity
  8
AVLAYER
 62
     7
100
AcDbVertex
100
AcDbPolyFaceMeshVertex
 10
222.3604125976562
 20
199.5571899414062
 30
47.67949295043945
 70
   192
  0
VERTEX
  5
136
330
AF
100
AcDbEntity
  8
AVLAYER
 62
     7
100
AcDbVertex
100
AcDbPolyFaceMeshVertex
 10
258.9510803222656
 20
184.3365478515625
 30
55.0
 70
   192
  0
VERTEX
  5
137
330
AF
100
AcDbEntity
  8
AVLAYER
 62
     7
100
AcDbVertex
100
AcDbPolyFaceMeshVertex
 10
293.8397521972656
 20
168.8031158447265
 30
75.0
 70
   192
  0
VERTEX
  5
138
330
AF
100
AcDbEntity
  8
AVLAYER
 62
     7
100
AcDbVertex
100
AcDbPolyFaceMeshVertex
 10
258.9510803222656
 20
184.3365478515625
 30
75.0
 70
   192
  0
VERTEX
  5
139
330
AF
100
AcDbEntity
  8
AVLAYER
 62
     7
100
AcDbVertex
100
AcDbPolyFaceMeshVertex
 10
261.2132263183593
 20
191.2987670898437
 30
82.32051086425782
 70
   192
  0
VERTEX
  5
13A
330
AF
100
AcDbEntity
  8
AVLAYER
 62
     7
100
AcDbVertex
100
AcDbPolyFaceMeshVertex
 10
264.3034057617187
 20
200.809341430664
 30
85.0
 70
   192
  0
VERTEX
  5
13B
330
AF
100
AcDbEntity
  8
AVLAYER
 62
     7
100
AcDbVertex
100
AcDbPolyFaceMeshVertex
 10
307.5
 20
192.4633636474609
 30
82.32051086425782
 70
   192
  0
VERTEX
  5
13C
330
AF
100
AcDbEntity
  8
AVLAYER
 62
     7
100
AcDbVertex
100
AcDbPolyFaceMeshVertex
 10
269.6557312011718
 20
217.2821197509765
 30
75.0
 70
   192
  0
VERTEX
  5
13D
330
AF
100
AcDbEntity
  8
AVLAYER
 62
     7
100
AcDbVertex
100
AcDbPolyFaceMeshVertex
 10
270.4837341308593
 20
219.8304595947265
 30
65.0
 70
   192
  0
VERTEX
  5
13E
330
AF
100
AcDbEntity
  8
AVLAYER
 62
     7
100
AcDbVertex
100
AcDbPolyFaceMeshVertex
 10
311.1602478027343
 20
198.8031158447265
 30
55.0
 70
   192
  0
VERTEX
  5
13F
330
AF
100
AcDbEntity
  8
AVLAYER
 62
     7
100
AcDbVertex
100
AcDbPolyFaceMeshVertex
 10
307.5
 20
192.4633636474609
 30
47.67949295043945
 70
   192
  0
VERTEX
  5
140
330
AF
100
AcDbEntity
  8
AVLAYER
 62
     7
100
AcDbVertex
100
AcDbPolyFaceMeshVertex
 10
264.3034057617187
 20
200.809341430664
 30
45.0
 70
   192
  0
VERTEX
  5
141
330
AF
100
AcDbEntity
  8
AVLAYER
 62
     7
100
AcDbVertex
100
AcDbPolyFaceMeshVertex
 10
302.4999999999999
 20
183.8031158447265
 30
45.0
 70
   192
  0
VERTEX
  5
142
330
AF
100
AcDbEntity
  8
AVLAYER
 62
     7
100
AcDbVertex
100
AcDbPolyFaceMeshVertex
 10
297.5
 20
175.1428527832031
 30
47.67949295043945
 70
   192
  0
VERTEX
  5
143
330
AF
100
AcDbEntity
  8
AVLAYER
 62
     7
100
AcDbVertex
100
AcDbPolyFaceMeshVertex
 10
324.7364501953124
 20
146.3553466796875
 30
75.0
 70
   192
  0
VERTEX
  5
144
330
AF
100
AcDbEntity
  8
AVLAYER
 62
     7
100
AcDbVertex
100
AcDbPolyFaceMeshVertex
 10
329.6348266601562
 20
151.7955474853515
 30
82.32051086425782
 70
   192
  0
VERTEX
  5
145
330
AF
100
AcDbEntity
  8
AVLAYER
 62
     7
100
AcDbVertex
100
AcDbPolyFaceMeshVertex
 10
297.5
 20
175.1428527832031
 30
82.32051086425782
 70
   192
  0
VERTEX
  5
146
330
AF
100
AcDbEntity
  8
AVLAYER
 62
     7
100
AcDbVertex
100
AcDbPolyFaceMeshVertex
 10
302.4999999999999
 20
183.8031158447265
 30
85.0
 70
   192
  0
VERTEX
  5
147
330
AF
100
AcDbEntity
  8
AVLAYER
 62
     7
100
AcDbVertex
100
AcDbPolyFaceMeshVertex
 10
343.0174255371093
 20
166.6584472656249
 30
82.32051086425782
 70
   192
  0
VERTEX
  5
148
330
AF
100
AcDbEntity
  8
AVLAYER
 62
     7
100
AcDbVertex
100
AcDbPolyFaceMeshVertex
 10
311.1602478027343
 20
198.8031158447265
 30
75.0
 70
   192
  0
VERTEX
  5
149
330
AF
100
AcDbEntity
  8
AVLAYER
 62
     7
100
AcDbVertex
100
AcDbPolyFaceMeshVertex
 10
347.9158020019531
 20
172.098648071289
 30
75.0
 70
   192
  0
VERTEX
  5
14A
330
AF
100
AcDbEntity
  8
AVLAYER
 62
     7
100
AcDbVertex
100
AcDbPolyFaceMeshVertex
 10
312.5
 20
201.1236267089843
 30
65.0
 70
   192
  0
VERTEX
  5
14B
330
AF
100
AcDbEntity
  8
AVLAYER
 62
     7
100
AcDbVertex
100
AcDbPolyFaceMeshVertex
 10
347.9158020019531
 20
172.098648071289
 30
55.0
 70
   192
  0
VERTEX
  5
14C
330
AF
100
AcDbEntity
  8
AVLAYER
 62
     7
100
AcDbVertex
100
AcDbPolyFaceMeshVertex
 10
343.0174255371093
 20
166.6584472656249
 30
47.67949295043945
 70
   192
  0
VERTEX
  5
14D
330
AF
100
AcDbEntity
  8
AVLAYER
 62
     7
100
AcDbVertex
100
AcDbPolyFaceMeshVertex
 10
329.6348266601562
 20
151.7955474853515
 30
47.67949295043945
 70
   192
  0
VERTEX
  5
14E
330
AF
100
AcDbEntity
  8
AVLAYER
 62
     7
100
AcDbVertex
100
AcDbPolyFaceMeshVertex
 10
348.123046875
 20
116.3993759155273
 30
65.0
 70
   192
  0
VERTEX
  5
14F
330
AF
100
AcDbEntity
  8
AVLAYER
 62
     7
100
AcDbVertex
100
AcDbPolyFaceMeshVertex
 10
350.2908020019531
 20
117.9743423461914
 30
75.0
 70
   192
  0
VERTEX
  5
150
330
AF
100
AcDbEntity
  8
AVLAYER
 62
     7
100
AcDbVertex
100
AcDbPolyFaceMeshVertex
 10
356.2132263183593
 20
122.277229309082
 30
82.32051086425782
 70
   192
  0
VERTEX
  5
151
330
AF
100
AcDbEntity
  8
AVLAYER
 62
     7
100
AcDbVertex
100
AcDbPolyFaceMeshVertex
 10
336.3261108398437
 20
159.2269897460937
 30
85.0
 70
   192
  0
VERTEX
  5
152
330
AF
100
AcDbEntity
  8
AVLAYER
 62
     7
100
AcDbVertex
100
AcDbPolyFaceMeshVertex
 10
372.3935546874999
 20
134.0329284667968
 30
82.32051086425782
 70
   192
  0
VERTEX
  5
153
330
AF
100
AcDbEntity
  8
AVLAYER
 62
     7
100
AcDbVertex
100
AcDbPolyFaceMeshVertex
 10
380.4837341308593
 20
139.9107818603515
 30
65.0
 70
   192
  0
VERTEX
  5
154
330
AF
100
AcDbEntity
  8
AVLAYER
 62
     7
100
AcDbVertex
100
AcDbPolyFaceMeshVertex
 10
349.7087402343749
 20
174.0898895263671
 30
65.0
 70
   192
  0
VERTEX
  5
155
330
AF
100
AcDbEntity
  8
AVLAYER
 62
     7
100
AcDbVertex
100
AcDbPolyFaceMeshVertex
 10
336.3261108398437
 20
159.2269897460937
 30
45.0
 70
   192
  0
VERTEX
  5
156
330
AF
100
AcDbEntity
  8
AVLAYER
 62
     7
100
AcDbVertex
100
AcDbPolyFaceMeshVertex
 10
48.78676986694336
 20
122.277229309082
 30
47.67949295043945
 70
   192
  0
VERTEX
  5
157
330
AF
100
AcDbEntity
  8
AVLAYER
 62
     7
100
AcDbVertex
100
AcDbPolyFaceMeshVertex
 10
26.68401527404785
 20
138.3358154296874
 30
55.0
 70
   192
  0
VERTEX
  5
158
330
AF
100
AcDbEntity
  8
AVLAYER
 62
     7
100
AcDbVertex
100
AcDbPolyFaceMeshVertex
 10
1.519999265670776
 20
100.080093383789
 30
65.0
 70
   192
  0
VERTEX
  5
159
330
AF
100
AcDbEntity
  8
AVLAYER
 62
     7
100
AcDbVertex
100
AcDbPolyFaceMeshVertex
 10
3.96783709526062
 20
98.99024200439454
 30
75.0
 70
   192
  0
VERTEX
  5
15A
330
AF
100
AcDbEntity
  8
AVLAYER
 62
     7
100
AcDbVertex
100
AcDbPolyFaceMeshVertex
 10
-10.14266586303711
 20
55.44554901123047
 30
55.0
 70
   192
  0
VERTEX
  5
15B
330
AF
100
AcDbEntity
  8
AVLAYER
 62
     7
100
AcDbVertex
100
AcDbPolyFaceMeshVertex
 10
10.6554536819458
 20
96.01272583007812
 30
82.32051086425782
 70
   192
  0
VERTEX
  5
15C
330
AF
100
AcDbEntity
  8
AVLAYER
 62
     7
100
AcDbVertex
100
AcDbPolyFaceMeshVertex
 10
35.61397933959961
 20
84.90047454833984
 30
75.0
 70
   192
  0
VERTEX
  5
15D
330
AF
100
AcDbEntity
  8
AVLAYER
 62
     7
100
AcDbVertex
100
AcDbPolyFaceMeshVertex
 10
28.926362991333
 20
87.87799072265626
 30
82.32051086425782
 70
   192
  0
VERTEX
  5
15E
330
AF
100
AcDbEntity
  8
AVLAYER
 62
     7
100
AcDbVertex
100
AcDbPolyFaceMeshVertex
 10
19.79090881347656
 20
91.94535827636718
 30
85.0
 70
   192
  0
VERTEX
  5
15F
330
AF
100
AcDbEntity
  8
AVLAYER
 62
     7
100
AcDbVertex
100
AcDbPolyFaceMeshVertex
 10
16.63414001464843
 20
50.01734161376953
 30
82.32051086425782
 70
   192
  0
VERTEX
  5
160
330
AF
100
AcDbEntity
  8
AVLAYER
 62
     7
100
AcDbVertex
100
AcDbPolyFaceMeshVertex
 10
364.3034057617187
 20
128.1550750732421
 30
85.0
 70
   192
  0
VERTEX
  5
161
330
AF
100
AcDbEntity
  8
AVLAYER
 62
     7
100
AcDbVertex
100
AcDbPolyFaceMeshVertex
 10
385.2091064453125
 20
91.94535827636718
 30
85.0
 70
   192
  0
VERTEX
  5
162
330
AF
100
AcDbEntity
  8
AVLAYER
 62
     7
100
AcDbVertex
100
AcDbPolyFaceMeshVertex
 10
394.3445434570312
 20
96.01272583007812
 30
82.32051086425782
 70
   192
  0
VERTEX
  5
163
330
AF
100
AcDbEntity
  8
AVLAYER
 62
     7
100
AcDbVertex
100
AcDbPolyFaceMeshVertex
 10
378.3159790039062
 20
138.3358154296874
 30
75.0
 70
   192
  0
VERTEX
  5
164
330
AF
100
AcDbEntity
  8
AVLAYER
 62
     7
100
AcDbVertex
100
AcDbPolyFaceMeshVertex
 10
378.3159790039062
 20
138.3358154296874
 30
55.0
 70
   192
  0
VERTEX
  5
165
330
AF
100
AcDbEntity
  8
AVLAYER
 62
     7
100
AcDbVertex
100
AcDbPolyFaceMeshVertex
 10
376.0736389160156
 20
87.87799072265626
 30
47.67949295043945
 70
   192
  0
VERTEX
  5
166
330
AF
100
AcDbEntity
  8
AVLAYER
 62
     7
100
AcDbVertex
100
AcDbPolyFaceMeshVertex
 10
388.3480529785156
 20
50.10125350952148
 30
47.67949295043945
 70
   192
  0
VERTEX
  5
167
330
AF
100
AcDbEntity
  8
AVLAYER
 62
     7
100
AcDbVertex
100
AcDbPolyFaceMeshVertex
 10
407.8942565917968
 20
54.33819198608398
 30
82.32051086425782
 70
   192
  0
VERTEX
  5
168
330
AF
100
AcDbEntity
  8
AVLAYER
 62
     7
100
AcDbVertex
100
AcDbPolyFaceMeshVertex
 10
401.0321655273437
 20
98.99024200439454
 30
75.0
 70
   192
  0
VERTEX
  5
169
330
AF
100
AcDbEntity
  8
AVLAYER
 62
     7
100
AcDbVertex
100
AcDbPolyFaceMeshVertex
 10
417.6661376953124
 20
56.46227645874024
 30
65.0
 70
   192
  0
VERTEX
  5
16A
330
AF
100
AcDbEntity
  8
AVLAYER
 62
     7
100
AcDbVertex
100
AcDbPolyFaceMeshVertex
 10
415.0498657226562
 20
55.88331222534179
 30
75.0
 70
   192
  0
VERTEX
  5
16B
330
AF
100
AcDbEntity
  8
AVLAYER
 62
     7
100
AcDbVertex
100
AcDbPolyFaceMeshVertex
 10
419.7713623046874
 20
45.14016723632813
 30
65.0
 70
   192
  0
VERTEX
  5
16C
330
AF
100
AcDbEntity
  8
AVLAYER
 62
     7
100
AcDbVertex
100
AcDbPolyFaceMeshVertex
 10
390.1653137207031
 20
49.36154937744141
 30
46.83708190917968
 70
   192
  0
VERTEX
  5
16D
330
AF
100
AcDbEntity
  8
AVLAYER
 62
     7
100
AcDbVertex
100
AcDbPolyFaceMeshVertex
 10
80.26355743408203
 20
146.3553466796875
 30
75.0
 70
   192
  0
VERTEX
  5
16E
330
AF
100
AcDbEntity
  8
AVLAYER
 62
     7
100
AcDbVertex
100
AcDbPolyFaceMeshVertex
 10
56.8769416809082
 20
116.3993759155273
 30
65.0
 70
   192
  0
VERTEX
  5
16F
330
AF
100
AcDbEntity
  8
AVLAYER
 62
     7
100
AcDbVertex
100
AcDbPolyFaceMeshVertex
 10
82.05648803710937
 20
144.3641052246093
 30
65.0
 70
   192
  0
VERTEX
  5
170
330
AF
100
AcDbEntity
  8
AVLAYER
 62
     7
100
AcDbVertex
100
AcDbPolyFaceMeshVertex
 10
111.1602554321289
 20
168.8031158447265
 30
55.0
 70
   192
  0
VERTEX
  5
171
330
AF
100
AcDbEntity
  8
AVLAYER
 62
     7
100
AcDbVertex
100
AcDbPolyFaceMeshVertex
 10
112.5
 20
166.4826049804687
 30
65.0
 70
   192
  0
VERTEX
  5
172
330
AF
100
AcDbEntity
  8
AVLAYER
 62
     7
100
AcDbVertex
100
AcDbPolyFaceMeshVertex
 10
183.6848754882812
 20
189.6119689941406
 30
65.0
 70
   192
  0
VERTEX
  5
173
330
AF
100
AcDbEntity
  8
AVLAYER
 62
     7
100
AcDbVertex
100
AcDbPolyFaceMeshVertex
 10
221.5951995849609
 20
192.2767791748047
 30
55.0
 70
   192
  0
VERTEX
  5
174
330
AF
100
AcDbEntity
  8
AVLAYER
 62
     7
100
AcDbVertex
100
AcDbPolyFaceMeshVertex
 10
221.3151245117187
 20
189.6119689941406
 30
65.0
 70
   192
  0
VERTEX
  5
175
330
AF
100
AcDbEntity
  8
AVLAYER
 62
     7
100
AcDbVertex
100
AcDbPolyFaceMeshVertex
 10
258.1230468749999
 20
181.7882080078125
 30
65.0
 70
   192
  0
VERTEX
  5
176
330
AF
100
AcDbEntity
  8
AVLAYER
 62
     7
100
AcDbVertex
100
AcDbPolyFaceMeshVertex
 10
293.8397521972656
 20
168.8031158447265
 30
55.0
 70
   192
  0
VERTEX
  5
177
330
AF
100
AcDbEntity
  8
AVLAYER
 62
     7
100
AcDbVertex
100
AcDbPolyFaceMeshVertex
 10
322.9435119628906
 20
144.3641052246093
 30
65.0
 70
   192
  0
VERTEX
  5
178
330
AF
100
AcDbEntity
  8
AVLAYER
 62
     7
100
AcDbVertex
100
AcDbPolyFaceMeshVertex
 10
292.5
 20
166.4826049804687
 30
65.0
 70
   192
  0
VERTEX
  5
179
330
AF
100
AcDbEntity
  8
AVLAYER
 62
     7
100
AcDbVertex
100
AcDbPolyFaceMeshVertex
 10
324.7364501953124
 20
146.3553466796875
 30
55.0
 70
   192
  0
VERTEX
  5
17A
330
AF
100
AcDbEntity
  8
AVLAYER
 62
     7
100
AcDbVertex
100
AcDbPolyFaceMeshVertex
 10
366.9381713867187
 20
83.81062316894531
 30
65.0
 70
   192
  0
VERTEX
  5
17B
330
AF
100
AcDbEntity
  8
AVLAYER
 62
     7
100
AcDbVertex
100
AcDbPolyFaceMeshVertex
 10
350.2908020019531
 20
117.9743423461914
 30
55.0
 70
   192
  0
VERTEX
  5
17C
330
AF
100
AcDbEntity
  8
AVLAYER
 62
     7
100
AcDbVertex
100
AcDbPolyFaceMeshVertex
 10
369.3860168457031
 20
84.90047454833984
 30
55.0
 70
   192
  0
VERTEX
  5
17D
330
AF
100
AcDbEntity
  8
AVLAYER
 62
     7
100
AcDbVertex
100
AcDbPolyFaceMeshVertex
 10
23.80392456054687
 20
48.53889465332031
 30
75.0
 70
   192
  0
VERTEX
  5
17E
330
AF
100
AcDbEntity
  8
AVLAYER
 62
     7
100
AcDbVertex
100
AcDbPolyFaceMeshVertex
 10
26.43343162536621
 20
48.02213668823242
 30
65.0
 70
   192
  0
VERTEX
  5
17F
330
AF
100
AcDbEntity
  8
AVLAYER
 62
     7
100
AcDbVertex
100
AcDbPolyFaceMeshVertex
 10
6.842364311218261
 20
52.04787826538086
 30
85.0
 70
   192
  0
VERTEX
  5
180
330
AF
100
AcDbEntity
  8
AVLAYER
 62
     7
100
AcDbVertex
100
AcDbPolyFaceMeshVertex
 10
0.5881000757217408
 20
24.06041717529296
 30
84.86024475097655
 70
   192
  0
VERTEX
  5
181
330
AF
100
AcDbEntity
  8
AVLAYER
 62
     7
100
AcDbVertex
100
AcDbPolyFaceMeshVertex
 10
-2.950336694717407
 20
54.07399368286132
 30
82.32051086425782
 70
   192
  0
VERTEX
  5
182
330
AF
100
AcDbEntity
  8
AVLAYER
 62
     7
100
AcDbVertex
100
AcDbPolyFaceMeshVertex
 10
-10.12239646911621
 20
55.54154968261719
 30
75.0
 70
   192
  0
VERTEX
  5
183
330
AF
100
AcDbEntity
  8
AVLAYER
 62
     7
100
AcDbVertex
100
AcDbPolyFaceMeshVertex
 10
-12.75422668457031
 20
56.04710006713867
 30
65.0
 70
   192
  0
VERTEX
  5
184
330
AF
100
AcDbEntity
  8
AVLAYER
 62
     7
100
AcDbVertex
100
AcDbPolyFaceMeshVertex
 10
-17.04512977600097
 20
24.73790740966796
 30
65.0
 70
   192
  0
VERTEX
  5
185
330
AF
100
AcDbEntity
  8
AVLAYER
 62
     7
100
AcDbVertex
100
AcDbPolyFaceMeshVertex
 10
-6.953221321105957
 20
24.35064697265625
 30
47.62455368041992
 70
   192
  0
VERTEX
  5
186
330
AF
100
AcDbEntity
  8
AVLAYER
 62
     7
100
AcDbVertex
100
AcDbPolyFaceMeshVertex
 10
-12.29453754425049
 20
24.55576133728027
 30
52.0573616027832
 70
   192
  0
VERTEX
  5
187
330
AF
100
AcDbEntity
  8
AVLAYER
 62
     7
100
AcDbVertex
100
AcDbPolyFaceMeshVertex
 10
-6.484930515289306
 20
26.50478172302246
 30
47.44884490966796
 70
   192
  0
VERTEX
  5
188
330
AF
100
AcDbEntity
  8
AVLAYER
 62
     7
100
AcDbVertex
100
AcDbPolyFaceMeshVertex
 10
-13.35595035552978
 20
35.77835464477539
 30
54.99855041503906
 70
   192
  0
VERTEX
  5
189
330
AF
100
AcDbEntity
  8
AVLAYER
 62
     7
100
AcDbVertex
100
AcDbPolyFaceMeshVertex
 10
-10.85078811645507
 20
30.64856529235839
 30
51.00819396972656
 70
   192
  0
VERTEX
  5
18A
330
AF
100
AcDbEntity
  8
AVLAYER
 62
     7
100
AcDbVertex
100
AcDbPolyFaceMeshVertex
 10
-15.80649471282959
 20
24.6904411315918
 30
58.06967163085937
 70
   192
  0
VERTEX
  5
18B
330
AF
100
AcDbEntity
  8
AVLAYER
 62
     7
100
AcDbVertex
100
AcDbPolyFaceMeshVertex
 10
-13.98547077178955
 20
41.03657531738281
 30
57.68656158447265
 70
   192
  0
VERTEX
  5
18C
330
AF
100
AcDbEntity
  8
AVLAYER
 62
     7
100
AcDbVertex
100
AcDbPolyFaceMeshVertex
 10
-12.86544322967529
 20
46.35723876953124
 30
56.96270751953125
 70
   192
  0
VERTEX
  5
18D
330
AF
100
AcDbEntity
  8
AVLAYER
 62
     7
100
AcDbVertex
100
AcDbPolyFaceMeshVertex
 10
3.96783709526062
 20
98.99024200439454
 30
55.0
 70
   192
  0
VERTEX
  5
18E
330
AF
100
AcDbEntity
  8
AVLAYER
 62
     7
100
AcDbVertex
100
AcDbPolyFaceMeshVertex
 10
-5.934011459350585
 20
54.52612686157227
 30
49.81219482421875
 70
   192
  0
VERTEX
  5
18F
330
AF
100
AcDbEntity
  8
AVLAYER
 62
     7
100
AcDbVertex
100
AcDbPolyFaceMeshVertex
 10
-10.31009864807128
 20
50.74448776245117
 30
53.79104232788086
 70
   192
  0
VERTEX
  5
190
330
AF
100
AcDbEntity
  8
AVLAYER
 62
     7
100
AcDbVertex
100
AcDbPolyFaceMeshVertex
 10
10.6554536819458
 20
96.01272583007812
 30
47.67949295043945
 70
   192
  0
VERTEX
  5
191
330
AF
100
AcDbEntity
  8
AVLAYER
 62
     7
100
AcDbVertex
100
AcDbPolyFaceMeshVertex
 10
40.69660186767578
 20
128.1550750732421
 30
45.0
 70
   192
  0
VERTEX
  5
192
330
AF
100
AcDbEntity
  8
AVLAYER
 62
     7
100
AcDbVertex
100
AcDbPolyFaceMeshVertex
 10
13.0203046798706
 20
53.05547332763672
 30
45.86607360839844
 70
   192
  0
VERTEX
  5
193
330
AF
100
AcDbEntity
  8
AVLAYER
 62
     7
100
AcDbVertex
100
AcDbPolyFaceMeshVertex
 10
28.926362991333
 20
87.87799072265626
 30
47.67949295043945
 70
   192
  0
VERTEX
  5
194
330
AF
100
AcDbEntity
  8
AVLAYER
 62
     7
100
AcDbVertex
100
AcDbPolyFaceMeshVertex
 10
19.79090881347656
 20
91.94535827636718
 30
45.0
 70
   192
  0
VERTEX
  5
195
330
AF
100
AcDbEntity
  8
AVLAYER
 62
     7
100
AcDbVertex
100
AcDbPolyFaceMeshVertex
 10
17.13858413696289
 20
47.95766830444335
 30
48.238525390625
 70
   192
  0
VERTEX
  5
196
330
AF
100
AcDbEntity
  8
AVLAYER
 62
     7
100
AcDbVertex
100
AcDbPolyFaceMeshVertex
 10
38.06181716918945
 20
83.81062316894531
 30
65.0
 70
   192
  0
VERTEX
  5
197
330
AF
100
AcDbEntity
  8
AVLAYER
 62
     7
100
AcDbVertex
100
AcDbPolyFaceMeshVertex
 10
35.61397933959961
 20
84.90047454833984
 30
55.0
 70
   192
  0
VERTEX
  5
198
330
AF
100
AcDbEntity
  8
AVLAYER
 62
     7
100
AcDbVertex
100
AcDbPolyFaceMeshVertex
 10
23.81249237060547
 20
48.57923507690429
 30
55.0
 70
   192
  0
VERTEX
  5
199
330
AF
100
AcDbEntity
  8
AVLAYER
 62
     7
100
AcDbVertex
100
AcDbPolyFaceMeshVertex
 10
16.65195655822754
 20
50.10125350952148
 30
47.67949295043945
 70
   192
  0
VERTEX
  5
19A
330
AF
100
AcDbEntity
  8
AVLAYER
 62
     7
100
AcDbVertex
100
AcDbPolyFaceMeshVertex
 10
18.98428344726562
 20
23.3488483428955
 30
53.05600357055664
 70
   192
  0
VERTEX
  5
19B
330
AF
100
AcDbEntity
  8
AVLAYER
 62
     7
100
AcDbVertex
100
AcDbPolyFaceMeshVertex
 10
14.89568519592285
 20
23.50748634338378
 30
48.96414566040039
 70
   192
  0
VERTEX
  5
19C
330
AF
100
AcDbEntity
  8
AVLAYER
 62
     7
100
AcDbVertex
100
AcDbPolyFaceMeshVertex
 10
15.35090160369873
 20
29.99497032165527
 30
48.88740921020508
 70
   192
  0
VERTEX
  5
19D
330
AF
100
AcDbEntity
  8
AVLAYER
 62
     7
100
AcDbVertex
100
AcDbPolyFaceMeshVertex
 10
10.56099319458007
 20
25.94720268249512
 30
46.43865203857422
 70
   192
  0
VERTEX
  5
19E
330
AF
100
AcDbEntity
  8
AVLAYER
 62
     7
100
AcDbVertex
100
AcDbPolyFaceMeshVertex
 10
9.72674560546875
 20
23.70762062072754
 30
46.18481445312499
 70
   192
  0
VERTEX
  5
19F
330
AF
100
AcDbEntity
  8
AVLAYER
 62
     7
100
AcDbVertex
100
AcDbPolyFaceMeshVertex
 10
417.9328308105469
 20
24.58024978637695
 30
52.849609375
 70
   192
  0
VERTEX
  5
1A0
330
AF
100
AcDbEntity
  8
AVLAYER
 62
     7
100
AcDbVertex
100
AcDbPolyFaceMeshVertex
 10
418.8371276855468
 20
33.15921783447265
 30
55.33629989624023
 70
   192
  0
VERTEX
  5
1A1
330
AF
100
AcDbEntity
  8
AVLAYER
 62
     7
100
AcDbVertex
100
AcDbPolyFaceMeshVertex
 10
414.7343444824218
 20
24.45749092102051
 30
80.46141815185547
 70
   192
  0
VERTEX
  5
1A2
330
AF
100
AcDbEntity
  8
AVLAYER
 62
     7
100
AcDbVertex
100
AcDbPolyFaceMeshVertex
 10
404.0752868652344
 20
24.04744338989257
 30
84.89737701416016
 70
   192
  0
VERTEX
  5
1A3
330
AF
100
AcDbEntity
  8
AVLAYER
 62
     7
100
AcDbVertex
100
AcDbPolyFaceMeshVertex
 10
398.1175537109375
 20
52.23658752441406
 30
85.0
 70
   192
  0
VERTEX
  5
1A4
330
AF
100
AcDbEntity
  8
AVLAYER
 62
     7
100
AcDbVertex
100
AcDbPolyFaceMeshVertex
 10
398.1525878906249
 20
23.81891441345215
 30
84.6158218383789
 70
   192
  0
VERTEX
  5
1A5
330
AF
100
AcDbEntity
  8
AVLAYER
 62
     7
100
AcDbVertex
100
AcDbPolyFaceMeshVertex
 10
388.3404846191406
 20
50.13685607910156
 30
82.32051086425782
 70
   192
  0
VERTEX
  5
1A6
330
AF
100
AcDbEntity
  8
AVLAYER
 62
     7
100
AcDbVertex
100
AcDbPolyFaceMeshVertex
 10
369.3860168457031
 20
84.90047454833984
 30
75.0
 70
   192
  0
VERTEX
  5
1A7
330
AF
100
AcDbEntity
  8
AVLAYER
 62
     7
100
AcDbVertex
100
AcDbPolyFaceMeshVertex
 10
376.0736389160156
 20
87.87799072265626
 30
82.32051086425782
 70
   192
  0
VERTEX
  5
1A8
330
AF
100
AcDbEntity
  8
AVLAYER
 62
     7
100
AcDbVertex
100
AcDbPolyFaceMeshVertex
 10
387.97412109375
 20
23.42487525939941
 30
79.20115661621093
 70
   192
  0
VERTEX
  5
1A9
330
AF
100
AcDbEntity
  8
AVLAYER
 62
     7
100
AcDbVertex
100
AcDbPolyFaceMeshVertex
 10
381.1838684082031
 20
48.59635162353516
 30
75.0
 70
   192
  0
VERTEX
  5
1AA
330
AF
100
AcDbEntity
  8
AVLAYER
 62
     7
100
AcDbVertex
100
AcDbPolyFaceMeshVertex
 10
378.5665588378906
 20
48.02213668823242
 30
65.0
 70
   192
  0
VERTEX
  5
1AB
330
AF
100
AcDbEntity
  8
AVLAYER
 62
     7
100
AcDbVertex
100
AcDbPolyFaceMeshVertex
 10
384.4222717285156
 20
23.28694343566894
 30
74.43296813964844
 70
   192
  0
VERTEX
  5
1AC
330
AF
100
AcDbEntity
  8
AVLAYER
 62
     7
100
AcDbVertex
100
AcDbPolyFaceMeshVertex
 10
382.1458740234374
 20
23.19842147827148
 30
63.13414764404297
 70
   192
  0
VERTEX
  5
1AD
330
AF
100
AcDbEntity
  8
AVLAYER
 62
     7
100
AcDbVertex
100
AcDbPolyFaceMeshVertex
 10
383.5769958496094
 20
23.25408363342285
 30
57.3552131652832
 70
   192
  0
VERTEX
  5
1AE
330
AF
100
AcDbEntity
  8
AVLAYER
 62
     7
100
AcDbVertex
100
AcDbPolyFaceMeshVertex
 10
386.5666809082031
 20
23.3702449798584
 30
52.34942626953125
 70
   192
  0
VERTEX
  5
1AF
330
AF
100
AcDbEntity
  8
AVLAYER
 62
     7
100
AcDbVertex
100
AcDbPolyFaceMeshVertex
 10
393.1654968261718
 20
27.88569068908691
 30
46.92081069946289
 70
   192
  0
VERTEX
  5
1B0
330
AF
100
AcDbEntity
  8
AVLAYER
 62
     7
100
AcDbVertex
100
AcDbPolyFaceMeshVertex
 10
390.8565368652344
 20
23.53663825988769
 30
48.42987823486328
 70
   192
  0
VERTEX
  5
1B1
330
AF
100
AcDbEntity
  8
AVLAYER
 62
     7
100
AcDbVertex
100
AcDbPolyFaceMeshVertex
 10
401.9784545898437
 20
23.96659660339355
 30
45.00013732910156
 70
   192
  0
VERTEX
  5
1B2
330
AF
100
AcDbEntity
  8
AVLAYER
 62
     7
100
AcDbVertex
100
AcDbPolyFaceMeshVertex
 10
397.2169189453125
 20
25.29554176330566
 30
45.56716918945312
 70
   192
  0
VERTEX
  5
1B3
330
AF
100
AcDbEntity
  8
AVLAYER
 62
     7
100
AcDbVertex
100
AcDbPolyFaceMeshVertex
 10
396.2300720214843
 20
23.74461936950683
 30
45.86686706542969
 70
   192
  0
VERTEX
  5
1B4
330
AF
100
AcDbEntity
  8
AVLAYER
 62
     7
100
AcDbVertex
100
AcDbPolyFaceMeshVertex
 10
390.0851745605468
 20
31.45144081115722
 30
48.47036743164062
 70
   192
  0
VERTEX
  5
1B5
330
AF
100
AcDbEntity
  8
AVLAYER
 62
     7
100
AcDbVertex
100
AcDbPolyFaceMeshVertex
 10
381.1875
 20
48.57923507690429
 30
55.0
 70
   192
  0
VERTEX
  5
1B6
330
AF
100
AcDbEntity
  8
AVLAYER
 62
     7
100
AcDbVertex
100
AcDbPolyFaceMeshVertex
 10
388.1983032226562
 20
45.14754104614257
 30
48.37302780151367
 70
   192
  0
VERTEX
  5
1B7
330
AF
100
AcDbEntity
  8
AVLAYER
 62
     7
100
AcDbVertex
100
AcDbPolyFaceMeshVertex
 10
356.2132263183593
 20
122.277229309082
 30
47.67949295043945
 70
   192
  0
VERTEX
  5
1B8
330
AF
100
AcDbEntity
  8
AVLAYER
 62
     7
100
AcDbVertex
100
AcDbPolyFaceMeshVertex
 10
393.3877258300781
 20
52.99258422851562
 30
45.50390625
 70
   192
  0
VERTEX
  5
1B9
330
AF
100
AcDbEntity
  8
AVLAYER
 62
     7
100
AcDbVertex
100
AcDbPolyFaceMeshVertex
 10
372.3935546874999
 20
134.0329284667968
 30
47.67949295043945
 70
   192
  0
VERTEX
  5
1BA
330
AF
100
AcDbEntity
  8
AVLAYER
 62
     7
100
AcDbVertex
100
AcDbPolyFaceMeshVertex
 10
385.2091064453125
 20
91.94535827636718
 30
45.0
 70
   192
  0
VERTEX
  5
1BB
330
AF
100
AcDbEntity
  8
AVLAYER
 62
     7
100
AcDbVertex
100
AcDbPolyFaceMeshVertex
 10
364.3034057617187
 20
128.1550750732421
 30
45.0
 70
   192
  0
VERTEX
  5
1BC
330
AF
100
AcDbEntity
  8
AVLAYER
 62
     7
100
AcDbVertex
100
AcDbPolyFaceMeshVertex
 10
415.0411987304687
 20
55.92403411865234
 30
55.0
 70
   192
  0
VERTEX
  5
1BD
330
AF
100
AcDbEntity
  8
AVLAYER
 62
     7
100
AcDbVertex
100
AcDbPolyFaceMeshVertex
 10
411.2931518554687
 20
55.13699340820313
 30
50.23518371582031
 70
   192
  0
VERTEX
  5
1BE
330
AF
100
AcDbEntity
  8
AVLAYER
 62
     7
100
AcDbVertex
100
AcDbPolyFaceMeshVertex
 10
394.3445434570312
 20
96.01272583007812
 30
47.67949295043945
 70
   192
  0
VERTEX
  5
1BF
330
AF
100
AcDbEntity
  8
AVLAYER
 62
     7
100
AcDbVertex
100
AcDbPolyFaceMeshVertex
 10
403.4800109863281
 20
100.080093383789
 30
65.0
 70
   192
  0
VERTEX
  5
1C0
330
AF
100
AcDbEntity
  8
AVLAYER
 62
     7
100
AcDbVertex
100
AcDbPolyFaceMeshVertex
 10
401.0321655273437
 20
98.99024200439454
 30
55.0
 70
   192
  0
VERTEX
  5
1C1
330
AF
100
AcDbEntity
  8
AVLAYER
 62
     7
100
AcDbVertex
100
AcDbPolyFaceMeshVertex
 10
417.1848754882812
 20
50.24233245849609
 30
56.96414184570312
 70
   192
  0
VERTEX
  5
1C2
330
AF
100
AcDbEntity
  8
AVLAYER
 62
     7
100
AcDbVertex
100
AcDbPolyFaceMeshVertex
 10
418.9420166015625
 20
47.30843734741211
 30
60.70388793945312
 70
   192
  0
VERTEX
  5
1C3
330
AF
100
AcDbEntity
  8
AVLAYER
 62
     7
100
AcDbVertex
100
AcDbPolyFaceMeshVertex
 10
419.5098266601562
 20
45.92901611328125
 30
62.69829940795898
 70
   192
  0
VERTEX
  5
1C4
330
AF
100
AcDbEntity
  8
AVLAYER
 62
     7
100
AcDbVertex
100
AcDbPolyFaceMeshVertex
 10
420.4766235351562
 20
39.86013793945312
 30
63.35204696655273
 70
   192
  0
VERTEX
  5
1C5
330
AF
100
AcDbEntity
  8
AVLAYER
 62
     7
100
AcDbVertex
100
AcDbPolyFaceMeshVertex
 10
420.3610534667968
 20
38.33721542358398
 30
61.11938858032226
 70
   192
  0
VERTEX
  5
1C6
330
AF
100
AcDbEntity
  8
AVLAYER
 62
     7
100
AcDbVertex
100
AcDbPolyFaceMeshVertex
 10
413.2278747558594
 20
24.3996295928955
 30
48.41621017456055
 70
   192
  0
VERTEX
  5
1C7
330
AF
100
AcDbEntity
  8
AVLAYER
 62
     7
100
AcDbVertex
100
AcDbPolyFaceMeshVertex
 10
-16.47911262512207
 20
23.46529388427734
 30
65.0
 70
   192
  0
VERTEX
  5
1C8
330
AF
100
AcDbEntity
  8
AVLAYER
 62
     7
100
AcDbVertex
100
AcDbPolyFaceMeshVertex
 10
-10.75476551055908
 20
23.24298667907715
 30
51.27060317993164
 70
   192
  0
VERTEX
  5
1C9
330
AF
100
AcDbEntity
  8
AVLAYER
 62
     7
100
AcDbVertex
100
AcDbPolyFaceMeshVertex
 10
-10.31068038940429
 20
22.9669017791748
 30
51.72667312622071
 70
   192
  0
VERTEX
  5
1CA
330
AF
100
AcDbEntity
  8
AVLAYER
 62
     7
100
AcDbVertex
100
AcDbPolyFaceMeshVertex
 10
2.925655126571655
 20
23.3084487915039
 30
45.15367126464844
 70
   192
  0
VERTEX
  5
1CB
330
AF
100
AcDbEntity
  8
AVLAYER
 62
     7
100
AcDbVertex
100
AcDbPolyFaceMeshVertex
 10
-16.91878509521484
 20
24.03192329406738
 30
65.0
 70
   192
  0
VERTEX
  5
1CC
330
AF
100
AcDbEntity
  8
AVLAYER
 62
     7
100
AcDbVertex
100
AcDbPolyFaceMeshVertex
 10
-11.07568645477295
 20
23.83062744140624
 30
50.92691802978515
 70
   192
  0
VERTEX
  5
1CD
330
AF
100
AcDbEntity
  8
AVLAYER
 62
     7
100
AcDbVertex
100
AcDbPolyFaceMeshVertex
 10
2.904920816421508
 20
22.73816299438476
 30
45.64436340332031
 70
   192
  0
VERTEX
  5
1CE
330
AF
100
AcDbEntity
  8
AVLAYER
 62
     7
100
AcDbVertex
100
AcDbPolyFaceMeshVertex
 10
10.03267669677734
 20
22.228609085083
 30
47.69022369384765
 70
   192
  0
VERTEX
  5
1CF
330
AF
100
AcDbEntity
  8
AVLAYER
 62
     7
100
AcDbVertex
100
AcDbPolyFaceMeshVertex
 10
21.61591911315917
 20
21.80977249145507
 30
65.0
 70
   192
  0
VERTEX
  5
1D0
330
AF
100
AcDbEntity
  8
AVLAYER
 62
     7
100
AcDbVertex
100
AcDbPolyFaceMeshVertex
 10
20.1755313873291
 20
21.86177253723144
 30
72.20187377929687
 70
   192
  0
VERTEX
  5
1D1
330
AF
100
AcDbEntity
  8
AVLAYER
 62
     7
100
AcDbVertex
100
AcDbPolyFaceMeshVertex
 10
2.895756006240844
 20
22.48727989196777
 30
83.72469329833984
 70
   192
  0
VERTEX
  5
1D2
330
AF
100
AcDbEntity
  8
AVLAYER
 62
     7
100
AcDbVertex
100
AcDbPolyFaceMeshVertex
 10
-4.241952896118164
 20
22.74633979797363
 30
82.31101226806641
 70
   192
  0
VERTEX
  5
1D3
330
AF
100
AcDbEntity
  8
AVLAYER
 62
     7
100
AcDbVertex
100
AcDbPolyFaceMeshVertex
 10
-10.31068038940429
 20
22.9669017791748
 30
78.27333068847656
 70
   192
  0
VERTEX
  5
1D4
330
AF
100
AcDbEntity
  8
AVLAYER
 62
     7
100
AcDbVertex
100
AcDbPolyFaceMeshVertex
 10
-10.75476551055908
 20
23.24298667907715
 30
78.72939300537109
 70
   192
  0
VERTEX
  5
1D5
330
AF
100
AcDbEntity
  8
AVLAYER
 62
     7
100
AcDbVertex
100
AcDbPolyFaceMeshVertex
 10
-16.19469833374023
 20
24.70532035827636
 30
70.77115631103516
 70
   192
  0
VERTEX
  5
1D6
330
AF
100
AcDbEntity
  8
AVLAYER
 62
     7
100
AcDbVertex
100
AcDbPolyFaceMeshVertex
 10
-13.77550506591797
 20
24.61257362365723
 30
75.96070098876953
 70
   192
  0
VERTEX
  5
1D7
330
AF
100
AcDbEntity
  8
AVLAYER
 62
     7
100
AcDbVertex
100
AcDbPolyFaceMeshVertex
 10
-9.882611274719238
 20
24.46318435668945
 30
80.33850860595704
 70
   192
  0
VERTEX
  5
1D8
330
AF
100
AcDbEntity
  8
AVLAYER
 62
     7
100
AcDbVertex
100
AcDbPolyFaceMeshVertex
 10
-11.07568645477295
 20
23.83062744140624
 30
79.07308197021484
 70
   192
  0
VERTEX
  5
1D9
330
AF
100
AcDbEntity
  8
AVLAYER
 62
     7
100
AcDbVertex
100
AcDbPolyFaceMeshVertex
 10
2.925655126571655
 20
23.3084487915039
 30
84.84632873535156
 70
   192
  0
VERTEX
  5
1DA
330
AF
100
AcDbEntity
  8
AVLAYER
 62
     7
100
AcDbVertex
100
AcDbPolyFaceMeshVertex
 10
-4.942697525024414
 20
24.27334403991699
 30
83.37662506103516
 70
   192
  0
VERTEX
  5
1DB
330
AF
100
AcDbEntity
  8
AVLAYER
 62
     7
100
AcDbVertex
100
AcDbPolyFaceMeshVertex
 10
6.463342189788818
 20
23.83374977111816
 30
84.68831634521484
 70
   192
  0
VERTEX
  5
1DC
330
AF
100
AcDbEntity
  8
AVLAYER
 62
     7
100
AcDbVertex
100
AcDbPolyFaceMeshVertex
 10
11.93525123596191
 20
23.62216186523437
 30
82.86524963378907
 70
   192
  0
VERTEX
  5
1DD
330
AF
100
AcDbEntity
  8
AVLAYER
 62
     7
100
AcDbVertex
100
AcDbPolyFaceMeshVertex
 10
16.63924217224121
 20
23.43987464904785
 30
79.57449340820312
 70
   192
  0
VERTEX
  5
1DE
330
AF
100
AcDbEntity
  8
AVLAYER
 62
     7
100
AcDbVertex
100
AcDbPolyFaceMeshVertex
 10
16.54328727722168
 20
22.23436737060546
 30
78.7094955444336
 70
   192
  0
VERTEX
  5
1DF
330
AF
100
AcDbEntity
  8
AVLAYER
 62
     7
100
AcDbVertex
100
AcDbPolyFaceMeshVertex
 10
10.03267669677734
 20
22.228609085083
 30
82.30977630615234
 70
   192
  0
VERTEX
  5
1E0
330
AF
100
AcDbEntity
  8
AVLAYER
 62
     7
100
AcDbVertex
100
AcDbPolyFaceMeshVertex
 10
2.904920816421508
 20
22.73816299438476
 30
84.35563659667968
 70
   192
  0
VERTEX
  5
1E1
330
AF
100
AcDbEntity
  8
AVLAYER
 62
     7
100
AcDbVertex
100
AcDbPolyFaceMeshVertex
 10
16.91419601440429
 20
22.78622817993164
 30
79.06207275390625
 70
   192
  0
VERTEX
  5
1E2
330
AF
100
AcDbEntity
  8
AVLAYER
 62
     7
100
AcDbVertex
100
AcDbPolyFaceMeshVertex
 10
22.2340087890625
 20
22.02427673339844
 30
65.0
 70
   192
  0
VERTEX
  5
1E3
330
AF
100
AcDbEntity
  8
AVLAYER
 62
     7
100
AcDbVertex
100
AcDbPolyFaceMeshVertex
 10
20.28972625732421
 20
23.29813766479492
 30
74.95279693603515
 70
   192
  0
VERTEX
  5
1E4
330
AF
100
AcDbEntity
  8
AVLAYER
 62
     7
100
AcDbVertex
100
AcDbPolyFaceMeshVertex
 10
22.40383911132812
 20
23.2159366607666
 30
69.60612487792968
 70
   192
  0
VERTEX
  5
1E5
330
AF
100
AcDbEntity
  8
AVLAYER
 62
     7
100
AcDbVertex
100
AcDbPolyFaceMeshVertex
 10
22.90909576416015
 20
23.19627952575683
 30
63.86506271362304
 70
   192
  0
VERTEX
  5
1E6
330
AF
100
AcDbEntity
  8
AVLAYER
 62
     7
100
AcDbVertex
100
AcDbPolyFaceMeshVertex
 10
21.71376991271972
 20
23.2427806854248
 30
58.10014343261719
 70
   192
  0
VERTEX
  5
1E7
330
AF
100
AcDbEntity
  8
AVLAYER
 62
     7
100
AcDbVertex
100
AcDbPolyFaceMeshVertex
 10
22.75431442260742
 20
22.56807327270507
 30
65.0
 70
   192
  0
VERTEX
  5
1E8
330
AF
100
AcDbEntity
  8
AVLAYER
 62
     7
100
AcDbVertex
100
AcDbPolyFaceMeshVertex
 10
16.91419601440429
 20
22.78622817993164
 30
50.93792724609375
 70
   192
  0
VERTEX
  5
1E9
330
AF
100
AcDbEntity
  8
AVLAYER
 62
     7
100
AcDbVertex
100
AcDbPolyFaceMeshVertex
 10
16.54328727722168
 20
22.23436737060546
 30
51.29050064086914
 70
   192
  0
VERTEX
  5
1EA
330
AF
100
AcDbEntity
  8
AVLAYER
 62
     7
100
AcDbVertex
100
AcDbPolyFaceMeshVertex
 10
16.78941917419433
 20
48.59429168701172
 30
-0.0000000000000099
 70
   192
  0
VERTEX
  5
1EB
330
AF
100
AcDbEntity
  8
AVLAYER
 62
     7
100
AcDbVertex
100
AcDbPolyFaceMeshVertex
 10
10.74999999999999
 20
54.63370895385742
 30
-0.0000000000000099
 70
   192
  0
VERTEX
  5
1EC
330
AF
100
AcDbEntity
  8
AVLAYER
 62
     7
100
AcDbVertex
100
AcDbPolyFaceMeshVertex
 10
2.5
 20
56.84429168701171
 30
-0.0000000000000099
 70
   192
  0
VERTEX
  5
1ED
330
AF
100
AcDbEntity
  8
AVLAYER
 62
     7
100
AcDbVertex
100
AcDbPolyFaceMeshVertex
 10
-5.75
 20
54.63370895385742
 30
-0.0000000000000099
 70
   192
  0
VERTEX
  5
1EE
330
AF
100
AcDbEntity
  8
AVLAYER
 62
     7
100
AcDbVertex
100
AcDbPolyFaceMeshVertex
 10
-11.78941917419433
 20
32.09429168701172
 30
-0.0000000000000099
 70
   192
  0
VERTEX
  5
1EF
330
AF
100
AcDbEntity
  8
AVLAYER
 62
     7
100
AcDbVertex
100
AcDbPolyFaceMeshVertex
 10
2.5
 20
23.84429168701172
 30
-0.0000000000000099
 70
   192
  0
VERTEX
  5
1F0
330
AF
100
AcDbEntity
  8
AVLAYER
 62
     7
100
AcDbVertex
100
AcDbPolyFaceMeshVertex
 10
18.27917289733886
 20
35.5206298828125
 30
50.81612014770508
 70
   192
  0
VERTEX
  5
1F1
330
AF
100
AcDbEntity
  8
AVLAYER
 62
     7
100
AcDbVertex
100
AcDbPolyFaceMeshVertex
 10
10.12582492828369
 20
54.97633743286133
 30
45.16630172729492
 70
   192
  0
VERTEX
  5
1F2
330
AF
100
AcDbEntity
  8
AVLAYER
 62
     7
100
AcDbVertex
100
AcDbPolyFaceMeshVertex
 10
18.91872024536132
 20
38.70855331420898
 30
50.99593734741211
 70
   192
  0
VERTEX
  5
1F3
330
AF
100
AcDbEntity
  8
AVLAYER
 62
     7
100
AcDbVertex
100
AcDbPolyFaceMeshVertex
 10
16.78941917419433
 20
32.09429168701172
 30
-0.0000000000000099
 70
   192
  0
VERTEX
  5
1F4
330
AF
100
AcDbEntity
  8
AVLAYER
 62
     7
100
AcDbVertex
100
AcDbPolyFaceMeshVertex
 10
10.74999999999999
 20
26.05487251281738
 30
-0.0000000000000099
 70
   192
  0
VERTEX
  5
1F5
330
AF
100
AcDbEntity
  8
AVLAYER
 62
     7
100
AcDbVertex
100
AcDbPolyFaceMeshVertex
 10
4.121503829956054
 20
23.9241600036621
 30
45.0345115661621
 70
   192
  0
VERTEX
  5
1F6
330
AF
100
AcDbEntity
  8
AVLAYER
 62
     7
100
AcDbVertex
100
AcDbPolyFaceMeshVertex
 10
-0.3809868693351746
 20
24.0977554321289
 30
45.27910614013672
 70
   192
  0
VERTEX
  5
1F7
330
AF
100
AcDbEntity
  8
AVLAYER
 62
     7
100
AcDbVertex
100
AcDbPolyFaceMeshVertex
 10
-5.75
 20
26.05487251281738
 30
-0.0000000000000099
 70
   192
  0
VERTEX
  5
1F8
330
AF
100
AcDbEntity
  8
AVLAYER
 62
     7
100
AcDbVertex
100
AcDbPolyFaceMeshVertex
 10
-13.63511371612548
 20
43.79510116577148
 30
57.82746505737304
 70
   192
  0
VERTEX
  5
1F9
330
AF
100
AcDbEntity
  8
AVLAYER
 62
     7
100
AcDbVertex
100
AcDbPolyFaceMeshVertex
 10
-14.0
 20
40.34429168701172
 30
-0.0000000000000099
 70
   192
  0
VERTEX
  5
1FA
330
AF
100
AcDbEntity
  8
AVLAYER
 62
     7
100
AcDbVertex
100
AcDbPolyFaceMeshVertex
 10
-11.78941917419433
 20
48.59429168701172
 30
-0.0000000000000099
 70
   192
  0
VERTEX
  5
1FB
330
AF
100
AcDbEntity
  8
AVLAYER
 62
     7
100
AcDbVertex
100
AcDbPolyFaceMeshVertex
 10
-0.0164282154291868
 20
56.65127182006836
 30
46.53620529174804
 70
   192
  0
VERTEX
  5
1FC
330
AF
100
AcDbEntity
  8
AVLAYER
 62
     7
100
AcDbVertex
100
AcDbPolyFaceMeshVertex
 10
6.831014156341552
 20
56.26573181152344
 30
45.02156829833984
 70
   192
  0
VERTEX
  5
1FD
330
AF
100
AcDbEntity
  8
AVLAYER
 62
     7
100
AcDbVertex
100
AcDbPolyFaceMeshVertex
 10
19.0
 20
40.34429168701172
 30
-0.0000000000000099
 70
   192
  0
VERTEX
  5
1FE
330
AF
100
AcDbEntity
  8
AVLAYER
 62
     7
100
AcDbVertex
100
AcDbPolyFaceMeshVertex
 10
18.92319679260253
 20
41.93444442749023
 30
50.49324417114258
 70
   192
  0
VERTEX
  5
1FF
330
AF
100
AcDbEntity
  8
AVLAYER
 62
     7
100
AcDbFaceRecord
 10
0.0
 20
0.0
 30
0.0
 70
   128
 71
   291
 72
   292
 73
   282
  0
VERTEX
  5
200
330
AF
100
AcDbEntity
  8
AVLAYER
 62
     7
100
AcDbFaceRecord
 10
0.0
 20
0.0
 30
0.0
 70
   128
 71
     3
 72
   288
 73
   289
  0
VERTEX
  5
201
330
AF
100
AcDbEntity
  8
AVLAYER
 62
     7
100
AcDbFaceRecord
 10
0.0
 20
0.0
 30
0.0
 70
   128
 71
     2
 72
     1
 73
   304
  0
VERTEX
  5
202
330
AF
100
AcDbEntity
  8
AVLAYER
 62
     7
100
AcDbFaceRecord
 10
0.0
 20
0.0
 30
0.0
 70
   128
 71
     2
 72
   289
 73
     1
  0
VERTEX
  5
203
330
AF
100
AcDbEntity
  8
AVLAYER
 62
     7
100
AcDbFaceRecord
 10
0.0
 20
0.0
 30
0.0
 70
   128
 71
     2
 72
     3
 73
   289
  0
VERTEX
  5
204
330
AF
100
AcDbEntity
  8
AVLAYER
 62
     7
100
AcDbFaceRecord
 10
0.0
 20
0.0
 30
0.0
 70
   128
 71
   287
 72
     2
 73
   304
  0
VERTEX
  5
205
330
AF
100
AcDbEntity
  8
AVLAYER
 62
     7
100
AcDbFaceRecord
 10
0.0
 20
0.0
 30
0.0
 70
   128
 71
   290
 72
   287
 73
   304
  0
VERTEX
  5
206
330
AF
100
AcDbEntity
  8
AVLAYER
 62
     7
100
AcDbFaceRecord
 10
0.0
 20
0.0
 30
0.0
 70
   128
 71
   290
 72
     4
 73
   287
  0
VERTEX
  5
207
330
AF
100
AcDbEntity
  8
AVLAYER
 62
     7
100
AcDbFaceRecord
 10
0.0
 20
0.0
 30
0.0
 70
   128
 71
   290
 72
     5
 73
     4
  0
VERTEX
  5
208
330
AF
100
AcDbEntity
  8
AVLAYER
 62
     7
100
AcDbFaceRecord
 10
0.0
 20
0.0
 30
0.0
 70
   128
 71
   291
 72
     5
 73
   290
  0
VERTEX
  5
209
330
AF
100
AcDbEntity
  8
AVLAYER
 62
     7
100
AcDbFaceRecord
 10
0.0
 20
0.0
 30
0.0
 70
   128
 71
   291
 72
   282
 73
     5
  0
VERTEX
  5
20A
330
AF
100
AcDbEntity
  8
AVLAYER
 62
     7
100
AcDbFaceRecord
 10
0.0
 20
0.0
 30
0.0
 70
   128
 71
     8
 72
   282
 73
   292
  0
VERTEX
  5
20B
330
AF
100
AcDbEntity
  8
AVLAYER
 62
     7
100
AcDbFaceRecord
 10
0.0
 20
0.0
 30
0.0
 70
   128
 71
     8
 72
     6
 73
   282
  0
VERTEX
  5
20C
330
AF
100
AcDbEntity
  8
AVLAYER
 62
     7
100
AcDbFaceRecord
 10
0.0
 20
0.0
 30
0.0
 70
   128
 71
     8
 72
     7
 73
     6
  0
VERTEX
  5
20D
330
AF
100
AcDbEntity
  8
AVLAYER
 62
     7
100
AcDbFaceRecord
 10
0.0
 20
0.0
 30
0.0
 70
   128
 71
    39
 72
    40
 73
    14
  0
VERTEX
  5
20E
330
AF
100
AcDbEntity
  8
AVLAYER
 62
     7
100
AcDbFaceRecord
 10
0.0
 20
0.0
 30
0.0
 70
   128
 71
    33
 72
     9
 73
    10
  0
VERTEX
  5
20F
330
AF
100
AcDbEntity
  8
AVLAYER
 62
     7
100
AcDbFaceRecord
 10
0.0
 20
0.0
 30
0.0
 70
   128
 71
    11
 72
    37
 73
    38
  0
VERTEX
  5
210
330
AF
100
AcDbEntity
  8
AVLAYER
 62
     7
100
AcDbFaceRecord
 10
0.0
 20
0.0
 30
0.0
 70
   128
 71
    11
 72
    10
 73
    37
  0
VERTEX
  5
211
330
AF
100
AcDbEntity
  8
AVLAYER
 62
     7
100
AcDbFaceRecord
 10
0.0
 20
0.0
 30
0.0
 70
   128
 71
    11
 72
    33
 73
    10
  0
VERTEX
  5
212
330
AF
100
AcDbEntity
  8
AVLAYER
 62
     7
100
AcDbFaceRecord
 10
0.0
 20
0.0
 30
0.0
 70
   128
 71
    27
 72
    38
 73
    12
  0
VERTEX
  5
213
330
AF
100
AcDbEntity
  8
AVLAYER
 62
     7
100
AcDbFaceRecord
 10
0.0
 20
0.0
 30
0.0
 70
   128
 71
    27
 72
    11
 73
    38
  0
VERTEX
  5
214
330
AF
100
AcDbEntity
  8
AVLAYER
 62
     7
100
AcDbFaceRecord
 10
0.0
 20
0.0
 30
0.0
 70
   128
 71
    13
 72
    27
 73
    12
  0
VERTEX
  5
215
330
AF
100
AcDbEntity
  8
AVLAYER
 62
     7
100
AcDbFaceRecord
 10
0.0
 20
0.0
 30
0.0
 70
   128
 71
    39
 72
    13
 73
    12
  0
VERTEX
  5
216
330
AF
100
AcDbEntity
  8
AVLAYER
 62
     7
100
AcDbFaceRecord
 10
0.0
 20
0.0
 30
0.0
 70
   128
 71
    39
 72
    26
 73
    13
  0
VERTEX
  5
217
330
AF
100
AcDbEntity
  8
AVLAYER
 62
     7
100
AcDbFaceRecord
 10
0.0
 20
0.0
 30
0.0
 70
   128
 71
    39
 72
    14
 73
    26
  0
VERTEX
  5
218
330
AF
100
AcDbEntity
  8
AVLAYER
 62
     7
100
AcDbFaceRecord
 10
0.0
 20
0.0
 30
0.0
 70
   128
 71
    42
 72
    14
 73
    40
  0
VERTEX
  5
219
330
AF
100
AcDbEntity
  8
AVLAYER
 62
     7
100
AcDbFaceRecord
 10
0.0
 20
0.0
 30
0.0
 70
   128
 71
    42
 72
    19
 73
    14
  0
VERTEX
  5
21A
330
AF
100
AcDbEntity
  8
AVLAYER
 62
     7
100
AcDbFaceRecord
 10
0.0
 20
0.0
 30
0.0
 70
   128
 71
    42
 72
    43
 73
    19
  0
VERTEX
  5
21B
330
AF
100
AcDbEntity
  8
AVLAYER
 62
     7
100
AcDbFaceRecord
 10
0.0
 20
0.0
 30
0.0
 70
   128
 71
   260
 72
   258
 73
    46
  0
VERTEX
  5
21C
330
AF
100
AcDbEntity
  8
AVLAYER
 62
     7
100
AcDbFaceRecord
 10
0.0
 20
0.0
 30
0.0
 70
   128
 71
    34
 72
   257
 73
   260
  0
VERTEX
  5
21D
330
AF
100
AcDbEntity
  8
AVLAYER
 62
     7
100
AcDbFaceRecord
 10
0.0
 20
0.0
 30
0.0
 70
   128
 71
   257
 72
    34
 73
   255
  0
VERTEX
  5
21E
330
AF
100
AcDbEntity
  8
AVLAYER
 62
     7
100
AcDbFaceRecord
 10
0.0
 20
0.0
 30
0.0
 70
   128
 71
   254
 72
   255
 73
    34
  0
VERTEX
  5
21F
330
AF
100
AcDbEntity
  8
AVLAYER
 62
     7
100
AcDbFaceRecord
 10
0.0
 20
0.0
 30
0.0
 70
   128
 71
    31
 72
   254
 73
    34
  0
VERTEX
  5
220
330
AF
100
AcDbEntity
  8
AVLAYER
 62
     7
100
AcDbFaceRecord
 10
0.0
 20
0.0
 30
0.0
 70
   128
 71
    31
 72
   253
 73
   254
  0
VERTEX
  5
221
330
AF
100
AcDbEntity
  8
AVLAYER
 62
     7
100
AcDbFaceRecord
 10
0.0
 20
0.0
 30
0.0
 70
   128
 71
   253
 72
    31
 73
    15
  0
VERTEX
  5
222
330
AF
100
AcDbEntity
  8
AVLAYER
 62
     7
100
AcDbFaceRecord
 10
0.0
 20
0.0
 30
0.0
 70
   128
 71
   252
 72
    15
 73
    31
  0
VERTEX
  5
223
330
AF
100
AcDbEntity
  8
AVLAYER
 62
     7
100
AcDbFaceRecord
 10
0.0
 20
0.0
 30
0.0
 70
   128
 71
    30
 72
   252
 73
    31
  0
VERTEX
  5
224
330
AF
100
AcDbEntity
  8
AVLAYER
 62
     7
100
AcDbFaceRecord
 10
0.0
 20
0.0
 30
0.0
 70
   128
 71
    30
 72
   249
 73
   252
  0
VERTEX
  5
225
330
AF
100
AcDbEntity
  8
AVLAYER
 62
     7
100
AcDbFaceRecord
 10
0.0
 20
0.0
 30
0.0
 70
   128
 71
    16
 72
   249
 73
    30
  0
VERTEX
  5
226
330
AF
100
AcDbEntity
  8
AVLAYER
 62
     7
100
AcDbFaceRecord
 10
0.0
 20
0.0
 30
0.0
 70
   128
 71
    28
 72
   245
 73
    16
  0
VERTEX
  5
227
330
AF
100
AcDbEntity
  8
AVLAYER
 62
     7
100
AcDbFaceRecord
 10
0.0
 20
0.0
 30
0.0
 70
   128
 71
   245
 72
    28
 73
   243
  0
VERTEX
  5
228
330
AF
100
AcDbEntity
  8
AVLAYER
 62
     7
100
AcDbFaceRecord
 10
0.0
 20
0.0
 30
0.0
 70
   128
 71
    21
 72
   243
 73
    28
  0
VERTEX
  5
229
330
AF
100
AcDbEntity
  8
AVLAYER
 62
     7
100
AcDbFaceRecord
 10
0.0
 20
0.0
 30
0.0
 70
   128
 71
    23
 72
    18
 73
    17
  0
VERTEX
  5
22A
330
AF
100
AcDbEntity
  8
AVLAYER
 62
     7
100
AcDbFaceRecord
 10
0.0
 20
0.0
 30
0.0
 70
   128
 71
    19
 72
    43
 73
    24
  0
VERTEX
  5
22B
330
AF
100
AcDbEntity
  8
AVLAYER
 62
     7
100
AcDbFaceRecord
 10
0.0
 20
0.0
 30
0.0
 70
   128
 71
    25
 72
    19
 73
    24
  0
VERTEX
  5
22C
330
AF
100
AcDbEntity
  8
AVLAYER
 62
     7
100
AcDbFaceRecord
 10
0.0
 20
0.0
 30
0.0
 70
   128
 71
    25
 72
    14
 73
    19
  0
VERTEX
  5
22D
330
AF
100
AcDbEntity
  8
AVLAYER
 62
     7
100
AcDbFaceRecord
 10
0.0
 20
0.0
 30
0.0
 70
   128
 71
    26
 72
    14
 73
    25
  0
VERTEX
  5
22E
330
AF
100
AcDbEntity
  8
AVLAYER
 62
     7
100
AcDbFaceRecord
 10
0.0
 20
0.0
 30
0.0
 70
   128
 71
    20
 72
    21
 73
    28
  0
VERTEX
  5
22F
330
AF
100
AcDbEntity
  8
AVLAYER
 62
     7
100
AcDbFaceRecord
 10
0.0
 20
0.0
 30
0.0
 70
   128
 71
    20
 72
   242
 73
    21
  0
VERTEX
  5
230
330
AF
100
AcDbEntity
  8
AVLAYER
 62
     7
100
AcDbFaceRecord
 10
0.0
 20
0.0
 30
0.0
 70
   128
 71
    20
 72
    22
 73
   242
  0
VERTEX
  5
231
330
AF
100
AcDbEntity
  8
AVLAYER
 62
     7
100
AcDbFaceRecord
 10
0.0
 20
0.0
 30
0.0
 70
   128
 71
    20
 72
    17
 73
    22
  0
VERTEX
  5
232
330
AF
100
AcDbEntity
  8
AVLAYER
 62
     7
100
AcDbFaceRecord
 10
0.0
 20
0.0
 30
0.0
 70
   128
 71
    20
 72
    23
 73
    17
  0
VERTEX
  5
233
330
AF
100
AcDbEntity
  8
AVLAYER
 62
     7
100
AcDbFaceRecord
 10
0.0
 20
0.0
 30
0.0
 70
   128
 71
    20
 72
    24
 73
    23
  0
VERTEX
  5
234
330
AF
100
AcDbEntity
  8
AVLAYER
 62
     7
100
AcDbFaceRecord
 10
0.0
 20
0.0
 30
0.0
 70
   128
 71
    20
 72
    25
 73
    24
  0
VERTEX
  5
235
330
AF
100
AcDbEntity
  8
AVLAYER
 62
     7
100
AcDbFaceRecord
 10
0.0
 20
0.0
 30
0.0
 70
   128
 71
   -20
 72
    29
 73
    25
  0
VERTEX
  5
236
330
AF
100
AcDbEntity
  8
AVLAYER
 62
     7
100
AcDbFaceRecord
 10
0.0
 20
0.0
 30
0.0
 70
   128
 71
    20
 72
    28
 73
   -29
  0
VERTEX
  5
237
330
AF
100
AcDbEntity
  8
AVLAYER
 62
     7
100
AcDbFaceRecord
 10
0.0
 20
0.0
 30
0.0
 70
   128
 71
    29
 72
    26
 73
    25
  0
VERTEX
  5
238
330
AF
100
AcDbEntity
  8
AVLAYER
 62
     7
100
AcDbFaceRecord
 10
0.0
 20
0.0
 30
0.0
 70
   128
 71
    29
 72
    13
 73
    26
  0
VERTEX
  5
239
330
AF
100
AcDbEntity
  8
AVLAYER
 62
     7
100
AcDbFaceRecord
 10
0.0
 20
0.0
 30
0.0
 70
   128
 71
    27
 72
    13
 73
    29
  0
VERTEX
  5
23A
330
AF
100
AcDbEntity
  8
AVLAYER
 62
     7
100
AcDbFaceRecord
 10
0.0
 20
0.0
 30
0.0
 70
   128
 71
    32
 72
    27
 73
    29
  0
VERTEX
  5
23B
330
AF
100
AcDbEntity
  8
AVLAYER
 62
     7
100
AcDbFaceRecord
 10
0.0
 20
0.0
 30
0.0
 70
   128
 71
    32
 72
    11
 73
    27
  0
VERTEX
  5
23C
330
AF
100
AcDbEntity
  8
AVLAYER
 62
     7
100
AcDbFaceRecord
 10
0.0
 20
0.0
 30
0.0
 70
   128
 71
    33
 72
    11
 73
    32
  0
VERTEX
  5
23D
330
AF
100
AcDbEntity
  8
AVLAYER
 62
     7
100
AcDbFaceRecord
 10
0.0
 20
0.0
 30
0.0
 70
   128
 71
    28
 72
    16
 73
    30
  0
VERTEX
  5
23E
330
AF
100
AcDbEntity
  8
AVLAYER
 62
     7
100
AcDbFaceRecord
 10
0.0
 20
0.0
 30
0.0
 70
   128
 71
   -30
 72
    29
 73
    28
  0
VERTEX
  5
23F
330
AF
100
AcDbEntity
  8
AVLAYER
 62
     7
100
AcDbFaceRecord
 10
0.0
 20
0.0
 30
0.0
 70
   128
 71
    30
 72
    32
 73
   -29
  0
VERTEX
  5
240
330
AF
100
AcDbEntity
  8
AVLAYER
 62
     7
100
AcDbFaceRecord
 10
0.0
 20
0.0
 30
0.0
 70
   128
 71
   -31
 72
    32
 73
    30
  0
VERTEX
  5
241
330
AF
100
AcDbEntity
  8
AVLAYER
 62
     7
100
AcDbFaceRecord
 10
0.0
 20
0.0
 30
0.0
 70
   128
 71
    31
 72
    35
 73
   -32
  0
VERTEX
  5
242
330
AF
100
AcDbEntity
  8
AVLAYER
 62
     7
100
AcDbFaceRecord
 10
0.0
 20
0.0
 30
0.0
 70
   128
 71
    35
 72
    33
 73
    32
  0
VERTEX
  5
243
330
AF
100
AcDbEntity
  8
AVLAYER
 62
     7
100
AcDbFaceRecord
 10
0.0
 20
0.0
 30
0.0
 70
   128
 71
    35
 72
     9
 73
    33
  0
VERTEX
  5
244
330
AF
100
AcDbEntity
  8
AVLAYER
 62
     7
100
AcDbFaceRecord
 10
0.0
 20
0.0
 30
0.0
 70
   128
 71
    10
 72
     9
 73
    35
  0
VERTEX
  5
245
330
AF
100
AcDbEntity
  8
AVLAYER
 62
     7
100
AcDbFaceRecord
 10
0.0
 20
0.0
 30
0.0
 70
   128
 71
   -35
 72
    34
 73
    36
  0
VERTEX
  5
246
330
AF
100
AcDbEntity
  8
AVLAYER
 62
     7
100
AcDbFaceRecord
 10
0.0
 20
0.0
 30
0.0
 70
   128
 71
    35
 72
    31
 73
   -34
  0
VERTEX
  5
247
330
AF
100
AcDbEntity
  8
AVLAYER
 62
     7
100
AcDbFaceRecord
 10
0.0
 20
0.0
 30
0.0
 70
   128
 71
    36
 72
    10
 73
    35
  0
VERTEX
  5
248
330
AF
100
AcDbEntity
  8
AVLAYER
 62
     7
100
AcDbFaceRecord
 10
0.0
 20
0.0
 30
0.0
 70
   128
 71
    36
 72
    37
 73
    10
  0
VERTEX
  5
249
330
AF
100
AcDbEntity
  8
AVLAYER
 62
     7
100
AcDbFaceRecord
 10
0.0
 20
0.0
 30
0.0
 70
   128
 71
    38
 72
    36
 73
    47
  0
VERTEX
  5
24A
330
AF
100
AcDbEntity
  8
AVLAYER
 62
     7
100
AcDbFaceRecord
 10
0.0
 20
0.0
 30
0.0
 70
   128
 71
    38
 72
    37
 73
    36
  0
VERTEX
  5
24B
330
AF
100
AcDbEntity
  8
AVLAYER
 62
     7
100
AcDbFaceRecord
 10
0.0
 20
0.0
 30
0.0
 70
   128
 71
    38
 72
    47
 73
    12
  0
VERTEX
  5
24C
330
AF
100
AcDbEntity
  8
AVLAYER
 62
     7
100
AcDbFaceRecord
 10
0.0
 20
0.0
 30
0.0
 70
   128
 71
    39
 72
    12
 73
    47
  0
VERTEX
  5
24D
330
AF
100
AcDbEntity
  8
AVLAYER
 62
     7
100
AcDbFaceRecord
 10
0.0
 20
0.0
 30
0.0
 70
   128
 71
    41
 72
    39
 73
    47
  0
VERTEX
  5
24E
330
AF
100
AcDbEntity
  8
AVLAYER
 62
     7
100
AcDbFaceRecord
 10
0.0
 20
0.0
 30
0.0
 70
   128
 71
    41
 72
    40
 73
    39
  0
VERTEX
  5
24F
330
AF
100
AcDbEntity
  8
AVLAYER
 62
     7
100
AcDbFaceRecord
 10
0.0
 20
0.0
 30
0.0
 70
   128
 71
    42
 72
    40
 73
    41
  0
VERTEX
  5
250
330
AF
100
AcDbEntity
  8
AVLAYER
 62
     7
100
AcDbFaceRecord
 10
0.0
 20
0.0
 30
0.0
 70
   128
 71
    24
 72
    42
 73
    41
  0
VERTEX
  5
251
330
AF
100
AcDbEntity
  8
AVLAYER
 62
     7
100
AcDbFaceRecord
 10
0.0
 20
0.0
 30
0.0
 70
   128
 71
    24
 72
    43
 73
    42
  0
VERTEX
  5
252
330
AF
100
AcDbEntity
  8
AVLAYER
 62
     7
100
AcDbFaceRecord
 10
0.0
 20
0.0
 30
0.0
 70
   128
 71
    44
 72
    18
 73
    23
  0
VERTEX
  5
253
330
AF
100
AcDbEntity
  8
AVLAYER
 62
     7
100
AcDbFaceRecord
 10
0.0
 20
0.0
 30
0.0
 70
   128
 71
    45
 72
    24
 73
    41
  0
VERTEX
  5
254
330
AF
100
AcDbEntity
  8
AVLAYER
 62
     7
100
AcDbFaceRecord
 10
0.0
 20
0.0
 30
0.0
 70
   128
 71
    45
 72
    23
 73
    24
  0
VERTEX
  5
255
330
AF
100
AcDbEntity
  8
AVLAYER
 62
     7
100
AcDbFaceRecord
 10
0.0
 20
0.0
 30
0.0
 70
   128
 71
    45
 72
    44
 73
    23
  0
VERTEX
  5
256
330
AF
100
AcDbEntity
  8
AVLAYER
 62
     7
100
AcDbFaceRecord
 10
0.0
 20
0.0
 30
0.0
 70
   128
 71
    45
 72
   240
 73
    44
  0
VERTEX
  5
257
330
AF
100
AcDbEntity
  8
AVLAYER
 62
     7
100
AcDbFaceRecord
 10
0.0
 20
0.0
 30
0.0
 70
   128
 71
   240
 72
    45
 73
   279
  0
VERTEX
  5
258
330
AF
100
AcDbEntity
  8
AVLAYER
 62
     7
100
AcDbFaceRecord
 10
0.0
 20
0.0
 30
0.0
 70
   128
 71
    65
 72
   279
 73
    45
  0
VERTEX
  5
259
330
AF
100
AcDbEntity
  8
AVLAYER
 62
     7
100
AcDbFaceRecord
 10
0.0
 20
0.0
 30
0.0
 70
   128
 71
    34
 72
   260
 73
    46
  0
VERTEX
  5
25A
330
AF
100
AcDbEntity
  8
AVLAYER
 62
     7
100
AcDbFaceRecord
 10
0.0
 20
0.0
 30
0.0
 70
   128
 71
   -46
 72
    36
 73
    34
  0
VERTEX
  5
25B
330
AF
100
AcDbEntity
  8
AVLAYER
 62
     7
100
AcDbFaceRecord
 10
0.0
 20
0.0
 30
0.0
 70
   128
 71
    46
 72
    47
 73
   -36
  0
VERTEX
  5
25C
330
AF
100
AcDbEntity
  8
AVLAYER
 62
     7
100
AcDbFaceRecord
 10
0.0
 20
0.0
 30
0.0
 70
   128
 71
   -45
 72
    47
 73
    46
  0
VERTEX
  5
25D
330
AF
100
AcDbEntity
  8
AVLAYER
 62
     7
100
AcDbFaceRecord
 10
0.0
 20
0.0
 30
0.0
 70
   128
 71
    45
 72
    41
 73
   -47
  0
VERTEX
  5
25E
330
AF
100
AcDbEntity
  8
AVLAYER
 62
     7
100
AcDbFaceRecord
 10
0.0
 20
0.0
 30
0.0
 70
   128
 71
    46
 72
    65
 73
    45
  0
VERTEX
  5
25F
330
AF
100
AcDbEntity
  8
AVLAYER
 62
     7
100
AcDbFaceRecord
 10
0.0
 20
0.0
 30
0.0
 70
   128
 71
    46
 72
   258
 73
    65
  0
VERTEX
  5
260
330
AF
100
AcDbEntity
  8
AVLAYER
 62
     7
100
AcDbFaceRecord
 10
0.0
 20
0.0
 30
0.0
 70
   128
 71
    63
 72
    67
 73
    49
  0
VERTEX
  5
261
330
AF
100
AcDbEntity
  8
AVLAYER
 62
     7
100
AcDbFaceRecord
 10
0.0
 20
0.0
 30
0.0
 70
   128
 71
    63
 72
    66
 73
    67
  0
VERTEX
  5
262
330
AF
100
AcDbEntity
  8
AVLAYER
 62
     7
100
AcDbFaceRecord
 10
0.0
 20
0.0
 30
0.0
 70
   128
 71
    63
 72
    54
 73
    66
  0
VERTEX
  5
263
330
AF
100
AcDbEntity
  8
AVLAYER
 62
     7
100
AcDbFaceRecord
 10
0.0
 20
0.0
 30
0.0
 70
   128
 71
    48
 72
    63
 73
    49
  0
VERTEX
  5
264
330
AF
100
AcDbEntity
  8
AVLAYER
 62
     7
100
AcDbFaceRecord
 10
0.0
 20
0.0
 30
0.0
 70
   128
 71
    51
 72
    48
 73
    49
  0
VERTEX
  5
265
330
AF
100
AcDbEntity
  8
AVLAYER
 62
     7
100
AcDbFaceRecord
 10
0.0
 20
0.0
 30
0.0
 70
   128
 71
    56
 72
    50
 73
    60
  0
VERTEX
  5
266
330
AF
100
AcDbEntity
  8
AVLAYER
 62
     7
100
AcDbFaceRecord
 10
0.0
 20
0.0
 30
0.0
 70
   128
 71
    55
 72
    60
 73
    51
  0
VERTEX
  5
267
330
AF
100
AcDbEntity
  8
AVLAYER
 62
     7
100
AcDbFaceRecord
 10
0.0
 20
0.0
 30
0.0
 70
   128
 71
    55
 72
    56
 73
    60
  0
VERTEX
  5
268
330
AF
100
AcDbEntity
  8
AVLAYER
 62
     7
100
AcDbFaceRecord
 10
0.0
 20
0.0
 30
0.0
 70
   128
 71
    52
 72
    51
 73
    49
  0
VERTEX
  5
269
330
AF
100
AcDbEntity
  8
AVLAYER
 62
     7
100
AcDbFaceRecord
 10
0.0
 20
0.0
 30
0.0
 70
   128
 71
    52
 72
    55
 73
    51
  0
VERTEX
  5
26A
330
AF
100
AcDbEntity
  8
AVLAYER
 62
     7
100
AcDbFaceRecord
 10
0.0
 20
0.0
 30
0.0
 70
   128
 71
    53
 72
   188
 73
    61
  0
VERTEX
  5
26B
330
AF
100
AcDbEntity
  8
AVLAYER
 62
     7
100
AcDbFaceRecord
 10
0.0
 20
0.0
 30
0.0
 70
   128
 71
    51
 72
   275
 73
   276
  0
VERTEX
  5
26C
330
AF
100
AcDbEntity
  8
AVLAYER
 62
     7
100
AcDbFaceRecord
 10
0.0
 20
0.0
 30
0.0
 70
   128
 71
    51
 72
   274
 73
   275
  0
VERTEX
  5
26D
330
AF
100
AcDbEntity
  8
AVLAYER
 62
     7
100
AcDbFaceRecord
 10
0.0
 20
0.0
 30
0.0
 70
   128
 71
   265
 72
    58
 73
    56
  0
VERTEX
  5
26E
330
AF
100
AcDbEntity
  8
AVLAYER
 62
     7
100
AcDbFaceRecord
 10
0.0
 20
0.0
 30
0.0
 70
   128
 71
   263
 72
   189
 73
    55
  0
VERTEX
  5
26F
330
AF
100
AcDbEntity
  8
AVLAYER
 62
     7
100
AcDbFaceRecord
 10
0.0
 20
0.0
 30
0.0
 70
   128
 71
    65
 72
   258
 73
    66
  0
VERTEX
  5
270
330
AF
100
AcDbEntity
  8
AVLAYER
 62
     7
100
AcDbFaceRecord
 10
0.0
 20
0.0
 30
0.0
 70
   128
 71
    62
 72
    64
 73
    54
  0
VERTEX
  5
271
330
AF
100
AcDbEntity
  8
AVLAYER
 62
     7
100
AcDbFaceRecord
 10
0.0
 20
0.0
 30
0.0
 70
   128
 71
   265
 72
    55
 73
   189
  0
VERTEX
  5
272
330
AF
100
AcDbEntity
  8
AVLAYER
 62
     7
100
AcDbFaceRecord
 10
0.0
 20
0.0
 30
0.0
 70
   128
 71
   265
 72
    56
 73
    55
  0
VERTEX
  5
273
330
AF
100
AcDbEntity
  8
AVLAYER
 62
     7
100
AcDbFaceRecord
 10
0.0
 20
0.0
 30
0.0
 70
   128
 71
    50
 72
    57
 73
    59
  0
VERTEX
  5
274
330
AF
100
AcDbEntity
  8
AVLAYER
 62
     7
100
AcDbFaceRecord
 10
0.0
 20
0.0
 30
0.0
 70
   128
 71
    50
 72
    58
 73
    57
  0
VERTEX
  5
275
330
AF
100
AcDbEntity
  8
AVLAYER
 62
     7
100
AcDbFaceRecord
 10
0.0
 20
0.0
 30
0.0
 70
   128
 71
    50
 72
    56
 73
    58
  0
VERTEX
  5
276
330
AF
100
AcDbEntity
  8
AVLAYER
 62
     7
100
AcDbFaceRecord
 10
0.0
 20
0.0
 30
0.0
 70
   128
 71
    60
 72
    59
 73
   270
  0
VERTEX
  5
277
330
AF
100
AcDbEntity
  8
AVLAYER
 62
     7
100
AcDbFaceRecord
 10
0.0
 20
0.0
 30
0.0
 70
   128
 71
    60
 72
    50
 73
    59
  0
VERTEX
  5
278
330
AF
100
AcDbEntity
  8
AVLAYER
 62
     7
100
AcDbFaceRecord
 10
0.0
 20
0.0
 30
0.0
 70
   128
 71
   274
 72
    60
 73
   270
  0
VERTEX
  5
279
330
AF
100
AcDbEntity
  8
AVLAYER
 62
     7
100
AcDbFaceRecord
 10
0.0
 20
0.0
 30
0.0
 70
   128
 71
   274
 72
    51
 73
    60
  0
VERTEX
  5
27A
330
AF
100
AcDbEntity
  8
AVLAYER
 62
     7
100
AcDbFaceRecord
 10
0.0
 20
0.0
 30
0.0
 70
   128
 71
    48
 72
   277
 73
   278
  0
VERTEX
  5
27B
330
AF
100
AcDbEntity
  8
AVLAYER
 62
     7
100
AcDbFaceRecord
 10
0.0
 20
0.0
 30
0.0
 70
   128
 71
    48
 72
    61
 73
   277
  0
VERTEX
  5
27C
330
AF
100
AcDbEntity
  8
AVLAYER
 62
     7
100
AcDbFaceRecord
 10
0.0
 20
0.0
 30
0.0
 70
   128
 71
    48
 72
    53
 73
    61
  0
VERTEX
  5
27D
330
AF
100
AcDbEntity
  8
AVLAYER
 62
     7
100
AcDbFaceRecord
 10
0.0
 20
0.0
 30
0.0
 70
   128
 71
    48
 72
   276
 73
    53
  0
VERTEX
  5
27E
330
AF
100
AcDbEntity
  8
AVLAYER
 62
     7
100
AcDbFaceRecord
 10
0.0
 20
0.0
 30
0.0
 70
   128
 71
    48
 72
    51
 73
   276
  0
VERTEX
  5
27F
330
AF
100
AcDbEntity
  8
AVLAYER
 62
     7
100
AcDbFaceRecord
 10
0.0
 20
0.0
 30
0.0
 70
   128
 71
   241
 72
    48
 73
   278
  0
VERTEX
  5
280
330
AF
100
AcDbEntity
  8
AVLAYER
 62
     7
100
AcDbFaceRecord
 10
0.0
 20
0.0
 30
0.0
 70
   128
 71
   241
 72
    63
 73
    48
  0
VERTEX
  5
281
330
AF
100
AcDbEntity
  8
AVLAYER
 62
     7
100
AcDbFaceRecord
 10
0.0
 20
0.0
 30
0.0
 70
   128
 71
    62
 72
    63
 73
   241
  0
VERTEX
  5
282
330
AF
100
AcDbEntity
  8
AVLAYER
 62
     7
100
AcDbFaceRecord
 10
0.0
 20
0.0
 30
0.0
 70
   128
 71
    62
 72
    54
 73
    63
  0
VERTEX
  5
283
330
AF
100
AcDbEntity
  8
AVLAYER
 62
     7
100
AcDbFaceRecord
 10
0.0
 20
0.0
 30
0.0
 70
   128
 71
    65
 72
    54
 73
    64
  0
VERTEX
  5
284
330
AF
100
AcDbEntity
  8
AVLAYER
 62
     7
100
AcDbFaceRecord
 10
0.0
 20
0.0
 30
0.0
 70
   128
 71
    65
 72
    66
 73
    54
  0
VERTEX
  5
285
330
AF
100
AcDbEntity
  8
AVLAYER
 62
     7
100
AcDbFaceRecord
 10
0.0
 20
0.0
 30
0.0
 70
   128
 71
    67
 72
   259
 73
   256
  0
VERTEX
  5
286
330
AF
100
AcDbEntity
  8
AVLAYER
 62
     7
100
AcDbFaceRecord
 10
0.0
 20
0.0
 30
0.0
 70
   128
 71
    67
 72
   258
 73
   259
  0
VERTEX
  5
287
330
AF
100
AcDbEntity
  8
AVLAYER
 62
     7
100
AcDbFaceRecord
 10
0.0
 20
0.0
 30
0.0
 70
   128
 71
    67
 72
    66
 73
   258
  0
VERTEX
  5
288
330
AF
100
AcDbEntity
  8
AVLAYER
 62
     7
100
AcDbFaceRecord
 10
0.0
 20
0.0
 30
0.0
 70
   128
 71
    49
 72
   261
 73
    69
  0
VERTEX
  5
289
330
AF
100
AcDbEntity
  8
AVLAYER
 62
     7
100
AcDbFaceRecord
 10
0.0
 20
0.0
 30
0.0
 70
   128
 71
    49
 72
   256
 73
   261
  0
VERTEX
  5
28A
330
AF
100
AcDbEntity
  8
AVLAYER
 62
     7
100
AcDbFaceRecord
 10
0.0
 20
0.0
 30
0.0
 70
   128
 71
    49
 72
    67
 73
   256
  0
VERTEX
  5
28B
330
AF
100
AcDbEntity
  8
AVLAYER
 62
     7
100
AcDbFaceRecord
 10
0.0
 20
0.0
 30
0.0
 70
   128
 71
    52
 72
   263
 73
    55
  0
VERTEX
  5
28C
330
AF
100
AcDbEntity
  8
AVLAYER
 62
     7
100
AcDbFaceRecord
 10
0.0
 20
0.0
 30
0.0
 70
   128
 71
    52
 72
    68
 73
   263
  0
VERTEX
  5
28D
330
AF
100
AcDbEntity
  8
AVLAYER
 62
     7
100
AcDbFaceRecord
 10
0.0
 20
0.0
 30
0.0
 70
   128
 71
    52
 72
    69
 73
    68
  0
VERTEX
  5
28E
330
AF
100
AcDbEntity
  8
AVLAYER
 62
     7
100
AcDbFaceRecord
 10
0.0
 20
0.0
 30
0.0
 70
   128
 71
    52
 72
    49
 73
    69
  0
VERTEX
  5
28F
330
AF
100
AcDbEntity
  8
AVLAYER
 62
     7
100
AcDbFaceRecord
 10
0.0
 20
0.0
 30
0.0
 70
   128
 71
    70
 72
   190
 73
   192
  0
VERTEX
  5
290
330
AF
100
AcDbEntity
  8
AVLAYER
 62
     7
100
AcDbFaceRecord
 10
0.0
 20
0.0
 30
0.0
 70
   128
 71
   -81
 72
    71
 73
   190
  0
VERTEX
  5
291
330
AF
100
AcDbEntity
  8
AVLAYER
 62
     7
100
AcDbFaceRecord
 10
0.0
 20
0.0
 30
0.0
 70
   128
 71
    81
 72
    72
 73
   -71
  0
VERTEX
  5
292
330
AF
100
AcDbEntity
  8
AVLAYER
 62
     7
100
AcDbFaceRecord
 10
0.0
 20
0.0
 30
0.0
 70
   128
 71
   -81
 72
    73
 73
    72
  0
VERTEX
  5
293
330
AF
100
AcDbEntity
  8
AVLAYER
 62
     7
100
AcDbFaceRecord
 10
0.0
 20
0.0
 30
0.0
 70
   128
 71
    81
 72
    82
 73
   -73
  0
VERTEX
  5
294
330
AF
100
AcDbEntity
  8
AVLAYER
 62
     7
100
AcDbFaceRecord
 10
0.0
 20
0.0
 30
0.0
 70
   128
 71
   -83
 72
    73
 73
    82
  0
VERTEX
  5
295
330
AF
100
AcDbEntity
  8
AVLAYER
 62
     7
100
AcDbFaceRecord
 10
0.0
 20
0.0
 30
0.0
 70
   128
 71
    83
 72
    74
 73
   -73
  0
VERTEX
  5
296
330
AF
100
AcDbEntity
  8
AVLAYER
 62
     7
100
AcDbFaceRecord
 10
0.0
 20
0.0
 30
0.0
 70
   128
 71
   -84
 72
    74
 73
    83
  0
VERTEX
  5
297
330
AF
100
AcDbEntity
  8
AVLAYER
 62
     7
100
AcDbFaceRecord
 10
0.0
 20
0.0
 30
0.0
 70
   128
 71
    84
 72
    75
 73
   -74
  0
VERTEX
  5
298
330
AF
100
AcDbEntity
  8
AVLAYER
 62
     7
100
AcDbFaceRecord
 10
0.0
 20
0.0
 30
0.0
 70
   128
 71
   -86
 72
    75
 73
    84
  0
VERTEX
  5
299
330
AF
100
AcDbEntity
  8
AVLAYER
 62
     7
100
AcDbFaceRecord
 10
0.0
 20
0.0
 30
0.0
 70
   128
 71
    86
 72
    76
 73
   -75
  0
VERTEX
  5
29A
330
AF
100
AcDbEntity
  8
AVLAYER
 62
     7
100
AcDbFaceRecord
 10
0.0
 20
0.0
 30
0.0
 70
   128
 71
   -86
 72
   168
 73
    76
  0
VERTEX
  5
29B
330
AF
100
AcDbEntity
  8
AVLAYER
 62
     7
100
AcDbFaceRecord
 10
0.0
 20
0.0
 30
0.0
 70
   128
 71
    86
 72
    78
 73
  -168
  0
VERTEX
  5
29C
330
AF
100
AcDbEntity
  8
AVLAYER
 62
     7
100
AcDbFaceRecord
 10
0.0
 20
0.0
 30
0.0
 70
   128
 71
   -77
 72
    78
 73
    88
  0
VERTEX
  5
29D
330
AF
100
AcDbEntity
  8
AVLAYER
 62
     7
100
AcDbFaceRecord
 10
0.0
 20
0.0
 30
0.0
 70
   128
 71
    77
 72
   168
 73
   -78
  0
VERTEX
  5
29E
330
AF
100
AcDbEntity
  8
AVLAYER
 62
     7
100
AcDbFaceRecord
 10
0.0
 20
0.0
 30
0.0
 70
   128
 71
   -88
 72
   226
 73
    77
  0
VERTEX
  5
29F
330
AF
100
AcDbEntity
  8
AVLAYER
 62
     7
100
AcDbFaceRecord
 10
0.0
 20
0.0
 30
0.0
 70
   128
 71
    88
 72
    89
 73
  -226
  0
VERTEX
  5
2A0
330
AF
100
AcDbEntity
  8
AVLAYER
 62
     7
100
AcDbFaceRecord
 10
0.0
 20
0.0
 30
0.0
 70
   128
 71
   -91
 72
   226
 73
    89
  0
VERTEX
  5
2A1
330
AF
100
AcDbEntity
  8
AVLAYER
 62
     7
100
AcDbFaceRecord
 10
0.0
 20
0.0
 30
0.0
 70
   128
 71
    91
 72
   167
 73
  -226
  0
VERTEX
  5
2A2
330
AF
100
AcDbEntity
  8
AVLAYER
 62
     7
100
AcDbFaceRecord
 10
0.0
 20
0.0
 30
0.0
 70
   128
 71
   -91
 72
    79
 73
   167
  0
VERTEX
  5
2A3
330
AF
100
AcDbEntity
  8
AVLAYER
 62
     7
100
AcDbFaceRecord
 10
0.0
 20
0.0
 30
0.0
 70
   128
 71
    91
 72
    92
 73
   -79
  0
VERTEX
  5
2A4
330
AF
100
AcDbEntity
  8
AVLAYER
 62
     7
100
AcDbFaceRecord
 10
0.0
 20
0.0
 30
0.0
 70
   128
 71
   -80
 72
   190
 73
    70
  0
VERTEX
  5
2A5
330
AF
100
AcDbEntity
  8
AVLAYER
 62
     7
100
AcDbFaceRecord
 10
0.0
 20
0.0
 30
0.0
 70
   128
 71
    80
 72
    81
 73
  -190
  0
VERTEX
  5
2A6
330
AF
100
AcDbEntity
  8
AVLAYER
 62
     7
100
AcDbFaceRecord
 10
0.0
 20
0.0
 30
0.0
 70
   128
 71
   -95
 72
    81
 73
    80
  0
VERTEX
  5
2A7
330
AF
100
AcDbEntity
  8
AVLAYER
 62
     7
100
AcDbFaceRecord
 10
0.0
 20
0.0
 30
0.0
 70
   128
 71
    95
 72
    82
 73
   -81
  0
VERTEX
  5
2A8
330
AF
100
AcDbEntity
  8
AVLAYER
 62
     7
100
AcDbFaceRecord
 10
0.0
 20
0.0
 30
0.0
 70
   128
 71
   -98
 72
    82
 73
    95
  0
VERTEX
  5
2A9
330
AF
100
AcDbEntity
  8
AVLAYER
 62
     7
100
AcDbFaceRecord
 10
0.0
 20
0.0
 30
0.0
 70
   128
 71
    98
 72
    83
 73
   -82
  0
VERTEX
  5
2AA
330
AF
100
AcDbEntity
  8
AVLAYER
 62
     7
100
AcDbFaceRecord
 10
0.0
 20
0.0
 30
0.0
 70
   128
 71
   -98
 72
    84
 73
    83
  0
VERTEX
  5
2AB
330
AF
100
AcDbEntity
  8
AVLAYER
 62
     7
100
AcDbFaceRecord
 10
0.0
 20
0.0
 30
0.0
 70
   128
 71
    98
 72
    99
 73
   -84
  0
VERTEX
  5
2AC
330
AF
100
AcDbEntity
  8
AVLAYER
 62
     7
100
AcDbFaceRecord
 10
0.0
 20
0.0
 30
0.0
 70
   128
 71
   -86
 72
    99
 73
    85
  0
VERTEX
  5
2AD
330
AF
100
AcDbEntity
  8
AVLAYER
 62
     7
100
AcDbFaceRecord
 10
0.0
 20
0.0
 30
0.0
 70
   128
 71
    86
 72
    84
 73
   -99
  0
VERTEX
  5
2AE
330
AF
100
AcDbEntity
  8
AVLAYER
 62
     7
100
AcDbFaceRecord
 10
0.0
 20
0.0
 30
0.0
 70
   128
 71
   -85
 72
    78
 73
    86
  0
VERTEX
  5
2AF
330
AF
100
AcDbEntity
  8
AVLAYER
 62
     7
100
AcDbFaceRecord
 10
0.0
 20
0.0
 30
0.0
 70
   128
 71
    85
 72
   101
 73
   -78
  0
VERTEX
  5
2B0
330
AF
100
AcDbEntity
  8
AVLAYER
 62
     7
100
AcDbFaceRecord
 10
0.0
 20
0.0
 30
0.0
 70
   128
 71
   -88
 72
   101
 73
    87
  0
VERTEX
  5
2B1
330
AF
100
AcDbEntity
  8
AVLAYER
 62
     7
100
AcDbFaceRecord
 10
0.0
 20
0.0
 30
0.0
 70
   128
 71
    88
 72
    78
 73
  -101
  0
VERTEX
  5
2B2
330
AF
100
AcDbEntity
  8
AVLAYER
 62
     7
100
AcDbFaceRecord
 10
0.0
 20
0.0
 30
0.0
 70
   128
 71
   -90
 72
    88
 73
    87
  0
VERTEX
  5
2B3
330
AF
100
AcDbEntity
  8
AVLAYER
 62
     7
100
AcDbFaceRecord
 10
0.0
 20
0.0
 30
0.0
 70
   128
 71
    90
 72
    89
 73
   -88
  0
VERTEX
  5
2B4
330
AF
100
AcDbEntity
  8
AVLAYER
 62
     7
100
AcDbFaceRecord
 10
0.0
 20
0.0
 30
0.0
 70
   128
 71
   -91
 72
    90
 73
   105
  0
VERTEX
  5
2B5
330
AF
100
AcDbEntity
  8
AVLAYER
 62
     7
100
AcDbFaceRecord
 10
0.0
 20
0.0
 30
0.0
 70
   128
 71
    91
 72
    89
 73
   -90
  0
VERTEX
  5
2B6
330
AF
100
AcDbEntity
  8
AVLAYER
 62
     7
100
AcDbFaceRecord
 10
0.0
 20
0.0
 30
0.0
 70
   128
 71
  -105
 72
    92
 73
    91
  0
VERTEX
  5
2B7
330
AF
100
AcDbEntity
  8
AVLAYER
 62
     7
100
AcDbFaceRecord
 10
0.0
 20
0.0
 30
0.0
 70
   128
 71
   105
 72
   193
 73
   -92
  0
VERTEX
  5
2B8
330
AF
100
AcDbEntity
  8
AVLAYER
 62
     7
100
AcDbFaceRecord
 10
0.0
 20
0.0
 30
0.0
 70
   128
 71
   106
 72
    94
 73
    93
  0
VERTEX
  5
2B9
330
AF
100
AcDbEntity
  8
AVLAYER
 62
     7
100
AcDbFaceRecord
 10
0.0
 20
0.0
 30
0.0
 70
   128
 71
   -80
 72
    94
 73
    96
  0
VERTEX
  5
2BA
330
AF
100
AcDbEntity
  8
AVLAYER
 62
     7
100
AcDbFaceRecord
 10
0.0
 20
0.0
 30
0.0
 70
   128
 71
    80
 72
    70
 73
   -94
  0
VERTEX
  5
2BB
330
AF
100
AcDbEntity
  8
AVLAYER
 62
     7
100
AcDbFaceRecord
 10
0.0
 20
0.0
 30
0.0
 70
   128
 71
   -96
 72
    95
 73
    80
  0
VERTEX
  5
2BC
330
AF
100
AcDbEntity
  8
AVLAYER
 62
     7
100
AcDbFaceRecord
 10
0.0
 20
0.0
 30
0.0
 70
   128
 71
    96
 72
    97
 73
   -95
  0
VERTEX
  5
2BD
330
AF
100
AcDbEntity
  8
AVLAYER
 62
     7
100
AcDbFaceRecord
 10
0.0
 20
0.0
 30
0.0
 70
   128
 71
  -108
 72
    95
 73
    97
  0
VERTEX
  5
2BE
330
AF
100
AcDbEntity
  8
AVLAYER
 62
     7
100
AcDbFaceRecord
 10
0.0
 20
0.0
 30
0.0
 70
   128
 71
   108
 72
    98
 73
   -95
  0
VERTEX
  5
2BF
330
AF
100
AcDbEntity
  8
AVLAYER
 62
     7
100
AcDbFaceRecord
 10
0.0
 20
0.0
 30
0.0
 70
   128
 71
  -110
 72
    98
 73
   108
  0
VERTEX
  5
2C0
330
AF
100
AcDbEntity
  8
AVLAYER
 62
     7
100
AcDbFaceRecord
 10
0.0
 20
0.0
 30
0.0
 70
   128
 71
   110
 72
    99
 73
   -98
  0
VERTEX
  5
2C1
330
AF
100
AcDbEntity
  8
AVLAYER
 62
     7
100
AcDbFaceRecord
 10
0.0
 20
0.0
 30
0.0
 70
   128
 71
   -85
 72
   110
 73
   100
  0
VERTEX
  5
2C2
330
AF
100
AcDbEntity
  8
AVLAYER
 62
     7
100
AcDbFaceRecord
 10
0.0
 20
0.0
 30
0.0
 70
   128
 71
    85
 72
    99
 73
  -110
  0
VERTEX
  5
2C3
330
AF
100
AcDbEntity
  8
AVLAYER
 62
     7
100
AcDbFaceRecord
 10
0.0
 20
0.0
 30
0.0
 70
   128
 71
  -113
 72
    85
 73
   100
  0
VERTEX
  5
2C4
330
AF
100
AcDbEntity
  8
AVLAYER
 62
     7
100
AcDbFaceRecord
 10
0.0
 20
0.0
 30
0.0
 70
   128
 71
   113
 72
   101
 73
   -85
  0
VERTEX
  5
2C5
330
AF
100
AcDbEntity
  8
AVLAYER
 62
     7
100
AcDbFaceRecord
 10
0.0
 20
0.0
 30
0.0
 70
   128
 71
  -102
 72
   101
 73
   113
  0
VERTEX
  5
2C6
330
AF
100
AcDbEntity
  8
AVLAYER
 62
     7
100
AcDbFaceRecord
 10
0.0
 20
0.0
 30
0.0
 70
   128
 71
   102
 72
    87
 73
  -101
  0
VERTEX
  5
2C7
330
AF
100
AcDbEntity
  8
AVLAYER
 62
     7
100
AcDbFaceRecord
 10
0.0
 20
0.0
 30
0.0
 70
   128
 71
  -102
 72
    90
 73
    87
  0
VERTEX
  5
2C8
330
AF
100
AcDbEntity
  8
AVLAYER
 62
     7
100
AcDbFaceRecord
 10
0.0
 20
0.0
 30
0.0
 70
   128
 71
   102
 72
   103
 73
   -90
  0
VERTEX
  5
2C9
330
AF
100
AcDbEntity
  8
AVLAYER
 62
     7
100
AcDbFaceRecord
 10
0.0
 20
0.0
 30
0.0
 70
   128
 71
  -105
 72
   103
 73
   104
  0
VERTEX
  5
2CA
330
AF
100
AcDbEntity
  8
AVLAYER
 62
     7
100
AcDbFaceRecord
 10
0.0
 20
0.0
 30
0.0
 70
   128
 71
   105
 72
    90
 73
  -103
  0
VERTEX
  5
2CB
330
AF
100
AcDbEntity
  8
AVLAYER
 62
     7
100
AcDbFaceRecord
 10
0.0
 20
0.0
 30
0.0
 70
   128
 71
  -115
 72
   105
 73
   104
  0
VERTEX
  5
2CC
330
AF
100
AcDbEntity
  8
AVLAYER
 62
     7
100
AcDbFaceRecord
 10
0.0
 20
0.0
 30
0.0
 70
   128
 71
   115
 72
   193
 73
  -105
  0
VERTEX
  5
2CD
330
AF
100
AcDbEntity
  8
AVLAYER
 62
     7
100
AcDbFaceRecord
 10
0.0
 20
0.0
 30
0.0
 70
   128
 71
   -96
 72
   106
 73
   117
  0
VERTEX
  5
2CE
330
AF
100
AcDbEntity
  8
AVLAYER
 62
     7
100
AcDbFaceRecord
 10
0.0
 20
0.0
 30
0.0
 70
   128
 71
    96
 72
    94
 73
  -106
  0
VERTEX
  5
2CF
330
AF
100
AcDbEntity
  8
AVLAYER
 62
     7
100
AcDbFaceRecord
 10
0.0
 20
0.0
 30
0.0
 70
   128
 71
  -117
 72
    97
 73
    96
  0
VERTEX
  5
2D0
330
AF
100
AcDbEntity
  8
AVLAYER
 62
     7
100
AcDbFaceRecord
 10
0.0
 20
0.0
 30
0.0
 70
   128
 71
   117
 72
   107
 73
   -97
  0
VERTEX
  5
2D1
330
AF
100
AcDbEntity
  8
AVLAYER
 62
     7
100
AcDbFaceRecord
 10
0.0
 20
0.0
 30
0.0
 70
   128
 71
  -108
 72
   107
 73
   119
  0
VERTEX
  5
2D2
330
AF
100
AcDbEntity
  8
AVLAYER
 62
     7
100
AcDbFaceRecord
 10
0.0
 20
0.0
 30
0.0
 70
   128
 71
   108
 72
    97
 73
  -107
  0
VERTEX
  5
2D3
330
AF
100
AcDbEntity
  8
AVLAYER
 62
     7
100
AcDbFaceRecord
 10
0.0
 20
0.0
 30
0.0
 70
   128
 71
  -109
 72
   108
 73
   119
  0
VERTEX
  5
2D4
330
AF
100
AcDbEntity
  8
AVLAYER
 62
     7
100
AcDbFaceRecord
 10
0.0
 20
0.0
 30
0.0
 70
   128
 71
   109
 72
   110
 73
  -108
  0
VERTEX
  5
2D5
330
AF
100
AcDbEntity
  8
AVLAYER
 62
     7
100
AcDbFaceRecord
 10
0.0
 20
0.0
 30
0.0
 70
   128
 71
  -100
 72
   109
 73
   111
  0
VERTEX
  5
2D6
330
AF
100
AcDbEntity
  8
AVLAYER
 62
     7
100
AcDbFaceRecord
 10
0.0
 20
0.0
 30
0.0
 70
   128
 71
   100
 72
   110
 73
  -109
  0
VERTEX
  5
2D7
330
AF
100
AcDbEntity
  8
AVLAYER
 62
     7
100
AcDbFaceRecord
 10
0.0
 20
0.0
 30
0.0
 70
   128
 71
  -120
 72
   100
 73
   111
  0
VERTEX
  5
2D8
330
AF
100
AcDbEntity
  8
AVLAYER
 62
     7
100
AcDbFaceRecord
 10
0.0
 20
0.0
 30
0.0
 70
   128
 71
   120
 72
   113
 73
  -100
  0
VERTEX
  5
2D9
330
AF
100
AcDbEntity
  8
AVLAYER
 62
     7
100
AcDbFaceRecord
 10
0.0
 20
0.0
 30
0.0
 70
   128
 71
  -112
 72
   113
 73
   120
  0
VERTEX
  5
2DA
330
AF
100
AcDbEntity
  8
AVLAYER
 62
     7
100
AcDbFaceRecord
 10
0.0
 20
0.0
 30
0.0
 70
   128
 71
   112
 72
   102
 73
  -113
  0
VERTEX
  5
2DB
330
AF
100
AcDbEntity
  8
AVLAYER
 62
     7
100
AcDbFaceRecord
 10
0.0
 20
0.0
 30
0.0
 70
   128
 71
  -124
 72
   102
 73
   112
  0
VERTEX
  5
2DC
330
AF
100
AcDbEntity
  8
AVLAYER
 62
     7
100
AcDbFaceRecord
 10
0.0
 20
0.0
 30
0.0
 70
   128
 71
   124
 72
   103
 73
  -102
  0
VERTEX
  5
2DD
330
AF
100
AcDbEntity
  8
AVLAYER
 62
     7
100
AcDbFaceRecord
 10
0.0
 20
0.0
 30
0.0
 70
   128
 71
  -104
 72
   124
 73
   114
  0
VERTEX
  5
2DE
330
AF
100
AcDbEntity
  8
AVLAYER
 62
     7
100
AcDbFaceRecord
 10
0.0
 20
0.0
 30
0.0
 70
   128
 71
   104
 72
   103
 73
  -124
  0
VERTEX
  5
2DF
330
AF
100
AcDbEntity
  8
AVLAYER
 62
     7
100
AcDbFaceRecord
 10
0.0
 20
0.0
 30
0.0
 70
   128
 71
  -114
 72
   115
 73
   104
  0
VERTEX
  5
2E0
330
AF
100
AcDbEntity
  8
AVLAYER
 62
     7
100
AcDbFaceRecord
 10
0.0
 20
0.0
 30
0.0
 70
   128
 71
   114
 72
   125
 73
  -115
  0
VERTEX
  5
2E1
330
AF
100
AcDbEntity
  8
AVLAYER
 62
     7
100
AcDbFaceRecord
 10
0.0
 20
0.0
 30
0.0
 70
   128
 71
   137
 72
   116
 73
   197
  0
VERTEX
  5
2E2
330
AF
100
AcDbEntity
  8
AVLAYER
 62
     7
100
AcDbFaceRecord
 10
0.0
 20
0.0
 30
0.0
 70
   128
 71
  -126
 72
   106
 73
   116
  0
VERTEX
  5
2E3
330
AF
100
AcDbEntity
  8
AVLAYER
 62
     7
100
AcDbFaceRecord
 10
0.0
 20
0.0
 30
0.0
 70
   128
 71
   126
 72
   117
 73
  -106
  0
VERTEX
  5
2E4
330
AF
100
AcDbEntity
  8
AVLAYER
 62
     7
100
AcDbFaceRecord
 10
0.0
 20
0.0
 30
0.0
 70
   128
 71
  -126
 72
   107
 73
   117
  0
VERTEX
  5
2E5
330
AF
100
AcDbEntity
  8
AVLAYER
 62
     7
100
AcDbFaceRecord
 10
0.0
 20
0.0
 30
0.0
 70
   128
 71
   126
 72
   127
 73
  -107
  0
VERTEX
  5
2E6
330
AF
100
AcDbEntity
  8
AVLAYER
 62
     7
100
AcDbFaceRecord
 10
0.0
 20
0.0
 30
0.0
 70
   128
 71
  -118
 72
   107
 73
   127
  0
VERTEX
  5
2E7
330
AF
100
AcDbEntity
  8
AVLAYER
 62
     7
100
AcDbFaceRecord
 10
0.0
 20
0.0
 30
0.0
 70
   128
 71
   118
 72
   119
 73
  -107
  0
VERTEX
  5
2E8
330
AF
100
AcDbEntity
  8
AVLAYER
 62
     7
100
AcDbFaceRecord
 10
0.0
 20
0.0
 30
0.0
 70
   128
 71
  -118
 72
   109
 73
   119
  0
VERTEX
  5
2E9
330
AF
100
AcDbEntity
  8
AVLAYER
 62
     7
100
AcDbFaceRecord
 10
0.0
 20
0.0
 30
0.0
 70
   128
 71
   118
 72
   130
 73
  -109
  0
VERTEX
  5
2EA
330
AF
100
AcDbEntity
  8
AVLAYER
 62
     7
100
AcDbFaceRecord
 10
0.0
 20
0.0
 30
0.0
 70
   128
 71
  -129
 72
   109
 73
   130
  0
VERTEX
  5
2EB
330
AF
100
AcDbEntity
  8
AVLAYER
 62
     7
100
AcDbFaceRecord
 10
0.0
 20
0.0
 30
0.0
 70
   128
 71
   129
 72
   111
 73
  -109
  0
VERTEX
  5
2EC
330
AF
100
AcDbEntity
  8
AVLAYER
 62
     7
100
AcDbFaceRecord
 10
0.0
 20
0.0
 30
0.0
 70
   128
 71
  -129
 72
   120
 73
   111
  0
VERTEX
  5
2ED
330
AF
100
AcDbEntity
  8
AVLAYER
 62
     7
100
AcDbFaceRecord
 10
0.0
 20
0.0
 30
0.0
 70
   128
 71
   129
 72
   121
 73
  -120
  0
VERTEX
  5
2EE
330
AF
100
AcDbEntity
  8
AVLAYER
 62
     7
100
AcDbFaceRecord
 10
0.0
 20
0.0
 30
0.0
 70
   128
 71
  -122
 72
   120
 73
   121
  0
VERTEX
  5
2EF
330
AF
100
AcDbEntity
  8
AVLAYER
 62
     7
100
AcDbFaceRecord
 10
0.0
 20
0.0
 30
0.0
 70
   128
 71
   122
 72
   112
 73
  -120
  0
VERTEX
  5
2F0
330
AF
100
AcDbEntity
  8
AVLAYER
 62
     7
100
AcDbFaceRecord
 10
0.0
 20
0.0
 30
0.0
 70
   128
 71
  -122
 72
   124
 73
   112
  0
VERTEX
  5
2F1
330
AF
100
AcDbEntity
  8
AVLAYER
 62
     7
100
AcDbFaceRecord
 10
0.0
 20
0.0
 30
0.0
 70
   128
 71
   122
 72
   123
 73
  -124
  0
VERTEX
  5
2F2
330
AF
100
AcDbEntity
  8
AVLAYER
 62
     7
100
AcDbFaceRecord
 10
0.0
 20
0.0
 30
0.0
 70
   128
 71
  -134
 72
   124
 73
   123
  0
VERTEX
  5
2F3
330
AF
100
AcDbEntity
  8
AVLAYER
 62
     7
100
AcDbFaceRecord
 10
0.0
 20
0.0
 30
0.0
 70
   128
 71
   134
 72
   114
 73
  -124
  0
VERTEX
  5
2F4
330
AF
100
AcDbEntity
  8
AVLAYER
 62
     7
100
AcDbFaceRecord
 10
0.0
 20
0.0
 30
0.0
 70
   128
 71
  -134
 72
   125
 73
   114
  0
VERTEX
  5
2F5
330
AF
100
AcDbEntity
  8
AVLAYER
 62
     7
100
AcDbFaceRecord
 10
0.0
 20
0.0
 30
0.0
 70
   128
 71
   134
 72
   196
 73
  -125
  0
VERTEX
  5
2F6
330
AF
100
AcDbEntity
  8
AVLAYER
 62
     7
100
AcDbFaceRecord
 10
0.0
 20
0.0
 30
0.0
 70
   128
 71
  -126
 72
   137
 73
   138
  0
VERTEX
  5
2F7
330
AF
100
AcDbEntity
  8
AVLAYER
 62
     7
100
AcDbFaceRecord
 10
0.0
 20
0.0
 30
0.0
 70
   128
 71
   126
 72
   116
 73
  -137
  0
VERTEX
  5
2F8
330
AF
100
AcDbEntity
  8
AVLAYER
 62
     7
100
AcDbFaceRecord
 10
0.0
 20
0.0
 30
0.0
 70
   128
 71
  -139
 72
   126
 73
   138
  0
VERTEX
  5
2F9
330
AF
100
AcDbEntity
  8
AVLAYER
 62
     7
100
AcDbFaceRecord
 10
0.0
 20
0.0
 30
0.0
 70
   128
 71
   139
 72
   127
 73
  -126
  0
VERTEX
  5
2FA
330
AF
100
AcDbEntity
  8
AVLAYER
 62
     7
100
AcDbFaceRecord
 10
0.0
 20
0.0
 30
0.0
 70
   128
 71
  -118
 72
   139
 73
   128
  0
VERTEX
  5
2FB
330
AF
100
AcDbEntity
  8
AVLAYER
 62
     7
100
AcDbFaceRecord
 10
0.0
 20
0.0
 30
0.0
 70
   128
 71
   118
 72
   127
 73
  -139
  0
VERTEX
  5
2FC
330
AF
100
AcDbEntity
  8
AVLAYER
 62
     7
100
AcDbFaceRecord
 10
0.0
 20
0.0
 30
0.0
 70
   128
 71
  -128
 72
   130
 73
   118
  0
VERTEX
  5
2FD
330
AF
100
AcDbEntity
  8
AVLAYER
 62
     7
100
AcDbFaceRecord
 10
0.0
 20
0.0
 30
0.0
 70
   128
 71
   128
 72
   141
 73
  -130
  0
VERTEX
  5
2FE
330
AF
100
AcDbEntity
  8
AVLAYER
 62
     7
100
AcDbFaceRecord
 10
0.0
 20
0.0
 30
0.0
 70
   128
 71
  -129
 72
   141
 73
   142
  0
VERTEX
  5
2FF
330
AF
100
AcDbEntity
  8
AVLAYER
 62
     7
100
AcDbFaceRecord
 10
0.0
 20
0.0
 30
0.0
 70
   128
 71
   129
 72
   130
 73
  -141
  0
VERTEX
  5
300
330
AF
100
AcDbEntity
  8
AVLAYER
 62
     7
100
AcDbFaceRecord
 10
0.0
 20
0.0
 30
0.0
 70
   128
 71
  -131
 72
   129
 73
   142
  0
VERTEX
  5
301
330
AF
100
AcDbEntity
  8
AVLAYER
 62
     7
100
AcDbFaceRecord
 10
0.0
 20
0.0
 30
0.0
 70
   128
 71
   131
 72
   121
 73
  -129
  0
VERTEX
  5
302
330
AF
100
AcDbEntity
  8
AVLAYER
 62
     7
100
AcDbFaceRecord
 10
0.0
 20
0.0
 30
0.0
 70
   128
 71
  -122
 72
   131
 73
   132
  0
VERTEX
  5
303
330
AF
100
AcDbEntity
  8
AVLAYER
 62
     7
100
AcDbFaceRecord
 10
0.0
 20
0.0
 30
0.0
 70
   128
 71
   122
 72
   121
 73
  -131
  0
VERTEX
  5
304
330
AF
100
AcDbEntity
  8
AVLAYER
 62
     7
100
AcDbFaceRecord
 10
0.0
 20
0.0
 30
0.0
 70
   128
 71
  -145
 72
   122
 73
   132
  0
VERTEX
  5
305
330
AF
100
AcDbEntity
  8
AVLAYER
 62
     7
100
AcDbFaceRecord
 10
0.0
 20
0.0
 30
0.0
 70
   128
 71
   145
 72
   123
 73
  -122
  0
VERTEX
  5
306
330
AF
100
AcDbEntity
  8
AVLAYER
 62
     7
100
AcDbFaceRecord
 10
0.0
 20
0.0
 30
0.0
 70
   128
 71
  -133
 72
   123
 73
   145
  0
VERTEX
  5
307
330
AF
100
AcDbEntity
  8
AVLAYER
 62
     7
100
AcDbFaceRecord
 10
0.0
 20
0.0
 30
0.0
 70
   128
 71
   133
 72
   134
 73
  -123
  0
VERTEX
  5
308
330
AF
100
AcDbEntity
  8
AVLAYER
 62
     7
100
AcDbFaceRecord
 10
0.0
 20
0.0
 30
0.0
 70
   128
 71
  -135
 72
   134
 73
   133
  0
VERTEX
  5
309
330
AF
100
AcDbEntity
  8
AVLAYER
 62
     7
100
AcDbFaceRecord
 10
0.0
 20
0.0
 30
0.0
 70
   128
 71
   135
 72
   196
 73
  -134
  0
VERTEX
  5
30A
330
AF
100
AcDbEntity
  8
AVLAYER
 62
     7
100
AcDbFaceRecord
 10
0.0
 20
0.0
 30
0.0
 70
   128
 71
   148
 72
   136
 73
   201
  0
VERTEX
  5
30B
330
AF
100
AcDbEntity
  8
AVLAYER
 62
     7
100
AcDbFaceRecord
 10
0.0
 20
0.0
 30
0.0
 70
   128
 71
  -150
 72
   137
 73
   136
  0
VERTEX
  5
30C
330
AF
100
AcDbEntity
  8
AVLAYER
 62
     7
100
AcDbFaceRecord
 10
0.0
 20
0.0
 30
0.0
 70
   128
 71
   150
 72
   138
 73
  -137
  0
VERTEX
  5
30D
330
AF
100
AcDbEntity
  8
AVLAYER
 62
     7
100
AcDbFaceRecord
 10
0.0
 20
0.0
 30
0.0
 70
   128
 71
  -151
 72
   138
 73
   150
  0
VERTEX
  5
30E
330
AF
100
AcDbEntity
  8
AVLAYER
 62
     7
100
AcDbFaceRecord
 10
0.0
 20
0.0
 30
0.0
 70
   128
 71
   151
 72
   139
 73
  -138
  0
VERTEX
  5
30F
330
AF
100
AcDbEntity
  8
AVLAYER
 62
     7
100
AcDbFaceRecord
 10
0.0
 20
0.0
 30
0.0
 70
   128
 71
  -140
 72
   139
 73
   151
  0
VERTEX
  5
310
330
AF
100
AcDbEntity
  8
AVLAYER
 62
     7
100
AcDbFaceRecord
 10
0.0
 20
0.0
 30
0.0
 70
   128
 71
   140
 72
   128
 73
  -139
  0
VERTEX
  5
311
330
AF
100
AcDbEntity
  8
AVLAYER
 62
     7
100
AcDbFaceRecord
 10
0.0
 20
0.0
 30
0.0
 70
   128
 71
  -140
 72
   141
 73
   128
  0
VERTEX
  5
312
330
AF
100
AcDbEntity
  8
AVLAYER
 62
     7
100
AcDbFaceRecord
 10
0.0
 20
0.0
 30
0.0
 70
   128
 71
   140
 72
   153
 73
  -141
  0
VERTEX
  5
313
330
AF
100
AcDbEntity
  8
AVLAYER
 62
     7
100
AcDbFaceRecord
 10
0.0
 20
0.0
 30
0.0
 70
   128
 71
  -155
 72
   141
 73
   153
  0
VERTEX
  5
314
330
AF
100
AcDbEntity
  8
AVLAYER
 62
     7
100
AcDbFaceRecord
 10
0.0
 20
0.0
 30
0.0
 70
   128
 71
   155
 72
   142
 73
  -141
  0
VERTEX
  5
315
330
AF
100
AcDbEntity
  8
AVLAYER
 62
     7
100
AcDbFaceRecord
 10
0.0
 20
0.0
 30
0.0
 70
   128
 71
  -143
 72
   142
 73
   155
  0
VERTEX
  5
316
330
AF
100
AcDbEntity
  8
AVLAYER
 62
     7
100
AcDbFaceRecord
 10
0.0
 20
0.0
 30
0.0
 70
   128
 71
   143
 72
   131
 73
  -142
  0
VERTEX
  5
317
330
AF
100
AcDbEntity
  8
AVLAYER
 62
     7
100
AcDbFaceRecord
 10
0.0
 20
0.0
 30
0.0
 70
   128
 71
  -144
 72
   131
 73
   143
  0
VERTEX
  5
318
330
AF
100
AcDbEntity
  8
AVLAYER
 62
     7
100
AcDbFaceRecord
 10
0.0
 20
0.0
 30
0.0
 70
   128
 71
   144
 72
   132
 73
  -131
  0
VERTEX
  5
319
330
AF
100
AcDbEntity
  8
AVLAYER
 62
     7
100
AcDbFaceRecord
 10
0.0
 20
0.0
 30
0.0
 70
   128
 71
  -146
 72
   132
 73
   144
  0
VERTEX
  5
31A
330
AF
100
AcDbEntity
  8
AVLAYER
 62
     7
100
AcDbFaceRecord
 10
0.0
 20
0.0
 30
0.0
 70
   128
 71
   146
 72
   145
 73
  -132
  0
VERTEX
  5
31B
330
AF
100
AcDbEntity
  8
AVLAYER
 62
     7
100
AcDbFaceRecord
 10
0.0
 20
0.0
 30
0.0
 70
   128
 71
  -147
 72
   145
 73
   146
  0
VERTEX
  5
31C
330
AF
100
AcDbEntity
  8
AVLAYER
 62
     7
100
AcDbFaceRecord
 10
0.0
 20
0.0
 30
0.0
 70
   128
 71
   147
 72
   133
 73
  -145
  0
VERTEX
  5
31D
330
AF
100
AcDbEntity
  8
AVLAYER
 62
     7
100
AcDbFaceRecord
 10
0.0
 20
0.0
 30
0.0
 70
   128
 71
  -147
 72
   135
 73
   133
  0
VERTEX
  5
31E
330
AF
100
AcDbEntity
  8
AVLAYER
 62
     7
100
AcDbFaceRecord
 10
0.0
 20
0.0
 30
0.0
 70
   128
 71
   147
 72
   199
 73
  -135
  0
VERTEX
  5
31F
330
AF
100
AcDbEntity
  8
AVLAYER
 62
     7
100
AcDbFaceRecord
 10
0.0
 20
0.0
 30
0.0
 70
   128
 71
  -149
 72
   136
 73
   148
  0
VERTEX
  5
320
330
AF
100
AcDbEntity
  8
AVLAYER
 62
     7
100
AcDbFaceRecord
 10
0.0
 20
0.0
 30
0.0
 70
   128
 71
   149
 72
   150
 73
  -136
  0
VERTEX
  5
321
330
AF
100
AcDbEntity
  8
AVLAYER
 62
     7
100
AcDbFaceRecord
 10
0.0
 20
0.0
 30
0.0
 70
   128
 71
  -149
 72
   151
 73
   150
  0
VERTEX
  5
322
330
AF
100
AcDbEntity
  8
AVLAYER
 62
     7
100
AcDbFaceRecord
 10
0.0
 20
0.0
 30
0.0
 70
   128
 71
   149
 72
   162
 73
  -151
  0
VERTEX
  5
323
330
AF
100
AcDbEntity
  8
AVLAYER
 62
     7
100
AcDbFaceRecord
 10
0.0
 20
0.0
 30
0.0
 70
   128
 71
  -140
 72
   162
 73
   152
  0
VERTEX
  5
324
330
AF
100
AcDbEntity
  8
AVLAYER
 62
     7
100
AcDbFaceRecord
 10
0.0
 20
0.0
 30
0.0
 70
   128
 71
   140
 72
   151
 73
  -162
  0
VERTEX
  5
325
330
AF
100
AcDbEntity
  8
AVLAYER
 62
     7
100
AcDbFaceRecord
 10
0.0
 20
0.0
 30
0.0
 70
   128
 71
  -152
 72
   153
 73
   140
  0
VERTEX
  5
326
330
AF
100
AcDbEntity
  8
AVLAYER
 62
     7
100
AcDbFaceRecord
 10
0.0
 20
0.0
 30
0.0
 70
   128
 71
   152
 72
   154
 73
  -153
  0
VERTEX
  5
327
330
AF
100
AcDbEntity
  8
AVLAYER
 62
     7
100
AcDbFaceRecord
 10
0.0
 20
0.0
 30
0.0
 70
   128
 71
  -165
 72
   153
 73
   154
  0
VERTEX
  5
328
330
AF
100
AcDbEntity
  8
AVLAYER
 62
     7
100
AcDbFaceRecord
 10
0.0
 20
0.0
 30
0.0
 70
   128
 71
   165
 72
   155
 73
  -153
  0
VERTEX
  5
329
330
AF
100
AcDbEntity
  8
AVLAYER
 62
     7
100
AcDbFaceRecord
 10
0.0
 20
0.0
 30
0.0
 70
   128
 71
  -156
 72
   155
 73
   165
  0
VERTEX
  5
32A
330
AF
100
AcDbEntity
  8
AVLAYER
 62
     7
100
AcDbFaceRecord
 10
0.0
 20
0.0
 30
0.0
 70
   128
 71
   156
 72
   143
 73
  -155
  0
VERTEX
  5
32B
330
AF
100
AcDbEntity
  8
AVLAYER
 62
     7
100
AcDbFaceRecord
 10
0.0
 20
0.0
 30
0.0
 70
   128
 71
  -157
 72
   143
 73
   156
  0
VERTEX
  5
32C
330
AF
100
AcDbEntity
  8
AVLAYER
 62
     7
100
AcDbFaceRecord
 10
0.0
 20
0.0
 30
0.0
 70
   128
 71
   157
 72
   144
 73
  -143
  0
VERTEX
  5
32D
330
AF
100
AcDbEntity
  8
AVLAYER
 62
     7
100
AcDbFaceRecord
 10
0.0
 20
0.0
 30
0.0
 70
   128
 71
  -166
 72
   144
 73
   157
  0
VERTEX
  5
32E
330
AF
100
AcDbEntity
  8
AVLAYER
 62
     7
100
AcDbFaceRecord
 10
0.0
 20
0.0
 30
0.0
 70
   128
 71
   166
 72
   146
 73
  -144
  0
VERTEX
  5
32F
330
AF
100
AcDbEntity
  8
AVLAYER
 62
     7
100
AcDbFaceRecord
 10
0.0
 20
0.0
 30
0.0
 70
   128
 71
  -147
 72
   166
 73
   158
  0
VERTEX
  5
330
330
AF
100
AcDbEntity
  8
AVLAYER
 62
     7
100
AcDbFaceRecord
 10
0.0
 20
0.0
 30
0.0
 70
   128
 71
   147
 72
   146
 73
  -166
  0
VERTEX
  5
331
330
AF
100
AcDbEntity
  8
AVLAYER
 62
     7
100
AcDbFaceRecord
 10
0.0
 20
0.0
 30
0.0
 70
   128
 71
  -202
 72
   147
 73
   158
  0
VERTEX
  5
332
330
AF
100
AcDbEntity
  8
AVLAYER
 62
     7
100
AcDbFaceRecord
 10
0.0
 20
0.0
 30
0.0
 70
   128
 71
   202
 72
   199
 73
  -147
  0
VERTEX
  5
333
330
AF
100
AcDbEntity
  8
AVLAYER
 62
     7
100
AcDbFaceRecord
 10
0.0
 20
0.0
 30
0.0
 70
   128
 71
   247
 72
   160
 73
   159
  0
VERTEX
  5
334
330
AF
100
AcDbEntity
  8
AVLAYER
 62
     7
100
AcDbFaceRecord
 10
0.0
 20
0.0
 30
0.0
 70
   128
 71
  -161
 72
   148
 73
   160
  0
VERTEX
  5
335
330
AF
100
AcDbEntity
  8
AVLAYER
 62
     7
100
AcDbFaceRecord
 10
0.0
 20
0.0
 30
0.0
 70
   128
 71
   161
 72
   149
 73
  -148
  0
VERTEX
  5
336
330
AF
100
AcDbEntity
  8
AVLAYER
 62
     7
100
AcDbFaceRecord
 10
0.0
 20
0.0
 30
0.0
 70
   128
 71
  -161
 72
   162
 73
   149
  0
VERTEX
  5
337
330
AF
100
AcDbEntity
  8
AVLAYER
 62
     7
100
AcDbFaceRecord
 10
0.0
 20
0.0
 30
0.0
 70
   128
 71
   161
 72
   177
 73
  -162
  0
VERTEX
  5
338
330
AF
100
AcDbEntity
  8
AVLAYER
 62
     7
100
AcDbFaceRecord
 10
0.0
 20
0.0
 30
0.0
 70
   128
 71
  -152
 72
   177
 73
   163
  0
VERTEX
  5
339
330
AF
100
AcDbEntity
  8
AVLAYER
 62
     7
100
AcDbFaceRecord
 10
0.0
 20
0.0
 30
0.0
 70
   128
 71
   152
 72
   162
 73
  -177
  0
VERTEX
  5
33A
330
AF
100
AcDbEntity
  8
AVLAYER
 62
     7
100
AcDbFaceRecord
 10
0.0
 20
0.0
 30
0.0
 70
   128
 71
  -180
 72
   152
 73
   163
  0
VERTEX
  5
33B
330
AF
100
AcDbEntity
  8
AVLAYER
 62
     7
100
AcDbFaceRecord
 10
0.0
 20
0.0
 30
0.0
 70
   128
 71
   180
 72
   154
 73
  -152
  0
VERTEX
  5
33C
330
AF
100
AcDbEntity
  8
AVLAYER
 62
     7
100
AcDbFaceRecord
 10
0.0
 20
0.0
 30
0.0
 70
   128
 71
  -165
 72
   180
 73
   164
  0
VERTEX
  5
33D
330
AF
100
AcDbEntity
  8
AVLAYER
 62
     7
100
AcDbFaceRecord
 10
0.0
 20
0.0
 30
0.0
 70
   128
 71
   165
 72
   154
 73
  -180
  0
VERTEX
  5
33E
330
AF
100
AcDbEntity
  8
AVLAYER
 62
     7
100
AcDbFaceRecord
 10
0.0
 20
0.0
 30
0.0
 70
   128
 71
  -181
 72
   165
 73
   164
  0
VERTEX
  5
33F
330
AF
100
AcDbEntity
  8
AVLAYER
 62
     7
100
AcDbFaceRecord
 10
0.0
 20
0.0
 30
0.0
 70
   128
 71
   181
 72
   156
 73
  -165
  0
VERTEX
  5
340
330
AF
100
AcDbEntity
  8
AVLAYER
 62
     7
100
AcDbFaceRecord
 10
0.0
 20
0.0
 30
0.0
 70
   128
 71
  -157
 72
   181
 73
   266
  0
VERTEX
  5
341
330
AF
100
AcDbEntity
  8
AVLAYER
 62
     7
100
AcDbFaceRecord
 10
0.0
 20
0.0
 30
0.0
 70
   128
 71
   157
 72
   156
 73
  -181
  0
VERTEX
  5
342
330
AF
100
AcDbEntity
  8
AVLAYER
 62
     7
100
AcDbFaceRecord
 10
0.0
 20
0.0
 30
0.0
 70
   128
 71
  -268
 72
   157
 73
   266
  0
VERTEX
  5
343
330
AF
100
AcDbEntity
  8
AVLAYER
 62
     7
100
AcDbFaceRecord
 10
0.0
 20
0.0
 30
0.0
 70
   128
 71
   268
 72
   166
 73
  -157
  0
VERTEX
  5
344
330
AF
100
AcDbEntity
  8
AVLAYER
 62
     7
100
AcDbFaceRecord
 10
0.0
 20
0.0
 30
0.0
 70
   128
 71
  -158
 72
   268
 73
   264
  0
VERTEX
  5
345
330
AF
100
AcDbEntity
  8
AVLAYER
 62
     7
100
AcDbFaceRecord
 10
0.0
 20
0.0
 30
0.0
 70
   128
 71
   158
 72
   166
 73
  -268
  0
VERTEX
  5
346
330
AF
100
AcDbEntity
  8
AVLAYER
 62
     7
100
AcDbFaceRecord
 10
0.0
 20
0.0
 30
0.0
 70
   128
 71
  -204
 72
   158
 73
   264
  0
VERTEX
  5
347
330
AF
100
AcDbEntity
  8
AVLAYER
 62
     7
100
AcDbFaceRecord
 10
0.0
 20
0.0
 30
0.0
 70
   128
 71
   204
 72
   202
 73
  -158
  0
VERTEX
  5
348
330
AF
100
AcDbEntity
  8
AVLAYER
 62
     7
100
AcDbFaceRecord
 10
0.0
 20
0.0
 30
0.0
 70
   128
 71
   213
 72
   212
 73
   329
  0
VERTEX
  5
349
330
AF
100
AcDbEntity
  8
AVLAYER
 62
     7
100
AcDbFaceRecord
 10
0.0
 20
0.0
 30
0.0
 70
   128
 71
  -232
 72
   167
 73
    79
  0
VERTEX
  5
34A
330
AF
100
AcDbEntity
  8
AVLAYER
 62
     7
100
AcDbFaceRecord
 10
0.0
 20
0.0
 30
0.0
 70
   128
 71
   232
 72
   228
 73
  -167
  0
VERTEX
  5
34B
330
AF
100
AcDbEntity
  8
AVLAYER
 62
     7
100
AcDbFaceRecord
 10
0.0
 20
0.0
 30
0.0
 70
   128
 71
  -225
 72
   168
 73
    77
  0
VERTEX
  5
34C
330
AF
100
AcDbEntity
  8
AVLAYER
 62
     7
100
AcDbFaceRecord
 10
0.0
 20
0.0
 30
0.0
 70
   128
 71
   225
 72
   222
 73
  -168
  0
VERTEX
  5
34D
330
AF
100
AcDbEntity
  8
AVLAYER
 62
     7
100
AcDbFaceRecord
 10
0.0
 20
0.0
 30
0.0
 70
   128
 71
  -169
 72
   168
 73
   222
  0
VERTEX
  5
34E
330
AF
100
AcDbEntity
  8
AVLAYER
 62
     7
100
AcDbFaceRecord
 10
0.0
 20
0.0
 30
0.0
 70
   128
 71
   169
 72
    76
 73
  -168
  0
VERTEX
  5
34F
330
AF
100
AcDbEntity
  8
AVLAYER
 62
     7
100
AcDbFaceRecord
 10
0.0
 20
0.0
 30
0.0
 70
   128
 71
  -170
 72
    76
 73
   169
  0
VERTEX
  5
350
330
AF
100
AcDbEntity
  8
AVLAYER
 62
     7
100
AcDbFaceRecord
 10
0.0
 20
0.0
 30
0.0
 70
   128
 71
   170
 72
    75
 73
   -76
  0
VERTEX
  5
351
330
AF
100
AcDbEntity
  8
AVLAYER
 62
     7
100
AcDbFaceRecord
 10
0.0
 20
0.0
 30
0.0
 70
   128
 71
  -222
 72
   212
 73
   169
  0
VERTEX
  5
352
330
AF
100
AcDbEntity
  8
AVLAYER
 62
     7
100
AcDbFaceRecord
 10
0.0
 20
0.0
 30
0.0
 70
   128
 71
   222
 72
   171
 73
  -212
  0
VERTEX
  5
353
330
AF
100
AcDbEntity
  8
AVLAYER
 62
     7
100
AcDbFaceRecord
 10
0.0
 20
0.0
 30
0.0
 70
   128
 71
  -172
 72
    75
 73
   170
  0
VERTEX
  5
354
330
AF
100
AcDbEntity
  8
AVLAYER
 62
     7
100
AcDbFaceRecord
 10
0.0
 20
0.0
 30
0.0
 70
   128
 71
   172
 72
    74
 73
   -75
  0
VERTEX
  5
355
330
AF
100
AcDbEntity
  8
AVLAYER
 62
     7
100
AcDbFaceRecord
 10
0.0
 20
0.0
 30
0.0
 70
   128
 71
  -172
 72
    73
 73
    74
  0
VERTEX
  5
356
330
AF
100
AcDbEntity
  8
AVLAYER
 62
     7
100
AcDbFaceRecord
 10
0.0
 20
0.0
 30
0.0
 70
   128
 71
   172
 72
   175
 73
   -73
  0
VERTEX
  5
357
330
AF
100
AcDbEntity
  8
AVLAYER
 62
     7
100
AcDbFaceRecord
 10
0.0
 20
0.0
 30
0.0
 70
   128
 71
   -72
 72
   175
 73
   174
  0
VERTEX
  5
358
330
AF
100
AcDbEntity
  8
AVLAYER
 62
     7
100
AcDbFaceRecord
 10
0.0
 20
0.0
 30
0.0
 70
   128
 71
    72
 72
    73
 73
  -175
  0
VERTEX
  5
359
330
AF
100
AcDbEntity
  8
AVLAYER
 62
     7
100
AcDbFaceRecord
 10
0.0
 20
0.0
 30
0.0
 70
   128
 71
  -174
 72
    71
 73
    72
  0
VERTEX
  5
35A
330
AF
100
AcDbEntity
  8
AVLAYER
 62
     7
100
AcDbFaceRecord
 10
0.0
 20
0.0
 30
0.0
 70
   128
 71
   174
 72
   173
 73
   -71
  0
VERTEX
  5
35B
330
AF
100
AcDbEntity
  8
AVLAYER
 62
     7
100
AcDbFaceRecord
 10
0.0
 20
0.0
 30
0.0
 70
   128
 71
  -175
 72
   176
 73
   174
  0
VERTEX
  5
35C
330
AF
100
AcDbEntity
  8
AVLAYER
 62
     7
100
AcDbFaceRecord
 10
0.0
 20
0.0
 30
0.0
 70
   128
 71
   175
 72
   208
 73
  -176
  0
VERTEX
  5
35D
330
AF
100
AcDbEntity
  8
AVLAYER
 62
     7
100
AcDbFaceRecord
 10
0.0
 20
0.0
 30
0.0
 70
   128
 71
    71
 72
   173
 73
   231
  0
VERTEX
  5
35E
330
AF
100
AcDbEntity
  8
AVLAYER
 62
     7
100
AcDbFaceRecord
 10
0.0
 20
0.0
 30
0.0
 70
   128
 71
  -161
 72
   247
 73
   248
  0
VERTEX
  5
35F
330
AF
100
AcDbEntity
  8
AVLAYER
 62
     7
100
AcDbFaceRecord
 10
0.0
 20
0.0
 30
0.0
 70
   128
 71
   161
 72
   160
 73
  -247
  0
VERTEX
  5
360
330
AF
100
AcDbEntity
  8
AVLAYER
 62
     7
100
AcDbFaceRecord
 10
0.0
 20
0.0
 30
0.0
 70
   128
 71
  -248
 72
   177
 73
   161
  0
VERTEX
  5
361
330
AF
100
AcDbEntity
  8
AVLAYER
 62
     7
100
AcDbFaceRecord
 10
0.0
 20
0.0
 30
0.0
 70
   128
 71
   248
 72
   178
 73
  -177
  0
VERTEX
  5
362
330
AF
100
AcDbEntity
  8
AVLAYER
 62
     7
100
AcDbFaceRecord
 10
0.0
 20
0.0
 30
0.0
 70
   128
 71
  -163
 72
   178
 73
   179
  0
VERTEX
  5
363
330
AF
100
AcDbEntity
  8
AVLAYER
 62
     7
100
AcDbFaceRecord
 10
0.0
 20
0.0
 30
0.0
 70
   128
 71
   163
 72
   177
 73
  -178
  0
VERTEX
  5
364
330
AF
100
AcDbEntity
  8
AVLAYER
 62
     7
100
AcDbFaceRecord
 10
0.0
 20
0.0
 30
0.0
 70
   128
 71
  -185
 72
   163
 73
   179
  0
VERTEX
  5
365
330
AF
100
AcDbEntity
  8
AVLAYER
 62
     7
100
AcDbFaceRecord
 10
0.0
 20
0.0
 30
0.0
 70
   128
 71
   185
 72
   180
 73
  -163
  0
VERTEX
  5
366
330
AF
100
AcDbEntity
  8
AVLAYER
 62
     7
100
AcDbFaceRecord
 10
0.0
 20
0.0
 30
0.0
 70
   128
 71
  -164
 72
   185
 73
   272
  0
VERTEX
  5
367
330
AF
100
AcDbEntity
  8
AVLAYER
 62
     7
100
AcDbFaceRecord
 10
0.0
 20
0.0
 30
0.0
 70
   128
 71
   164
 72
   180
 73
  -185
  0
VERTEX
  5
368
330
AF
100
AcDbEntity
  8
AVLAYER
 62
     7
100
AcDbFaceRecord
 10
0.0
 20
0.0
 30
0.0
 70
   128
 71
  -272
 72
   181
 73
   164
  0
VERTEX
  5
369
330
AF
100
AcDbEntity
  8
AVLAYER
 62
     7
100
AcDbFaceRecord
 10
0.0
 20
0.0
 30
0.0
 70
   128
 71
   272
 72
   273
 73
  -181
  0
VERTEX
  5
36A
330
AF
100
AcDbEntity
  8
AVLAYER
 62
     7
100
AcDbFaceRecord
 10
0.0
 20
0.0
 30
0.0
 70
   128
 71
  -182
 72
   204
 73
   264
  0
VERTEX
  5
36B
330
AF
100
AcDbEntity
  8
AVLAYER
 62
     7
100
AcDbFaceRecord
 10
0.0
 20
0.0
 30
0.0
 70
   128
 71
   182
 72
   205
 73
  -204
  0
VERTEX
  5
36C
330
AF
100
AcDbEntity
  8
AVLAYER
 62
     7
100
AcDbFaceRecord
 10
0.0
 20
0.0
 30
0.0
 70
   128
 71
  -205
 72
   183
 73
   262
  0
VERTEX
  5
36D
330
AF
100
AcDbEntity
  8
AVLAYER
 62
     7
100
AcDbFaceRecord
 10
0.0
 20
0.0
 30
0.0
 70
   128
 71
   205
 72
   182
 73
  -183
  0
VERTEX
  5
36E
330
AF
100
AcDbEntity
  8
AVLAYER
 62
     7
100
AcDbFaceRecord
 10
0.0
 20
0.0
 30
0.0
 70
   128
 71
  -187
 72
   179
 73
   184
  0
VERTEX
  5
36F
330
AF
100
AcDbEntity
  8
AVLAYER
 62
     7
100
AcDbFaceRecord
 10
0.0
 20
0.0
 30
0.0
 70
   128
 71
   187
 72
   185
 73
  -179
  0
VERTEX
  5
370
330
AF
100
AcDbEntity
  8
AVLAYER
 62
     7
100
AcDbFaceRecord
 10
0.0
 20
0.0
 30
0.0
 70
   128
 71
  -186
 72
   185
 73
   187
  0
VERTEX
  5
371
330
AF
100
AcDbEntity
  8
AVLAYER
 62
     7
100
AcDbFaceRecord
 10
0.0
 20
0.0
 30
0.0
 70
   128
 71
   186
 72
   272
 73
  -185
  0
VERTEX
  5
372
330
AF
100
AcDbEntity
  8
AVLAYER
 62
     7
100
AcDbFaceRecord
 10
0.0
 20
0.0
 30
0.0
 70
   128
 71
   188
 72
   186
 73
   187
  0
VERTEX
  5
373
330
AF
100
AcDbEntity
  8
AVLAYER
 62
     7
100
AcDbFaceRecord
 10
0.0
 20
0.0
 30
0.0
 70
   128
 71
   189
 72
   183
 73
   182
  0
VERTEX
  5
374
330
AF
100
AcDbEntity
  8
AVLAYER
 62
     7
100
AcDbFaceRecord
 10
0.0
 20
0.0
 30
0.0
 70
   128
 71
   207
 72
   231
 73
   173
  0
VERTEX
  5
375
330
AF
100
AcDbEntity
  8
AVLAYER
 62
     7
100
AcDbFaceRecord
 10
0.0
 20
0.0
 30
0.0
 70
   128
 71
   191
 72
    71
 73
   231
  0
VERTEX
  5
376
330
AF
100
AcDbEntity
  8
AVLAYER
 62
     7
100
AcDbFaceRecord
 10
0.0
 20
0.0
 30
0.0
 70
   128
 71
   191
 72
   190
 73
    71
  0
VERTEX
  5
377
330
AF
100
AcDbEntity
  8
AVLAYER
 62
     7
100
AcDbFaceRecord
 10
0.0
 20
0.0
 30
0.0
 70
   128
 71
   191
 72
   192
 73
   190
  0
VERTEX
  5
378
330
AF
100
AcDbEntity
  8
AVLAYER
 62
     7
100
AcDbFaceRecord
 10
0.0
 20
0.0
 30
0.0
 70
   128
 71
   191
 72
   232
 73
    79
  0
VERTEX
  5
379
330
AF
100
AcDbEntity
  8
AVLAYER
 62
     7
100
AcDbFaceRecord
 10
0.0
 20
0.0
 30
0.0
 70
   128
 71
   191
 72
   231
 73
   232
  0
VERTEX
  5
37A
330
AF
100
AcDbEntity
  8
AVLAYER
 62
     7
100
AcDbFaceRecord
 10
0.0
 20
0.0
 30
0.0
 70
   128
 71
   192
 72
    79
 73
    92
  0
VERTEX
  5
37B
330
AF
100
AcDbEntity
  8
AVLAYER
 62
     7
100
AcDbFaceRecord
 10
0.0
 20
0.0
 30
0.0
 70
   128
 71
   192
 72
   191
 73
    79
  0
VERTEX
  5
37C
330
AF
100
AcDbEntity
  8
AVLAYER
 62
     7
100
AcDbFaceRecord
 10
0.0
 20
0.0
 30
0.0
 70
   128
 71
   194
 72
    70
 73
   192
  0
VERTEX
  5
37D
330
AF
100
AcDbEntity
  8
AVLAYER
 62
     7
100
AcDbFaceRecord
 10
0.0
 20
0.0
 30
0.0
 70
   128
 71
   194
 72
    94
 73
    70
  0
VERTEX
  5
37E
330
AF
100
AcDbEntity
  8
AVLAYER
 62
     7
100
AcDbFaceRecord
 10
0.0
 20
0.0
 30
0.0
 70
   128
 71
   194
 72
    93
 73
    94
  0
VERTEX
  5
37F
330
AF
100
AcDbEntity
  8
AVLAYER
 62
     7
100
AcDbFaceRecord
 10
0.0
 20
0.0
 30
0.0
 70
   128
 71
   194
 72
    92
 73
   193
  0
VERTEX
  5
380
330
AF
100
AcDbEntity
  8
AVLAYER
 62
     7
100
AcDbFaceRecord
 10
0.0
 20
0.0
 30
0.0
 70
   128
 71
   194
 72
   192
 73
    92
  0
VERTEX
  5
381
330
AF
100
AcDbEntity
  8
AVLAYER
 62
     7
100
AcDbFaceRecord
 10
0.0
 20
0.0
 30
0.0
 70
   128
 71
    93
 72
   193
 73
   115
  0
VERTEX
  5
382
330
AF
100
AcDbEntity
  8
AVLAYER
 62
     7
100
AcDbFaceRecord
 10
0.0
 20
0.0
 30
0.0
 70
   128
 71
    93
 72
   194
 73
   193
  0
VERTEX
  5
383
330
AF
100
AcDbEntity
  8
AVLAYER
 62
     7
100
AcDbFaceRecord
 10
0.0
 20
0.0
 30
0.0
 70
   128
 71
   195
 72
   106
 73
    93
  0
VERTEX
  5
384
330
AF
100
AcDbEntity
  8
AVLAYER
 62
     7
100
AcDbFaceRecord
 10
0.0
 20
0.0
 30
0.0
 70
   128
 71
   195
 72
   116
 73
   106
  0
VERTEX
  5
385
330
AF
100
AcDbEntity
  8
AVLAYER
 62
     7
100
AcDbFaceRecord
 10
0.0
 20
0.0
 30
0.0
 70
   128
 71
   195
 72
   197
 73
   116
  0
VERTEX
  5
386
330
AF
100
AcDbEntity
  8
AVLAYER
 62
     7
100
AcDbFaceRecord
 10
0.0
 20
0.0
 30
0.0
 70
   128
 71
   195
 72
   115
 73
   125
  0
VERTEX
  5
387
330
AF
100
AcDbEntity
  8
AVLAYER
 62
     7
100
AcDbFaceRecord
 10
0.0
 20
0.0
 30
0.0
 70
   128
 71
   195
 72
    93
 73
   115
  0
VERTEX
  5
388
330
AF
100
AcDbEntity
  8
AVLAYER
 62
     7
100
AcDbFaceRecord
 10
0.0
 20
0.0
 30
0.0
 70
   128
 71
   197
 72
   125
 73
   196
  0
VERTEX
  5
389
330
AF
100
AcDbEntity
  8
AVLAYER
 62
     7
100
AcDbFaceRecord
 10
0.0
 20
0.0
 30
0.0
 70
   128
 71
   197
 72
   195
 73
   125
  0
VERTEX
  5
38A
330
AF
100
AcDbEntity
  8
AVLAYER
 62
     7
100
AcDbFaceRecord
 10
0.0
 20
0.0
 30
0.0
 70
   128
 71
   198
 72
   137
 73
   197
  0
VERTEX
  5
38B
330
AF
100
AcDbEntity
  8
AVLAYER
 62
     7
100
AcDbFaceRecord
 10
0.0
 20
0.0
 30
0.0
 70
   128
 71
   198
 72
   136
 73
   137
  0
VERTEX
  5
38C
330
AF
100
AcDbEntity
  8
AVLAYER
 62
     7
100
AcDbFaceRecord
 10
0.0
 20
0.0
 30
0.0
 70
   128
 71
   198
 72
   201
 73
   136
  0
VERTEX
  5
38D
330
AF
100
AcDbEntity
  8
AVLAYER
 62
     7
100
AcDbFaceRecord
 10
0.0
 20
0.0
 30
0.0
 70
   128
 71
   198
 72
   196
 73
   135
  0
VERTEX
  5
38E
330
AF
100
AcDbEntity
  8
AVLAYER
 62
     7
100
AcDbFaceRecord
 10
0.0
 20
0.0
 30
0.0
 70
   128
 71
   198
 72
   197
 73
   196
  0
VERTEX
  5
38F
330
AF
100
AcDbEntity
  8
AVLAYER
 62
     7
100
AcDbFaceRecord
 10
0.0
 20
0.0
 30
0.0
 70
   128
 71
   201
 72
   135
 73
   199
  0
VERTEX
  5
390
330
AF
100
AcDbEntity
  8
AVLAYER
 62
     7
100
AcDbFaceRecord
 10
0.0
 20
0.0
 30
0.0
 70
   128
 71
   201
 72
   198
 73
   135
  0
VERTEX
  5
391
330
AF
100
AcDbEntity
  8
AVLAYER
 62
     7
100
AcDbFaceRecord
 10
0.0
 20
0.0
 30
0.0
 70
   128
 71
   200
 72
   148
 73
   201
  0
VERTEX
  5
392
330
AF
100
AcDbEntity
  8
AVLAYER
 62
     7
100
AcDbFaceRecord
 10
0.0
 20
0.0
 30
0.0
 70
   128
 71
   200
 72
   160
 73
   148
  0
VERTEX
  5
393
330
AF
100
AcDbEntity
  8
AVLAYER
 62
     7
100
AcDbFaceRecord
 10
0.0
 20
0.0
 30
0.0
 70
   128
 71
   200
 72
   159
 73
   160
  0
VERTEX
  5
394
330
AF
100
AcDbEntity
  8
AVLAYER
 62
     7
100
AcDbFaceRecord
 10
0.0
 20
0.0
 30
0.0
 70
   128
 71
   200
 72
   199
 73
   202
  0
VERTEX
  5
395
330
AF
100
AcDbEntity
  8
AVLAYER
 62
     7
100
AcDbFaceRecord
 10
0.0
 20
0.0
 30
0.0
 70
   128
 71
   200
 72
   201
 73
   199
  0
VERTEX
  5
396
330
AF
100
AcDbEntity
  8
AVLAYER
 62
     7
100
AcDbFaceRecord
 10
0.0
 20
0.0
 30
0.0
 70
   128
 71
   159
 72
   202
 73
   204
  0
VERTEX
  5
397
330
AF
100
AcDbEntity
  8
AVLAYER
 62
     7
100
AcDbFaceRecord
 10
0.0
 20
0.0
 30
0.0
 70
   128
 71
   159
 72
   200
 73
   202
  0
VERTEX
  5
398
330
AF
100
AcDbEntity
  8
AVLAYER
 62
     7
100
AcDbFaceRecord
 10
0.0
 20
0.0
 30
0.0
 70
   128
 71
   203
 72
   247
 73
   159
  0
VERTEX
  5
399
330
AF
100
AcDbEntity
  8
AVLAYER
 62
     7
100
AcDbFaceRecord
 10
0.0
 20
0.0
 30
0.0
 70
   128
 71
   203
 72
   250
 73
   247
  0
VERTEX
  5
39A
330
AF
100
AcDbEntity
  8
AVLAYER
 62
     7
100
AcDbFaceRecord
 10
0.0
 20
0.0
 30
0.0
 70
   128
 71
   203
 72
   251
 73
   250
  0
VERTEX
  5
39B
330
AF
100
AcDbEntity
  8
AVLAYER
 62
     7
100
AcDbFaceRecord
 10
0.0
 20
0.0
 30
0.0
 70
   128
 71
   203
 72
   204
 73
   205
  0
VERTEX
  5
39C
330
AF
100
AcDbEntity
  8
AVLAYER
 62
     7
100
AcDbFaceRecord
 10
0.0
 20
0.0
 30
0.0
 70
   128
 71
   203
 72
   159
 73
   204
  0
VERTEX
  5
39D
330
AF
100
AcDbEntity
  8
AVLAYER
 62
     7
100
AcDbFaceRecord
 10
0.0
 20
0.0
 30
0.0
 70
   128
 71
   251
 72
   205
 73
   262
  0
VERTEX
  5
39E
330
AF
100
AcDbEntity
  8
AVLAYER
 62
     7
100
AcDbFaceRecord
 10
0.0
 20
0.0
 30
0.0
 70
   128
 71
   251
 72
   203
 73
   205
  0
VERTEX
  5
39F
330
AF
100
AcDbEntity
  8
AVLAYER
 62
     7
100
AcDbFaceRecord
 10
0.0
 20
0.0
 30
0.0
 70
   128
 71
   207
 72
   310
 73
   311
  0
VERTEX
  5
3A0
330
AF
100
AcDbEntity
  8
AVLAYER
 62
     7
100
AcDbFaceRecord
 10
0.0
 20
0.0
 30
0.0
 70
   128
 71
   310
 72
   207
 73
   309
  0
VERTEX
  5
3A1
330
AF
100
AcDbEntity
  8
AVLAYER
 62
     7
100
AcDbFaceRecord
 10
0.0
 20
0.0
 30
0.0
 70
   128
 71
  -206
 72
   174
 73
   176
  0
VERTEX
  5
3A2
330
AF
100
AcDbEntity
  8
AVLAYER
 62
     7
100
AcDbFaceRecord
 10
0.0
 20
0.0
 30
0.0
 70
   128
 71
   206
 72
   173
 73
  -174
  0
VERTEX
  5
3A3
330
AF
100
AcDbEntity
  8
AVLAYER
 62
     7
100
AcDbFaceRecord
 10
0.0
 20
0.0
 30
0.0
 70
   128
 71
   206
 72
   207
 73
   173
  0
VERTEX
  5
3A4
330
AF
100
AcDbEntity
  8
AVLAYER
 62
     7
100
AcDbFaceRecord
 10
0.0
 20
0.0
 30
0.0
 70
   128
 71
   206
 72
   309
 73
   207
  0
VERTEX
  5
3A5
330
AF
100
AcDbEntity
  8
AVLAYER
 62
     7
100
AcDbFaceRecord
 10
0.0
 20
0.0
 30
0.0
 70
   128
 71
   206
 72
   308
 73
   309
  0
VERTEX
  5
3A6
330
AF
100
AcDbEntity
  8
AVLAYER
 62
     7
100
AcDbFaceRecord
 10
0.0
 20
0.0
 30
0.0
 70
   128
 71
   302
 72
   206
 73
   176
  0
VERTEX
  5
3A7
330
AF
100
AcDbEntity
  8
AVLAYER
 62
     7
100
AcDbFaceRecord
 10
0.0
 20
0.0
 30
0.0
 70
   128
 71
   302
 72
   308
 73
   206
  0
VERTEX
  5
3A8
330
AF
100
AcDbEntity
  8
AVLAYER
 62
     7
100
AcDbFaceRecord
 10
0.0
 20
0.0
 30
0.0
 70
   128
 71
   302
 72
   176
 73
   301
  0
VERTEX
  5
3A9
330
AF
100
AcDbEntity
  8
AVLAYER
 62
     7
100
AcDbFaceRecord
 10
0.0
 20
0.0
 30
0.0
 70
   128
 71
   300
 72
   176
 73
   208
  0
VERTEX
  5
3AA
330
AF
100
AcDbEntity
  8
AVLAYER
 62
     7
100
AcDbFaceRecord
 10
0.0
 20
0.0
 30
0.0
 70
   128
 71
   300
 72
   301
 73
   176
  0
VERTEX
  5
3AB
330
AF
100
AcDbEntity
  8
AVLAYER
 62
     7
100
AcDbFaceRecord
 10
0.0
 20
0.0
 30
0.0
 70
   128
 71
   300
 72
   208
 73
   209
  0
VERTEX
  5
3AC
330
AF
100
AcDbEntity
  8
AVLAYER
 62
     7
100
AcDbFaceRecord
 10
0.0
 20
0.0
 30
0.0
 70
   128
 71
  -208
 72
   172
 73
   210
  0
VERTEX
  5
3AD
330
AF
100
AcDbEntity
  8
AVLAYER
 62
     7
100
AcDbFaceRecord
 10
0.0
 20
0.0
 30
0.0
 70
   128
 71
   208
 72
   175
 73
  -172
  0
VERTEX
  5
3AE
330
AF
100
AcDbEntity
  8
AVLAYER
 62
     7
100
AcDbFaceRecord
 10
0.0
 20
0.0
 30
0.0
 70
   128
 71
   210
 72
   209
 73
   208
  0
VERTEX
  5
3AF
330
AF
100
AcDbEntity
  8
AVLAYER
 62
     7
100
AcDbFaceRecord
 10
0.0
 20
0.0
 30
0.0
 70
   128
 71
   210
 72
   299
 73
   209
  0
VERTEX
  5
3B0
330
AF
100
AcDbEntity
  8
AVLAYER
 62
     7
100
AcDbFaceRecord
 10
0.0
 20
0.0
 30
0.0
 70
   128
 71
   299
 72
   210
 73
   296
  0
VERTEX
  5
3B1
330
AF
100
AcDbEntity
  8
AVLAYER
 62
     7
100
AcDbFaceRecord
 10
0.0
 20
0.0
 30
0.0
 70
   128
 71
  -210
 72
   170
 73
   211
  0
VERTEX
  5
3B2
330
AF
100
AcDbEntity
  8
AVLAYER
 62
     7
100
AcDbFaceRecord
 10
0.0
 20
0.0
 30
0.0
 70
   128
 71
   210
 72
   172
 73
  -170
  0
VERTEX
  5
3B3
330
AF
100
AcDbEntity
  8
AVLAYER
 62
     7
100
AcDbFaceRecord
 10
0.0
 20
0.0
 30
0.0
 70
   128
 71
   211
 72
   296
 73
   210
  0
VERTEX
  5
3B4
330
AF
100
AcDbEntity
  8
AVLAYER
 62
     7
100
AcDbFaceRecord
 10
0.0
 20
0.0
 30
0.0
 70
   128
 71
   211
 72
   295
 73
   296
  0
VERTEX
  5
3B5
330
AF
100
AcDbEntity
  8
AVLAYER
 62
     7
100
AcDbFaceRecord
 10
0.0
 20
0.0
 30
0.0
 70
   128
 71
   295
 72
   211
 73
   294
  0
VERTEX
  5
3B6
330
AF
100
AcDbEntity
  8
AVLAYER
 62
     7
100
AcDbFaceRecord
 10
0.0
 20
0.0
 30
0.0
 70
   128
 71
  -211
 72
   169
 73
   212
  0
VERTEX
  5
3B7
330
AF
100
AcDbEntity
  8
AVLAYER
 62
     7
100
AcDbFaceRecord
 10
0.0
 20
0.0
 30
0.0
 70
   128
 71
   211
 72
   170
 73
  -169
  0
VERTEX
  5
3B8
330
AF
100
AcDbEntity
  8
AVLAYER
 62
     7
100
AcDbFaceRecord
 10
0.0
 20
0.0
 30
0.0
 70
   128
 71
   212
 72
   294
 73
   211
  0
VERTEX
  5
3B9
330
AF
100
AcDbEntity
  8
AVLAYER
 62
     7
100
AcDbFaceRecord
 10
0.0
 20
0.0
 30
0.0
 70
   128
 71
   212
 72
   213
 73
   294
  0
VERTEX
  5
3BA
330
AF
100
AcDbEntity
  8
AVLAYER
 62
     7
100
AcDbFaceRecord
 10
0.0
 20
0.0
 30
0.0
 70
   128
 71
   215
 72
   218
 73
   214
  0
VERTEX
  5
3BB
330
AF
100
AcDbEntity
  8
AVLAYER
 62
     7
100
AcDbFaceRecord
 10
0.0
 20
0.0
 30
0.0
 70
   128
 71
   214
 72
   216
 73
   327
  0
VERTEX
  5
3BC
330
AF
100
AcDbEntity
  8
AVLAYER
 62
     7
100
AcDbFaceRecord
 10
0.0
 20
0.0
 30
0.0
 70
   128
 71
   216
 72
   214
 73
   218
  0
VERTEX
  5
3BD
330
AF
100
AcDbEntity
  8
AVLAYER
 62
     7
100
AcDbFaceRecord
 10
0.0
 20
0.0
 30
0.0
 70
   128
 71
   218
 72
   215
 73
   217
  0
VERTEX
  5
3BE
330
AF
100
AcDbEntity
  8
AVLAYER
 62
     7
100
AcDbFaceRecord
 10
0.0
 20
0.0
 30
0.0
 70
   128
 71
   219
 72
   217
 73
   215
  0
VERTEX
  5
3BF
330
AF
100
AcDbEntity
  8
AVLAYER
 62
     7
100
AcDbFaceRecord
 10
0.0
 20
0.0
 30
0.0
 70
   128
 71
   219
 72
   220
 73
   217
  0
VERTEX
  5
3C0
330
AF
100
AcDbEntity
  8
AVLAYER
 62
     7
100
AcDbFaceRecord
 10
0.0
 20
0.0
 30
0.0
 70
   128
 71
   213
 72
   220
 73
   219
  0
VERTEX
  5
3C1
330
AF
100
AcDbEntity
  8
AVLAYER
 62
     7
100
AcDbFaceRecord
 10
0.0
 20
0.0
 30
0.0
 70
   128
 71
   213
 72
   329
 73
   220
  0
VERTEX
  5
3C2
330
AF
100
AcDbEntity
  8
AVLAYER
 62
     7
100
AcDbFaceRecord
 10
0.0
 20
0.0
 30
0.0
 70
   128
 71
   221
 72
   212
 73
   171
  0
VERTEX
  5
3C3
330
AF
100
AcDbEntity
  8
AVLAYER
 62
     7
100
AcDbFaceRecord
 10
0.0
 20
0.0
 30
0.0
 70
   128
 71
   221
 72
   329
 73
   212
  0
VERTEX
  5
3C4
330
AF
100
AcDbEntity
  8
AVLAYER
 62
     7
100
AcDbFaceRecord
 10
0.0
 20
0.0
 30
0.0
 70
   128
 71
   221
 72
   171
 73
   224
  0
VERTEX
  5
3C5
330
AF
100
AcDbEntity
  8
AVLAYER
 62
     7
100
AcDbFaceRecord
 10
0.0
 20
0.0
 30
0.0
 70
   128
 71
   223
 72
   222
 73
   225
  0
VERTEX
  5
3C6
330
AF
100
AcDbEntity
  8
AVLAYER
 62
     7
100
AcDbFaceRecord
 10
0.0
 20
0.0
 30
0.0
 70
   128
 71
   223
 72
   171
 73
   222
  0
VERTEX
  5
3C7
330
AF
100
AcDbEntity
  8
AVLAYER
 62
     7
100
AcDbFaceRecord
 10
0.0
 20
0.0
 30
0.0
 70
   128
 71
   223
 72
   224
 73
   171
  0
VERTEX
  5
3C8
330
AF
100
AcDbEntity
  8
AVLAYER
 62
     7
100
AcDbFaceRecord
 10
0.0
 20
0.0
 30
0.0
 70
   128
 71
   223
 72
   225
 73
   332
  0
VERTEX
  5
3C9
330
AF
100
AcDbEntity
  8
AVLAYER
 62
     7
100
AcDbFaceRecord
 10
0.0
 20
0.0
 30
0.0
 70
   128
 71
  -226
 72
   228
 73
   229
  0
VERTEX
  5
3CA
330
AF
100
AcDbEntity
  8
AVLAYER
 62
     7
100
AcDbFaceRecord
 10
0.0
 20
0.0
 30
0.0
 70
   128
 71
   226
 72
   167
 73
  -228
  0
VERTEX
  5
3CB
330
AF
100
AcDbEntity
  8
AVLAYER
 62
     7
100
AcDbFaceRecord
 10
0.0
 20
0.0
 30
0.0
 70
   128
 71
  -225
 72
   226
 73
   229
  0
VERTEX
  5
3CC
330
AF
100
AcDbEntity
  8
AVLAYER
 62
     7
100
AcDbFaceRecord
 10
0.0
 20
0.0
 30
0.0
 70
   128
 71
   225
 72
    77
 73
  -226
  0
VERTEX
  5
3CD
330
AF
100
AcDbEntity
  8
AVLAYER
 62
     7
100
AcDbFaceRecord
 10
0.0
 20
0.0
 30
0.0
 70
   128
 71
   229
 72
   332
 73
   225
  0
VERTEX
  5
3CE
330
AF
100
AcDbEntity
  8
AVLAYER
 62
     7
100
AcDbFaceRecord
 10
0.0
 20
0.0
 30
0.0
 70
   128
 71
   229
 72
   333
 73
   332
  0
VERTEX
  5
3CF
330
AF
100
AcDbEntity
  8
AVLAYER
 62
     7
100
AcDbFaceRecord
 10
0.0
 20
0.0
 30
0.0
 70
   128
 71
   322
 72
   333
 73
   229
  0
VERTEX
  5
3D0
330
AF
100
AcDbEntity
  8
AVLAYER
 62
     7
100
AcDbFaceRecord
 10
0.0
 20
0.0
 30
0.0
 70
   128
 71
   227
 72
   228
 73
   234
  0
VERTEX
  5
3D1
330
AF
100
AcDbEntity
  8
AVLAYER
 62
     7
100
AcDbFaceRecord
 10
0.0
 20
0.0
 30
0.0
 70
   128
 71
   227
 72
   229
 73
   228
  0
VERTEX
  5
3D2
330
AF
100
AcDbEntity
  8
AVLAYER
 62
     7
100
AcDbFaceRecord
 10
0.0
 20
0.0
 30
0.0
 70
   128
 71
   227
 72
   322
 73
   229
  0
VERTEX
  5
3D3
330
AF
100
AcDbEntity
  8
AVLAYER
 62
     7
100
AcDbFaceRecord
 10
0.0
 20
0.0
 30
0.0
 70
   128
 71
   227
 72
   234
 73
   230
  0
VERTEX
  5
3D4
330
AF
100
AcDbEntity
  8
AVLAYER
 62
     7
100
AcDbFaceRecord
 10
0.0
 20
0.0
 30
0.0
 70
   128
 71
   233
 72
   235
 73
   323
  0
VERTEX
  5
3D5
330
AF
100
AcDbEntity
  8
AVLAYER
 62
     7
100
AcDbFaceRecord
 10
0.0
 20
0.0
 30
0.0
 70
   128
 71
   233
 72
   311
 73
   235
  0
VERTEX
  5
3D6
330
AF
100
AcDbEntity
  8
AVLAYER
 62
     7
100
AcDbFaceRecord
 10
0.0
 20
0.0
 30
0.0
 70
   128
 71
   233
 72
   207
 73
   311
  0
VERTEX
  5
3D7
330
AF
100
AcDbEntity
  8
AVLAYER
 62
     7
100
AcDbFaceRecord
 10
0.0
 20
0.0
 30
0.0
 70
   128
 71
   233
 72
   231
 73
   207
  0
VERTEX
  5
3D8
330
AF
100
AcDbEntity
  8
AVLAYER
 62
     7
100
AcDbFaceRecord
 10
0.0
 20
0.0
 30
0.0
 70
   128
 71
   233
 72
   232
 73
   231
  0
VERTEX
  5
3D9
330
AF
100
AcDbEntity
  8
AVLAYER
 62
     7
100
AcDbFaceRecord
 10
0.0
 20
0.0
 30
0.0
 70
   128
 71
  -233
 72
   228
 73
   232
  0
VERTEX
  5
3DA
330
AF
100
AcDbEntity
  8
AVLAYER
 62
     7
100
AcDbFaceRecord
 10
0.0
 20
0.0
 30
0.0
 70
   128
 71
   233
 72
   234
 73
  -228
  0
VERTEX
  5
3DB
330
AF
100
AcDbEntity
  8
AVLAYER
 62
     7
100
AcDbFaceRecord
 10
0.0
 20
0.0
 30
0.0
 70
   128
 71
   233
 72
   230
 73
   234
  0
VERTEX
  5
3DC
330
AF
100
AcDbEntity
  8
AVLAYER
 62
     7
100
AcDbFaceRecord
 10
0.0
 20
0.0
 30
0.0
 70
   128
 71
   233
 72
   335
 73
   230
  0
VERTEX
  5
3DD
330
AF
100
AcDbEntity
  8
AVLAYER
 62
     7
100
AcDbFaceRecord
 10
0.0
 20
0.0
 30
0.0
 70
   128
 71
   233
 72
   323
 73
   335
  0
VERTEX
  5
3DE
330
AF
100
AcDbEntity
  8
AVLAYER
 62
     7
100
AcDbFaceRecord
 10
0.0
 20
0.0
 30
0.0
 70
   128
 71
   321
 72
   323
 73
   235
  0
VERTEX
  5
3DF
330
AF
100
AcDbEntity
  8
AVLAYER
 62
     7
100
AcDbFaceRecord
 10
0.0
 20
0.0
 30
0.0
 70
   128
 71
   236
 72
   321
 73
   235
  0
VERTEX
  5
3E0
330
AF
100
AcDbEntity
  8
AVLAYER
 62
     7
100
AcDbFaceRecord
 10
0.0
 20
0.0
 30
0.0
 70
   128
 71
   236
 72
   237
 73
   321
  0
VERTEX
  5
3E1
330
AF
100
AcDbEntity
  8
AVLAYER
 62
     7
100
AcDbFaceRecord
 10
0.0
 20
0.0
 30
0.0
 70
   128
 71
   238
 72
   236
 73
   239
  0
VERTEX
  5
3E2
330
AF
100
AcDbEntity
  8
AVLAYER
 62
     7
100
AcDbFaceRecord
 10
0.0
 20
0.0
 30
0.0
 70
   128
 71
   238
 72
   237
 73
   236
  0
VERTEX
  5
3E3
330
AF
100
AcDbEntity
  8
AVLAYER
 62
     7
100
AcDbFaceRecord
 10
0.0
 20
0.0
 30
0.0
 70
   128
 71
   238
 72
   239
 73
   326
  0
VERTEX
  5
3E4
330
AF
100
AcDbEntity
  8
AVLAYER
 62
     7
100
AcDbFaceRecord
 10
0.0
 20
0.0
 30
0.0
 70
   128
 71
   279
 72
    62
 73
   240
  0
VERTEX
  5
3E5
330
AF
100
AcDbEntity
  8
AVLAYER
 62
     7
100
AcDbFaceRecord
 10
0.0
 20
0.0
 30
0.0
 70
   128
 71
   240
 72
   241
 73
    44
  0
VERTEX
  5
3E6
330
AF
100
AcDbEntity
  8
AVLAYER
 62
     7
100
AcDbFaceRecord
 10
0.0
 20
0.0
 30
0.0
 70
   128
 71
    17
 72
    18
 73
    61
  0
VERTEX
  5
3E7
330
AF
100
AcDbEntity
  8
AVLAYER
 62
     7
100
AcDbFaceRecord
 10
0.0
 20
0.0
 30
0.0
 70
   128
 71
   242
 72
   187
 73
   184
  0
VERTEX
  5
3E8
330
AF
100
AcDbEntity
  8
AVLAYER
 62
     7
100
AcDbFaceRecord
 10
0.0
 20
0.0
 30
0.0
 70
   128
 71
   242
 72
    22
 73
   187
  0
VERTEX
  5
3E9
330
AF
100
AcDbEntity
  8
AVLAYER
 62
     7
100
AcDbFaceRecord
 10
0.0
 20
0.0
 30
0.0
 70
   128
 71
   242
 72
   184
 73
    21
  0
VERTEX
  5
3EA
330
AF
100
AcDbEntity
  8
AVLAYER
 62
     7
100
AcDbFaceRecord
 10
0.0
 20
0.0
 30
0.0
 70
   128
 71
  -184
 72
   178
 73
   244
  0
VERTEX
  5
3EB
330
AF
100
AcDbEntity
  8
AVLAYER
 62
     7
100
AcDbFaceRecord
 10
0.0
 20
0.0
 30
0.0
 70
   128
 71
   184
 72
   179
 73
  -178
  0
VERTEX
  5
3EC
330
AF
100
AcDbEntity
  8
AVLAYER
 62
     7
100
AcDbFaceRecord
 10
0.0
 20
0.0
 30
0.0
 70
   128
 71
   244
 72
    21
 73
   184
  0
VERTEX
  5
3ED
330
AF
100
AcDbEntity
  8
AVLAYER
 62
     7
100
AcDbFaceRecord
 10
0.0
 20
0.0
 30
0.0
 70
   128
 71
   244
 72
   243
 73
    21
  0
VERTEX
  5
3EE
330
AF
100
AcDbEntity
  8
AVLAYER
 62
     7
100
AcDbFaceRecord
 10
0.0
 20
0.0
 30
0.0
 70
   128
 71
   243
 72
   244
 73
   245
  0
VERTEX
  5
3EF
330
AF
100
AcDbEntity
  8
AVLAYER
 62
     7
100
AcDbFaceRecord
 10
0.0
 20
0.0
 30
0.0
 70
   128
 71
  -244
 72
   248
 73
   246
  0
VERTEX
  5
3F0
330
AF
100
AcDbEntity
  8
AVLAYER
 62
     7
100
AcDbFaceRecord
 10
0.0
 20
0.0
 30
0.0
 70
   128
 71
   244
 72
   178
 73
  -248
  0
VERTEX
  5
3F1
330
AF
100
AcDbEntity
  8
AVLAYER
 62
     7
100
AcDbFaceRecord
 10
0.0
 20
0.0
 30
0.0
 70
   128
 71
   246
 72
   245
 73
   244
  0
VERTEX
  5
3F2
330
AF
100
AcDbEntity
  8
AVLAYER
 62
     7
100
AcDbFaceRecord
 10
0.0
 20
0.0
 30
0.0
 70
   128
 71
   246
 72
    16
 73
   245
  0
VERTEX
  5
3F3
330
AF
100
AcDbEntity
  8
AVLAYER
 62
     7
100
AcDbFaceRecord
 10
0.0
 20
0.0
 30
0.0
 70
   128
 71
   249
 72
    16
 73
   246
  0
VERTEX
  5
3F4
330
AF
100
AcDbEntity
  8
AVLAYER
 62
     7
100
AcDbFaceRecord
 10
0.0
 20
0.0
 30
0.0
 70
   128
 71
  -246
 72
   247
 73
   250
  0
VERTEX
  5
3F5
330
AF
100
AcDbEntity
  8
AVLAYER
 62
     7
100
AcDbFaceRecord
 10
0.0
 20
0.0
 30
0.0
 70
   128
 71
   246
 72
   248
 73
  -247
  0
VERTEX
  5
3F6
330
AF
100
AcDbEntity
  8
AVLAYER
 62
     7
100
AcDbFaceRecord
 10
0.0
 20
0.0
 30
0.0
 70
   128
 71
   250
 72
   249
 73
   246
  0
VERTEX
  5
3F7
330
AF
100
AcDbEntity
  8
AVLAYER
 62
     7
100
AcDbFaceRecord
 10
0.0
 20
0.0
 30
0.0
 70
   128
 71
   250
 72
   252
 73
   249
  0
VERTEX
  5
3F8
330
AF
100
AcDbEntity
  8
AVLAYER
 62
     7
100
AcDbFaceRecord
 10
0.0
 20
0.0
 30
0.0
 70
   128
 71
    15
 72
   250
 73
   251
  0
VERTEX
  5
3F9
330
AF
100
AcDbEntity
  8
AVLAYER
 62
     7
100
AcDbFaceRecord
 10
0.0
 20
0.0
 30
0.0
 70
   128
 71
    15
 72
   252
 73
   250
  0
VERTEX
  5
3FA
330
AF
100
AcDbEntity
  8
AVLAYER
 62
     7
100
AcDbFaceRecord
 10
0.0
 20
0.0
 30
0.0
 70
   128
 71
    15
 72
   251
 73
   253
  0
VERTEX
  5
3FB
330
AF
100
AcDbEntity
  8
AVLAYER
 62
     7
100
AcDbFaceRecord
 10
0.0
 20
0.0
 30
0.0
 70
   128
 71
   254
 72
   251
 73
   262
  0
VERTEX
  5
3FC
330
AF
100
AcDbEntity
  8
AVLAYER
 62
     7
100
AcDbFaceRecord
 10
0.0
 20
0.0
 30
0.0
 70
   128
 71
   254
 72
   253
 73
   251
  0
VERTEX
  5
3FD
330
AF
100
AcDbEntity
  8
AVLAYER
 62
     7
100
AcDbFaceRecord
 10
0.0
 20
0.0
 30
0.0
 70
   128
 71
   254
 72
   262
 73
   255
  0
VERTEX
  5
3FE
330
AF
100
AcDbEntity
  8
AVLAYER
 62
     7
100
AcDbFaceRecord
 10
0.0
 20
0.0
 30
0.0
 70
   128
 71
   257
 72
   256
 73
   260
  0
VERTEX
  5
3FF
330
AF
100
AcDbEntity
  8
AVLAYER
 62
     7
100
AcDbFaceRecord
 10
0.0
 20
0.0
 30
0.0
 70
   128
 71
   260
 72
   259
 73
   258
  0
VERTEX
  5
400
330
AF
100
AcDbEntity
  8
AVLAYER
 62
     7
100
AcDbFaceRecord
 10
0.0
 20
0.0
 30
0.0
 70
   128
 71
   259
 72
   260
 73
   256
  0
VERTEX
  5
401
330
AF
100
AcDbEntity
  8
AVLAYER
 62
     7
100
AcDbFaceRecord
 10
0.0
 20
0.0
 30
0.0
 70
   128
 71
   256
 72
   257
 73
   261
  0
VERTEX
  5
402
330
AF
100
AcDbEntity
  8
AVLAYER
 62
     7
100
AcDbFaceRecord
 10
0.0
 20
0.0
 30
0.0
 70
   128
 71
    69
 72
   257
 73
   255
  0
VERTEX
  5
403
330
AF
100
AcDbEntity
  8
AVLAYER
 62
     7
100
AcDbFaceRecord
 10
0.0
 20
0.0
 30
0.0
 70
   128
 71
    69
 72
   261
 73
   257
  0
VERTEX
  5
404
330
AF
100
AcDbEntity
  8
AVLAYER
 62
     7
100
AcDbFaceRecord
 10
0.0
 20
0.0
 30
0.0
 70
   128
 71
    68
 72
   255
 73
   262
  0
VERTEX
  5
405
330
AF
100
AcDbEntity
  8
AVLAYER
 62
     7
100
AcDbFaceRecord
 10
0.0
 20
0.0
 30
0.0
 70
   128
 71
    68
 72
    69
 73
   255
  0
VERTEX
  5
406
330
AF
100
AcDbEntity
  8
AVLAYER
 62
     7
100
AcDbFaceRecord
 10
0.0
 20
0.0
 30
0.0
 70
   128
 71
   263
 72
   262
 73
   183
  0
VERTEX
  5
407
330
AF
100
AcDbEntity
  8
AVLAYER
 62
     7
100
AcDbFaceRecord
 10
0.0
 20
0.0
 30
0.0
 70
   128
 71
   263
 72
    68
 73
   262
  0
VERTEX
  5
408
330
AF
100
AcDbEntity
  8
AVLAYER
 62
     7
100
AcDbFaceRecord
 10
0.0
 20
0.0
 30
0.0
 70
   128
 71
   263
 72
   183
 73
   189
  0
VERTEX
  5
409
330
AF
100
AcDbEntity
  8
AVLAYER
 62
     7
100
AcDbFaceRecord
 10
0.0
 20
0.0
 30
0.0
 70
   128
 71
   265
 72
   189
 73
   182
  0
VERTEX
  5
40A
330
AF
100
AcDbEntity
  8
AVLAYER
 62
     7
100
AcDbFaceRecord
 10
0.0
 20
0.0
 30
0.0
 70
   128
 71
  -182
 72
   268
 73
   267
  0
VERTEX
  5
40B
330
AF
100
AcDbEntity
  8
AVLAYER
 62
     7
100
AcDbFaceRecord
 10
0.0
 20
0.0
 30
0.0
 70
   128
 71
   182
 72
   264
 73
  -268
  0
VERTEX
  5
40C
330
AF
100
AcDbEntity
  8
AVLAYER
 62
     7
100
AcDbFaceRecord
 10
0.0
 20
0.0
 30
0.0
 70
   128
 71
   267
 72
   265
 73
   182
  0
VERTEX
  5
40D
330
AF
100
AcDbEntity
  8
AVLAYER
 62
     7
100
AcDbFaceRecord
 10
0.0
 20
0.0
 30
0.0
 70
   128
 71
   267
 72
    58
 73
   265
  0
VERTEX
  5
40E
330
AF
100
AcDbEntity
  8
AVLAYER
 62
     7
100
AcDbFaceRecord
 10
0.0
 20
0.0
 30
0.0
 70
   128
 71
    57
 72
    58
 73
   267
  0
VERTEX
  5
40F
330
AF
100
AcDbEntity
  8
AVLAYER
 62
     7
100
AcDbFaceRecord
 10
0.0
 20
0.0
 30
0.0
 70
   128
 71
  -271
 72
   181
 73
   273
  0
VERTEX
  5
410
330
AF
100
AcDbEntity
  8
AVLAYER
 62
     7
100
AcDbFaceRecord
 10
0.0
 20
0.0
 30
0.0
 70
   128
 71
   271
 72
   266
 73
  -181
  0
VERTEX
  5
411
330
AF
100
AcDbEntity
  8
AVLAYER
 62
     7
100
AcDbFaceRecord
 10
0.0
 20
0.0
 30
0.0
 70
   128
 71
  -267
 72
   266
 73
   271
  0
VERTEX
  5
412
330
AF
100
AcDbEntity
  8
AVLAYER
 62
     7
100
AcDbFaceRecord
 10
0.0
 20
0.0
 30
0.0
 70
   128
 71
   267
 72
   268
 73
  -266
  0
VERTEX
  5
413
330
AF
100
AcDbEntity
  8
AVLAYER
 62
     7
100
AcDbFaceRecord
 10
0.0
 20
0.0
 30
0.0
 70
   128
 71
   271
 72
    57
 73
   267
  0
VERTEX
  5
414
330
AF
100
AcDbEntity
  8
AVLAYER
 62
     7
100
AcDbFaceRecord
 10
0.0
 20
0.0
 30
0.0
 70
   128
 71
   271
 72
    59
 73
    57
  0
VERTEX
  5
415
330
AF
100
AcDbEntity
  8
AVLAYER
 62
     7
100
AcDbFaceRecord
 10
0.0
 20
0.0
 30
0.0
 70
   128
 71
   270
 72
   273
 73
   269
  0
VERTEX
  5
416
330
AF
100
AcDbEntity
  8
AVLAYER
 62
     7
100
AcDbFaceRecord
 10
0.0
 20
0.0
 30
0.0
 70
   128
 71
   270
 72
   271
 73
   273
  0
VERTEX
  5
417
330
AF
100
AcDbEntity
  8
AVLAYER
 62
     7
100
AcDbFaceRecord
 10
0.0
 20
0.0
 30
0.0
 70
   128
 71
   270
 72
    59
 73
   271
  0
VERTEX
  5
418
330
AF
100
AcDbEntity
  8
AVLAYER
 62
     7
100
AcDbFaceRecord
 10
0.0
 20
0.0
 30
0.0
 70
   128
 71
   270
 72
   269
 73
   274
  0
VERTEX
  5
419
330
AF
100
AcDbEntity
  8
AVLAYER
 62
     7
100
AcDbFaceRecord
 10
0.0
 20
0.0
 30
0.0
 70
   128
 71
  -269
 72
   272
 73
   186
  0
VERTEX
  5
41A
330
AF
100
AcDbEntity
  8
AVLAYER
 62
     7
100
AcDbFaceRecord
 10
0.0
 20
0.0
 30
0.0
 70
   128
 71
   269
 72
   273
 73
  -272
  0
VERTEX
  5
41B
330
AF
100
AcDbEntity
  8
AVLAYER
 62
     7
100
AcDbFaceRecord
 10
0.0
 20
0.0
 30
0.0
 70
   128
 71
   186
 72
   274
 73
   269
  0
VERTEX
  5
41C
330
AF
100
AcDbEntity
  8
AVLAYER
 62
     7
100
AcDbFaceRecord
 10
0.0
 20
0.0
 30
0.0
 70
   128
 71
   186
 72
   275
 73
   274
  0
VERTEX
  5
41D
330
AF
100
AcDbEntity
  8
AVLAYER
 62
     7
100
AcDbFaceRecord
 10
0.0
 20
0.0
 30
0.0
 70
   128
 71
   186
 72
   276
 73
   275
  0
VERTEX
  5
41E
330
AF
100
AcDbEntity
  8
AVLAYER
 62
     7
100
AcDbFaceRecord
 10
0.0
 20
0.0
 30
0.0
 70
   128
 71
   186
 72
    53
 73
   276
  0
VERTEX
  5
41F
330
AF
100
AcDbEntity
  8
AVLAYER
 62
     7
100
AcDbFaceRecord
 10
0.0
 20
0.0
 30
0.0
 70
   128
 71
   186
 72
   188
 73
    53
  0
VERTEX
  5
420
330
AF
100
AcDbEntity
  8
AVLAYER
 62
     7
100
AcDbFaceRecord
 10
0.0
 20
0.0
 30
0.0
 70
   128
 71
    17
 72
   187
 73
    22
  0
VERTEX
  5
421
330
AF
100
AcDbEntity
  8
AVLAYER
 62
     7
100
AcDbFaceRecord
 10
0.0
 20
0.0
 30
0.0
 70
   128
 71
    17
 72
   188
 73
   187
  0
VERTEX
  5
422
330
AF
100
AcDbEntity
  8
AVLAYER
 62
     7
100
AcDbFaceRecord
 10
0.0
 20
0.0
 30
0.0
 70
   128
 71
    17
 72
    61
 73
   188
  0
VERTEX
  5
423
330
AF
100
AcDbEntity
  8
AVLAYER
 62
     7
100
AcDbFaceRecord
 10
0.0
 20
0.0
 30
0.0
 70
   128
 71
   277
 72
    61
 73
    18
  0
VERTEX
  5
424
330
AF
100
AcDbEntity
  8
AVLAYER
 62
     7
100
AcDbFaceRecord
 10
0.0
 20
0.0
 30
0.0
 70
   128
 71
   278
 72
    18
 73
    44
  0
VERTEX
  5
425
330
AF
100
AcDbEntity
  8
AVLAYER
 62
     7
100
AcDbFaceRecord
 10
0.0
 20
0.0
 30
0.0
 70
   128
 71
   278
 72
   277
 73
    18
  0
VERTEX
  5
426
330
AF
100
AcDbEntity
  8
AVLAYER
 62
     7
100
AcDbFaceRecord
 10
0.0
 20
0.0
 30
0.0
 70
   128
 71
   278
 72
    44
 73
   241
  0
VERTEX
  5
427
330
AF
100
AcDbEntity
  8
AVLAYER
 62
     7
100
AcDbFaceRecord
 10
0.0
 20
0.0
 30
0.0
 70
   128
 71
   241
 72
   240
 73
    62
  0
VERTEX
  5
428
330
AF
100
AcDbEntity
  8
AVLAYER
 62
     7
100
AcDbFaceRecord
 10
0.0
 20
0.0
 30
0.0
 70
   128
 71
    62
 72
   279
 73
    64
  0
VERTEX
  5
429
330
AF
100
AcDbEntity
  8
AVLAYER
 62
     7
100
AcDbFaceRecord
 10
0.0
 20
0.0
 30
0.0
 70
   128
 71
    65
 72
    64
 73
   279
  0
VERTEX
  5
42A
330
AF
100
AcDbEntity
  8
AVLAYER
 62
     7
100
AcDbFaceRecord
 10
0.0
 20
0.0
 30
0.0
 70
   128
 71
   214
 72
   327
 73
   283
  0
VERTEX
  5
42B
330
AF
100
AcDbEntity
  8
AVLAYER
 62
     7
100
AcDbFaceRecord
 10
0.0
 20
0.0
 30
0.0
 70
   128
 71
   284
 72
   213
 73
   219
  0
VERTEX
  5
42C
330
AF
100
AcDbEntity
  8
AVLAYER
 62
     7
100
AcDbFaceRecord
 10
0.0
 20
0.0
 30
0.0
 70
   128
 71
     6
 72
     7
 73
   280
  0
VERTEX
  5
42D
330
AF
100
AcDbEntity
  8
AVLAYER
 62
     7
100
AcDbFaceRecord
 10
0.0
 20
0.0
 30
0.0
 70
   128
 71
   281
 72
     6
 73
   280
  0
VERTEX
  5
42E
330
AF
100
AcDbEntity
  8
AVLAYER
 62
     7
100
AcDbFaceRecord
 10
0.0
 20
0.0
 30
0.0
 70
   128
 71
   281
 72
   282
 73
     6
  0
VERTEX
  5
42F
330
AF
100
AcDbEntity
  8
AVLAYER
 62
     7
100
AcDbFaceRecord
 10
0.0
 20
0.0
 30
0.0
 70
   128
 71
     5
 72
   282
 73
   281
  0
VERTEX
  5
430
330
AF
100
AcDbEntity
  8
AVLAYER
 62
     7
100
AcDbFaceRecord
 10
0.0
 20
0.0
 30
0.0
 70
   128
 71
   285
 72
   214
 73
   283
  0
VERTEX
  5
431
330
AF
100
AcDbEntity
  8
AVLAYER
 62
     7
100
AcDbFaceRecord
 10
0.0
 20
0.0
 30
0.0
 70
   128
 71
   285
 72
   215
 73
   214
  0
VERTEX
  5
432
330
AF
100
AcDbEntity
  8
AVLAYER
 62
     7
100
AcDbFaceRecord
 10
0.0
 20
0.0
 30
0.0
 70
   128
 71
   285
 72
   219
 73
   215
  0
VERTEX
  5
433
330
AF
100
AcDbEntity
  8
AVLAYER
 62
     7
100
AcDbFaceRecord
 10
0.0
 20
0.0
 30
0.0
 70
   128
 71
   285
 72
   284
 73
   219
  0
VERTEX
  5
434
330
AF
100
AcDbEntity
  8
AVLAYER
 62
     7
100
AcDbFaceRecord
 10
0.0
 20
0.0
 30
0.0
 70
   128
 71
   285
 72
   280
 73
   284
  0
VERTEX
  5
435
330
AF
100
AcDbEntity
  8
AVLAYER
 62
     7
100
AcDbFaceRecord
 10
0.0
 20
0.0
 30
0.0
 70
   128
 71
   285
 72
   281
 73
   280
  0
VERTEX
  5
436
330
AF
100
AcDbEntity
  8
AVLAYER
 62
     7
100
AcDbFaceRecord
 10
0.0
 20
0.0
 30
0.0
 70
   128
 71
  -285
 72
   286
 73
   281
  0
VERTEX
  5
437
330
AF
100
AcDbEntity
  8
AVLAYER
 62
     7
100
AcDbFaceRecord
 10
0.0
 20
0.0
 30
0.0
 70
   128
 71
   285
 72
   283
 73
  -286
  0
VERTEX
  5
438
330
AF
100
AcDbEntity
  8
AVLAYER
 62
     7
100
AcDbFaceRecord
 10
0.0
 20
0.0
 30
0.0
 70
   128
 71
   286
 72
     5
 73
   281
  0
VERTEX
  5
439
330
AF
100
AcDbEntity
  8
AVLAYER
 62
     7
100
AcDbFaceRecord
 10
0.0
 20
0.0
 30
0.0
 70
   128
 71
   286
 72
     4
 73
     5
  0
VERTEX
  5
43A
330
AF
100
AcDbEntity
  8
AVLAYER
 62
     7
100
AcDbFaceRecord
 10
0.0
 20
0.0
 30
0.0
 70
   128
 71
   287
 72
     4
 73
   286
  0
VERTEX
  5
43B
330
AF
100
AcDbEntity
  8
AVLAYER
 62
     7
100
AcDbFaceRecord
 10
0.0
 20
0.0
 30
0.0
 70
   128
 71
   314
 72
   287
 73
   286
  0
VERTEX
  5
43C
330
AF
100
AcDbEntity
  8
AVLAYER
 62
     7
100
AcDbFaceRecord
 10
0.0
 20
0.0
 30
0.0
 70
   128
 71
   314
 72
     2
 73
   287
  0
VERTEX
  5
43D
330
AF
100
AcDbEntity
  8
AVLAYER
 62
     7
100
AcDbFaceRecord
 10
0.0
 20
0.0
 30
0.0
 70
   128
 71
     3
 72
     2
 73
   314
  0
VERTEX
  5
43E
330
AF
100
AcDbEntity
  8
AVLAYER
 62
     7
100
AcDbFaceRecord
 10
0.0
 20
0.0
 30
0.0
 70
   128
 71
   307
 72
   288
 73
     3
  0
VERTEX
  5
43F
330
AF
100
AcDbEntity
  8
AVLAYER
 62
     7
100
AcDbFaceRecord
 10
0.0
 20
0.0
 30
0.0
 70
   128
 71
   289
 72
   288
 73
   307
  0
VERTEX
  5
440
330
AF
100
AcDbEntity
  8
AVLAYER
 62
     7
100
AcDbFaceRecord
 10
0.0
 20
0.0
 30
0.0
 70
   128
 71
   303
 72
   289
 73
   307
  0
VERTEX
  5
441
330
AF
100
AcDbEntity
  8
AVLAYER
 62
     7
100
AcDbFaceRecord
 10
0.0
 20
0.0
 30
0.0
 70
   128
 71
   303
 72
     1
 73
   289
  0
VERTEX
  5
442
330
AF
100
AcDbEntity
  8
AVLAYER
 62
     7
100
AcDbFaceRecord
 10
0.0
 20
0.0
 30
0.0
 70
   128
 71
   304
 72
     1
 73
   303
  0
VERTEX
  5
443
330
AF
100
AcDbEntity
  8
AVLAYER
 62
     7
100
AcDbFaceRecord
 10
0.0
 20
0.0
 30
0.0
 70
   128
 71
   305
 72
   290
 73
   304
  0
VERTEX
  5
444
330
AF
100
AcDbEntity
  8
AVLAYER
 62
     7
100
AcDbFaceRecord
 10
0.0
 20
0.0
 30
0.0
 70
   128
 71
   291
 72
   290
 73
   305
  0
VERTEX
  5
445
330
AF
100
AcDbEntity
  8
AVLAYER
 62
     7
100
AcDbFaceRecord
 10
0.0
 20
0.0
 30
0.0
 70
   128
 71
   293
 72
   291
 73
   305
  0
VERTEX
  5
446
330
AF
100
AcDbEntity
  8
AVLAYER
 62
     7
100
AcDbFaceRecord
 10
0.0
 20
0.0
 30
0.0
 70
   128
 71
   293
 72
   292
 73
   291
  0
VERTEX
  5
447
330
AF
100
AcDbEntity
  8
AVLAYER
 62
     7
100
AcDbFaceRecord
 10
0.0
 20
0.0
 30
0.0
 70
   128
 71
     8
 72
   292
 73
   293
  0
VERTEX
  5
448
330
AF
100
AcDbEntity
  8
AVLAYER
 62
     7
100
AcDbFaceRecord
 10
0.0
 20
0.0
 30
0.0
 70
   128
 71
   280
 72
     8
 73
   293
  0
VERTEX
  5
449
330
AF
100
AcDbEntity
  8
AVLAYER
 62
     7
100
AcDbFaceRecord
 10
0.0
 20
0.0
 30
0.0
 70
   128
 71
   280
 72
     7
 73
     8
  0
VERTEX
  5
44A
330
AF
100
AcDbEntity
  8
AVLAYER
 62
     7
100
AcDbFaceRecord
 10
0.0
 20
0.0
 30
0.0
 70
   128
 71
   294
 72
   213
 73
   284
  0
VERTEX
  5
44B
330
AF
100
AcDbEntity
  8
AVLAYER
 62
     7
100
AcDbFaceRecord
 10
0.0
 20
0.0
 30
0.0
 70
   128
 71
   297
 72
   294
 73
   284
  0
VERTEX
  5
44C
330
AF
100
AcDbEntity
  8
AVLAYER
 62
     7
100
AcDbFaceRecord
 10
0.0
 20
0.0
 30
0.0
 70
   128
 71
   297
 72
   295
 73
   294
  0
VERTEX
  5
44D
330
AF
100
AcDbEntity
  8
AVLAYER
 62
     7
100
AcDbFaceRecord
 10
0.0
 20
0.0
 30
0.0
 70
   128
 71
   295
 72
   297
 73
   296
  0
VERTEX
  5
44E
330
AF
100
AcDbEntity
  8
AVLAYER
 62
     7
100
AcDbFaceRecord
 10
0.0
 20
0.0
 30
0.0
 70
   128
 71
   299
 72
   296
 73
   297
  0
VERTEX
  5
44F
330
AF
100
AcDbEntity
  8
AVLAYER
 62
     7
100
AcDbFaceRecord
 10
0.0
 20
0.0
 30
0.0
 70
   128
 71
   280
 72
   297
 73
   284
  0
VERTEX
  5
450
330
AF
100
AcDbEntity
  8
AVLAYER
 62
     7
100
AcDbFaceRecord
 10
0.0
 20
0.0
 30
0.0
 70
   128
 71
   280
 72
   293
 73
   297
  0
VERTEX
  5
451
330
AF
100
AcDbEntity
  8
AVLAYER
 62
     7
100
AcDbFaceRecord
 10
0.0
 20
0.0
 30
0.0
 70
   128
 71
  -305
 72
   297
 73
   293
  0
VERTEX
  5
452
330
AF
100
AcDbEntity
  8
AVLAYER
 62
     7
100
AcDbFaceRecord
 10
0.0
 20
0.0
 30
0.0
 70
   128
 71
   305
 72
   298
 73
  -297
  0
VERTEX
  5
453
330
AF
100
AcDbEntity
  8
AVLAYER
 62
     7
100
AcDbFaceRecord
 10
0.0
 20
0.0
 30
0.0
 70
   128
 71
   298
 72
   299
 73
   297
  0
VERTEX
  5
454
330
AF
100
AcDbEntity
  8
AVLAYER
 62
     7
100
AcDbFaceRecord
 10
0.0
 20
0.0
 30
0.0
 70
   128
 71
   298
 72
   209
 73
   299
  0
VERTEX
  5
455
330
AF
100
AcDbEntity
  8
AVLAYER
 62
     7
100
AcDbFaceRecord
 10
0.0
 20
0.0
 30
0.0
 70
   128
 71
   209
 72
   298
 73
   300
  0
VERTEX
  5
456
330
AF
100
AcDbEntity
  8
AVLAYER
 62
     7
100
AcDbFaceRecord
 10
0.0
 20
0.0
 30
0.0
 70
   128
 71
   301
 72
   300
 73
   298
  0
VERTEX
  5
457
330
AF
100
AcDbEntity
  8
AVLAYER
 62
     7
100
AcDbFaceRecord
 10
0.0
 20
0.0
 30
0.0
 70
   128
 71
   306
 72
   301
 73
   298
  0
VERTEX
  5
458
330
AF
100
AcDbEntity
  8
AVLAYER
 62
     7
100
AcDbFaceRecord
 10
0.0
 20
0.0
 30
0.0
 70
   128
 71
   306
 72
   302
 73
   301
  0
VERTEX
  5
459
330
AF
100
AcDbEntity
  8
AVLAYER
 62
     7
100
AcDbFaceRecord
 10
0.0
 20
0.0
 30
0.0
 70
   128
 71
   302
 72
   306
 73
   308
  0
VERTEX
  5
45A
330
AF
100
AcDbEntity
  8
AVLAYER
 62
     7
100
AcDbFaceRecord
 10
0.0
 20
0.0
 30
0.0
 70
   128
 71
   305
 72
   304
 73
   303
  0
VERTEX
  5
45B
330
AF
100
AcDbEntity
  8
AVLAYER
 62
     7
100
AcDbFaceRecord
 10
0.0
 20
0.0
 30
0.0
 70
   128
 71
  -303
 72
   298
 73
   305
  0
VERTEX
  5
45C
330
AF
100
AcDbEntity
  8
AVLAYER
 62
     7
100
AcDbFaceRecord
 10
0.0
 20
0.0
 30
0.0
 70
   128
 71
   303
 72
   306
 73
  -298
  0
VERTEX
  5
45D
330
AF
100
AcDbEntity
  8
AVLAYER
 62
     7
100
AcDbFaceRecord
 10
0.0
 20
0.0
 30
0.0
 70
   128
 71
  -307
 72
   306
 73
   303
  0
VERTEX
  5
45E
330
AF
100
AcDbEntity
  8
AVLAYER
 62
     7
100
AcDbFaceRecord
 10
0.0
 20
0.0
 30
0.0
 70
   128
 71
   307
 72
   312
 73
  -306
  0
VERTEX
  5
45F
330
AF
100
AcDbEntity
  8
AVLAYER
 62
     7
100
AcDbFaceRecord
 10
0.0
 20
0.0
 30
0.0
 70
   128
 71
   312
 72
   308
 73
   306
  0
VERTEX
  5
460
330
AF
100
AcDbEntity
  8
AVLAYER
 62
     7
100
AcDbFaceRecord
 10
0.0
 20
0.0
 30
0.0
 70
   128
 71
   312
 72
   309
 73
   308
  0
VERTEX
  5
461
330
AF
100
AcDbEntity
  8
AVLAYER
 62
     7
100
AcDbFaceRecord
 10
0.0
 20
0.0
 30
0.0
 70
   128
 71
   309
 72
   312
 73
   310
  0
VERTEX
  5
462
330
AF
100
AcDbEntity
  8
AVLAYER
 62
     7
100
AcDbFaceRecord
 10
0.0
 20
0.0
 30
0.0
 70
   128
 71
   311
 72
   310
 73
   312
  0
VERTEX
  5
463
330
AF
100
AcDbEntity
  8
AVLAYER
 62
     7
100
AcDbFaceRecord
 10
0.0
 20
0.0
 30
0.0
 70
   128
 71
   313
 72
   311
 73
   312
  0
VERTEX
  5
464
330
AF
100
AcDbEntity
  8
AVLAYER
 62
     7
100
AcDbFaceRecord
 10
0.0
 20
0.0
 30
0.0
 70
   128
 71
   313
 72
   235
 73
   311
  0
VERTEX
  5
465
330
AF
100
AcDbEntity
  8
AVLAYER
 62
     7
100
AcDbFaceRecord
 10
0.0
 20
0.0
 30
0.0
 70
   128
 71
   235
 72
   313
 73
   236
  0
VERTEX
  5
466
330
AF
100
AcDbEntity
  8
AVLAYER
 62
     7
100
AcDbFaceRecord
 10
0.0
 20
0.0
 30
0.0
 70
   128
 71
   239
 72
   236
 73
   313
  0
VERTEX
  5
467
330
AF
100
AcDbEntity
  8
AVLAYER
 62
     7
100
AcDbFaceRecord
 10
0.0
 20
0.0
 30
0.0
 70
   128
 71
   307
 72
     3
 73
   314
  0
VERTEX
  5
468
330
AF
100
AcDbEntity
  8
AVLAYER
 62
     7
100
AcDbFaceRecord
 10
0.0
 20
0.0
 30
0.0
 70
   128
 71
  -313
 72
   307
 73
   314
  0
VERTEX
  5
469
330
AF
100
AcDbEntity
  8
AVLAYER
 62
     7
100
AcDbFaceRecord
 10
0.0
 20
0.0
 30
0.0
 70
   128
 71
   313
 72
   312
 73
  -307
  0
VERTEX
  5
46A
330
AF
100
AcDbEntity
  8
AVLAYER
 62
     7
100
AcDbFaceRecord
 10
0.0
 20
0.0
 30
0.0
 70
   128
 71
  -314
 72
   283
 73
   313
  0
VERTEX
  5
46B
330
AF
100
AcDbEntity
  8
AVLAYER
 62
     7
100
AcDbFaceRecord
 10
0.0
 20
0.0
 30
0.0
 70
   128
 71
   314
 72
   286
 73
  -283
  0
VERTEX
  5
46C
330
AF
100
AcDbEntity
  8
AVLAYER
 62
     7
100
AcDbFaceRecord
 10
0.0
 20
0.0
 30
0.0
 70
   128
 71
   283
 72
   239
 73
   313
  0
VERTEX
  5
46D
330
AF
100
AcDbEntity
  8
AVLAYER
 62
     7
100
AcDbFaceRecord
 10
0.0
 20
0.0
 30
0.0
 70
   128
 71
   283
 72
   326
 73
   239
  0
VERTEX
  5
46E
330
AF
100
AcDbEntity
  8
AVLAYER
 62
     7
100
AcDbFaceRecord
 10
0.0
 20
0.0
 30
0.0
 70
   128
 71
   326
 72
   283
 73
   327
  0
VERTEX
  5
46F
330
AF
100
AcDbEntity
  8
AVLAYER
 62
     7
100
AcDbFaceRecord
 10
0.0
 20
0.0
 30
0.0
 70
   128
 71
   317
 72
   316
 73
   315
  0
VERTEX
  5
470
330
AF
100
AcDbEntity
  8
AVLAYER
 62
     7
100
AcDbFaceRecord
 10
0.0
 20
0.0
 30
0.0
 70
   128
 71
   318
 72
   317
 73
   315
  0
VERTEX
  5
471
330
AF
100
AcDbEntity
  8
AVLAYER
 62
     7
100
AcDbFaceRecord
 10
0.0
 20
0.0
 30
0.0
 70
   128
 71
   331
 72
   318
 73
   315
  0
VERTEX
  5
472
330
AF
100
AcDbEntity
  8
AVLAYER
 62
     7
100
AcDbFaceRecord
 10
0.0
 20
0.0
 30
0.0
 70
   128
 71
   330
 72
   331
 73
   315
  0
VERTEX
  5
473
330
AF
100
AcDbEntity
  8
AVLAYER
 62
     7
100
AcDbFaceRecord
 10
0.0
 20
0.0
 30
0.0
 70
   128
 71
   319
 72
   330
 73
   315
  0
VERTEX
  5
474
330
AF
100
AcDbEntity
  8
AVLAYER
 62
     7
100
AcDbFaceRecord
 10
0.0
 20
0.0
 30
0.0
 70
   128
 71
   320
 72
   328
 73
   319
  0
VERTEX
  5
475
330
AF
100
AcDbEntity
  8
AVLAYER
 62
     7
100
AcDbFaceRecord
 10
0.0
 20
0.0
 30
0.0
 70
   128
 71
   325
 72
   320
 73
   319
  0
VERTEX
  5
476
330
AF
100
AcDbEntity
  8
AVLAYER
 62
     7
100
AcDbFaceRecord
 10
0.0
 20
0.0
 30
0.0
 70
   128
 71
   324
 72
   325
 73
   319
  0
VERTEX
  5
477
330
AF
100
AcDbEntity
  8
AVLAYER
 62
     7
100
AcDbFaceRecord
 10
0.0
 20
0.0
 30
0.0
 70
   128
 71
   334
 72
   319
 73
   315
  0
VERTEX
  5
478
330
AF
100
AcDbEntity
  8
AVLAYER
 62
     7
100
AcDbFaceRecord
 10
0.0
 20
0.0
 30
0.0
 70
   128
 71
   334
 72
   324
 73
   319
  0
VERTEX
  5
479
330
AF
100
AcDbEntity
  8
AVLAYER
 62
     7
100
AcDbFaceRecord
 10
0.0
 20
0.0
 30
0.0
 70
   128
 71
   320
 72
   326
 73
   327
  0
VERTEX
  5
47A
330
AF
100
AcDbEntity
  8
AVLAYER
 62
     7
100
AcDbFaceRecord
 10
0.0
 20
0.0
 30
0.0
 70
   128
 71
   321
 72
   237
 73
   324
  0
VERTEX
  5
47B
330
AF
100
AcDbEntity
  8
AVLAYER
 62
     7
100
AcDbFaceRecord
 10
0.0
 20
0.0
 30
0.0
 70
   128
 71
   334
 72
   335
 73
   323
  0
VERTEX
  5
47C
330
AF
100
AcDbEntity
  8
AVLAYER
 62
     7
100
AcDbFaceRecord
 10
0.0
 20
0.0
 30
0.0
 70
   128
 71
   316
 72
   322
 73
   227
  0
VERTEX
  5
47D
330
AF
100
AcDbEntity
  8
AVLAYER
 62
     7
100
AcDbFaceRecord
 10
0.0
 20
0.0
 30
0.0
 70
   128
 71
   333
 72
   322
 73
   316
  0
VERTEX
  5
47E
330
AF
100
AcDbEntity
  8
AVLAYER
 62
     7
100
AcDbFaceRecord
 10
0.0
 20
0.0
 30
0.0
 70
   128
 71
   321
 72
   334
 73
   323
  0
VERTEX
  5
47F
330
AF
100
AcDbEntity
  8
AVLAYER
 62
     7
100
AcDbFaceRecord
 10
0.0
 20
0.0
 30
0.0
 70
   128
 71
   321
 72
   324
 73
   334
  0
VERTEX
  5
480
330
AF
100
AcDbEntity
  8
AVLAYER
 62
     7
100
AcDbFaceRecord
 10
0.0
 20
0.0
 30
0.0
 70
   128
 71
   325
 72
   237
 73
   238
  0
VERTEX
  5
481
330
AF
100
AcDbEntity
  8
AVLAYER
 62
     7
100
AcDbFaceRecord
 10
0.0
 20
0.0
 30
0.0
 70
   128
 71
   325
 72
   324
 73
   237
  0
VERTEX
  5
482
330
AF
100
AcDbEntity
  8
AVLAYER
 62
     7
100
AcDbFaceRecord
 10
0.0
 20
0.0
 30
0.0
 70
   128
 71
   326
 72
   325
 73
   238
  0
VERTEX
  5
483
330
AF
100
AcDbEntity
  8
AVLAYER
 62
     7
100
AcDbFaceRecord
 10
0.0
 20
0.0
 30
0.0
 70
   128
 71
   326
 72
   320
 73
   325
  0
VERTEX
  5
484
330
AF
100
AcDbEntity
  8
AVLAYER
 62
     7
100
AcDbFaceRecord
 10
0.0
 20
0.0
 30
0.0
 70
   128
 71
   328
 72
   327
 73
   216
  0
VERTEX
  5
485
330
AF
100
AcDbEntity
  8
AVLAYER
 62
     7
100
AcDbFaceRecord
 10
0.0
 20
0.0
 30
0.0
 70
   128
 71
   328
 72
   320
 73
   327
  0
VERTEX
  5
486
330
AF
100
AcDbEntity
  8
AVLAYER
 62
     7
100
AcDbFaceRecord
 10
0.0
 20
0.0
 30
0.0
 70
   128
 71
   319
 72
   218
 73
   217
  0
VERTEX
  5
487
330
AF
100
AcDbEntity
  8
AVLAYER
 62
     7
100
AcDbFaceRecord
 10
0.0
 20
0.0
 30
0.0
 70
   128
 71
   319
 72
   216
 73
   218
  0
VERTEX
  5
488
330
AF
100
AcDbEntity
  8
AVLAYER
 62
     7
100
AcDbFaceRecord
 10
0.0
 20
0.0
 30
0.0
 70
   128
 71
   319
 72
   328
 73
   216
  0
VERTEX
  5
489
330
AF
100
AcDbEntity
  8
AVLAYER
 62
     7
100
AcDbFaceRecord
 10
0.0
 20
0.0
 30
0.0
 70
   128
 71
   330
 72
   220
 73
   329
  0
VERTEX
  5
48A
330
AF
100
AcDbEntity
  8
AVLAYER
 62
     7
100
AcDbFaceRecord
 10
0.0
 20
0.0
 30
0.0
 70
   128
 71
   330
 72
   217
 73
   220
  0
VERTEX
  5
48B
330
AF
100
AcDbEntity
  8
AVLAYER
 62
     7
100
AcDbFaceRecord
 10
0.0
 20
0.0
 30
0.0
 70
   128
 71
   330
 72
   319
 73
   217
  0
VERTEX
  5
48C
330
AF
100
AcDbEntity
  8
AVLAYER
 62
     7
100
AcDbFaceRecord
 10
0.0
 20
0.0
 30
0.0
 70
   128
 71
   331
 72
   221
 73
   224
  0
VERTEX
  5
48D
330
AF
100
AcDbEntity
  8
AVLAYER
 62
     7
100
AcDbFaceRecord
 10
0.0
 20
0.0
 30
0.0
 70
   128
 71
   331
 72
   329
 73
   221
  0
VERTEX
  5
48E
330
AF
100
AcDbEntity
  8
AVLAYER
 62
     7
100
AcDbFaceRecord
 10
0.0
 20
0.0
 30
0.0
 70
   128
 71
   331
 72
   330
 73
   329
  0
VERTEX
  5
48F
330
AF
100
AcDbEntity
  8
AVLAYER
 62
     7
100
AcDbFaceRecord
 10
0.0
 20
0.0
 30
0.0
 70
   128
 71
   318
 72
   224
 73
   223
  0
VERTEX
  5
490
330
AF
100
AcDbEntity
  8
AVLAYER
 62
     7
100
AcDbFaceRecord
 10
0.0
 20
0.0
 30
0.0
 70
   128
 71
   318
 72
   331
 73
   224
  0
VERTEX
  5
491
330
AF
100
AcDbEntity
  8
AVLAYER
 62
     7
100
AcDbFaceRecord
 10
0.0
 20
0.0
 30
0.0
 70
   128
 71
   332
 72
   318
 73
   223
  0
VERTEX
  5
492
330
AF
100
AcDbEntity
  8
AVLAYER
 62
     7
100
AcDbFaceRecord
 10
0.0
 20
0.0
 30
0.0
 70
   128
 71
   332
 72
   317
 73
   318
  0
VERTEX
  5
493
330
AF
100
AcDbEntity
  8
AVLAYER
 62
     7
100
AcDbFaceRecord
 10
0.0
 20
0.0
 30
0.0
 70
   128
 71
   333
 72
   317
 73
   332
  0
VERTEX
  5
494
330
AF
100
AcDbEntity
  8
AVLAYER
 62
     7
100
AcDbFaceRecord
 10
0.0
 20
0.0
 30
0.0
 70
   128
 71
   333
 72
   316
 73
   317
  0
VERTEX
  5
495
330
AF
100
AcDbEntity
  8
AVLAYER
 62
     7
100
AcDbFaceRecord
 10
0.0
 20
0.0
 30
0.0
 70
   128
 71
   315
 72
   227
 73
   230
  0
VERTEX
  5
496
330
AF
100
AcDbEntity
  8
AVLAYER
 62
     7
100
AcDbFaceRecord
 10
0.0
 20
0.0
 30
0.0
 70
   128
 71
   315
 72
   316
 73
   227
  0
VERTEX
  5
497
330
AF
100
AcDbEntity
  8
AVLAYER
 62
     7
100
AcDbFaceRecord
 10
0.0
 20
0.0
 30
0.0
 70
   128
 71
   335
 72
   315
 73
   230
  0
VERTEX
  5
498
330
AF
100
AcDbEntity
  8
AVLAYER
 62
     7
100
AcDbFaceRecord
 10
0.0
 20
0.0
 30
0.0
 70
   128
 71
   335
 72
   334
 73
   315
  0
SEQEND
  5
499
330
AF
100
AcDbEntity
  8
AVLAYER
 62
     7
  0
INSERT
  5
4B4
330
18
100
AcDbEntity
  8
0
100
AcDbBlockReference
 66
     1
  2
RM_SDB
 10
0.0
 20
0.0
 30
0.0
1001
AVE_MATERIAL
1002
{
1000
*GLOBAL*01
1000
2
1000

1002
{
1002
}
1002
{
1070
    39
1002
{
1002
{
1010
10.0
1020
10.0
1030
10.0
1002
}
1040
0.1000000014901161
1000

1040
0.0
1002
{
1002
}
1040
0.0
1002
{
1002
}
1040
0.0
1002
}
1002
{
1002
{
1010
1.428571462631225
1020
1.428571462631225
1030
1.428571462631225
1002
}
1040
0.6999999880790711
1000

1040
0.0
1002
{
1002
}
1040
0.0
1002
{
1002
}
1040
0.0
1002
}
1002
{
1002
{
1010
5.0
1020
5.0
1030
5.0
1002
}
1040
0.2000000029802322
1000

1040
0.0
1002
{
1002
}
1040
0.0
1002
{
1002
}
1040
0.0
1002
}
1002
{
1070
     0
1002
{
1070
     1
1002
{
1040
1.0
1040
1.0
1000

1040
0.0
1002
{
1002
}
1040
0.0
1002
{
1002
}
1040
0.0
1002
}
1002
}
1040
0.0
1040
0.0
1040
0.0
1002
}
1002
{
1040
0.0
1040
0.0
1000

1040
0.0
1002
{
1002
}
1040
0.0
1002
{
1002
}
1040
0.0
1002
}
1002
{
1040
0.5
1040
1.0
1000

1040
0.0
1002
{
1002
}
1040
0.0
1002
{
1002
}
1040
0.0
1002
}
1002
{
1070
     0
1040
0.0
1002
{
1002
}
1040
0.0
1002
{
1002
}
1040
0.0
1002
}
1002
{
1040
0.0
1002
{
1002
{
1010
0.0
1020
0.0
1030
0.0
1002
}
1040
0.0
1000

1040
0.0
1002
{
1002
}
1040
0.0
1002
{
1002
}
1040
0.0
1002
}
1002
}
1002
{
1002
{
1070
     1
1002
{
1040
0.0
1040
1.0
1000

1040
0.0
1002
{
1002
}
1040
0.0
1002
{
1002
}
1040
0.0
1002
}
1002
}
1040
0.0
1002
{
1002
}
1010
0.0
1020
0.0
1030
0.0
1010
0.0
1020
0.0
1030
0.0
1010
0.0
1020
0.0
1030
0.0
1070
     0
1002
}
1002
{
1002
{
1040
0.0
1040
0.0
1002
{
1070
     0
1002
}
1002
}
1070
     0
1040
0.0
1002
{
1002
}
1002
}
1002
{
1002
}
1002
}
1002
{
1071
        3
1070
     3
1070
     0
1002
{
1070
     2
1070
     1
1070
     0
1040
0.0
1002
}
1070
     0
1070
     2
1002
{
1002
}
1002
}
1002
{
1040
8030.0
1040
190.3000030517578
1040
0.3050000071525574
1040
228.0
1040
545.0
1040
14.0
1040
17.39999961853027
1040
0.4560000002384186
1002
}
1002
}
  0
ATTRIB
  5
4B5
330
4B4
100
AcDbEntity
  8
0
100
AcDbText
 10
0.0
 20
0.0
 30
0.0
 40
0.2
  1
*GLOBAL*01
100
AcDbAttribute
  2
NAME
 70
     1
  0
ATTRIB
  5
4B6
330
4B4
100
AcDbEntity
  8
0
100
AcDbText
 10
0.0
 20
0.0
 30
0.0
 40
0.2
  1
 
100
AcDbAttribute
  2
ACADCOLOR
 70
     1
  0
ATTRIB
  5
4B7
330
4B4
100
AcDbEntity
  8
0
100
AcDbText
 10
0.0
 20
0.0
 30
0.0
 40
0.2
  1
1.4286,1.4286,1.4286
100
AcDbAttribute
  2
COLOR
 70
     1
  0
ATTRIB
  5
4B8
330
4B4
100
AcDbEntity
  8
0
100
AcDbText
 10
0.0
 20
0.0
 30
0.0
 40
0.2
  1
1.0,1.0,1.0
100
AcDbAttribute
  2
OPACITY
 70
     1
  0
ATTRIB
  5
4B9
330
4B4
100
AcDbEntity
  8
0
100
AcDbText
 10
0.0
 20
0.0
 30
0.0
 40
0.2
  1
("nullsurf" "")
100
AcDbAttribute
  2
SURFACE
 70
     1
  0
ATTRIB
  5
4BA
330
4B4
100
AcDbEntity
  8
0
100
AcDbText
 10
0.0
 20
0.0
 30
0.0
 40
0.2
  1
(11 "Ka" "0.1")(11 "Kd" "0.7")(11 "Ks" "0.2")(11 "roughness" "0.5")
100
AcDbAttribute
  2
SURF1
 70
     1
  0
ATTRIB
  5
4BB
330
4B4
100
AcDbEntity
  8
0
100
AcDbText
 10
0.0
 20
0.0
 30
0.0
 40
0.2
  1

100
AcDbAttribute
  2
SURF2
 70
     1
  0
ATTRIB
  5
4BC
330
4B4
100
AcDbEntity
  8
0
100
AcDbText
 10
0.0
 20
0.0
 30
0.0
 40
0.2
  1

100
AcDbAttribute
  2
SURF3
 70
     1
  0
ATTRIB
  5
4BD
330
4B4
100
AcDbEntity
  8
0
100
AcDbText
 10
0.0
 20
0.0
 30
0.0
 40
0.2
  1

100
AcDbAttribute
  2
SURF4
 70
     1
  0
ATTRIB
  5
4BE
330
4B4
100
AcDbEntity
  8
0
100
AcDbText
 10
0.0
 20
0.0
 30
0.0
 40
0.2
  1
-1.0
100
AcDbAttribute
  2
SHADINGRATE
 70
     1
  0
ATTRIB
  5
4BF
330
4B4
100
AcDbEntity
  8
0
100
AcDbText
 10
0.0
 20
0.0
 30
0.0
 40
0.2
  1
("nulldisp" "")
100
AcDbAttribute
  2
DISPLACEMENT
 70
     1
  0
ATTRIB
  5
4C0
330
4B4
100
AcDbEntity
  8
0
100
AcDbText
 10
0.0
 20
0.0
 30
0.0
 40
0.2
  1

100
AcDbAttribute
  2
DISP1
 70
     1
  0
ATTRIB
  5
4C1
330
4B4
100
AcDbEntity
  8
0
100
AcDbText
 10
0.0
 20
0.0
 30
0.0
 40
0.2
  1

100
AcDbAttribute
  2
DISP2
 70
     1
  0
ATTRIB
  5
4C2
330
4B4
100
AcDbEntity
  8
0
100
AcDbText
 10
0.0
 20
0.0
 30
0.0
 40
0.2
  1

100
AcDbAttribute
  2
DISP3
 70
     1
  0
ATTRIB
  5
4C3
330
4B4
100
AcDbEntity
  8
0
100
AcDbText
 10
0.0
 20
0.0
 30
0.0
 40
0.2
  1

100
AcDbAttribute
  2
DISP4
 70
     1
  0
ATTRIB
  5
4C4
330
4B4
100
AcDbEntity
  8
0
100
AcDbText
 10
0.0
 20
0.0
 30
0.0
 40
0.2
  1
0.0
100
AcDbAttribute
  2
DBOUND
 70
     1
  0
ATTRIB
  5
4C5
330
4B4
100
AcDbEntity
  8
0
100
AcDbText
 10
0.0
 20
0.0
 30
0.0
 40
0.2
  1
0
100
AcDbAttribute
  2
SMOOTH
 70
     1
  0
ATTRIB
  5
4C6
330
4B4
100
AcDbEntity
  8
0
100
AcDbText
 10
0.0
 20
0.0
 30
0.0
 40
0.2
  1
("" "")
100
AcDbAttribute
  2
ATMOSHPERE
 70
     1
  0
ATTRIB
  5
4C7
330
4B4
100
AcDbEntity
  8
0
100
AcDbText
 10
0.0
 20
0.0
 30
0.0
 40
0.2
  1

100
AcDbAttribute
  2
ATMO1
 70
     1
  0
ATTRIB
  5
4C8
330
4B4
100
AcDbEntity
  8
0
100
AcDbText
 10
0.0
 20
0.0
 30
0.0
 40
0.2
  1

100
AcDbAttribute
  2
ATMO2
 70
     1
  0
ATTRIB
  5
4C9
330
4B4
100
AcDbEntity
  8
0
100
AcDbText
 10
0.0
 20
0.0
 30
0.0
 40
0.2
  1

100
AcDbAttribute
  2
ATMO3
 70
     1
  0
ATTRIB
  5
4CA
330
4B4
100
AcDbEntity
  8
0
100
AcDbText
 10
0.0
 20
0.0
 30
0.0
 40
0.2
  1

100
AcDbAttribute
  2
ATMO4
 70
     1
  0
ATTRIB
  5
4CB
330
4B4
100
AcDbEntity
  8
0
100
AcDbText
 10
0.0
 20
0.0
 30
0.0
 40
0.2
  1
0.0 0.0 1.0 0.0 0.0 1.0 1.0 1.0
100
AcDbAttribute
  2
TCCORD
 70
     1
  0
SEQEND
  5
4CC
330
4B4
100
AcDbEntity
  8
0
  0
ENDSEC
  0
SECTION
  2
OBJECTS
  0
DICTIONARY
  5
C
330
0
100
AcDbDictionary
  3
ACAD_GROUP
350
D
  3
ACAD_MLINESTYLE
350
1B
  3
AVE_ACITABLE
350
63
  3
ACAD_LAYOUT
350
7C
  3
ACAD_PLOTSETTINGS
350
7D
1001
ACAD
1000
TREAT_AS_HARD
1070
     0
  0
DICTIONARY
  5
4D0
330
18
100
AcDbDictionary
  3
ACAD_LAYOUTSELFREF
350
4D1
  0
DICTIONARY
  5
4CE
330
15
100
AcDbDictionary
  3
ACAD_LAYOUTSELFREF
350
4CF
  0
DICTIONARY
  5
D
102
{ACAD_REACTORS
330
C
102
}
330
C
100
AcDbDictionary
1001
ACAD
1000
TREAT_AS_HARD
1070
     0
  0
DICTIONARY
  5
1B
102
{ACAD_REACTORS
330
C
102
}
330
C
100
AcDbDictionary
  3
STANDARD
350
1C
1001
ACAD
1000
TREAT_AS_HARD
1070
     0
  0
DICTIONARY
  5
63
102
{ACAD_REACTORS
330
C
102
}
330
C
100
AcDbDictionary
1001
ACAD
1000
TREAT_AS_HARD
1070
     0
  0
DICTIONARY
  5
7C
102
{ACAD_REACTORS
330
C
102
}
330
C
100
AcDbDictionary
1001
ACAD
1000
TREAT_AS_HARD
1070
     0
  0
DICTIONARY
  5
7D
102
{ACAD_REACTORS
330
C
102
}
330
C
100
AcDbDictionary
1001
ACAD
1000
TREAT_AS_HARD
1070
     0
  0
XRECORD
  5
4D1
102
{ACAD_REACTORS
330
4D0
102
}
330
4D0
100
AcDbXrecord
340
18
  0
XRECORD
  5
4CF
102
{ACAD_REACTORS
330
4CE
102
}
330
4CE
100
AcDbXrecord
340
15
  0
MLINESTYLE
  5
1C
102
{ACAD_REACTORS
330
1B
102
}
330
1B
100
AcDbMlineStyle
  2
STANDARD
 70
     0
  3

 62
   256
 51
90.0
 52
90.0
 71
     2
 49
0.5
 62
   256
  6
BYLAYER
 49
-0.5
 62
   256
  6
BYLAYER
  0
ENDSEC
  0
EOF
