  0
SECTION
  2
HEADER
  9
$ACADVER
  1
AC1014
  9
$ACADMAINTVER
 70
     9
  9
$DWGCODEPAGE
  3
ANSI_1252
  9
$INSBASE
 10
0.0
 20
0.0
 30
0.0
  9
$EXTMIN
 10
-49.30000001400003
 20
-49.30000001400004
 30
-0.0000000000000138
  9
$EXTMAX
 10
49.30000001400006
 20
17.95657862097417
 30
0.0000000000000046
  9
$LIMMIN
 10
0.0
 20
0.0
  9
$LIMMAX
 10
12.0
 20
9.0
  9
$ORTHOMODE
 70
     0
  9
$REGENMODE
 70
     1
  9
$FILLMODE
 70
     1
  9
$QTEXTMODE
 70
     0
  9
$MIRRTEXT
 70
     1
  9
$DRAGMODE
 70
     2
  9
$LTSCALE
 40
1.0
  9
$OSMODE
 70
    37
  9
$ATTMODE
 70
     1
  9
$TEXTSIZE
 40
0.2
  9
$TRACEWID
 40
0.05
  9
$TEXTSTYLE
  7
STANDARD
  9
$CLAYER
  8
0
  9
$CELTYPE
  6
BYLAYER
  9
$CECOLOR
 62
   256
  9
$CELTSCALE
 40
1.0
  9
$DELOBJ
 70
     1
  9
$DISPSILH
 70
     0
  9
$DIMSCALE
 40
1.0
  9
$DIMASZ
 40
0.18
  9
$DIMEXO
 40
0.0625
  9
$DIMDLI
 40
0.38
  9
$DIMRND
 40
0.0
  9
$DIMDLE
 40
0.0
  9
$DIMEXE
 40
0.18
  9
$DIMTP
 40
0.0
  9
$DIMTM
 40
0.0
  9
$DIMTXT
 40
0.18
  9
$DIMCEN
 40
0.09
  9
$DIMTSZ
 40
0.0
  9
$DIMTOL
 70
     0
  9
$DIMLIM
 70
     0
  9
$DIMTIH
 70
     1
  9
$DIMTOH
 70
     1
  9
$DIMSE1
 70
     0
  9
$DIMSE2
 70
     0
  9
$DIMTAD
 70
     0
  9
$DIMZIN
 70
     0
  9
$DIMBLK
  1

  9
$DIMASO
 70
     1
  9
$DIMSHO
 70
     1
  9
$DIMPOST
  1

  9
$DIMAPOST
  1

  9
$DIMALT
 70
     0
  9
$DIMALTD
 70
     2
  9
$DIMALTF
 40
25.4
  9
$DIMLFAC
 40
1.0
  9
$DIMTOFL
 70
     0
  9
$DIMTVP
 40
0.0
  9
$DIMTIX
 70
     0
  9
$DIMSOXD
 70
     0
  9
$DIMSAH
 70
     0
  9
$DIMBLK1
  1

  9
$DIMBLK2
  1

  9
$DIMSTYLE
  2
STANDARD
  9
$DIMCLRD
 70
     0
  9
$DIMCLRE
 70
     0
  9
$DIMCLRT
 70
     0
  9
$DIMTFAC
 40
1.0
  9
$DIMGAP
 40
0.09
  9
$DIMJUST
 70
     0
  9
$DIMSD1
 70
     0
  9
$DIMSD2
 70
     0
  9
$DIMTOLJ
 70
     1
  9
$DIMTZIN
 70
     0
  9
$DIMALTZ
 70
     0
  9
$DIMALTTZ
 70
     0
  9
$DIMFIT
 70
     3
  9
$DIMUPT
 70
     0
  9
$DIMUNIT
 70
     2
  9
$DIMDEC
 70
     4
  9
$DIMTDEC
 70
     4
  9
$DIMALTU
 70
     2
  9
$DIMALTTD
 70
     2
  9
$DIMTXSTY
  7
STANDARD
  9
$DIMAUNIT
 70
     0
  9
$LUNITS
 70
     2
  9
$LUPREC
 70
     4
  9
$SKETCHINC
 40
0.1
  9
$FILLETRAD
 40
0.5
  9
$AUNITS
 70
     0
  9
$AUPREC
 70
     0
  9
$MENU
  1
.
  9
$ELEVATION
 40
0.0
  9
$PELEVATION
 40
0.0
  9
$THICKNESS
 40
0.0
  9
$LIMCHECK
 70
     0
  9
$BLIPMODE
 70
     0
  9
$CHAMFERA
 40
0.5
  9
$CHAMFERB
 40
0.5
  9
$CHAMFERC
 40
1.0
  9
$CHAMFERD
 40
0.0
  9
$SKPOLY
 70
     0
  9
$TDCREATE
 40
2451762.577699768
  9
$TDUPDATE
 40
2452857.641639896
  9
$TDINDWG
 40
0.0006570370
  9
$TDUSRTIMER
 40
0.0006570370
  9
$USRTIMER
 70
     1
  9
$ANGBASE
 50
0.0
  9
$ANGDIR
 70
     0
  9
$PDMODE
 70
     0
  9
$PDSIZE
 40
0.0
  9
$PLINEWID
 40
0.0
  9
$COORDS
 70
     1
  9
$SPLFRAME
 70
     0
  9
$SPLINETYPE
 70
     6
  9
$SPLINESEGS
 70
     8
  9
$ATTDIA
 70
     0
  9
$ATTREQ
 70
     1
  9
$HANDLING
 70
  4097
  9
$HANDSEED
  5
E3
  9
$SURFTAB1
 70
     6
  9
$SURFTAB2
 70
     6
  9
$SURFTYPE
 70
     6
  9
$SURFU
 70
     6
  9
$SURFV
 70
     6
  9
$UCSNAME
  2

  9
$UCSORG
 10
0.0
 20
0.0
 30
0.0
  9
$UCSXDIR
 10
1.0
 20
0.0
 30
0.0
  9
$UCSYDIR
 10
0.0
 20
1.0
 30
0.0
  9
$PUCSNAME
  2

  9
$PUCSORG
 10
0.0
 20
0.0
 30
0.0
  9
$PUCSXDIR
 10
1.0
 20
0.0
 30
0.0
  9
$PUCSYDIR
 10
0.0
 20
1.0
 30
0.0
  9
$USERI1
 70
     0
  9
$USERI2
 70
     0
  9
$USERI3
 70
     0
  9
$USERI4
 70
     0
  9
$USERI5
 70
     0
  9
$USERR1
 40
0.0
  9
$USERR2
 40
0.0
  9
$USERR3
 40
0.0
  9
$USERR4
 40
0.0
  9
$USERR5
 40
0.0
  9
$WORLDVIEW
 70
     1
  9
$SHADEDGE
 70
     3
  9
$SHADEDIF
 70
    70
  9
$TILEMODE
 70
     1
  9
$MAXACTVP
 70
    64
  9
$PINSBASE
 10
0.0
 20
0.0
 30
0.0
  9
$PLIMCHECK
 70
     0
  9
$PEXTMIN
 10
1.000000000000000E+20
 20
1.000000000000000E+20
 30
1.000000000000000E+20
  9
$PEXTMAX
 10
-1.000000000000000E+20
 20
-1.000000000000000E+20
 30
-1.000000000000000E+20
  9
$PLIMMIN
 10
0.0
 20
0.0
  9
$PLIMMAX
 10
12.0
 20
9.0
  9
$UNITMODE
 70
     0
  9
$VISRETAIN
 70
     1
  9
$PLINEGEN
 70
     0
  9
$PSLTSCALE
 70
     1
  9
$TREEDEPTH
 70
  3020
  9
$PICKSTYLE
 70
     1
  9
$CMLSTYLE
  2
STANDARD
  9
$CMLJUST
 70
     0
  9
$CMLSCALE
 40
1.0
  9
$PROXYGRAPHICS
 70
     1
  9
$MEASUREMENT
 70
     0
  0
ENDSEC
  0
SECTION
  2
CLASSES
  0
CLASS
  1
ACDBDICTIONARYWDFLT
  2
AcDbDictionaryWithDefault
  3
AutoCAD 2000
 90
        0
280
     0
281
     0
  0
CLASS
  1
ACDBPLACEHOLDER
  2
AcDbPlaceHolder
  3
AutoCAD 2000
 90
        0
280
     0
281
     0
  0
CLASS
  1
LAYOUT
  2
AcDbLayout
  3
AutoCAD 2000
 90
        0
280
     0
281
     0
  0
CLASS
  1
LONG_TRANSACTION
  2
AcDbLongTransaction
  3
AutoCAD 2000
 90
        0
280
     0
281
     0
  0
CLASS
  1
LWPOLYLINE
  2
AcDbPolyline
  3
AutoCAD 2000
 90
        0
280
     0
281
     1
  0
CLASS
  1
HATCH
  2
AcDbHatch
  3
AutoCAD 2000
 90
        0
280
     0
281
     1
  0
CLASS
  1
XRECORD
  2
AcDbXrecord
  3
AutoCAD 2000
 90
        0
280
     0
281
     0
  0
CLASS
  1
LONG_TRANSACTION
  2
AcDbLongTransaction
  3
AutoCAD 2000
 90
        0
280
     0
281
     0
  0
CLASS
  1
LWPOLYLINE
  2
AcDbPolyline
  3
AutoCAD 2000
 90
        0
280
     0
281
     1
  0
CLASS
  1
HATCH
  2
AcDbHatch
  3
AutoCAD 2000
 90
        0
280
     0
281
     1
  0
CLASS
  1
XRECORD
  2
AcDbXrecord
  3
AutoCAD 2000
 90
        0
280
     0
281
     0
  0
ENDSEC
  0
SECTION
  2
TABLES
  0
TABLE
  2
VPORT
  5
8
330
0
100
AcDbSymbolTable
 70
     2
  0
VPORT
  5
C0
330
8
100
AcDbSymbolTableRecord
100
AcDbViewportTableRecord
  2
*ACTIVE
 70
     0
 10
0.0
 20
0.0
 11
1.0
 21
1.0
 12
-0.0000000000000142
 22
-19.77601425015528
 13
0.0
 23
0.0
 14
0.5
 24
0.5
 15
0.5
 25
0.5
 16
0.0
 26
0.0
 36
1.0
 17
0.0
 27
0.0
 37
0.0
 40
77.27067368083291
 41
1.818713450292397
 42
50.0
 43
0.0
 44
0.0
 50
0.0
 51
0.0
 71
     0
 72
   100
 73
     1
 74
     3
 75
     0
 76
     0
 77
     0
 78
     0
  0
ENDTAB
  0
TABLE
  2
LTYPE
  5
5
330
0
100
AcDbSymbolTable
 70
     1
  0
LTYPE
  5
14
330
5
100
AcDbSymbolTableRecord
100
AcDbLinetypeTableRecord
  2
BYBLOCK
 70
     0
  3

 72
    65
 73
     0
 40
0.0
  0
LTYPE
  5
15
330
5
100
AcDbSymbolTableRecord
100
AcDbLinetypeTableRecord
  2
BYLAYER
 70
     0
  3

 72
    65
 73
     0
 40
0.0
  0
LTYPE
  5
16
330
5
100
AcDbSymbolTableRecord
100
AcDbLinetypeTableRecord
  2
CONTINUOUS
 70
     0
  3
Solid line
 72
    65
 73
     0
 40
0.0
  0
ENDTAB
  0
TABLE
  2
LAYER
  5
2
330
0
100
AcDbSymbolTable
 70
     2
  0
LAYER
  5
10
330
2
100
AcDbSymbolTableRecord
100
AcDbLayerTableRecord
  2
0
 70
     0
 62
     7
  6
CONTINUOUS
  0
LAYER
  5
4C
330
2
100
AcDbSymbolTableRecord
100
AcDbLayerTableRecord
  2
PV-68
 70
     2
 62
     7
  6
CONTINUOUS
  0
ENDTAB
  0
TABLE
  2
STYLE
  5
3
330
0
100
AcDbSymbolTable
 70
     1
  0
STYLE
  5
11
330
3
100
AcDbSymbolTableRecord
100
AcDbTextStyleTableRecord
  2
STANDARD
 70
     0
 40
0.0
 41
1.0
 50
0.0
 71
     0
 42
0.2
  3
txt
  4

  0
ENDTAB
  0
TABLE
  2
VIEW
  5
6
330
0
100
AcDbSymbolTable
 70
     0
  0
ENDTAB
  0
TABLE
  2
UCS
  5
7
330
0
100
AcDbSymbolTable
 70
     0
  0
ENDTAB
  0
TABLE
  2
APPID
  5
9
330
0
100
AcDbSymbolTable
 70
     1
  0
APPID
  5
12
330
9
100
AcDbSymbolTableRecord
100
AcDbRegAppTableRecord
  2
ACAD
 70
     0
  0
ENDTAB
  0
TABLE
  2
DIMSTYLE
  5
A
330
0
100
AcDbSymbolTable
 70
     1
  0
DIMSTYLE
105
27
330
A
100
AcDbSymbolTableRecord
100
AcDbDimStyleTableRecord
  2
STANDARD
 70
     0
  3

  4

  5

  6

  7

 40
1.0
 41
0.18
 42
0.0625
 43
0.38
 44
0.18
 45
0.0
 46
0.0
 47
0.0
 48
0.0
140
0.18
141
0.09
142
0.0
143
25.4
144
1.0
145
0.0
146
1.0
147
0.09
 71
     0
 72
     0
 73
     1
 74
     1
 75
     0
 76
     0
 77
     0
 78
     0
170
     0
171
     2
172
     0
173
     0
174
     0
175
     0
176
     0
177
     0
178
     0
270
     2
271
     4
272
     4
273
     2
274
     2
340
11
275
     0
280
     0
281
     0
282
     0
283
     1
284
     0
285
     0
286
     0
287
     3
288
     0
  0
ENDTAB
  0
TABLE
  2
BLOCK_RECORD
  5
1
330
0
100
AcDbSymbolTable
 70
     8
  0
BLOCK_RECORD
  5
1F
102
{ACAD_XDICTIONARY
360
8E
102
}
330
1
100
AcDbSymbolTableRecord
100
AcDbBlockTableRecord
  2
*MODEL_SPACE
  0
BLOCK_RECORD
  5
1B
102
{ACAD_XDICTIONARY
360
8C
102
}
330
1
100
AcDbSymbolTableRecord
100
AcDbBlockTableRecord
  2
*PAPER_SPACE
  0
BLOCK_RECORD
  5
48
330
1
100
AcDbSymbolTableRecord
100
AcDbBlockTableRecord
  2
*U0
  0
BLOCK_RECORD
  5
4D
330
1
100
AcDbSymbolTableRecord
100
AcDbBlockTableRecord
  2
FRONT
  0
BLOCK_RECORD
  5
52
330
1
100
AcDbSymbolTableRecord
100
AcDbBlockTableRecord
  2
*U2
  0
BLOCK_RECORD
  5
5F
330
1
100
AcDbSymbolTableRecord
100
AcDbBlockTableRecord
  2
LEFT
  0
BLOCK_RECORD
  5
64
330
1
100
AcDbSymbolTableRecord
100
AcDbBlockTableRecord
  2
*U4
  0
BLOCK_RECORD
  5
71
330
1
100
AcDbSymbolTableRecord
100
AcDbBlockTableRecord
  2
RIGHT
  0
BLOCK_RECORD
  5
76
330
1
100
AcDbSymbolTableRecord
100
AcDbBlockTableRecord
  2
*U6
  0
BLOCK_RECORD
  5
86
330
1
100
AcDbSymbolTableRecord
100
AcDbBlockTableRecord
  2
TOP
  0
ENDTAB
  0
ENDSEC
  0
SECTION
  2
BLOCKS
  0
BLOCK
  5
20
330
1F
100
AcDbEntity
  8
0
100
AcDbBlockBegin
  2
*MODEL_SPACE
 70
     0
 10
0.0
 20
0.0
 30
0.0
  3
*MODEL_SPACE
  1

  0
ENDBLK
  5
21
330
1F
100
AcDbEntity
  8
0
100
AcDbBlockEnd
  0
BLOCK
  5
1C
330
1B
100
AcDbEntity
 67
     1
  8
0
100
AcDbBlockBegin
  2
*PAPER_SPACE
 70
     0
 10
0.0
 20
0.0
 30
0.0
  3
*PAPER_SPACE
  1

  0
ENDBLK
  5
1D
330
1B
100
AcDbEntity
 67
     1
  8
0
100
AcDbBlockEnd
  0
BLOCK
  5
4A
330
48
100
AcDbEntity
  8
0
100
AcDbBlockBegin
  2
*U0
 70
     1
 10
0.0
 20
0.0
 30
0.0
  3
*U0
  1
*ANON
  0
CIRCLE
  5
49
330
48
100
AcDbEntity
  8
PV-68
100
AcDbCircle
 10
0.0
 20
0.0000000000000017
 30
0.0
 40
17.49999999999999
210
0.0
220
-1.0
230
0.0
  0
ENDBLK
  5
4B
330
48
100
AcDbEntity
  8
0
100
AcDbBlockEnd
  0
BLOCK
  5
4F
330
4D
100
AcDbEntity
  8
0
100
AcDbBlockBegin
  2
FRONT
 70
     0
 10
0.0
 20
0.0
 30
0.0
  3
FRONT
  1

  0
INSERT
  5
4E
330
4D
100
AcDbEntity
  8
PV-68
100
AcDbBlockReference
  2
*U0
 10
0.0
 20
0.0
 30
0.0
 50
180.0
210
0.0
220
1.0
230
0.0
  0
ENDBLK
  5
50
330
4D
100
AcDbEntity
  8
0
100
AcDbBlockEnd
  0
BLOCK
  5
5D
330
52
100
AcDbEntity
  8
0
100
AcDbBlockBegin
  2
*U2
 70
     1
 10
0.0
 20
0.0
 30
0.0
  3
*U2
  1
*ANON
  0
LINE
  5
53
330
52
100
AcDbEntity
  8
PV-68
100
AcDbLine
 10
0.0
 20
-8.799999999999997
 30
17.49999999999999
 11
0.0
 21
-8.800000000000167
 31
-17.50000000000011
  0
LINE
  5
54
330
52
100
AcDbEntity
  8
PV-68
100
AcDbLine
 10
0.0
 20
-0.0000000000000037
 30
17.49999999999999
 11
0.0
 21
0.0000000000000052
 31
-17.49999999999999
  0
LINE
  5
55
330
52
100
AcDbEntity
  8
PV-68
100
AcDbLine
 10
0.0
 20
-8.8
 30
17.49999999999999
 11
0.0
 21
-8.799999999999991
 31
-17.5
  0
LINE
  5
56
330
52
100
AcDbEntity
  8
PV-68
100
AcDbLine
 10
0.0
 20
0.0000000000000053
 30
-17.49999999999999
 11
0.0
 21
-8.799999999999991
 31
-17.49999999999999
  0
LINE
  5
57
330
52
100
AcDbEntity
  8
PV-68
100
AcDbLine
 10
0.0
 20
-0.0000000000000036
 30
17.49999999999999
 11
0.0
 21
-8.8
 31
17.49999999999999
  0
LINE
  5
58
330
52
100
AcDbEntity
  8
PV-68
100
AcDbLine
 10
0.0
 20
-8.800000000000167
 30
-17.50000000000008
 11
0.0
 21
-21.13924433998862
 31
-17.50000000000001
  0
LINE
  5
59
330
52
100
AcDbEntity
  8
PV-68
100
AcDbLine
 10
0.0
 20
-8.799999999999997
 30
17.49999999999996
 11
0.0
 21
-21.13924433998846
 31
17.50000000000001
  0
ARC
  5
5A
330
52
100
AcDbEntity
  8
PV-68
100
AcDbCircle
 10
-75.19999999999997
 20
0.0000000000000018
 30
0.0
 40
100.0
210
-1.0
220
0.0
230
0.0
100
AcDbArc
 50
351.1501169015708
 51
8.849883098429012
  0
ARC
  5
5B
330
52
100
AcDbEntity
  8
PV-68
100
AcDbCircle
 10
21.13924433998846
 20
14.99999999999999
 30
0.0
 40
2.5
210
-1.0
220
0.0
230
0.0
100
AcDbArc
 50
8.849883098429037
 51
89.99999999999992
  0
ARC
  5
5C
330
52
100
AcDbEntity
  8
PV-68
100
AcDbCircle
 10
21.1392443399886
 20
-14.99999999999999
 30
0.0
 40
2.5
210
-1.0
220
0.0
230
0.0
100
AcDbArc
 50
270.0000000000005
 51
351.1501169015715
  0
ENDBLK
  5
5E
330
52
100
AcDbEntity
  8
0
100
AcDbBlockEnd
  0
BLOCK
  5
61
330
5F
100
AcDbEntity
  8
0
100
AcDbBlockBegin
  2
LEFT
 70
     0
 10
0.0
 20
0.0
 30
0.0
  3
LEFT
  1

  0
INSERT
  5
60
330
5F
100
AcDbEntity
  8
PV-68
100
AcDbBlockReference
  2
*U2
 10
0.0
 20
0.0
 30
0.0
 50
270.0
210
0.0
220
1.0
230
0.0
  0
ENDBLK
  5
62
330
5F
100
AcDbEntity
  8
0
100
AcDbBlockEnd
  0
BLOCK
  5
6F
330
64
100
AcDbEntity
  8
0
100
AcDbBlockBegin
  2
*U4
 70
     1
 10
0.0
 20
0.0
 30
0.0
  3
*U4
  1
*ANON
  0
LINE
  5
65
330
64
100
AcDbEntity
  8
PV-68
100
AcDbLine
 10
0.0
 20
-8.800000000000167
 30
-17.50000000000011
 11
0.0
 21
-8.799999999999997
 31
17.49999999999999
  0
LINE
  5
66
330
64
100
AcDbEntity
  8
PV-68
100
AcDbLine
 10
0.0
 20
0.0000000000000052
 30
-17.49999999999999
 11
0.0
 21
-0.0000000000000037
 31
17.49999999999999
  0
LINE
  5
67
330
64
100
AcDbEntity
  8
PV-68
100
AcDbLine
 10
0.0
 20
-8.799999999999991
 30
-17.5
 11
0.0
 21
-8.8
 31
17.49999999999999
  0
LINE
  5
68
330
64
100
AcDbEntity
  8
PV-68
100
AcDbLine
 10
0.0
 20
-0.0000000000000036
 30
17.49999999999999
 11
0.0
 21
-8.8
 31
17.49999999999999
  0
LINE
  5
69
330
64
100
AcDbEntity
  8
PV-68
100
AcDbLine
 10
0.0
 20
0.0000000000000053
 30
-17.49999999999999
 11
0.0
 21
-8.799999999999991
 31
-17.49999999999999
  0
LINE
  5
6A
330
64
100
AcDbEntity
  8
PV-68
100
AcDbLine
 10
0.0
 20
-8.799999999999997
 30
17.49999999999996
 11
0.0
 21
-21.13924433998846
 31
17.50000000000001
  0
LINE
  5
6B
330
64
100
AcDbEntity
  8
PV-68
100
AcDbLine
 10
0.0
 20
-8.800000000000167
 30
-17.50000000000008
 11
0.0
 21
-21.13924433998862
 31
-17.50000000000001
  0
ARC
  5
6C
330
64
100
AcDbEntity
  8
PV-68
100
AcDbCircle
 10
75.19999999999997
 20
0.0000000000000018
 30
0.0
 40
100.0
210
1.0
220
0.0
230
0.0
100
AcDbArc
 50
171.1501169015709
 51
188.8498830984291
  0
ARC
  5
6D
330
64
100
AcDbEntity
  8
PV-68
100
AcDbCircle
 10
-21.1392443399886
 20
-14.99999999999999
 30
0.0
 40
2.5
210
1.0
220
0.0
230
0.0
100
AcDbArc
 50
188.8498830984284
 51
269.9999999999993
  0
ARC
  5
6E
330
64
100
AcDbEntity
  8
PV-68
100
AcDbCircle
 10
-21.13924433998846
 20
14.99999999999999
 30
0.0
 40
2.5
210
1.0
220
0.0
230
0.0
100
AcDbArc
 50
90.00000000000012
 51
171.1501169015709
  0
ENDBLK
  5
70
330
64
100
AcDbEntity
  8
0
100
AcDbBlockEnd
  0
BLOCK
  5
73
330
71
100
AcDbEntity
  8
0
100
AcDbBlockBegin
  2
RIGHT
 70
     0
 10
0.0
 20
0.0
 30
0.0
  3
RIGHT
  1

  0
INSERT
  5
72
330
71
100
AcDbEntity
  8
PV-68
100
AcDbBlockReference
  2
*U4
 10
0.0
 20
0.0
 30
0.0
 50
90.0
210
0.0
220
1.0
230
0.0
  0
ENDBLK
  5
74
330
71
100
AcDbEntity
  8
0
100
AcDbBlockEnd
  0
BLOCK
  5
84
330
76
100
AcDbEntity
  8
0
100
AcDbBlockBegin
  2
*U6
 70
     1
 10
0.0
 20
0.0
 30
0.0
  3
*U6
  1
*ANON
  0
LINE
  5
77
330
76
100
AcDbEntity
  8
PV-68
100
AcDbLine
 10
0.0000000000000011
 20
-8.799999999999997
 30
0.0
 11
-17.50000000000005
 21
-8.800000000000082
 31
0.0
  0
LINE
  5
78
330
76
100
AcDbEntity
  8
PV-68
100
AcDbLine
 10
17.50000000000005
 20
-8.800000000000082
 30
0.0
 11
-0.0000000000002433
 21
-8.799999999999997
 31
0.0
  0
LINE
  5
79
330
76
100
AcDbEntity
  8
PV-68
100
AcDbLine
 10
0.0000000000000011
 20
-0.0000000000000037
 30
0.0
 11
-17.49999999999999
 21
0.0000000000000007
 31
0.0
  0
LINE
  5
7A
330
76
100
AcDbEntity
  8
PV-68
100
AcDbLine
 10
17.49999999999999
 20
0.0000000000000007
 30
0.0
 11
-0.0000000000002433
 21
-0.0000000000000037
 31
0.0
  0
LINE
  5
7B
330
76
100
AcDbEntity
  8
PV-68
100
AcDbLine
 10
0.0000000000000011
 20
-8.8
 30
0.0
 11
-17.49999999999999
 21
-8.799999999999997
 31
0.0
  0
LINE
  5
7C
330
76
100
AcDbEntity
  8
PV-68
100
AcDbLine
 10
17.49999999999999
 20
-8.799999999999997
 30
0.0
 11
-0.0000000000002433
 21
-8.8
 31
0.0
  0
LINE
  5
7D
330
76
100
AcDbEntity
  8
PV-68
100
AcDbLine
 10
-17.49999999999999
 20
0.0000000000000009
 30
0.0
 11
-17.49999999999999
 21
-8.799999999999997
 31
0.0
  0
LINE
  5
7E
330
76
100
AcDbEntity
  8
PV-68
100
AcDbLine
 10
17.49999999999999
 20
0.0000000000000009
 30
0.0
 11
17.49999999999999
 21
-8.799999999999997
 31
0.0
  0
LINE
  5
7F
330
76
100
AcDbEntity
  8
PV-68
100
AcDbLine
 10
-17.50000000000001
 20
-8.800000000000082
 30
0.0
 11
-17.50000000000001
 21
-21.13924433998854
 31
0.0
  0
LINE
  5
80
330
76
100
AcDbEntity
  8
PV-68
100
AcDbLine
 10
17.50000000000001
 20
-8.800000000000082
 30
0.0
 11
17.50000000000001
 21
-21.13924433998854
 31
0.0
  0
ARC
  5
81
330
76
100
AcDbEntity
  8
PV-68
100
AcDbCircle
 10
0.0
 20
75.19999999999997
 30
0.0
 40
100.0
100
AcDbArc
 50
261.1501169015708
 51
278.8498830984289
  0
ARC
  5
82
330
76
100
AcDbEntity
  8
PV-68
100
AcDbCircle
 10
14.99999999999999
 20
-21.13924433998853
 30
0.0
 40
2.5
100
AcDbArc
 50
278.8498830984286
 51
359.9999999999997
  0
ARC
  5
83
330
76
100
AcDbEntity
  8
PV-68
100
AcDbCircle
 10
-14.99999999999999
 20
-21.13924433998853
 30
0.0
 40
2.5
100
AcDbArc
 50
180.0000000000003
 51
261.1501169015712
  0
ENDBLK
  5
85
330
76
100
AcDbEntity
  8
0
100
AcDbBlockEnd
  0
BLOCK
  5
88
330
86
100
AcDbEntity
  8
0
100
AcDbBlockBegin
  2
TOP
 70
     0
 10
0.0
 20
0.0
 30
0.0
  3
TOP
  1

  0
INSERT
  5
87
330
86
100
AcDbEntity
  8
PV-68
100
AcDbBlockReference
  2
*U6
 10
0.0
 20
0.0
 30
0.0
  0
ENDBLK
  5
89
330
86
100
AcDbEntity
  8
0
100
AcDbBlockEnd
  0
ENDSEC
  0
SECTION
  2
ENTITIES
  0
LINE
  5
9B
330
1F
100
AcDbEntity
  8
PV-68
100
AcDbLine
 10
-33.30000001400017
 20
-17.50000000000011
 30
-0.0000000000000005
 11
-33.300000014
 21
17.49999999999999
 31
-0.0000000000000005
210
0.0
220
1.0
230
0.0
  0
LINE
  5
9C
330
1F
100
AcDbEntity
  8
PV-68
100
AcDbLine
 10
-24.50000001399999
 20
-17.49999999999999
 30
0.0
 11
-24.500000014
 21
17.49999999999999
 31
0.0
210
0.0
220
1.0
230
0.0
  0
LINE
  5
9D
330
1F
100
AcDbEntity
  8
PV-68
100
AcDbLine
 10
-33.30000001399999
 20
-17.5
 30
-0.0000000000000005
 11
-33.300000014
 21
17.49999999999999
 31
-0.0000000000000005
210
0.0
220
1.0
230
0.0
  0
LINE
  5
9E
330
1F
100
AcDbEntity
  8
PV-68
100
AcDbLine
 10
-24.500000014
 20
17.49999999999999
 30
0.0
 11
-33.300000014
 21
17.49999999999999
 31
-0.0000000000000005
210
0.0
220
1.0
230
0.0
  0
LINE
  5
9F
330
1F
100
AcDbEntity
  8
PV-68
100
AcDbLine
 10
-24.50000001399999
 20
-17.49999999999999
 30
0.0
 11
-33.30000001399999
 21
-17.49999999999999
 31
-0.0000000000000005
210
0.0
220
1.0
230
0.0
  0
LINE
  5
A0
330
1F
100
AcDbEntity
  8
PV-68
100
AcDbLine
 10
-33.300000014
 20
17.49999999999996
 30
-0.0000000000000005
 11
-45.63924435398845
 21
17.50000000000001
 31
-0.0000000000000013
210
0.0
220
1.0
230
0.0
  0
LINE
  5
A1
330
1F
100
AcDbEntity
  8
PV-68
100
AcDbLine
 10
-33.30000001400017
 20
-17.50000000000008
 30
-0.0000000000000005
 11
-45.63924435398862
 21
-17.50000000000001
 31
-0.0000000000000013
210
0.0
220
1.0
230
0.0
  0
ARC
  5
A2
330
1F
100
AcDbEntity
  8
PV-68
100
AcDbCircle
 10
50.69999998599997
 20
0.0000000000000018
 30
0.0000000000000046
 40
100.0
100
AcDbArc
 50
171.1501169015709
 51
188.849883098429
  0
ARC
  5
A3
330
1F
100
AcDbEntity
  8
PV-68
100
AcDbCircle
 10
-45.63924435398861
 20
-14.99999999999999
 30
-0.0000000000000013
 40
2.5
100
AcDbArc
 50
188.8498830984284
 51
269.9999999999993
  0
ARC
  5
A4
330
1F
100
AcDbEntity
  8
PV-68
100
AcDbCircle
 10
-45.63924435398845
 20
14.99999999999999
 30
-0.0000000000000013
 40
2.5
100
AcDbArc
 50
90.00000000000019
 51
171.1501169015709
  0
CIRCLE
  5
A6
330
1F
100
AcDbEntity
  8
PV-68
100
AcDbCircle
 10
0.0
 20
0.0000000000000017
 30
0.0
 40
17.49999999999999
  0
LINE
  5
A8
330
1F
100
AcDbEntity
  8
PV-68
100
AcDbLine
 10
33.300000014
 20
17.49999999999999
 30
0.0000000000000016
 11
33.30000001400017
 21
-17.50000000000011
 31
0.0000000000000016
210
0.0
220
1.0
230
0.0
  0
LINE
  5
A9
330
1F
100
AcDbEntity
  8
PV-68
100
AcDbLine
 10
24.500000014
 20
17.49999999999999
 30
0.0
 11
24.50000001399999
 21
-17.49999999999999
 31
0.0
210
0.0
220
1.0
230
0.0
  0
LINE
  5
AA
330
1F
100
AcDbEntity
  8
PV-68
100
AcDbLine
 10
33.300000014
 20
17.49999999999999
 30
0.0000000000000016
 11
33.30000001399999
 21
-17.5
 31
0.0000000000000016
210
0.0
220
1.0
230
0.0
  0
LINE
  5
AB
330
1F
100
AcDbEntity
  8
PV-68
100
AcDbLine
 10
24.50000001399999
 20
-17.49999999999999
 30
0.0
 11
33.30000001399999
 21
-17.49999999999999
 31
0.0000000000000016
210
0.0
220
1.0
230
0.0
  0
LINE
  5
AC
330
1F
100
AcDbEntity
  8
PV-68
100
AcDbLine
 10
24.500000014
 20
17.49999999999999
 30
0.0
 11
33.300000014
 21
17.49999999999999
 31
0.0000000000000016
210
0.0
220
1.0
230
0.0
  0
LINE
  5
AD
330
1F
100
AcDbEntity
  8
PV-68
100
AcDbLine
 10
33.30000001400017
 20
-17.50000000000008
 30
0.0000000000000016
 11
45.63924435398862
 21
-17.50000000000001
 31
0.0000000000000039
210
0.0
220
1.0
230
0.0
  0
LINE
  5
AE
330
1F
100
AcDbEntity
  8
PV-68
100
AcDbLine
 10
33.300000014
 20
17.49999999999996
 30
0.0000000000000016
 11
45.63924435398845
 21
17.50000000000001
 31
0.0000000000000039
210
0.0
220
1.0
230
0.0
  0
ARC
  5
AF
330
1F
100
AcDbEntity
  8
PV-68
100
AcDbCircle
 10
-50.69999998599997
 20
0.0000000000000018
 30
-0.0000000000000138
 40
100.0
100
AcDbArc
 50
351.1501169015708
 51
8.849883098429
  0
ARC
  5
B0
330
1F
100
AcDbEntity
  8
PV-68
100
AcDbCircle
 10
45.63924435398845
 20
14.99999999999999
 30
0.0000000000000039
 40
2.5
100
AcDbArc
 50
8.849883098429025
 51
90.0
  0
ARC
  5
B1
330
1F
100
AcDbEntity
  8
PV-68
100
AcDbCircle
 10
45.63924435398861
 20
-14.99999999999999
 30
0.0000000000000039
 40
2.5
100
AcDbArc
 50
270.0000000000004
 51
351.1501169015715
  0
LINE
  5
B3
330
1F
100
AcDbEntity
  8
PV-68
100
AcDbLine
 10
0.0000000000000047
 20
-33.30000001399998
 30
0.0
 11
-17.50000000000004
 21
-33.30000001400007
 31
0.0
  0
LINE
  5
B4
330
1F
100
AcDbEntity
  8
PV-68
100
AcDbLine
 10
17.50000000000005
 20
-33.30000001400007
 30
0.0
 11
-0.0000000000002397
 21
-33.30000001399998
 31
0.0
  0
LINE
  5
B5
330
1F
100
AcDbEntity
  8
PV-68
100
AcDbLine
 10
0.0000000000000047
 20
-24.50000001399999
 30
0.0
 11
-17.49999999999998
 21
-24.50000001399998
 31
0.0
  0
LINE
  5
B6
330
1F
100
AcDbEntity
  8
PV-68
100
AcDbLine
 10
17.49999999999999
 20
-24.50000001399998
 30
0.0
 11
-0.0000000000002397
 21
-24.50000001399999
 31
0.0
  0
LINE
  5
B7
330
1F
100
AcDbEntity
  8
PV-68
100
AcDbLine
 10
0.0000000000000047
 20
-33.30000001399999
 30
0.0
 11
-17.49999999999998
 21
-33.30000001399998
 31
0.0
  0
LINE
  5
B8
330
1F
100
AcDbEntity
  8
PV-68
100
AcDbLine
 10
17.49999999999999
 20
-33.30000001399998
 30
0.0
 11
-0.0000000000002397
 21
-33.30000001399999
 31
0.0
  0
LINE
  5
B9
330
1F
100
AcDbEntity
  8
PV-68
100
AcDbLine
 10
-17.49999999999998
 20
-24.50000001399998
 30
0.0
 11
-17.49999999999998
 21
-33.30000001399998
 31
0.0
  0
LINE
  5
BA
330
1F
100
AcDbEntity
  8
PV-68
100
AcDbLine
 10
17.49999999999999
 20
-24.50000001399998
 30
0.0
 11
17.49999999999999
 21
-33.30000001399998
 31
0.0
  0
LINE
  5
BB
330
1F
100
AcDbEntity
  8
PV-68
100
AcDbLine
 10
-17.50000000000001
 20
-33.30000001400007
 30
0.0
 11
-17.50000000000001
 21
-45.63924435398853
 31
0.0
  0
LINE
  5
BC
330
1F
100
AcDbEntity
  8
PV-68
100
AcDbLine
 10
17.50000000000002
 20
-33.30000001400007
 30
0.0
 11
17.50000000000002
 21
-45.63924435398853
 31
0.0
  0
ARC
  5
BD
330
1F
100
AcDbEntity
  8
PV-68
100
AcDbCircle
 10
0.0000000000000036
 20
50.69999998599999
 30
0.0
 40
100.0
100
AcDbArc
 50
261.1501169015708
 51
278.8498830984289
  0
ARC
  5
BE
330
1F
100
AcDbEntity
  8
PV-68
100
AcDbCircle
 10
14.99999999999999
 20
-45.63924435398852
 30
0.0
 40
2.5
100
AcDbArc
 50
278.8498830984286
 51
359.9999999999997
  0
ARC
  5
BF
330
1F
100
AcDbEntity
  8
PV-68
100
AcDbCircle
 10
-14.99999999999998
 20
-45.63924435398852
 30
0.0
 40
2.5
100
AcDbArc
 50
180.0000000000002
 51
261.1501169015712
  0
ENDSEC
  0
SECTION
  2
OBJECTS
  0
DICTIONARY
  5
C
330
0
100
AcDbDictionary
  3
ACAD_GROUP
350
D
  3
ACAD_LAYOUT
350
1A
  3
ACAD_MLINESTYLE
350
17
  3
ACAD_PLOTSETTINGS
350
19
  3
ACAD_PLOTSTYLENAME
350
94
  3
ACDBHEADERROUNDTRIPXREC
350
C1
1001
ACAD
1000
TREAT_AS_HARD
1070
     0
  0
DICTIONARY
  5
8E
330
1F
100
AcDbDictionary
  3
ACAD_LAYOUTSELFREF
350
E2
  0
DICTIONARY
  5
8C
330
1B
100
AcDbDictionary
  3
ACAD_LAYOUTSELFREF
350
E1
  0
DICTIONARY
  5
D
102
{ACAD_REACTORS
330
C
102
}
330
C
100
AcDbDictionary
1001
ACAD
1000
TREAT_AS_HARD
1070
     0
  0
DICTIONARY
  5
1A
102
{ACAD_REACTORS
330
C
102
}
330
C
100
AcDbDictionary
1001
ACAD
1000
TREAT_AS_HARD
1070
     0
  0
DICTIONARY
  5
17
102
{ACAD_REACTORS
330
C
102
}
330
C
100
AcDbDictionary
  3
STANDARD
350
18
1001
ACAD
1000
TREAT_AS_HARD
1070
     0
  0
DICTIONARY
  5
19
102
{ACAD_REACTORS
330
C
102
}
330
C
100
AcDbDictionary
1001
ACAD
1000
TREAT_AS_HARD
1070
     0
  0
ACDBDICTIONARYWDFLT
  5
94
102
{ACAD_REACTORS
330
C
102
}
330
C
100
AcDbDictionary
281
     1
  3
Normal
350
95
100
AcDbDictionaryWithDefault
340
95
  0
DICTIONARY
  5
C1
102
{ACAD_REACTORS
330
C
102
}
330
C
100
AcDbDictionary
  3
TSTACKALIGN
350
C2
  3
TSTACKSIZE
350
C3
  3
HYPERLINKBASE
350
C4
  3
STYLESHEET
350
C5
  3
LAYOUTDICT
350
C6
  3
PLOTSETDICT
350
C7
  3
PLOTSTYLNAMDICT
350
C8
  3
LWETCUNION
350
C9
  3
INSUNITS
350
CA
  3
CEPSNTYPE
350
CB
  3
FINGERPRINTGUID
350
CC
  3
VERSIONGUID
350
CD
  3
PSVPSCALE
350
CE
  3
PUCSORTHOREF
350
CF
  3
PUCSORTHOVIEW
350
D0
  3
PUCSBASE
350
D1
  3
PUCSORGTOP
350
D2
  3
PUCSORGBOTTOM
350
D3
  3
PUCSORGLEFT
350
D4
  3
PUCSORGRIGHT
350
D5
  3
PUCSORGFRONT
350
D6
  3
PUCSORGBACK
350
D7
  3
UCSORTHOREF
350
D8
  3
UCSORTHOVIEW
350
D9
  3
UCSBASE
350
DA
  3
UCSORGTOP
350
DB
  3
UCSORGBOTTOM
350
DC
  3
UCSORGLEFT
350
DD
  3
UCSORGRIGHT
350
DE
  3
UCSORGFRONT
350
DF
  3
UCSORGBACK
350
E0
  0
XRECORD
  5
E2
102
{ACAD_REACTORS
330
8E
102
}
330
8E
100
AcDbXrecord
340
1F
  0
XRECORD
  5
E1
102
{ACAD_REACTORS
330
8C
102
}
330
8C
100
AcDbXrecord
340
1B
  0
MLINESTYLE
  5
18
102
{ACAD_REACTORS
330
17
102
}
330
17
100
AcDbMlineStyle
  2
STANDARD
 70
     0
  3

 62
   256
 51
90.0
 52
90.0
 71
     2
 49
0.5
 62
   256
  6
BYLAYER
 49
-0.5
 62
   256
  6
BYLAYER
  0
ACDBPLACEHOLDER
  5
95
102
{ACAD_REACTORS
330
94
102
}
330
94
100
AcDbPlaceHolder
280
     0
  0
XRECORD
  5
C2
102
{ACAD_REACTORS
330
C1
102
}
330
C1
100
AcDbXrecord
 90
        1
  0
XRECORD
  5
C3
102
{ACAD_REACTORS
330
C1
102
}
330
C1
100
AcDbXrecord
 90
       70
  0
XRECORD
  5
C4
102
{ACAD_REACTORS
330
C1
102
}
330
C1
100
AcDbXrecord
  1

  0
XRECORD
  5
C5
102
{ACAD_REACTORS
330
C1
102
}
330
C1
100
AcDbXrecord
  1

  0
XRECORD
  5
C6
102
{ACAD_REACTORS
330
C1
102
}
330
C1
100
AcDbXrecord
340
1A
  0
XRECORD
  5
C7
102
{ACAD_REACTORS
330
C1
102
}
330
C1
100
AcDbXrecord
340
19
  0
XRECORD
  5
C8
102
{ACAD_REACTORS
330
C1
102
}
330
C1
100
AcDbXrecord
340
94
  0
XRECORD
  5
C9
102
{ACAD_REACTORS
330
C1
102
}
330
C1
100
AcDbXrecord
 90
    10781
  0
XRECORD
  5
CA
102
{ACAD_REACTORS
330
C1
102
}
330
C1
100
AcDbXrecord
 90
        0
  0
XRECORD
  5
CB
102
{ACAD_REACTORS
330
C1
102
}
330
C1
100
AcDbXrecord
 90
        0
  0
XRECORD
  5
CC
102
{ACAD_REACTORS
330
C1
102
}
330
C1
100
AcDbXrecord
  1
{AB3C1312-CE51-4C67-B16B-CFF3724B6D91}
  0
XRECORD
  5
CD
102
{ACAD_REACTORS
330
C1
102
}
330
C1
100
AcDbXrecord
  1
{58BA8989-9549-4271-8FEF-4523CCB683D5}
  0
XRECORD
  5
CE
102
{ACAD_REACTORS
330
C1
102
}
330
C1
100
AcDbXrecord
 40
0.0
  0
XRECORD
  5
CF
102
{ACAD_REACTORS
330
C1
102
}
330
C1
100
AcDbXrecord
340
0
  0
XRECORD
  5
D0
102
{ACAD_REACTORS
330
C1
102
}
330
C1
100
AcDbXrecord
 70
     0
  0
XRECORD
  5
D1
102
{ACAD_REACTORS
330
C1
102
}
330
C1
100
AcDbXrecord
340
0
  0
XRECORD
  5
D2
102
{ACAD_REACTORS
330
C1
102
}
330
C1
100
AcDbXrecord
 10
0.0
 20
0.0
 30
0.0
  0
XRECORD
  5
D3
102
{ACAD_REACTORS
330
C1
102
}
330
C1
100
AcDbXrecord
 10
0.0
 20
0.0
 30
0.0
  0
XRECORD
  5
D4
102
{ACAD_REACTORS
330
C1
102
}
330
C1
100
AcDbXrecord
 10
0.0
 20
0.0
 30
0.0
  0
XRECORD
  5
D5
102
{ACAD_REACTORS
330
C1
102
}
330
C1
100
AcDbXrecord
 10
0.0
 20
0.0
 30
0.0
  0
XRECORD
  5
D6
102
{ACAD_REACTORS
330
C1
102
}
330
C1
100
AcDbXrecord
 10
0.0
 20
0.0
 30
0.0
  0
XRECORD
  5
D7
102
{ACAD_REACTORS
330
C1
102
}
330
C1
100
AcDbXrecord
 10
0.0
 20
0.0
 30
0.0
  0
XRECORD
  5
D8
102
{ACAD_REACTORS
330
C1
102
}
330
C1
100
AcDbXrecord
340
0
  0
XRECORD
  5
D9
102
{ACAD_REACTORS
330
C1
102
}
330
C1
100
AcDbXrecord
 70
     0
  0
XRECORD
  5
DA
102
{ACAD_REACTORS
330
C1
102
}
330
C1
100
AcDbXrecord
340
0
  0
XRECORD
  5
DB
102
{ACAD_REACTORS
330
C1
102
}
330
C1
100
AcDbXrecord
 10
0.0
 20
0.0
 30
0.0
  0
XRECORD
  5
DC
102
{ACAD_REACTORS
330
C1
102
}
330
C1
100
AcDbXrecord
 10
0.0
 20
0.0
 30
0.0
  0
XRECORD
  5
DD
102
{ACAD_REACTORS
330
C1
102
}
330
C1
100
AcDbXrecord
 10
0.0
 20
0.0
 30
0.0
  0
XRECORD
  5
DE
102
{ACAD_REACTORS
330
C1
102
}
330
C1
100
AcDbXrecord
 10
0.0
 20
0.0
 30
0.0
  0
XRECORD
  5
DF
102
{ACAD_REACTORS
330
C1
102
}
330
C1
100
AcDbXrecord
 10
0.0
 20
0.0
 30
0.0
  0
XRECORD
  5
E0
102
{ACAD_REACTORS
330
C1
102
}
330
C1
100
AcDbXrecord
 10
0.0
 20
0.0
 30
0.0
  0
ENDSEC
  0
EOF
