  0
SECTION
  2
HEADER
  9
$ACADVER
  1
AC1014
  9
$ACADMAINTVER
 70
     9
  9
$DWGCODEPAGE
  3
ANSI_1252
  9
$INSBASE
 10
0.0
 20
0.0
 30
0.0
  9
$EXTMIN
 10
-151.5012816507978
 20
-124.3559135711517
 30
-0.000000010000003
  9
$EXTMAX
 10
151.5012816507979
 20
16.7900583893488
 30
0.0000000100000089
  9
$LIMMIN
 10
0.0
 20
0.0
  9
$LIMMAX
 10
12.0
 20
9.0
  9
$ORTHOMODE
 70
     0
  9
$REGENMODE
 70
     1
  9
$FILLMODE
 70
     1
  9
$QTEXTMODE
 70
     0
  9
$MIRRTEXT
 70
     1
  9
$DRAGMODE
 70
     2
  9
$LTSCALE
 40
1.0
  9
$OSMODE
 70
    37
  9
$ATTMODE
 70
     1
  9
$TEXTSIZE
 40
0.2
  9
$TRACEWID
 40
0.05
  9
$TEXTSTYLE
  7
STANDARD
  9
$CLAYER
  8
0
  9
$CELTYPE
  6
BYLAYER
  9
$CECOLOR
 62
   256
  9
$CELTSCALE
 40
1.0
  9
$DELOBJ
 70
     1
  9
$DISPSILH
 70
     0
  9
$DIMSCALE
 40
1.0
  9
$DIMASZ
 40
0.18
  9
$DIMEXO
 40
0.0625
  9
$DIMDLI
 40
0.38
  9
$DIMRND
 40
0.0
  9
$DIMDLE
 40
0.0
  9
$DIMEXE
 40
0.18
  9
$DIMTP
 40
0.0
  9
$DIMTM
 40
0.0
  9
$DIMTXT
 40
0.18
  9
$DIMCEN
 40
0.09
  9
$DIMTSZ
 40
0.0
  9
$DIMTOL
 70
     0
  9
$DIMLIM
 70
     0
  9
$DIMTIH
 70
     1
  9
$DIMTOH
 70
     1
  9
$DIMSE1
 70
     0
  9
$DIMSE2
 70
     0
  9
$DIMTAD
 70
     0
  9
$DIMZIN
 70
     0
  9
$DIMBLK
  1

  9
$DIMASO
 70
     1
  9
$DIMSHO
 70
     1
  9
$DIMPOST
  1

  9
$DIMAPOST
  1

  9
$DIMALT
 70
     0
  9
$DIMALTD
 70
     2
  9
$DIMALTF
 40
25.4
  9
$DIMLFAC
 40
1.0
  9
$DIMTOFL
 70
     0
  9
$DIMTVP
 40
0.0
  9
$DIMTIX
 70
     0
  9
$DIMSOXD
 70
     0
  9
$DIMSAH
 70
     0
  9
$DIMBLK1
  1

  9
$DIMBLK2
  1

  9
$DIMSTYLE
  2
STANDARD
  9
$DIMCLRD
 70
     0
  9
$DIMCLRE
 70
     0
  9
$DIMCLRT
 70
     0
  9
$DIMTFAC
 40
1.0
  9
$DIMGAP
 40
0.09
  9
$DIMJUST
 70
     0
  9
$DIMSD1
 70
     0
  9
$DIMSD2
 70
     0
  9
$DIMTOLJ
 70
     1
  9
$DIMTZIN
 70
     0
  9
$DIMALTZ
 70
     0
  9
$DIMALTTZ
 70
     0
  9
$DIMFIT
 70
     3
  9
$DIMUPT
 70
     0
  9
$DIMUNIT
 70
     2
  9
$DIMDEC
 70
     4
  9
$DIMTDEC
 70
     4
  9
$DIMALTU
 70
     2
  9
$DIMALTTD
 70
     2
  9
$DIMTXSTY
  7
STANDARD
  9
$DIMAUNIT
 70
     0
  9
$LUNITS
 70
     2
  9
$LUPREC
 70
     4
  9
$SKETCHINC
 40
0.1
  9
$FILLETRAD
 40
0.5
  9
$AUNITS
 70
     0
  9
$AUPREC
 70
     0
  9
$MENU
  1
.
  9
$ELEVATION
 40
0.0
  9
$PELEVATION
 40
0.0
  9
$THICKNESS
 40
0.0
  9
$LIMCHECK
 70
     0
  9
$BLIPMODE
 70
     0
  9
$CHAMFERA
 40
0.5
  9
$CHAMFERB
 40
0.5
  9
$CHAMFERC
 40
1.0
  9
$CHAMFERD
 40
0.0
  9
$SKPOLY
 70
     0
  9
$TDCREATE
 40
2451762.578655324
  9
$TDUPDATE
 40
2452857.645095301
  9
$TDINDWG
 40
0.0009115741
  9
$TDUSRTIMER
 40
0.0009114005
  9
$USRTIMER
 70
     1
  9
$ANGBASE
 50
0.0
  9
$ANGDIR
 70
     0
  9
$PDMODE
 70
     0
  9
$PDSIZE
 40
0.0
  9
$PLINEWID
 40
0.0
  9
$COORDS
 70
     1
  9
$SPLFRAME
 70
     0
  9
$SPLINETYPE
 70
     6
  9
$SPLINESEGS
 70
     8
  9
$ATTDIA
 70
     0
  9
$ATTREQ
 70
     1
  9
$HANDLING
 70
  4097
  9
$HANDSEED
  5
1D7
  9
$SURFTAB1
 70
     6
  9
$SURFTAB2
 70
     6
  9
$SURFTYPE
 70
     6
  9
$SURFU
 70
     6
  9
$SURFV
 70
     6
  9
$UCSNAME
  2

  9
$UCSORG
 10
0.0
 20
0.0
 30
0.0
  9
$UCSXDIR
 10
1.0
 20
0.0
 30
0.0
  9
$UCSYDIR
 10
0.0
 20
1.0
 30
0.0
  9
$PUCSNAME
  2

  9
$PUCSORG
 10
0.0
 20
0.0
 30
0.0
  9
$PUCSXDIR
 10
1.0
 20
0.0
 30
0.0
  9
$PUCSYDIR
 10
0.0
 20
1.0
 30
0.0
  9
$USERI1
 70
     0
  9
$USERI2
 70
     0
  9
$USERI3
 70
     0
  9
$USERI4
 70
     0
  9
$USERI5
 70
     0
  9
$USERR1
 40
0.0
  9
$USERR2
 40
0.0
  9
$USERR3
 40
0.0
  9
$USERR4
 40
0.0
  9
$USERR5
 40
0.0
  9
$WORLDVIEW
 70
     1
  9
$SHADEDGE
 70
     3
  9
$SHADEDIF
 70
    70
  9
$TILEMODE
 70
     1
  9
$MAXACTVP
 70
    64
  9
$PINSBASE
 10
0.0
 20
0.0
 30
0.0
  9
$PLIMCHECK
 70
     0
  9
$PEXTMIN
 10
1.000000000000000E+20
 20
1.000000000000000E+20
 30
1.000000000000000E+20
  9
$PEXTMAX
 10
-1.000000000000000E+20
 20
-1.000000000000000E+20
 30
-1.000000000000000E+20
  9
$PLIMMIN
 10
0.0
 20
0.0
  9
$PLIMMAX
 10
12.0
 20
9.0
  9
$UNITMODE
 70
     0
  9
$VISRETAIN
 70
     1
  9
$PLINEGEN
 70
     0
  9
$PSLTSCALE
 70
     1
  9
$TREEDEPTH
 70
  3020
  9
$PICKSTYLE
 70
     1
  9
$CMLSTYLE
  2
STANDARD
  9
$CMLJUST
 70
     0
  9
$CMLSCALE
 40
1.0
  9
$PROXYGRAPHICS
 70
     1
  9
$MEASUREMENT
 70
     0
  0
ENDSEC
  0
SECTION
  2
CLASSES
  0
CLASS
  1
ACDBDICTIONARYWDFLT
  2
AcDbDictionaryWithDefault
  3
AutoCAD 2000
 90
        0
280
     0
281
     0
  0
CLASS
  1
ACDBPLACEHOLDER
  2
AcDbPlaceHolder
  3
AutoCAD 2000
 90
        0
280
     0
281
     0
  0
CLASS
  1
LAYOUT
  2
AcDbLayout
  3
AutoCAD 2000
 90
        0
280
     0
281
     0
  0
CLASS
  1
LONG_TRANSACTION
  2
AcDbLongTransaction
  3
AutoCAD 2000
 90
        0
280
     0
281
     0
  0
CLASS
  1
LWPOLYLINE
  2
AcDbPolyline
  3
AutoCAD 2000
 90
        0
280
     0
281
     1
  0
CLASS
  1
HATCH
  2
AcDbHatch
  3
AutoCAD 2000
 90
        0
280
     0
281
     1
  0
CLASS
  1
XRECORD
  2
AcDbXrecord
  3
AutoCAD 2000
 90
        0
280
     0
281
     0
  0
CLASS
  1
LONG_TRANSACTION
  2
AcDbLongTransaction
  3
AutoCAD 2000
 90
        0
280
     0
281
     0
  0
CLASS
  1
LWPOLYLINE
  2
AcDbPolyline
  3
AutoCAD 2000
 90
        0
280
     0
281
     1
  0
CLASS
  1
HATCH
  2
AcDbHatch
  3
AutoCAD 2000
 90
        0
280
     0
281
     1
  0
CLASS
  1
XRECORD
  2
AcDbXrecord
  3
AutoCAD 2000
 90
        0
280
     0
281
     0
  0
ENDSEC
  0
SECTION
  2
TABLES
  0
TABLE
  2
VPORT
  5
8
330
0
100
AcDbSymbolTable
 70
     2
  0
VPORT
  5
1B4
330
8
100
AcDbSymbolTableRecord
100
AcDbViewportTableRecord
  2
*ACTIVE
 70
     0
 10
0.0
 20
0.0
 11
1.0
 21
1.0
 12
0.0000000000000853
 22
-39.85456394836708
 13
0.0
 23
0.0
 14
0.5
 24
0.5
 15
0.5
 25
0.5
 16
0.0
 26
0.0
 36
1.0
 17
0.0
 27
0.0
 37
0.0
 40
167.425733758453
 41
1.818713450292397
 42
50.0
 43
0.0
 44
0.0
 50
0.0
 51
0.0
 71
     0
 72
   100
 73
     1
 74
     3
 75
     0
 76
     0
 77
     0
 78
     0
  0
ENDTAB
  0
TABLE
  2
LTYPE
  5
5
330
0
100
AcDbSymbolTable
 70
     1
  0
LTYPE
  5
14
330
5
100
AcDbSymbolTableRecord
100
AcDbLinetypeTableRecord
  2
BYBLOCK
 70
     0
  3

 72
    65
 73
     0
 40
0.0
  0
LTYPE
  5
15
330
5
100
AcDbSymbolTableRecord
100
AcDbLinetypeTableRecord
  2
BYLAYER
 70
     0
  3

 72
    65
 73
     0
 40
0.0
  0
LTYPE
  5
16
330
5
100
AcDbSymbolTableRecord
100
AcDbLinetypeTableRecord
  2
CONTINUOUS
 70
     0
  3
Solid line
 72
    65
 73
     0
 40
0.0
  0
ENDTAB
  0
TABLE
  2
LAYER
  5
2
330
0
100
AcDbSymbolTable
 70
     2
  0
LAYER
  5
10
330
2
100
AcDbSymbolTableRecord
100
AcDbLayerTableRecord
  2
0
 70
     0
 62
     7
  6
CONTINUOUS
  0
LAYER
  5
84
330
2
100
AcDbSymbolTableRecord
100
AcDbLayerTableRecord
  2
PV-8B
 70
     2
 62
     7
  6
CONTINUOUS
  0
ENDTAB
  0
TABLE
  2
STYLE
  5
3
330
0
100
AcDbSymbolTable
 70
     1
  0
STYLE
  5
11
330
3
100
AcDbSymbolTableRecord
100
AcDbTextStyleTableRecord
  2
STANDARD
 70
     0
 40
0.0
 41
1.0
 50
0.0
 71
     0
 42
0.2
  3
txt
  4

  0
ENDTAB
  0
TABLE
  2
VIEW
  5
6
330
0
100
AcDbSymbolTable
 70
     0
  0
ENDTAB
  0
TABLE
  2
UCS
  5
7
330
0
100
AcDbSymbolTable
 70
     0
  0
ENDTAB
  0
TABLE
  2
APPID
  5
9
330
0
100
AcDbSymbolTable
 70
     1
  0
APPID
  5
12
330
9
100
AcDbSymbolTableRecord
100
AcDbRegAppTableRecord
  2
ACAD
 70
     0
  0
ENDTAB
  0
TABLE
  2
DIMSTYLE
  5
A
330
0
100
AcDbSymbolTable
 70
     1
  0
DIMSTYLE
105
27
330
A
100
AcDbSymbolTableRecord
100
AcDbDimStyleTableRecord
  2
STANDARD
 70
     0
  3

  4

  5

  6

  7

 40
1.0
 41
0.18
 42
0.0625
 43
0.38
 44
0.18
 45
0.0
 46
0.0
 47
0.0
 48
0.0
140
0.18
141
0.09
142
0.0
143
25.4
144
1.0
145
0.0
146
1.0
147
0.09
 71
     0
 72
     0
 73
     1
 74
     1
 75
     0
 76
     0
 77
     0
 78
     0
170
     0
171
     2
172
     0
173
     0
174
     0
175
     0
176
     0
177
     0
178
     0
270
     2
271
     4
272
     4
273
     2
274
     2
340
11
275
     0
280
     0
281
     0
282
     0
283
     1
284
     0
285
     0
286
     0
287
     3
288
     0
  0
ENDTAB
  0
TABLE
  2
BLOCK_RECORD
  5
1
330
0
100
AcDbSymbolTable
 70
     8
  0
BLOCK_RECORD
  5
1F
102
{ACAD_XDICTIONARY
360
108
102
}
330
1
100
AcDbSymbolTableRecord
100
AcDbBlockTableRecord
  2
*MODEL_SPACE
  0
BLOCK_RECORD
  5
1B
102
{ACAD_XDICTIONARY
360
106
102
}
330
1
100
AcDbSymbolTableRecord
100
AcDbBlockTableRecord
  2
*PAPER_SPACE
  0
BLOCK_RECORD
  5
48
330
1
100
AcDbSymbolTableRecord
100
AcDbBlockTableRecord
  2
*U0
  0
BLOCK_RECORD
  5
85
330
1
100
AcDbSymbolTableRecord
100
AcDbBlockTableRecord
  2
FRONT
  0
BLOCK_RECORD
  5
8A
330
1
100
AcDbSymbolTableRecord
100
AcDbBlockTableRecord
  2
*U2
  0
BLOCK_RECORD
  5
A5
330
1
100
AcDbSymbolTableRecord
100
AcDbBlockTableRecord
  2
LEFT
  0
BLOCK_RECORD
  5
AA
330
1
100
AcDbSymbolTableRecord
100
AcDbBlockTableRecord
  2
*U4
  0
BLOCK_RECORD
  5
C7
330
1
100
AcDbSymbolTableRecord
100
AcDbBlockTableRecord
  2
RIGHT
  0
BLOCK_RECORD
  5
CC
330
1
100
AcDbSymbolTableRecord
100
AcDbBlockTableRecord
  2
*U6
  0
BLOCK_RECORD
  5
100
330
1
100
AcDbSymbolTableRecord
100
AcDbBlockTableRecord
  2
TOP
  0
ENDTAB
  0
ENDSEC
  0
SECTION
  2
BLOCKS
  0
BLOCK
  5
20
330
1F
100
AcDbEntity
  8
0
100
AcDbBlockBegin
  2
*MODEL_SPACE
 70
     0
 10
0.0
 20
0.0
 30
0.0
  3
*MODEL_SPACE
  1

  0
ENDBLK
  5
21
330
1F
100
AcDbEntity
  8
0
100
AcDbBlockEnd
  0
BLOCK
  5
1C
330
1B
100
AcDbEntity
 67
     1
  8
0
100
AcDbBlockBegin
  2
*PAPER_SPACE
 70
     0
 10
0.0
 20
0.0
 30
0.0
  3
*PAPER_SPACE
  1

  0
ENDBLK
  5
1D
330
1B
100
AcDbEntity
 67
     1
  8
0
100
AcDbBlockEnd
  0
BLOCK
  5
82
330
48
100
AcDbEntity
  8
0
100
AcDbBlockBegin
  2
*U0
 70
     1
 10
0.0
 20
0.0
 30
0.0
  3
*U0
  1
*ANON
  0
LINE
  5
49
330
48
100
AcDbEntity
  8
PV-8B
100
AcDbLine
 10
-9.799999999999997
 20
0.0
 30
11.37232405068188
 11
-9.90000000000003
 21
0.0
 31
11.37232405068188
  0
LINE
  5
4A
330
48
100
AcDbEntity
  8
PV-8B
100
AcDbLine
 10
-9.90000000000003
 20
0.0
 30
11.37232405068188
 11
-9.90000000000003
 21
0.0
 31
13.57331875102938
  0
LINE
  5
4B
330
48
100
AcDbEntity
  8
PV-8B
100
AcDbLine
 10
-9.400000000000012
 20
0.0
 30
13.57331875102938
 11
-9.90000000000003
 21
0.0
 31
13.57331875102938
  0
LINE
  5
4C
330
48
100
AcDbEntity
  8
PV-8B
100
AcDbLine
 10
9.89999999999997
 20
0.0
 30
13.57331875102938
 11
9.400000000000034
 21
0.0
 31
13.57331875102938
  0
LINE
  5
4D
330
48
100
AcDbEntity
  8
PV-8B
100
AcDbLine
 10
9.89999999999997
 20
0.0
 30
11.37232405068188
 11
9.89999999999997
 21
0.0
 31
13.57331875102938
  0
LINE
  5
4E
330
48
100
AcDbEntity
  8
PV-8B
100
AcDbLine
 10
9.89999999999997
 20
0.0
 30
11.37232405068188
 11
9.800000000000007
 21
0.0
 31
11.37232405068188
  0
LINE
  5
4F
330
48
100
AcDbEntity
  8
PV-8B
100
AcDbLine
 10
-10.00000000000005
 20
0.0
 30
13.57331875102939
 11
-9.90000000000003
 21
0.0
 31
13.57331875102939
  0
LINE
  5
50
330
48
100
AcDbEntity
  8
PV-8B
100
AcDbLine
 10
9.899999999999971
 20
0.0
 30
13.57331875102939
 11
9.999999999999998
 21
0.0
 31
13.57331875102939
  0
LINE
  5
51
330
48
100
AcDbEntity
  8
PV-8B
100
AcDbLine
 10
10.0
 20
0.0
 30
19.86599664568639
 11
10.0
 21
0.0
 31
3.000000000000006
  0
LINE
  5
52
330
48
100
AcDbEntity
  8
PV-8B
100
AcDbLine
 10
-0.0000000000008837
 20
0.0
 30
0.0
 11
42.58826129345972
 21
0.0
 31
0.0
  0
LINE
  5
53
330
48
100
AcDbEntity
  8
PV-8B
100
AcDbLine
 10
-42.58826129345972
 20
0.0
 30
0.0
 11
-0.0000000000002889
 21
0.0
 31
0.0
  0
LINE
  5
54
330
48
100
AcDbEntity
  8
PV-8B
100
AcDbLine
 10
-10.00000000000003
 20
0.0
 30
3.0
 11
-10.0
 21
0.0
 31
19.86599664568639
  0
LINE
  5
55
330
48
100
AcDbEntity
  8
PV-8B
100
AcDbLine
 10
10.0
 20
0.0
 30
10.7
 11
9.800000000000007
 21
0.0
 31
10.7
  0
LINE
  5
56
330
48
100
AcDbEntity
  8
PV-8B
100
AcDbLine
 10
-9.799999999999991
 20
0.0
 30
10.7
 11
-10.00000000000001
 21
0.0
 31
10.7
  0
LINE
  5
57
330
48
100
AcDbEntity
  8
PV-8B
100
AcDbLine
 10
10.0
 20
0.0
 30
3.0
 11
-9.999999999999998
 21
0.0
 31
3.0
  0
LINE
  5
58
330
48
100
AcDbEntity
  8
PV-8B
100
AcDbLine
 10
-9.900000000000034
 20
0.0
 30
11.37232405068191
 11
-10.00000000000001
 21
0.0
 31
11.37232405068191
  0
LINE
  5
59
330
48
100
AcDbEntity
  8
PV-8B
100
AcDbLine
 10
9.999999999999998
 20
0.0
 30
11.3723240506819
 11
9.89999999999997
 21
0.0
 31
11.3723240506819
  0
LINE
  5
5A
330
48
100
AcDbEntity
  8
PV-8B
100
AcDbLine
 10
-3.000000000000001
 20
0.0
 30
-8.0
 11
2.999999999999996
 21
0.0
 31
-8.0
  0
LINE
  5
5B
330
48
100
AcDbEntity
  8
PV-8B
100
AcDbLine
 10
10.0
 20
0.0
 30
9.199999999999995
 11
9.800000000000032
 21
0.0
 31
9.199999999999995
  0
LINE
  5
5C
330
48
100
AcDbEntity
  8
PV-8B
100
AcDbLine
 10
9.800000000000007
 20
0.0
 30
11.4
 11
9.40000000000003
 21
0.0
 31
11.4
  0
LINE
  5
5D
330
48
100
AcDbEntity
  8
PV-8B
100
AcDbLine
 10
9.800000000000007
 20
0.0
 30
9.199999999999999
 11
9.800000000000007
 21
0.0
 31
11.4
  0
LINE
  5
5E
330
48
100
AcDbEntity
  8
PV-8B
100
AcDbLine
 10
9.800000000000023
 20
0.0
 30
6.4
 11
9.400000000000027
 21
0.0
 31
6.4
  0
LINE
  5
5F
330
48
100
AcDbEntity
  8
PV-8B
100
AcDbLine
 10
-9.400000000000007
 20
0.0
 30
6.4
 11
-9.800000000000004
 21
0.0
 31
6.4
  0
LINE
  5
60
330
48
100
AcDbEntity
  8
PV-8B
100
AcDbLine
 10
-9.799999999999991
 20
0.0
 30
9.199999999999999
 11
-9.799999999999991
 21
0.0
 31
11.4
  0
LINE
  5
61
330
48
100
AcDbEntity
  8
PV-8B
100
AcDbLine
 10
-9.400000000000007
 20
0.0
 30
11.4
 11
-9.799999999999991
 21
0.0
 31
11.4
  0
LINE
  5
62
330
48
100
AcDbEntity
  8
PV-8B
100
AcDbLine
 10
9.800000000000029
 20
0.0
 30
9.199999999999995
 11
9.800000000000027
 21
0.0
 31
8.038331683034897
  0
LINE
  5
63
330
48
100
AcDbEntity
  8
PV-8B
100
AcDbLine
 10
-9.800000000000004
 20
0.0
 30
9.199999999999995
 11
-10.0
 21
0.0
 31
9.199999999999995
  0
LINE
  5
64
330
48
100
AcDbEntity
  8
PV-8B
100
AcDbLine
 10
-9.800000000000004
 20
0.0
 30
8.038331683034897
 11
-9.800000000000004
 21
0.0
 31
9.199999999999995
  0
LINE
  5
65
330
48
100
AcDbEntity
  8
PV-8B
100
AcDbLine
 10
10.0
 20
0.0
 30
6.4
 11
9.800000000000013
 21
0.0
 31
6.4
  0
LINE
  5
66
330
48
100
AcDbEntity
  8
PV-8B
100
AcDbLine
 10
9.800000000000023
 20
0.0
 30
6.399999999999952
 11
9.800000000000027
 21
0.0
 31
8.038331683034897
  0
ARC
  5
67
330
48
100
AcDbEntity
  8
PV-8B
100
AcDbCircle
 10
0.0
 20
-33.19999999999998
 30
0.0
 40
42.38679039512191
210
0.0
220
-1.0
230
0.0
100
AcDbArc
 50
76.35398938153726
 51
76.6320271107903
  0
LINE
  5
68
330
48
100
AcDbEntity
  8
PV-8B
100
AcDbLine
 10
-9.800000000000004
 20
0.0
 30
8.038331683034897
 11
-9.800000000000004
 21
0.0
 31
6.399999999999955
  0
LINE
  5
69
330
48
100
AcDbEntity
  8
PV-8B
100
AcDbLine
 10
-9.800000000000011
 20
0.0
 30
6.4
 11
-10.00000000000003
 21
0.0
 31
6.4
  0
ARC
  5
6A
330
48
100
AcDbEntity
  8
PV-8B
100
AcDbCircle
 10
0.0
 20
-33.19999999999998
 30
0.0
 40
42.38679039512191
210
0.0
220
-1.0
230
0.0
100
AcDbArc
 50
103.3679728892096
 51
103.6460106184627
  0
LINE
  5
6B
330
48
100
AcDbEntity
  8
PV-8B
100
AcDbLine
 10
-4.0
 20
0.0
 30
-7.0
 11
3.999999999999996
 21
0.0
 31
-7.0
  0
LINE
  5
6C
330
48
100
AcDbEntity
  8
PV-8B
100
AcDbLine
 10
9.400000000000012
 20
0.0
 30
3.699999999999995
 11
10.0
 21
0.0
 31
3.699999999999993
  0
LINE
  5
6D
330
48
100
AcDbEntity
  8
PV-8B
100
AcDbLine
 10
9.400000000000016
 20
0.0
 30
6.099999999999995
 11
10.0
 21
0.0
 31
6.099999999999995
  0
LINE
  5
6E
330
48
100
AcDbEntity
  8
PV-8B
100
AcDbLine
 10
-9.400000000000007
 20
0.0
 30
3.700000000000001
 11
0.000000000000016
 21
0.0
 31
3.700000000000001
  0
LINE
  5
6F
330
48
100
AcDbEntity
  8
PV-8B
100
AcDbLine
 10
9.400000000000023
 20
0.0
 30
3.699999999999995
 11
0.000000000000016
 21
0.0
 31
3.700000000000001
  0
SPLINE
  5
70
330
48
100
AcDbEntity
  8
PV-8B
100
AcDbSpline
210
1.0
220
0.0
230
0.0
 70
    24
 71
     3
 72
     8
 73
     4
 74
     0
 42
0.0000000001
 43
0.0000000001
 40
1.316177565221514
 40
1.316177565221514
 40
1.316177565221514
 40
1.316177565221514
 40
1.495355224144418
 40
1.495355224144418
 40
1.495355224144418
 40
1.495355224144418
 10
9.400000000000023
 20
0.0
 30
3.71727276212256
 10
9.400000000000023
 20
0.0
 30
3.705445484789806
 10
9.400000000000027
 20
0.0
 30
3.699999999999995
 10
9.400000000000027
 20
0.0
 30
3.699999999999995
  0
LINE
  5
71
330
48
100
AcDbEntity
  8
PV-8B
100
AcDbLine
 10
9.400000000000037
 20
0.0
 30
22.29999999999999
 11
9.400000000000023
 21
0.0
 31
3.71727276212256
  0
SPLINE
  5
72
330
48
100
AcDbEntity
  8
PV-8B
100
AcDbSpline
210
0.0
220
1.0
230
0.0
 70
     8
 71
     3
 72
    18
 73
    14
 74
     0
 42
0.0000000001
 43
0.0000000001
 40
0.0
 40
0.0
 40
0.0
 40
0.0
 40
0.3464743212138178
 40
0.3464743212138178
 40
0.6929486424276357
 40
0.6929486424276357
 40
0.9956822810148524
 40
0.9956822810148524
 40
1.298415919602069
 40
1.298415919602069
 40
1.460509701681321
 40
1.460509701681321
 40
1.634315994950835
 40
1.634315994950835
 40
1.634315994950835
 40
1.634315994950835
 10
8.575000000000029
 20
0.0
 30
4.699999999999994
 10
8.65581795898073
 20
0.0
 30
4.618757262356403
 10
8.742297774908035
 20
0.0
 30
4.52994650646675
 10
8.907016119746854
 20
0.0
 30
4.355868302122531
 10
8.985224833940346
 20
0.0
 30
4.270606425264579
 10
9.109921961882466
 20
0.0
 30
4.129905775325251
 10
9.169112340125582
 20
0.0
 30
4.060849503626636
 10
9.271326003872749
 20
0.0
 30
3.934584034170261
 10
9.314227575376644
 20
0.0
 30
3.877460460191906
 10
9.360020566410266
 20
0.0
 30
3.808704883925998
 10
9.375342067751306
 20
0.0
 30
3.783149558171555
 10
9.393958485049376
 20
0.0
 30
3.745815694691685
 10
9.400000000000023
 20
0.0
 30
3.728688306007986
 10
9.400000000000023
 20
0.0
 30
3.71727276212256
  0
ARC
  5
73
330
48
100
AcDbEntity
  8
PV-8B
100
AcDbCircle
 10
8.400000000000037
 20
22.29999999999999
 30
0.0
 40
1.000000000000002
210
0.0
220
-1.0
230
0.0
100
AcDbArc
 50
359.9999999999997
 51
89.99999999999982
  0
LINE
  5
74
330
48
100
AcDbEntity
  8
PV-8B
100
AcDbLine
 10
0.000000000000022
 20
0.0
 30
23.3
 11
-8.400000000000012
 21
0.0
 31
23.3
  0
LINE
  5
75
330
48
100
AcDbEntity
  8
PV-8B
100
AcDbLine
 10
0.000000000000022
 20
0.0
 30
23.3
 11
8.400000000000039
 21
0.0
 31
23.3
  0
LINE
  5
76
330
48
100
AcDbEntity
  8
PV-8B
100
AcDbLine
 10
-9.400000000000003
 20
0.0
 30
3.700000000000001
 11
-10.00000000000003
 21
0.0
 31
3.700000000000001
  0
LINE
  5
77
330
48
100
AcDbEntity
  8
PV-8B
100
AcDbLine
 10
-9.400000000000003
 20
0.0
 30
6.100000000000001
 11
-10.00000000000003
 21
0.0
 31
6.100000000000001
  0
SPLINE
  5
78
330
48
100
AcDbEntity
  8
PV-8B
100
AcDbSpline
210
1.0
220
0.0
230
0.0
 70
    24
 71
     3
 72
     8
 73
     4
 74
     0
 42
0.0000000001
 43
0.0000000001
 40
1.316177565221514
 40
1.316177565221514
 40
1.316177565221514
 40
1.316177565221514
 40
1.495355224144418
 40
1.495355224144418
 40
1.495355224144418
 40
1.495355224144418
 10
-9.400000000000007
 20
0.0
 30
3.717272762122566
 10
-9.400000000000007
 20
0.0
 30
3.705445484789811
 10
-9.400000000000012
 20
0.0
 30
3.700000000000001
 10
-9.400000000000012
 20
0.0
 30
3.700000000000001
  0
SPLINE
  5
79
330
48
100
AcDbEntity
  8
PV-8B
100
AcDbSpline
210
0.0
220
-1.0
230
0.0
 70
     8
 71
     3
 72
    18
 73
    14
 74
     0
 42
0.0000000001
 43
0.0000000001
 40
0.0
 40
0.0
 40
0.0
 40
0.0
 40
0.3464743212138178
 40
0.3464743212138178
 40
0.6929486424276357
 40
0.6929486424276357
 40
0.9956822810148524
 40
0.9956822810148524
 40
1.298415919602069
 40
1.298415919602069
 40
1.460509701681321
 40
1.460509701681321
 40
1.634315994950835
 40
1.634315994950835
 40
1.634315994950835
 40
1.634315994950835
 10
-8.575000000000011
 20
0.0
 30
4.700000000000001
 10
-8.655817958980712
 20
0.0
 30
4.618757262356409
 10
-8.742297774908017
 20
0.0
 30
4.529946506466754
 10
-8.907016119746836
 20
0.0
 30
4.355868302122535
 10
-8.985224833940332
 20
0.0
 30
4.270606425264586
 10
-9.109921961882452
 20
0.0
 30
4.129905775325258
 10
-9.169112340125566
 20
0.0
 30
4.060849503626641
 10
-9.271326003872731
 20
0.0
 30
3.934584034170267
 10
-9.314227575376627
 20
0.0
 30
3.87746046019191
 10
-9.360020566410248
 20
0.0
 30
3.808704883926004
 10
-9.375342067751288
 20
0.0
 30
3.78314955817156
 10
-9.39395848504936
 20
0.0
 30
3.745815694691692
 10
-9.400000000000007
 20
0.0
 30
3.728688306007993
 10
-9.400000000000007
 20
0.0
 30
3.717272762122566
  0
LINE
  5
7A
330
48
100
AcDbEntity
  8
PV-8B
100
AcDbLine
 10
-9.400000000000007
 20
0.0
 30
22.29999999999999
 11
-9.400000000000007
 21
0.0
 31
3.717272762122566
  0
ARC
  5
7B
330
48
100
AcDbEntity
  8
PV-8B
100
AcDbCircle
 10
-8.400000000000007
 20
22.29999999999999
 30
0.0
 40
1.000000000000002
210
0.0
220
-1.0
230
0.0
100
AcDbArc
 50
90.00000000000019
 51
180.0
  0
LINE
  5
7C
330
48
100
AcDbEntity
  8
PV-8B
100
AcDbLine
 10
-4.0
 20
0.0
 30
0.0
 11
-4.0
 21
0.0
 31
-7.0
  0
LINE
  5
7D
330
48
100
AcDbEntity
  8
PV-8B
100
AcDbLine
 10
3.999999999999998
 20
0.0
 30
0.0
 11
3.999999999999998
 21
0.0
 31
-7.0
  0
LINE
  5
7E
330
48
100
AcDbEntity
  8
PV-8B
100
AcDbLine
 10
2.999999999999998
 20
0.0
 30
-8.0
 11
3.999999999999996
 21
0.0
 31
-7.0
  0
LINE
  5
7F
330
48
100
AcDbEntity
  8
PV-8B
100
AcDbLine
 10
-3.000000000000001
 20
0.0
 30
-8.0
 11
-4.0
 21
0.0
 31
-7.0
  0
ARC
  5
80
330
48
100
AcDbEntity
  8
PV-8B
100
AcDbCircle
 10
0.0
 20
-33.2
 30
0.0
 40
54.0
210
0.0
220
-1.0
230
0.0
100
AcDbArc
 50
37.93846563692742
 51
79.32807071423806
  0
ARC
  5
81
330
48
100
AcDbEntity
  8
PV-8B
100
AcDbCircle
 10
0.0
 20
-33.2
 30
0.0
 40
54.0
210
0.0
220
-1.0
230
0.0
100
AcDbArc
 50
100.671929285762
 51
142.0615343630725
  0
ENDBLK
  5
83
330
48
100
AcDbEntity
  8
0
100
AcDbBlockEnd
  0
BLOCK
  5
87
330
85
100
AcDbEntity
  8
0
100
AcDbBlockBegin
  2
FRONT
 70
     0
 10
0.0
 20
0.0
 30
0.0
  3
FRONT
  1

  0
INSERT
  5
86
330
85
100
AcDbEntity
  8
PV-8B
100
AcDbBlockReference
  2
*U0
 10
0.0
 20
0.0
 30
0.0
 50
180.0
210
0.0
220
1.0
230
0.0
  0
ENDBLK
  5
88
330
85
100
AcDbEntity
  8
0
100
AcDbBlockEnd
  0
BLOCK
  5
A3
330
8A
100
AcDbEntity
  8
0
100
AcDbBlockBegin
  2
*U2
 70
     1
 10
0.0
 20
0.0
 30
0.0
  3
*U2
  1
*ANON
  0
LINE
  5
8B
330
8A
100
AcDbEntity
  8
PV-8B
100
AcDbLine
 10
0.0
 20
26.98623080414532
 30
13.57331875102939
 11
0.0
 21
25.10471376085778
 31
13.57331875102939
  0
LINE
  5
8C
330
8A
100
AcDbEntity
  8
PV-8B
100
AcDbLine
 10
0.0
 20
25.06504843431589
 30
13.57331875102939
 11
0.0
 21
26.98623080414532
 31
13.57331875102939
  0
LINE
  5
8D
330
8A
100
AcDbEntity
  8
PV-8B
100
AcDbLine
 10
0.0
 20
42.58826129345972
 30
0.0
 11
0.0
 21
-42.58826129345972
 31
0.0
  0
ARC
  5
8E
330
8A
100
AcDbEntity
  8
PV-8B
100
AcDbCircle
 10
-0.0000000000000081
 20
-33.19999999999998
 30
0.0
 40
53.06599664568637
210
-1.0
220
0.0
230
0.0
100
AcDbArc
 50
43.01340242872053
 51
118.1861216064539
  0
LINE
  5
8F
330
8A
100
AcDbEntity
  8
PV-8B
100
AcDbLine
 10
0.0
 20
-40.06943972655469
 30
3.0
 11
0.0
 21
-38.80154636093772
 31
3.0
  0
LINE
  5
90
330
8A
100
AcDbEntity
  8
PV-8B
100
AcDbLine
 10
0.0
 20
-20.0
 30
-8.0
 11
0.0
 21
-26.0
 31
-8.0
  0
LINE
  5
91
330
8A
100
AcDbEntity
  8
PV-8B
100
AcDbLine
 10
0.0
 20
-19.0
 30
-7.0
 11
0.0
 21
-27.0
 31
-7.0
  0
LINE
  5
92
330
8A
100
AcDbEntity
  8
PV-8B
100
AcDbLine
 10
0.0
 20
-46.07058529485264
 30
3.700000000000001
 11
0.0
 21
-46.99999999999999
 31
3.700000000000001
  0
LINE
  5
93
330
8A
100
AcDbEntity
  8
PV-8B
100
AcDbLine
 10
0.0
 20
-46.99999999999999
 30
23.3
 11
0.0
 21
-46.2592848020365
 31
23.3
  0
LINE
  5
94
330
8A
100
AcDbEntity
  8
PV-8B
100
AcDbLine
 10
0.0
 20
1.0
 30
22.29999999999999
 11
0.0
 21
1.0
 31
19.85657357952923
  0
SPLINE
  5
95
330
8A
100
AcDbEntity
  8
PV-8B
100
AcDbSpline
210
1.0
220
0.0
230
0.0
 70
     8
 71
     3
 72
     8
 73
     4
 74
     0
 42
0.0000000001
 43
0.0000000001
 40
1.316177565221514
 40
1.316177565221514
 40
1.316177565221514
 40
1.316177565221514
 40
1.495355224144418
 40
1.495355224144418
 40
1.495355224144418
 40
1.495355224144418
 10
0.0
 20
-46.2592848020365
 30
3.717272762122566
 10
0.0
 20
-46.19524785039427
 30
3.705445484789811
 10
0.0
 20
-46.13031118116029
 30
3.700000000000001
 10
0.0
 20
-46.07058529485265
 30
3.700000000000001
  0
LINE
  5
96
330
8A
100
AcDbEntity
  8
PV-8B
100
AcDbLine
 10
0.0
 20
-46.07058529485265
 30
3.700000000000001
 11
0.0
 21
-38.13646548908272
 31
3.700000000000001
  0
SPLINE
  5
97
330
8A
100
AcDbEntity
  8
PV-8B
100
AcDbSpline
210
1.0
220
0.0
230
0.0
 70
     8
 71
     3
 72
    18
 73
    14
 74
     0
 42
0.0000000001
 43
0.0000000001
 40
0.0
 40
0.0
 40
0.0
 40
0.0
 40
0.3464743212138178
 40
0.3464743212138178
 40
0.6929486424276357
 40
0.6929486424276357
 40
0.9956822810148524
 40
0.9956822810148524
 40
1.298415919602069
 40
1.298415919602069
 40
1.460509701681321
 40
1.460509701681321
 40
1.634315994950835
 40
1.634315994950835
 40
1.634315994950835
 40
1.634315994950835
 10
0.0
 20
-47.24385323541227
 30
4.700000000000001
 10
0.0
 20
-47.229488421
 30
4.618757262356409
 10
0.0
 20
-47.20326975372706
 30
4.529946506466754
 10
0.0
 20
-47.12600852607106
 30
4.355868302122535
 10
0.0
 20
-47.07488986999183
 30
4.270606425264586
 10
0.0
 20
-46.96772615537424
 30
4.129905775325258
 10
0.0
 20
-46.90461248053399
 30
4.060849503626641
 10
0.0
 20
-46.7580559127789
 30
3.934584034170267
 10
0.0
 20
-46.67445444397809
 30
3.87746046019191
 10
0.0
 20
-46.54337110096293
 30
3.808704883926004
 10
0.0
 20
-46.48578568620849
 30
3.78314955817156
 10
0.0
 20
-46.38188115448122
 30
3.745815694691692
 10
0.0
 20
-46.32109248703399
 30
3.728688306007993
 10
0.0
 20
-46.2592848020365
 30
3.717272762122566
  0
LINE
  5
98
330
8A
100
AcDbEntity
  8
PV-8B
100
AcDbLine
 10
0.0
 20
-46.2592848020365
 30
23.3
 11
0.0
 21
0.0
 31
23.3
  0
ARC
  5
99
330
8A
100
AcDbEntity
  8
PV-8B
100
AcDbCircle
 10
0.0
 20
22.29999999999999
 30
0.0
 40
0.9999999999999992
210
-1.0
220
0.0
230
0.0
100
AcDbArc
 50
90.0
 51
179.9999999999999
  0
LINE
  5
9A
330
8A
100
AcDbEntity
  8
PV-8B
100
AcDbLine
 10
0.0
 20
-47.99999999999999
 30
22.29999999999999
 11
0.0
 21
-47.99999999999999
 31
4.700000000000001
  0
LINE
  5
9B
330
8A
100
AcDbEntity
  8
PV-8B
100
AcDbLine
 10
0.0
 20
-19.0
 30
0.0
 11
0.0
 21
-19.0
 31
-7.0
  0
LINE
  5
9C
330
8A
100
AcDbEntity
  8
PV-8B
100
AcDbLine
 10
0.0
 20
-27.0
 30
0.0
 11
0.0
 21
-27.0
 31
-7.0
  0
LINE
  5
9D
330
8A
100
AcDbEntity
  8
PV-8B
100
AcDbLine
 10
0.0
 20
-26.0
 30
-8.0
 11
0.0
 21
-27.0
 31
-7.0
  0
LINE
  5
9E
330
8A
100
AcDbEntity
  8
PV-8B
100
AcDbLine
 10
0.0
 20
-20.0
 30
-8.0
 11
0.0
 21
-19.0
 31
-7.0
  0
ARC
  5
9F
330
8A
100
AcDbEntity
  8
PV-8B
100
AcDbCircle
 10
-0.0000000000000081
 20
-33.2
 30
0.0
 40
53.99999999999999
210
-1.0
220
0.0
230
0.0
100
AcDbArc
 50
37.93846563692742
 51
42.09565660204295
  0
ARC
  5
A0
330
8A
100
AcDbEntity
  8
PV-8B
100
AcDbCircle
 10
-0.0000000000000081
 20
-33.2
 30
0.0
 40
54.0
210
-1.0
220
0.0
230
0.0
100
AcDbArc
 50
119.9831317543706
 51
142.0615343630725
  0
ARC
  5
A1
330
8A
100
AcDbEntity
  8
PV-8B
100
AcDbCircle
 10
46.99999999999999
 20
22.29999999999999
 30
0.0
 40
1.0
210
-1.0
220
0.0
230
0.0
100
AcDbArc
 50
0.0
 51
90.00000000000124
  0
ARC
  5
A2
330
8A
100
AcDbEntity
  8
PV-8B
100
AcDbCircle
 10
46.99999999999999
 20
4.700000000000001
 30
0.0
 40
1.0
210
-1.0
220
0.0
230
0.0
100
AcDbArc
 50
270.0
 51
0.0
  0
ENDBLK
  5
A4
330
8A
100
AcDbEntity
  8
0
100
AcDbBlockEnd
  0
BLOCK
  5
A7
330
A5
100
AcDbEntity
  8
0
100
AcDbBlockBegin
  2
LEFT
 70
     0
 10
0.0
 20
0.0
 30
0.0
  3
LEFT
  1

  0
INSERT
  5
A6
330
A5
100
AcDbEntity
  8
PV-8B
100
AcDbBlockReference
  2
*U2
 10
0.0
 20
0.0
 30
0.0
 50
270.0
210
0.0
220
1.0
230
0.0
  0
ENDBLK
  5
A8
330
A5
100
AcDbEntity
  8
0
100
AcDbBlockEnd
  0
BLOCK
  5
C5
330
AA
100
AcDbEntity
  8
0
100
AcDbBlockBegin
  2
*U4
 70
     1
 10
0.0
 20
0.0
 30
0.0
  3
*U4
  1
*ANON
  0
LINE
  5
AB
330
AA
100
AcDbEntity
  8
PV-8B
100
AcDbLine
 10
0.0
 20
25.1047137608578
 30
13.57331875102938
 11
0.0
 21
26.98623080414532
 31
13.57331875102939
  0
LINE
  5
AC
330
AA
100
AcDbEntity
  8
PV-8B
100
AcDbLine
 10
0.0
 20
26.98623080414532
 30
13.57331875102939
 11
0.0
 21
25.0650484343159
 31
13.57331875102939
  0
ARC
  5
AD
330
AA
100
AcDbEntity
  8
PV-8B
100
AcDbCircle
 10
0.0000000000000081
 20
-33.2
 30
0.0
 40
53.0659966456864
210
1.0
220
0.0
230
0.0
100
AcDbArc
 50
61.81387839354663
 51
136.9865975712794
  0
LINE
  5
AE
330
AA
100
AcDbEntity
  8
PV-8B
100
AcDbLine
 10
0.0
 20
-42.58826129345972
 30
0.0
 11
0.0
 21
42.58826129345972
 31
0.0
  0
LINE
  5
AF
330
AA
100
AcDbEntity
  8
PV-8B
100
AcDbLine
 10
0.0
 20
-38.80154636093772
 30
3.0
 11
0.0
 21
-40.06943972655469
 31
3.0
  0
LINE
  5
B0
330
AA
100
AcDbEntity
  8
PV-8B
100
AcDbLine
 10
0.0
 20
-23.0
 30
-8.0
 11
0.0
 21
-20.0
 31
-8.0
  0
LINE
  5
B1
330
AA
100
AcDbEntity
  8
PV-8B
100
AcDbLine
 10
0.0
 20
-26.0
 30
-8.0
 11
0.0
 21
-22.99999999999994
 31
-8.0
  0
LINE
  5
B2
330
AA
100
AcDbEntity
  8
PV-8B
100
AcDbLine
 10
0.0
 20
-23.0
 30
-7.0
 11
0.0
 21
-19.0
 31
-7.0
  0
LINE
  5
B3
330
AA
100
AcDbEntity
  8
PV-8B
100
AcDbLine
 10
0.0
 20
-27.0
 30
-7.0
 11
0.0
 21
-22.99999999999994
 31
-7.0
  0
LINE
  5
B4
330
AA
100
AcDbEntity
  8
PV-8B
100
AcDbLine
 10
0.0
 20
-46.07058529485264
 30
3.699999999999995
 11
0.0
 21
-46.99999999999999
 31
3.700000000000001
  0
LINE
  5
B5
330
AA
100
AcDbEntity
  8
PV-8B
100
AcDbLine
 10
0.0
 20
-46.07058529485265
 30
3.699999999999995
 11
0.0
 21
-38.13646548908275
 31
3.699999999999995
  0
SPLINE
  5
B6
330
AA
100
AcDbEntity
  8
PV-8B
100
AcDbSpline
210
1.0
220
0.0
230
0.0
 70
     8
 71
     3
 72
     8
 73
     4
 74
     0
 42
0.0000000001
 43
0.0000000001
 40
1.316177565221514
 40
1.316177565221514
 40
1.316177565221514
 40
1.316177565221514
 40
1.495355224144418
 40
1.495355224144418
 40
1.495355224144418
 40
1.495355224144418
 10
0.0
 20
-46.2592848020365
 30
3.71727276212256
 10
0.0
 20
-46.19524785039427
 30
3.705445484789806
 10
0.0
 20
-46.13031118116029
 30
3.699999999999995
 10
0.0
 20
-46.07058529485265
 30
3.699999999999995
  0
SPLINE
  5
B7
330
AA
100
AcDbEntity
  8
PV-8B
100
AcDbSpline
210
1.0
220
0.0
230
0.0
 70
     8
 71
     3
 72
    18
 73
    14
 74
     0
 42
0.0000000001
 43
0.0000000001
 40
0.0
 40
0.0
 40
0.0
 40
0.0
 40
0.3464743212138178
 40
0.3464743212138178
 40
0.6929486424276357
 40
0.6929486424276357
 40
0.9956822810148524
 40
0.9956822810148524
 40
1.298415919602069
 40
1.298415919602069
 40
1.460509701681321
 40
1.460509701681321
 40
1.634315994950835
 40
1.634315994950835
 40
1.634315994950835
 40
1.634315994950835
 10
0.0
 20
-47.24385323541227
 30
4.699999999999994
 10
0.0
 20
-47.229488421
 30
4.618757262356403
 10
0.0
 20
-47.20326975372706
 30
4.52994650646675
 10
0.0
 20
-47.12600852607106
 30
4.355868302122531
 10
0.0
 20
-47.07488986999183
 30
4.270606425264579
 10
0.0
 20
-46.96772615537424
 30
4.129905775325251
 10
0.0
 20
-46.90461248053399
 30
4.060849503626636
 10
0.0
 20
-46.7580559127789
 30
3.934584034170261
 10
0.0
 20
-46.67445444397809
 30
3.877460460191906
 10
0.0
 20
-46.54337110096293
 30
3.808704883925998
 10
0.0
 20
-46.48578568620849
 30
3.783149558171555
 10
0.0
 20
-46.38188115448122
 30
3.745815694691685
 10
0.0
 20
-46.32109248703399
 30
3.728688306007986
 10
0.0
 20
-46.2592848020365
 30
3.71727276212256
  0
LINE
  5
B8
330
AA
100
AcDbEntity
  8
PV-8B
100
AcDbLine
 10
0.0
 20
1.000000000000001
 30
22.29999999999999
 11
0.0
 21
1.000000000000001
 31
19.85657357952923
  0
ARC
  5
B9
330
AA
100
AcDbEntity
  8
PV-8B
100
AcDbCircle
 10
0.0000000000000027
 20
22.29999999999999
 30
0.0
 40
0.9999999999999992
210
1.0
220
0.0
230
0.0
100
AcDbArc
 50
0.0000000000000064
 51
90.0
  0
LINE
  5
BA
330
AA
100
AcDbEntity
  8
PV-8B
100
AcDbLine
 10
0.0
 20
-46.2592848020365
 30
23.3
 11
0.0
 21
0.0000000000000036
 31
23.3
  0
LINE
  5
BB
330
AA
100
AcDbEntity
  8
PV-8B
100
AcDbLine
 10
0.0
 20
-46.99999999999999
 30
23.3
 11
0.0
 21
-46.2592848020365
 31
23.3
  0
LINE
  5
BC
330
AA
100
AcDbEntity
  8
PV-8B
100
AcDbLine
 10
0.0
 20
-47.99999999999999
 30
22.29999999999999
 11
0.0
 21
-47.99999999999999
 31
4.700000000000001
  0
LINE
  5
BD
330
AA
100
AcDbEntity
  8
PV-8B
100
AcDbLine
 10
0.0
 20
-27.0
 30
0.0
 11
0.0
 21
-27.0
 31
-7.0
  0
LINE
  5
BE
330
AA
100
AcDbEntity
  8
PV-8B
100
AcDbLine
 10
0.0
 20
-19.0
 30
0.0
 11
0.0
 21
-19.0
 31
-7.0
  0
LINE
  5
BF
330
AA
100
AcDbEntity
  8
PV-8B
100
AcDbLine
 10
0.0
 20
-20.0
 30
-8.0
 11
0.0
 21
-19.0
 31
-7.0
  0
LINE
  5
C0
330
AA
100
AcDbEntity
  8
PV-8B
100
AcDbLine
 10
0.0
 20
-26.0
 30
-8.0
 11
0.0
 21
-27.0
 31
-7.0
  0
ARC
  5
C1
330
AA
100
AcDbEntity
  8
PV-8B
100
AcDbCircle
 10
0.0000000000000081
 20
-33.2
 30
0.0
 40
53.99999999999999
210
1.0
220
0.0
230
0.0
100
AcDbArc
 50
37.93846563692742
 51
60.01686824562949
  0
ARC
  5
C2
330
AA
100
AcDbEntity
  8
PV-8B
100
AcDbCircle
 10
0.0000000000000081
 20
-33.2
 30
0.0
 40
54.0
210
1.0
220
0.0
230
0.0
100
AcDbArc
 50
137.904343397957
 51
142.0615343630725
  0
ARC
  5
C3
330
AA
100
AcDbEntity
  8
PV-8B
100
AcDbCircle
 10
-46.99999999999999
 20
22.29999999999999
 30
0.0
 40
1.0
210
1.0
220
0.0
230
0.0
100
AcDbArc
 50
89.99999999999799
 51
180.0
  0
ARC
  5
C4
330
AA
100
AcDbEntity
  8
PV-8B
100
AcDbCircle
 10
-46.99999999999999
 20
4.700000000000001
 30
0.0
 40
1.0
210
1.0
220
0.0
230
0.0
100
AcDbArc
 50
180.0
 51
270.0
  0
ENDBLK
  5
C6
330
AA
100
AcDbEntity
  8
0
100
AcDbBlockEnd
  0
BLOCK
  5
C9
330
C7
100
AcDbEntity
  8
0
100
AcDbBlockBegin
  2
RIGHT
 70
     0
 10
0.0
 20
0.0
 30
0.0
  3
RIGHT
  1

  0
INSERT
  5
C8
330
C7
100
AcDbEntity
  8
PV-8B
100
AcDbBlockReference
  2
*U4
 10
0.0
 20
0.0
 30
0.0
 50
90.0
210
0.0
220
1.0
230
0.0
  0
ENDBLK
  5
CA
330
C7
100
AcDbEntity
  8
0
100
AcDbBlockEnd
  0
BLOCK
  5
FE
330
CC
100
AcDbEntity
  8
0
100
AcDbBlockBegin
  2
*U6
 70
     1
 10
0.0
 20
0.0
 30
0.0
  3
*U6
  1
*ANON
  0
LINE
  5
CD
330
CC
100
AcDbEntity
  8
PV-8B
100
AcDbLine
 10
-9.90000000000003
 20
-2.013769195854663
 30
0.0
 11
-9.900000000000042
 21
25.10471376085778
 31
0.0
  0
ARC
  5
CE
330
CC
100
AcDbEntity
  8
PV-8B
100
AcDbCircle
 10
0.0000000000000069
 20
0.0000000000000068
 30
0.0
 40
26.98623080414532
100
AcDbArc
 50
68.47828967266761
 51
111.5217103273324
  0
LINE
  5
CF
330
CC
100
AcDbEntity
  8
PV-8B
100
AcDbLine
 10
9.899999999999996
 20
-2.013769195854661
 30
0.0
 11
9.899999999999996
 21
25.10471376085778
 31
0.0
  0
LINE
  5
D0
330
CC
100
AcDbEntity
  8
PV-8B
100
AcDbLine
 10
-9.399999999999991
 20
-2.013769195854663
 30
0.0
 11
-9.90000000000003
 21
-2.013769195854663
 31
0.0
  0
LINE
  5
D1
330
CC
100
AcDbEntity
  8
PV-8B
100
AcDbLine
 10
9.89999999999997
 20
-2.013769195854663
 30
0.0
 11
9.400000000000007
 21
-2.013769195854663
 31
0.0
  0
ARC
  5
D2
330
CC
100
AcDbEntity
  8
PV-8B
100
AcDbCircle
 10
0.0000000000000042
 20
-0.0000000000000017
 30
0.0
 40
26.98623080414532
100
AcDbArc
 50
68.24988235667468
 51
111.7501176433254
  0
LINE
  5
D3
330
CC
100
AcDbEntity
  8
PV-8B
100
AcDbLine
 10
10.0
 20
25.0650484343159
 30
0.0
 11
10.0
 21
-38.8015463609377
 31
0.0
  0
ARC
  5
D4
330
CC
100
AcDbEntity
  8
PV-8B
100
AcDbCircle
 10
0.0
 20
0.0000000000000081
 30
0.0
 40
42.58826129345972
100
AcDbArc
 50
282.7512137935116
 51
257.2487862064881
  0
LINE
  5
D5
330
CC
100
AcDbEntity
  8
PV-8B
100
AcDbLine
 10
-10.00000000000003
 20
-38.8015463609377
 30
0.0
 11
-10.00000000000001
 21
25.0650484343165
 31
0.0
  0
LINE
  5
D6
330
CC
100
AcDbEntity
  8
PV-8B
100
AcDbLine
 10
10.0
 20
4.500000000000007
 30
0.0
 11
9.899999999999975
 21
4.500000000000007
 31
0.0
  0
LINE
  5
D7
330
CC
100
AcDbEntity
  8
PV-8B
100
AcDbLine
 10
-9.900000000000023
 20
4.500000000000007
 30
0.0
 11
-10.00000000000001
 21
4.500000000000007
 31
0.0
  0
LINE
  5
D8
330
CC
100
AcDbEntity
  8
PV-8B
100
AcDbLine
 10
-10.00000000000001
 20
19.5
 30
0.0
 11
-9.900000000000003
 21
19.5
 31
0.0
  0
LINE
  5
D9
330
CC
100
AcDbEntity
  8
PV-8B
100
AcDbLine
 10
9.899999999999996
 20
19.5
 30
0.0
 11
10.0
 21
19.5
 31
0.0
  0
ARC
  5
DA
330
CC
100
AcDbEntity
  8
PV-8B
100
AcDbCircle
 10
0.0
 20
-0.0000000000000007
 30
0.0
 40
35.89999999999999
100
AcDbArc
 50
253.8262253746812
 51
254.8208233184533
  0
ARC
  5
DB
330
CC
100
AcDbEntity
  8
PV-8B
100
AcDbCircle
 10
0.0
 20
-0.0000000000000007
 30
0.0
 40
35.89999999999999
100
AcDbArc
 50
285.1791766815466
 51
286.1737746253185
  0
ARC
  5
DC
330
CC
100
AcDbEntity
  8
PV-8B
100
AcDbCircle
 10
0.0
 20
0.0000000000000081
 30
0.0
 40
40.06943972655469
100
AcDbArc
 50
283.5676179210977
 51
284.4518763983653
  0
ARC
  5
DD
330
CC
100
AcDbEntity
  8
PV-8B
100
AcDbCircle
 10
0.0
 20
0.0000000000000081
 30
0.0
 40
40.06943972655469
100
AcDbArc
 50
255.5481236016345
 51
256.4323820789023
  0
ARC
  5
DE
330
CC
100
AcDbEntity
  8
PV-8B
100
AcDbCircle
 10
0.0000000000000063
 20
-0.0000000000000011
 30
0.0
 40
24.78523610379783
100
AcDbArc
 50
113.5426334355974
 51
113.7950342937132
  0
ARC
  5
DF
330
CC
100
AcDbEntity
  8
PV-8B
100
AcDbCircle
 10
0.0000000000000063
 20
-0.0000000000000011
 30
0.0
 40
24.78523610379783
100
AcDbArc
 50
66.20496570628692
 51
66.45736656440267
  0
ARC
  5
E0
330
CC
100
AcDbEntity
  8
PV-8B
100
AcDbCircle
 10
0.0000000000000002
 20
0.0000000000000067
 30
0.0
 40
35.5
100
AcDbArc
 50
285.3543996240533
 51
286.3611035240321
  0
ARC
  5
E1
330
CC
100
AcDbEntity
  8
PV-8B
100
AcDbCircle
 10
0.0000000000000002
 20
0.0000000000000067
 30
0.0
 40
35.5
100
AcDbArc
 50
253.6388964759678
 51
254.6456003759467
  0
LINE
  5
E2
330
CC
100
AcDbEntity
  8
PV-8B
100
AcDbLine
 10
9.800000000000007
 20
-2.013769195854663
 30
0.0
 11
9.800000000000007
 21
-10.0
 31
0.0
  0
LINE
  5
E3
330
CC
100
AcDbEntity
  8
PV-8B
100
AcDbLine
 10
-9.799999999999991
 20
-10.0
 30
0.0
 11
-9.799999999999991
 21
-2.013769195854663
 31
0.0
  0
ARC
  5
E4
330
CC
100
AcDbEntity
  8
PV-8B
100
AcDbCircle
 10
0.0
 20
0.0000000000000081
 30
0.0
 40
27.97999285203626
100
AcDbArc
 50
290.5026233941818
 51
290.9404983104701
  0
LINE
  5
E5
330
CC
100
AcDbEntity
  8
PV-8B
100
AcDbLine
 10
9.800000000000007
 20
-10.0
 30
0.0
 11
9.400000000000012
 21
-10.0
 31
0.0
  0
LINE
  5
E6
330
CC
100
AcDbEntity
  8
PV-8B
100
AcDbLine
 10
-9.399999999999996
 20
-10.0
 30
0.0
 11
-9.799999999999991
 21
-10.0
 31
0.0
  0
LINE
  5
E7
330
CC
100
AcDbEntity
  8
PV-8B
100
AcDbLine
 10
9.800000000000029
 20
-10.0
 30
0.0
 11
9.800000000000029
 21
-26.2076324760555
 31
0.0
  0
LINE
  5
E8
330
CC
100
AcDbEntity
  8
PV-8B
100
AcDbLine
 10
9.800000000000029
 20
-26.2076324760555
 30
0.0
 11
9.800000000000027
 21
-27.99999999999998
 31
0.0
  0
LINE
  5
E9
330
CC
100
AcDbEntity
  8
PV-8B
100
AcDbLine
 10
-9.800000000000004
 20
-26.20763247605552
 30
0.0
 11
-9.800000000000004
 21
-10.0
 31
0.0
  0
LINE
  5
EA
330
CC
100
AcDbEntity
  8
PV-8B
100
AcDbLine
 10
10.0
 20
-1.558845726811995
 30
0.0
 11
9.89999999999997
 21
-1.558845726811995
 31
0.0
  0
LINE
  5
EB
330
CC
100
AcDbEntity
  8
PV-8B
100
AcDbLine
 10
9.899999999999971
 20
-0.0000000000000031
 30
0.0
 11
10.0
 21
-0.0000000000000031
 31
0.0
  0
LINE
  5
EC
330
CC
100
AcDbEntity
  8
PV-8B
100
AcDbLine
 10
-9.900000000000027
 20
-0.0000000000000031
 30
0.0
 11
-10.00000000000001
 21
-0.0000000000000031
 31
0.0
  0
LINE
  5
ED
330
CC
100
AcDbEntity
  8
PV-8B
100
AcDbLine
 10
-9.900000000000027
 20
-1.558845726811995
 30
0.0
 11
-10.00000000000001
 21
-1.558845726811995
 31
0.0
  0
ARC
  5
EE
330
CC
100
AcDbEntity
  8
PV-8B
100
AcDbCircle
 10
0.0
 20
0.0000000000000081
 30
0.0
 40
27.97999285203626
100
AcDbArc
 50
249.0595016895297
 51
249.4973766058181
  0
LINE
  5
EF
330
CC
100
AcDbEntity
  8
PV-8B
100
AcDbLine
 10
-9.800000000000004
 20
-27.99999999999998
 30
0.0
 11
-9.800000000000004
 21
-26.20763247605552
 31
0.0
  0
LINE
  5
F0
330
CC
100
AcDbEntity
  8
PV-8B
100
AcDbLine
 10
9.800000000000029
 20
-28.0
 30
0.0
 11
10.0
 21
-28.0
 31
0.0
  0
LINE
  5
F1
330
CC
100
AcDbEntity
  8
PV-8B
100
AcDbLine
 10
-10.00000000000003
 20
-28.0
 30
0.0
 11
-9.799999999999997
 21
-28.0
 31
0.0
  0
LINE
  5
F2
330
CC
100
AcDbEntity
  8
PV-8B
100
AcDbLine
 10
9.800000000000011
 20
-13.49999999999999
 30
0.0
 11
9.400000000000003
 21
-13.49999999999999
 31
0.0
  0
LINE
  5
F3
330
CC
100
AcDbEntity
  8
PV-8B
100
AcDbLine
 10
9.400000000000016
 20
-28.49999999999999
 30
0.0
 11
10.0
 21
-28.49999999999999
 31
0.0
  0
ARC
  5
F4
330
CC
100
AcDbEntity
  8
PV-8B
100
AcDbCircle
 10
0.0000000000000118
 20
1.000000000000007
 30
0.0
 40
49.0
100
AcDbArc
 50
259.9213418922122
 51
280.0786581077876
  0
LINE
  5
F5
330
CC
100
AcDbEntity
  8
PV-8B
100
AcDbLine
 10
9.400000000000003
 20
0.0000000000000036
 30
0.0
 11
9.400000000000037
 21
-46.2592848020365
 31
0.0
  0
ARC
  5
F6
330
CC
100
AcDbEntity
  8
PV-8B
100
AcDbCircle
 10
8.400000000000003
 20
0.0000000000000027
 30
0.0
 40
1.0
100
AcDbArc
 50
0.0000000000000382
 51
90.0000000000001
  0
ARC
  5
F7
330
CC
100
AcDbEntity
  8
PV-8B
100
AcDbCircle
 10
8.400000000000039
 20
-46.2592848020365
 30
0.0
 40
1.0
100
AcDbArc
 50
280.0786581077874
 51
0.0000000000000254
  0
LINE
  5
F8
330
CC
100
AcDbEntity
  8
PV-8B
100
AcDbLine
 10
-8.399999999999991
 20
0.9999999999999968
 30
0.0
 11
8.400000000000002
 21
1.000000000000002
 31
0.0
  0
LINE
  5
F9
330
CC
100
AcDbEntity
  8
PV-8B
100
AcDbLine
 10
-9.400000000000003
 20
-28.5
 30
0.0
 11
-10.00000000000001
 21
-28.5
 31
0.0
  0
LINE
  5
FA
330
CC
100
AcDbEntity
  8
PV-8B
100
AcDbLine
 10
-9.799999999999997
 20
-13.5
 30
0.0
 11
-9.399999999999996
 21
-13.5
 31
0.0
  0
LINE
  5
FB
330
CC
100
AcDbEntity
  8
PV-8B
100
AcDbLine
 10
-9.399999999999996
 20
0.0
 30
0.0
 11
-9.400000000000007
 21
-46.2592848020365
 31
0.0
  0
ARC
  5
FC
330
CC
100
AcDbEntity
  8
PV-8B
100
AcDbCircle
 10
-8.399999999999991
 20
0.0
 30
0.0
 40
1.0
100
AcDbArc
 50
90.0
 51
180.0
  0
ARC
  5
FD
330
CC
100
AcDbEntity
  8
PV-8B
100
AcDbCircle
 10
-8.400000000000012
 20
-46.2592848020365
 30
0.0
 40
1.0
100
AcDbArc
 50
180.0
 51
259.9213418922124
  0
ENDBLK
  5
FF
330
CC
100
AcDbEntity
  8
0
100
AcDbBlockEnd
  0
BLOCK
  5
102
330
100
100
AcDbEntity
  8
0
100
AcDbBlockBegin
  2
TOP
 70
     0
 10
0.0
 20
0.0
 30
0.0
  3
TOP
  1

  0
INSERT
  5
101
330
100
100
AcDbEntity
  8
PV-8B
100
AcDbBlockReference
  2
*U6
 10
0.0
 20
0.0
 30
0.0
  0
ENDBLK
  5
103
330
100
100
AcDbEntity
  8
0
100
AcDbBlockEnd
  0
ENDSEC
  0
SECTION
  2
ENTITIES
  0
LINE
  5
115
330
1F
100
AcDbEntity
  8
PV-8B
100
AcDbLine
 10
-78.18946110875349
 20
5.923318746029378
 30
0.0000000000000015
 11
-76.30794406546598
 21
5.923318746029389
 31
0.0000000000000017
210
0.0
220
1.0
230
0.0
  0
LINE
  5
116
330
1F
100
AcDbEntity
  8
PV-8B
100
AcDbLine
 10
-76.30794406546598
 20
5.923318746029389
 30
0.0000000000000017
 11
-78.22912643529538
 21
5.923318746029389
 31
0.0000000000000015
210
0.0
220
1.0
230
0.0
  0
ARC
  5
117
330
1F
100
AcDbEntity
  8
PV-8B
100
AcDbCircle
 10
-103.2941748696112
 20
-40.850000005
 30
0.0
 40
53.0659966456864
100
AcDbArc
 50
61.8138783935468
 51
136.9865975712792
  0
LINE
  5
118
330
1F
100
AcDbEntity
  8
PV-8B
100
AcDbLine
 10
-145.882436163071
 20
-7.650000005000002
 30
-0.0000000000000026
 11
-60.70591357615157
 21
-7.650000005000002
 31
0.0000000000000026
210
0.0
220
1.0
230
0.0
  0
LINE
  5
119
330
1F
100
AcDbEntity
  8
PV-8B
100
AcDbLine
 10
-142.095721230549
 20
-4.650000005000002
 30
-0.0000000000000024
 11
-143.3636145961659
 21
-4.650000005000002
 31
-0.0000000000000025
210
0.0
220
1.0
230
0.0
  0
LINE
  5
11A
330
1F
100
AcDbEntity
  8
PV-8B
100
AcDbLine
 10
-126.2941748696112
 20
-15.650000005
 30
-0.0000000000000014
 11
-123.2941748696112
 21
-15.650000005
 31
-0.0000000000000012
210
0.0
220
1.0
230
0.0
  0
LINE
  5
11B
330
1F
100
AcDbEntity
  8
PV-8B
100
AcDbLine
 10
-129.2941748696113
 20
-15.650000005
 30
-0.0000000000000016
 11
-126.2941748696112
 21
-15.650000005
 31
-0.0000000000000014
210
0.0
220
1.0
230
0.0
  0
LINE
  5
11C
330
1F
100
AcDbEntity
  8
PV-8B
100
AcDbLine
 10
-126.2941748696112
 20
-14.650000005
 30
-0.0000000000000014
 11
-122.2941748696112
 21
-14.650000005
 31
-0.0000000000000012
210
0.0
220
1.0
230
0.0
  0
LINE
  5
11D
330
1F
100
AcDbEntity
  8
PV-8B
100
AcDbLine
 10
-130.2941748696113
 20
-14.650000005
 30
-0.0000000000000017
 11
-126.2941748696112
 21
-14.650000005
 31
-0.0000000000000014
210
0.0
220
1.0
230
0.0
  0
LINE
  5
11E
330
1F
100
AcDbEntity
  8
PV-8B
100
AcDbLine
 10
-149.3647601644639
 20
-3.950000005000007
 30
-0.0000000000000028
 11
-150.2941748696112
 21
-3.950000005000001
 31
-0.0000000000000029
210
0.0
220
1.0
230
0.0
  0
LINE
  5
11F
330
1F
100
AcDbEntity
  8
PV-8B
100
AcDbLine
 10
-149.3647601644639
 20
-3.950000005000007
 30
-0.0000000000000028
 11
-141.430640358694
 21
-3.950000005000007
 31
-0.0000000000000023
210
0.0
220
1.0
230
0.0
  0
SPLINE
  5
120
330
1F
100
AcDbEntity
  8
PV-8B
100
AcDbSpline
210
0.0000000000000003
220
0.0000000000000034
230
1.0
 70
     8
 71
     3
 72
     8
 73
     4
 74
     0
 42
0.0000000001
 43
0.0000000001
 40
1.316177565221514
 40
1.316177565221514
 40
1.316177565221514
 40
1.316177565221514
 40
1.495355224144418
 40
1.495355224144418
 40
1.495355224144418
 40
1.495355224144418
 10
-149.5534596716478
 20
-3.932727242877442
 30
-0.0000000000000028
 10
-149.4894227200055
 20
-3.944554520210196
 30
-0.0000000000000028
 10
-149.4244860507715
 20
-3.950000005000007
 30
-0.0000000000000028
 10
-149.3647601644639
 20
-3.950000005000007
 30
-0.0000000000000028
  0
SPLINE
  5
121
330
1F
100
AcDbEntity
  8
PV-8B
100
AcDbSpline
210
0.0
220
0.0
230
1.0
 70
     8
 71
     3
 72
    18
 73
    14
 74
     0
 42
0.0000000001
 43
0.0000000001
 40
0.0
 40
0.0
 40
0.0
 40
0.0
 40
0.3464743212138178
 40
0.3464743212138178
 40
0.6929486424276357
 40
0.6929486424276357
 40
0.9956822810148524
 40
0.9956822810148524
 40
1.298415919602069
 40
1.298415919602069
 40
1.460509701681321
 40
1.460509701681321
 40
1.634315994950835
 40
1.634315994950835
 40
1.634315994950835
 40
1.634315994950835
 10
-150.5380281050235
 20
-2.950000005000007
 30
-0.0000000000000029
 10
-150.5236632906113
 20
-3.031242742643598
 30
-0.0000000000000029
 10
-150.4974446233383
 20
-3.120053498533252
 30
-0.0000000000000029
 10
-150.4201833956823
 20
-3.294131702877471
 30
-0.0000000000000029
 10
-150.3690647396031
 20
-3.379393579735422
 30
-0.0000000000000029
 10
-150.2619010249855
 20
-3.52009422967475
 30
-0.0000000000000029
 10
-150.1987873501452
 20
-3.589150501373365
 30
-0.0000000000000029
 10
-150.0522307823902
 20
-3.71541597082974
 30
-0.0000000000000029
 10
-149.9686293135893
 20
-3.772539544808096
 30
-0.0000000000000029
 10
-149.8375459705742
 20
-3.841295121074003
 30
-0.0000000000000028
 10
-149.7799605558197
 20
-3.866850446828447
 30
-0.0000000000000028
 10
-149.6760560240925
 20
-3.904184310308316
 30
-0.0000000000000028
 10
-149.6152673566452
 20
-3.921311698992015
 30
-0.0000000000000028
 10
-149.5534596716478
 20
-3.932727242877442
 30
-0.0000000000000028
  0
LINE
  5
122
330
1F
100
AcDbEntity
  8
PV-8B
100
AcDbLine
 10
-102.2941748696112
 20
14.64999999499998
 30
0.0000000000000001
 11
-102.2941748696112
 21
12.20657357452922
 31
0.0000000000000001
210
0.0
220
1.0
230
0.0
  0
ARC
  5
123
330
1F
100
AcDbEntity
  8
PV-8B
100
AcDbCircle
 10
-103.2941748696112
 20
14.64999999499998
 30
0.0
 40
0.9999999999999992
100
AcDbArc
 50
0.0
 51
90.0
  0
LINE
  5
124
330
1F
100
AcDbEntity
  8
PV-8B
100
AcDbLine
 10
-149.5534596716478
 20
15.64999999499999
 30
-0.0000000000000028
 11
-103.2941748696112
 21
15.64999999499999
 31
0.0
210
0.0
220
1.0
230
0.0
  0
LINE
  5
125
330
1F
100
AcDbEntity
  8
PV-8B
100
AcDbLine
 10
-150.2941748696112
 20
15.64999999499999
 30
-0.0000000000000029
 11
-149.5534596716478
 21
15.64999999499999
 31
-0.0000000000000028
210
0.0
220
1.0
230
0.0
  0
LINE
  5
126
330
1F
100
AcDbEntity
  8
PV-8B
100
AcDbLine
 10
-151.2941748696112
 20
14.64999999499999
 30
-0.0000000000000029
 11
-151.2941748696112
 21
-2.950000005
 31
-0.0000000000000029
210
0.0
220
1.0
230
0.0
  0
LINE
  5
127
330
1F
100
AcDbEntity
  8
PV-8B
100
AcDbLine
 10
-130.2941748696113
 20
-7.650000005000002
 30
-0.0000000000000017
 11
-130.2941748696113
 21
-14.650000005
 31
-0.0000000000000017
210
0.0
220
1.0
230
0.0
  0
LINE
  5
128
330
1F
100
AcDbEntity
  8
PV-8B
100
AcDbLine
 10
-122.2941748696112
 20
-7.650000005000002
 30
-0.0000000000000012
 11
-122.2941748696112
 21
-14.650000005
 31
-0.0000000000000012
210
0.0
220
1.0
230
0.0
  0
LINE
  5
129
330
1F
100
AcDbEntity
  8
PV-8B
100
AcDbLine
 10
-123.2941748696112
 20
-15.650000005
 30
-0.0000000000000012
 11
-122.2941748696112
 21
-14.650000005
 31
-0.0000000000000012
210
0.0
220
1.0
230
0.0
  0
LINE
  5
12A
330
1F
100
AcDbEntity
  8
PV-8B
100
AcDbLine
 10
-129.2941748696113
 20
-15.650000005
 30
-0.0000000000000016
 11
-130.2941748696113
 21
-14.650000005
 31
-0.0000000000000017
210
0.0
220
1.0
230
0.0
  0
ARC
  5
12B
330
1F
100
AcDbEntity
  8
PV-8B
100
AcDbCircle
 10
-103.2941748696112
 20
-40.850000005
 30
0.0
 40
53.99999999999999
100
AcDbArc
 50
37.93846563692754
 51
60.01686824562967
  0
ARC
  5
12C
330
1F
100
AcDbEntity
  8
PV-8B
100
AcDbCircle
 10
-103.2941748696112
 20
-40.850000005
 30
0.0
 40
54.0
100
AcDbArc
 50
137.904343397957
 51
142.0615343630724
  0
ARC
  5
12D
330
1F
100
AcDbEntity
  8
PV-8B
100
AcDbCircle
 10
-150.2941748696112
 20
14.64999999499999
 30
-0.0000000000000029
 40
1.0
100
AcDbArc
 50
89.99999999999836
 51
180.0
  0
ARC
  5
12E
330
1F
100
AcDbEntity
  8
PV-8B
100
AcDbCircle
 10
-150.2941748696112
 20
-2.950000005000001
 30
-0.0000000000000029
 40
1.0
100
AcDbArc
 50
180.0
 51
270.0
  0
LINE
  5
130
330
1F
100
AcDbEntity
  8
PV-8B
100
AcDbLine
 10
-9.799999999999975
 20
3.722324045681879
 30
-0.0000000000000012
 11
-9.900000000000009
 21
3.722324045681879
 31
-0.0000000000000012
210
0.0
220
1.0
230
0.0
  0
LINE
  5
131
330
1F
100
AcDbEntity
  8
PV-8B
100
AcDbLine
 10
-9.900000000000009
 20
3.722324045681879
 30
-0.0000000000000012
 11
-9.900000000000009
 21
5.923318746029377
 31
-0.0000000000000012
210
0.0
220
1.0
230
0.0
  0
LINE
  5
132
330
1F
100
AcDbEntity
  8
PV-8B
100
AcDbLine
 10
-9.399999999999991
 20
5.923318746029377
 30
-0.0000000000000012
 11
-9.900000000000009
 21
5.923318746029377
 31
-0.0000000000000012
210
0.0
220
1.0
230
0.0
  0
LINE
  5
133
330
1F
100
AcDbEntity
  8
PV-8B
100
AcDbLine
 10
9.899999999999991
 20
5.923318746029377
 30
0.0000000000000012
 11
9.400000000000055
 21
5.923318746029377
 31
0.0000000000000012
210
0.0
220
1.0
230
0.0
  0
LINE
  5
134
330
1F
100
AcDbEntity
  8
PV-8B
100
AcDbLine
 10
9.899999999999991
 20
3.722324045681879
 30
0.0000000000000012
 11
9.899999999999991
 21
5.923318746029377
 31
0.0000000000000012
210
0.0
220
1.0
230
0.0
  0
LINE
  5
135
330
1F
100
AcDbEntity
  8
PV-8B
100
AcDbLine
 10
9.899999999999991
 20
3.722324045681879
 30
0.0000000000000012
 11
9.800000000000029
 21
3.722324045681879
 31
0.0000000000000012
210
0.0
220
1.0
230
0.0
  0
LINE
  5
136
330
1F
100
AcDbEntity
  8
PV-8B
100
AcDbLine
 10
-10.00000000000003
 20
5.923318746029388
 30
-0.0000000000000012
 11
-9.900000000000009
 21
5.923318746029388
 31
-0.0000000000000012
210
0.0
220
1.0
230
0.0
  0
LINE
  5
137
330
1F
100
AcDbEntity
  8
PV-8B
100
AcDbLine
 10
9.899999999999993
 20
5.923318746029388
 30
0.0000000000000012
 11
10.00000000000001
 21
5.923318746029388
 31
0.0000000000000012
210
0.0
220
1.0
230
0.0
  0
LINE
  5
138
330
1F
100
AcDbEntity
  8
PV-8B
100
AcDbLine
 10
10.00000000000002
 20
12.21599664068638
 30
0.0000000000000012
 11
10.00000000000002
 21
-4.650000004999997
 31
0.0000000000000012
210
0.0
220
1.0
230
0.0
  0
LINE
  5
139
330
1F
100
AcDbEntity
  8
PV-8B
100
AcDbLine
 10
-0.0000000000008624
 20
-7.650000005000003
 30
0.0
 11
42.58826129345974
 21
-7.650000005000003
 31
0.0000000000000052
210
0.0
220
1.0
230
0.0
  0
LINE
  5
13A
330
1F
100
AcDbEntity
  8
PV-8B
100
AcDbLine
 10
-42.5882612934597
 20
-7.650000005000003
 30
-0.0000000000000052
 11
-0.0000000000002676
 21
-7.650000005000003
 31
0.0
210
0.0
220
1.0
230
0.0
  0
LINE
  5
13B
330
1F
100
AcDbEntity
  8
PV-8B
100
AcDbLine
 10
-10.0
 20
-4.650000005000003
 30
-0.0000000000000012
 11
-9.999999999999987
 21
12.21599664068638
 31
-0.0000000000000012
210
0.0
220
1.0
230
0.0
  0
LINE
  5
13C
330
1F
100
AcDbEntity
  8
PV-8B
100
AcDbLine
 10
10.00000000000002
 20
3.049999994999995
 30
0.0000000000000012
 11
9.800000000000029
 21
3.049999994999995
 31
0.0000000000000012
210
0.0
220
1.0
230
0.0
  0
LINE
  5
13D
330
1F
100
AcDbEntity
  8
PV-8B
100
AcDbLine
 10
-9.79999999999997
 20
3.049999994999995
 30
-0.0000000000000012
 11
-9.999999999999998
 21
3.049999994999995
 31
-0.0000000000000012
210
0.0
220
1.0
230
0.0
  0
LINE
  5
13E
330
1F
100
AcDbEntity
  8
PV-8B
100
AcDbLine
 10
10.00000000000002
 20
-4.650000005000003
 30
0.0000000000000012
 11
-9.999999999999976
 21
-4.650000005000003
 31
-0.0000000000000012
210
0.0
220
1.0
230
0.0
  0
LINE
  5
13F
330
1F
100
AcDbEntity
  8
PV-8B
100
AcDbLine
 10
-9.900000000000012
 20
3.722324045681907
 30
-0.0000000000000012
 11
-9.999999999999998
 21
3.722324045681907
 31
-0.0000000000000012
210
0.0
220
1.0
230
0.0
  0
LINE
  5
140
330
1F
100
AcDbEntity
  8
PV-8B
100
AcDbLine
 10
10.00000000000001
 20
3.722324045681896
 30
0.0000000000000012
 11
9.899999999999991
 21
3.722324045681896
 31
0.0000000000000012
210
0.0
220
1.0
230
0.0
  0
LINE
  5
141
330
1F
100
AcDbEntity
  8
PV-8B
100
AcDbLine
 10
-2.99999999999998
 20
-15.650000005
 30
-0.0000000000000004
 11
3.000000000000018
 21
-15.650000005
 31
0.0000000000000004
210
0.0
220
1.0
230
0.0
  0
LINE
  5
142
330
1F
100
AcDbEntity
  8
PV-8B
100
AcDbLine
 10
10.00000000000002
 20
1.549999994999992
 30
0.0000000000000012
 11
9.800000000000054
 21
1.549999994999992
 31
0.0000000000000012
210
0.0
220
1.0
230
0.0
  0
LINE
  5
143
330
1F
100
AcDbEntity
  8
PV-8B
100
AcDbLine
 10
9.800000000000029
 20
3.749999994999996
 30
0.0000000000000012
 11
9.400000000000051
 21
3.749999994999996
 31
0.0000000000000012
210
0.0
220
1.0
230
0.0
  0
LINE
  5
144
330
1F
100
AcDbEntity
  8
PV-8B
100
AcDbLine
 10
9.800000000000029
 20
1.549999994999995
 30
0.0000000000000012
 11
9.800000000000029
 21
3.749999994999996
 31
0.0000000000000012
210
0.0
220
1.0
230
0.0
  0
LINE
  5
145
330
1F
100
AcDbEntity
  8
PV-8B
100
AcDbLine
 10
9.800000000000045
 20
-1.250000005000003
 30
0.0000000000000012
 11
9.400000000000048
 21
-1.250000005000003
 31
0.0000000000000012
210
0.0
220
1.0
230
0.0
  0
LINE
  5
146
330
1F
100
AcDbEntity
  8
PV-8B
100
AcDbLine
 10
-9.399999999999986
 20
-1.250000005000003
 30
-0.0000000000000012
 11
-9.799999999999982
 21
-1.250000005000003
 31
-0.0000000000000012
210
0.0
220
1.0
230
0.0
  0
LINE
  5
147
330
1F
100
AcDbEntity
  8
PV-8B
100
AcDbLine
 10
-9.79999999999997
 20
1.549999994999995
 30
-0.0000000000000012
 11
-9.79999999999997
 21
3.749999994999996
 31
-0.0000000000000012
210
0.0
220
1.0
230
0.0
  0
LINE
  5
148
330
1F
100
AcDbEntity
  8
PV-8B
100
AcDbLine
 10
-9.399999999999986
 20
3.749999994999996
 30
-0.0000000000000012
 11
-9.79999999999997
 21
3.749999994999996
 31
-0.0000000000000012
210
0.0
220
1.0
230
0.0
  0
LINE
  5
149
330
1F
100
AcDbEntity
  8
PV-8B
100
AcDbLine
 10
9.80000000000005
 20
1.549999994999992
 30
0.0000000000000012
 11
9.800000000000048
 21
0.388331678034894
 31
0.0000000000000012
210
0.0
220
1.0
230
0.0
  0
LINE
  5
14A
330
1F
100
AcDbEntity
  8
PV-8B
100
AcDbLine
 10
-9.799999999999982
 20
1.549999994999992
 30
-0.0000000000000012
 11
-9.999999999999987
 21
1.549999994999992
 31
-0.0000000000000012
210
0.0
220
1.0
230
0.0
  0
LINE
  5
14B
330
1F
100
AcDbEntity
  8
PV-8B
100
AcDbLine
 10
-9.799999999999982
 20
0.388331678034894
 30
-0.0000000000000012
 11
-9.799999999999982
 21
1.549999994999992
 31
-0.0000000000000012
210
0.0
220
1.0
230
0.0
  0
LINE
  5
14C
330
1F
100
AcDbEntity
  8
PV-8B
100
AcDbLine
 10
10.00000000000002
 20
-1.250000005000003
 30
0.0000000000000012
 11
9.800000000000034
 21
-1.250000005000003
 31
0.0000000000000012
210
0.0
220
1.0
230
0.0
  0
LINE
  5
14D
330
1F
100
AcDbEntity
  8
PV-8B
100
AcDbLine
 10
9.800000000000045
 20
-1.250000005000051
 30
0.0000000000000012
 11
9.800000000000048
 21
0.388331678034894
 31
0.0000000000000012
210
0.0
220
1.0
230
0.0
  0
ARC
  5
14E
330
1F
100
AcDbEntity
  8
PV-8B
100
AcDbCircle
 10
0.0000000000000213
 20
-40.85000000499999
 30
0.0
 40
42.38679039512191
100
AcDbArc
 50
76.35398938153726
 51
76.6320271107903
  0
LINE
  5
14F
330
1F
100
AcDbEntity
  8
PV-8B
100
AcDbLine
 10
-9.799999999999982
 20
0.388331678034894
 30
-0.0000000000000012
 11
-9.799999999999982
 21
-1.250000005000048
 31
-0.0000000000000012
210
0.0
220
1.0
230
0.0
  0
LINE
  5
150
330
1F
100
AcDbEntity
  8
PV-8B
100
AcDbLine
 10
-9.79999999999999
 20
-1.250000005000003
 30
-0.0000000000000012
 11
-10.0
 21
-1.250000005000003
 31
-0.0000000000000012
210
0.0
220
1.0
230
0.0
  0
ARC
  5
151
330
1F
100
AcDbEntity
  8
PV-8B
100
AcDbCircle
 10
0.0000000000000213
 20
-40.85000000499999
 30
0.0
 40
42.38679039512191
100
AcDbArc
 50
103.3679728892096
 51
103.6460106184627
  0
LINE
  5
152
330
1F
100
AcDbEntity
  8
PV-8B
100
AcDbLine
 10
-3.999999999999979
 20
-14.650000005
 30
-0.0000000000000005
 11
4.000000000000017
 21
-14.650000005
 31
0.0000000000000005
210
0.0
220
1.0
230
0.0
  0
LINE
  5
153
330
1F
100
AcDbEntity
  8
PV-8B
100
AcDbLine
 10
9.400000000000034
 20
-3.950000005000008
 30
0.0000000000000012
 11
10.00000000000002
 21
-3.95000000500001
 31
0.0000000000000012
210
0.0
220
1.0
230
0.0
  0
LINE
  5
154
330
1F
100
AcDbEntity
  8
PV-8B
100
AcDbLine
 10
9.400000000000037
 20
-1.550000005000008
 30
0.0000000000000012
 11
10.00000000000002
 21
-1.550000005000008
 31
0.0000000000000012
210
0.0
220
1.0
230
0.0
  0
LINE
  5
155
330
1F
100
AcDbEntity
  8
PV-8B
100
AcDbLine
 10
-9.399999999999986
 20
-3.950000005000002
 30
-0.0000000000000012
 11
0.0000000000000373
 21
-3.950000005000002
 31
0.0
210
0.0
220
1.0
230
0.0
  0
LINE
  5
156
330
1F
100
AcDbEntity
  8
PV-8B
100
AcDbLine
 10
9.400000000000044
 20
-3.950000005000008
 30
0.0000000000000012
 11
0.0000000000000373
 21
-3.950000005000002
 31
0.0
210
0.0
220
1.0
230
0.0
  0
SPLINE
  5
157
330
1F
100
AcDbEntity
  8
PV-8B
100
AcDbSpline
210
0.0
220
0.0
230
1.0
 70
    24
 71
     3
 72
     8
 73
     4
 74
     0
 42
0.0000000001
 43
0.0000000001
 40
1.316177565221514
 40
1.316177565221514
 40
1.316177565221514
 40
1.316177565221514
 40
1.495355224144418
 40
1.495355224144418
 40
1.495355224144418
 40
1.495355224144418
 10
9.400000000000044
 20
-3.932727242877443
 30
0.0000000000000012
 10
9.400000000000044
 20
-3.944554520210197
 30
0.0000000000000012
 10
9.400000000000048
 20
-3.950000005000008
 30
0.0000000000000012
 10
9.400000000000048
 20
-3.950000005000008
 30
0.0000000000000012
  0
LINE
  5
158
330
1F
100
AcDbEntity
  8
PV-8B
100
AcDbLine
 10
9.400000000000058
 20
14.64999999499998
 30
0.0000000000000012
 11
9.400000000000044
 21
-3.932727242877443
 31
0.0000000000000012
210
0.0
220
1.0
230
0.0
  0
SPLINE
  5
159
330
1F
100
AcDbEntity
  8
PV-8B
100
AcDbSpline
210
0.0000000000000248
220
0.0000000000000211
230
1.0
 70
     8
 71
     3
 72
    18
 73
    14
 74
     0
 42
0.0000000001
 43
0.0000000001
 40
0.0
 40
0.0
 40
0.0
 40
0.0
 40
0.3464743212138178
 40
0.3464743212138178
 40
0.6929486424276357
 40
0.6929486424276357
 40
0.9956822810148524
 40
0.9956822810148524
 40
1.298415919602069
 40
1.298415919602069
 40
1.460509701681321
 40
1.460509701681321
 40
1.634315994950835
 40
1.634315994950835
 40
1.634315994950835
 40
1.634315994950835
 10
8.57500000000005
 20
-2.950000005000008
 30
0.0000000000000011
 10
8.655817958980751
 20
-3.031242742643599
 30
0.0000000000000011
 10
8.742297774908056
 20
-3.120053498533253
 30
0.0000000000000011
 10
8.907016119746876
 20
-3.294131702877471
 30
0.0000000000000011
 10
8.985224833940367
 20
-3.379393579735423
 30
0.0000000000000011
 10
9.109921961882488
 20
-3.520094229674751
 30
0.0000000000000011
 10
9.169112340125604
 20
-3.589150501373366
 30
0.0000000000000011
 10
9.27132600387277
 20
-3.715415970829741
 30
0.0000000000000011
 10
9.314227575376666
 20
-3.772539544808097
 30
0.0000000000000011
 10
9.360020566410288
 20
-3.841295121074004
 30
0.0000000000000011
 10
9.375342067751327
 20
-3.866850446828447
 30
0.0000000000000011
 10
9.393958485049397
 20
-3.904184310308317
 30
0.0000000000000012
 10
9.400000000000044
 20
-3.921311698992017
 30
0.0000000000000012
 10
9.400000000000044
 20
-3.932727242877443
 30
0.0000000000000012
  0
ARC
  5
15A
330
1F
100
AcDbEntity
  8
PV-8B
100
AcDbCircle
 10
8.400000000000058
 20
14.64999999499998
 30
0.000000000000001
 40
1.000000000000002
100
AcDbArc
 50
359.9999999999997
 51
89.99999999999982
  0
LINE
  5
15B
330
1F
100
AcDbEntity
  8
PV-8B
100
AcDbLine
 10
0.0000000000000433
 20
15.64999999499999
 30
0.0
 11
-8.399999999999991
 21
15.64999999499999
 31
-0.000000000000001
210
0.0
220
1.0
230
0.0
  0
LINE
  5
15C
330
1F
100
AcDbEntity
  8
PV-8B
100
AcDbLine
 10
0.0000000000000433
 20
15.64999999499999
 30
0.0
 11
8.40000000000006
 21
15.64999999499999
 31
0.000000000000001
210
0.0
220
1.0
230
0.0
  0
LINE
  5
15D
330
1F
100
AcDbEntity
  8
PV-8B
100
AcDbLine
 10
-9.399999999999982
 20
-3.950000005000002
 30
-0.0000000000000012
 11
-10.0
 21
-3.950000005000002
 31
-0.0000000000000012
210
0.0
220
1.0
230
0.0
  0
LINE
  5
15E
330
1F
100
AcDbEntity
  8
PV-8B
100
AcDbLine
 10
-9.399999999999982
 20
-1.550000005000002
 30
-0.0000000000000012
 11
-10.0
 21
-1.550000005000002
 31
-0.0000000000000012
210
0.0
220
1.0
230
0.0
  0
SPLINE
  5
15F
330
1F
100
AcDbEntity
  8
PV-8B
100
AcDbSpline
210
0.0
220
0.0
230
1.0
 70
    24
 71
     3
 72
     8
 73
     4
 74
     0
 42
0.0000000001
 43
0.0000000001
 40
1.316177565221514
 40
1.316177565221514
 40
1.316177565221514
 40
1.316177565221514
 40
1.495355224144418
 40
1.495355224144418
 40
1.495355224144418
 40
1.495355224144418
 10
-9.399999999999986
 20
-3.932727242877436
 30
-0.0000000000000012
 10
-9.399999999999986
 20
-3.944554520210191
 30
-0.0000000000000012
 10
-9.399999999999991
 20
-3.950000005000002
 30
-0.0000000000000012
 10
-9.399999999999991
 20
-3.950000005000002
 30
-0.0000000000000012
  0
SPLINE
  5
160
330
1F
100
AcDbEntity
  8
PV-8B
100
AcDbSpline
210
-0.0000000000000248
220
0.0000000000000211
230
-1.0
 70
     8
 71
     3
 72
    18
 73
    14
 74
     0
 42
0.0000000001
 43
0.0000000001
 40
0.0
 40
0.0
 40
0.0
 40
0.0
 40
0.3464743212138178
 40
0.3464743212138178
 40
0.6929486424276357
 40
0.6929486424276357
 40
0.9956822810148524
 40
0.9956822810148524
 40
1.298415919602069
 40
1.298415919602069
 40
1.460509701681321
 40
1.460509701681321
 40
1.634315994950835
 40
1.634315994950835
 40
1.634315994950835
 40
1.634315994950835
 10
-8.57499999999999
 20
-2.950000005000002
 30
-0.0000000000000011
 10
-8.655817958980691
 20
-3.031242742643594
 30
-0.0000000000000011
 10
-8.742297774907996
 20
-3.120053498533248
 30
-0.0000000000000011
 10
-8.907016119746815
 20
-3.294131702877467
 30
-0.0000000000000011
 10
-8.985224833940311
 20
-3.379393579735417
 30
-0.0000000000000011
 10
-9.109921961882431
 20
-3.520094229674745
 30
-0.0000000000000011
 10
-9.169112340125545
 20
-3.589150501373361
 30
-0.0000000000000011
 10
-9.27132600387271
 20
-3.715415970829735
 30
-0.0000000000000011
 10
-9.314227575376605
 20
-3.772539544808092
 30
-0.0000000000000011
 10
-9.360020566410227
 20
-3.841295121073999
 30
-0.0000000000000011
 10
-9.375342067751267
 20
-3.866850446828442
 30
-0.0000000000000011
 10
-9.393958485049338
 20
-3.904184310308311
 30
-0.0000000000000012
 10
-9.399999999999986
 20
-3.92131169899201
 30
-0.0000000000000012
 10
-9.399999999999986
 20
-3.932727242877436
 30
-0.0000000000000012
  0
LINE
  5
161
330
1F
100
AcDbEntity
  8
PV-8B
100
AcDbLine
 10
-9.399999999999986
 20
14.64999999499999
 30
-0.0000000000000012
 11
-9.399999999999986
 21
-3.932727242877436
 31
-0.0000000000000012
210
0.0
220
1.0
230
0.0
  0
ARC
  5
162
330
1F
100
AcDbEntity
  8
PV-8B
100
AcDbCircle
 10
-8.399999999999986
 20
14.64999999499999
 30
-0.000000000000001
 40
1.000000000000002
100
AcDbArc
 50
90.00000000000019
 51
180.0
  0
LINE
  5
163
330
1F
100
AcDbEntity
  8
PV-8B
100
AcDbLine
 10
-3.999999999999978
 20
-7.650000005000003
 30
-0.0000000000000005
 11
-3.999999999999978
 21
-14.650000005
 31
-0.0000000000000005
210
0.0
220
1.0
230
0.0
  0
LINE
  5
164
330
1F
100
AcDbEntity
  8
PV-8B
100
AcDbLine
 10
4.000000000000019
 20
-7.650000005000003
 30
0.0000000000000005
 11
4.000000000000019
 21
-14.650000005
 31
0.0000000000000005
210
0.0
220
1.0
230
0.0
  0
LINE
  5
165
330
1F
100
AcDbEntity
  8
PV-8B
100
AcDbLine
 10
3.000000000000019
 20
-15.650000005
 30
0.0000000000000004
 11
4.000000000000017
 21
-14.650000005
 31
0.0000000000000005
210
0.0
220
1.0
230
0.0
  0
LINE
  5
166
330
1F
100
AcDbEntity
  8
PV-8B
100
AcDbLine
 10
-2.99999999999998
 20
-15.650000005
 30
-0.0000000000000004
 11
-3.999999999999979
 21
-14.650000005
 31
-0.0000000000000005
210
0.0
220
1.0
230
0.0
  0
ARC
  5
167
330
1F
100
AcDbEntity
  8
PV-8B
100
AcDbCircle
 10
0.0000000000000213
 20
-40.850000005
 30
0.0
 40
54.0
100
AcDbArc
 50
37.93846563692744
 51
79.32807071423806
  0
ARC
  5
168
330
1F
100
AcDbEntity
  8
PV-8B
100
AcDbCircle
 10
0.0000000000000213
 20
-40.850000005
 30
0.0
 40
54.0
100
AcDbArc
 50
100.671929285762
 51
142.0615343630725
  0
LINE
  5
16A
330
1F
100
AcDbEntity
  8
PV-8B
100
AcDbLine
 10
76.30794406546607
 20
5.923318746029389
 30
-0.000000000000005
 11
78.18946110875362
 21
5.923318746029389
 31
-0.0000000000000046
210
0.0
220
1.0
230
0.0
  0
LINE
  5
16B
330
1F
100
AcDbEntity
  8
PV-8B
100
AcDbLine
 10
78.22912643529551
 20
5.923318746029389
 30
-0.0000000000000046
 11
76.30794406546607
 21
5.923318746029389
 31
-0.000000000000005
210
0.0
220
1.0
230
0.0
  0
LINE
  5
16C
330
1F
100
AcDbEntity
  8
PV-8B
100
AcDbLine
 10
60.70591357615167
 20
-7.650000005000002
 30
-0.0000000000000078
 11
145.8824361630711
 21
-7.650000005000002
 31
0.0000000000000078
210
0.0
220
1.0
230
0.0
  0
ARC
  5
16D
330
1F
100
AcDbEntity
  8
PV-8B
100
AcDbCircle
 10
103.2941748696113
 20
-40.85000000499998
 30
0.0
 40
53.06599664568637
100
AcDbArc
 50
43.01340242872072
 51
118.186121606454
  0
LINE
  5
16E
330
1F
100
AcDbEntity
  8
PV-8B
100
AcDbLine
 10
143.363614596166
 20
-4.650000005000002
 30
0.0000000000000074
 11
142.0957212305491
 21
-4.650000005000002
 31
0.0000000000000071
210
0.0
220
1.0
230
0.0
  0
LINE
  5
16F
330
1F
100
AcDbEntity
  8
PV-8B
100
AcDbLine
 10
123.2941748696114
 20
-15.650000005
 30
0.0000000000000037
 11
129.2941748696113
 21
-15.650000005
 31
0.0000000000000048
210
0.0
220
1.0
230
0.0
  0
LINE
  5
170
330
1F
100
AcDbEntity
  8
PV-8B
100
AcDbLine
 10
122.2941748696114
 20
-14.650000005
 30
0.0000000000000035
 11
130.2941748696113
 21
-14.650000005
 31
0.000000000000005
210
0.0
220
1.0
230
0.0
  0
LINE
  5
171
330
1F
100
AcDbEntity
  8
PV-8B
100
AcDbLine
 10
149.364760164464
 20
-3.950000005000001
 30
0.0000000000000085
 11
150.2941748696114
 21
-3.950000005000001
 31
0.0000000000000086
210
0.0
220
1.0
230
0.0
  0
LINE
  5
172
330
1F
100
AcDbEntity
  8
PV-8B
100
AcDbLine
 10
150.2941748696114
 20
15.64999999499999
 30
0.0000000000000086
 11
149.5534596716478
 21
15.64999999499999
 31
0.0000000000000085
210
0.0
220
1.0
230
0.0
  0
LINE
  5
173
330
1F
100
AcDbEntity
  8
PV-8B
100
AcDbLine
 10
102.2941748696113
 20
14.64999999499999
 30
-0.0000000000000002
 11
102.2941748696113
 21
12.20657357452922
 31
-0.0000000000000002
210
0.0
220
1.0
230
0.0
  0
SPLINE
  5
174
330
1F
100
AcDbEntity
  8
PV-8B
100
AcDbSpline
210
0.0000000000000009
220
-0.0000000000000102
230
1.0
 70
     8
 71
     3
 72
     8
 73
     4
 74
     0
 42
0.0000000001
 43
0.0000000001
 40
1.316177565221514
 40
1.316177565221514
 40
1.316177565221514
 40
1.316177565221514
 40
1.495355224144418
 40
1.495355224144418
 40
1.495355224144418
 40
1.495355224144418
 10
149.5534596716478
 20
-3.932727242877435
 30
0.0000000000000085
 10
149.4894227200056
 20
-3.94455452021019
 30
0.0000000000000085
 10
149.4244860507716
 20
-3.950000005000001
 30
0.0000000000000085
 10
149.364760164464
 20
-3.950000005000001
 30
0.0000000000000085
  0
LINE
  5
175
330
1F
100
AcDbEntity
  8
PV-8B
100
AcDbLine
 10
149.364760164464
 20
-3.950000005000001
 30
0.0000000000000085
 11
141.4306403586941
 21
-3.950000005000001
 31
0.000000000000007
210
0.0
220
1.0
230
0.0
  0
SPLINE
  5
176
330
1F
100
AcDbEntity
  8
PV-8B
100
AcDbSpline
210
-0.0000000000000018
220
0.0000000000000019
230
-1.0
 70
     8
 71
     3
 72
    18
 73
    14
 74
     0
 42
0.0000000001
 43
0.0000000001
 40
0.0
 40
0.0
 40
0.0
 40
0.0
 40
0.3464743212138178
 40
0.3464743212138178
 40
0.6929486424276357
 40
0.6929486424276357
 40
0.9956822810148524
 40
0.9956822810148524
 40
1.298415919602069
 40
1.298415919602069
 40
1.460509701681321
 40
1.460509701681321
 40
1.634315994950835
 40
1.634315994950835
 40
1.634315994950835
 40
1.634315994950835
 10
150.5380281050236
 20
-2.950000005000001
 30
0.0000000000000087
 10
150.5236632906114
 20
-3.031242742643593
 30
0.0000000000000087
 10
150.4974446233384
 20
-3.120053498533247
 30
0.0000000000000087
 10
150.4201833956824
 20
-3.294131702877466
 30
0.0000000000000087
 10
150.3690647396032
 20
-3.379393579735416
 30
0.0000000000000086
 10
150.2619010249856
 20
-3.520094229674744
 30
0.0000000000000086
 10
150.1987873501453
 20
-3.58915050137336
 30
0.0000000000000086
 10
150.0522307823902
 20
-3.715415970829734
 30
0.0000000000000086
 10
149.9686293135894
 20
-3.772539544808091
 30
0.0000000000000086
 10
149.8375459705743
 20
-3.841295121073998
 30
0.0000000000000085
 10
149.7799605558198
 20
-3.866850446828441
 30
0.0000000000000085
 10
149.6760560240926
 20
-3.90418431030831
 30
0.0000000000000085
 10
149.6152673566454
 20
-3.921311698992009
 30
0.0000000000000085
 10
149.5534596716478
 20
-3.932727242877435
 30
0.0000000000000085
  0
LINE
  5
177
330
1F
100
AcDbEntity
  8
PV-8B
100
AcDbLine
 10
149.5534596716478
 20
15.64999999499999
 30
0.0000000000000085
 11
103.2941748696113
 21
15.64999999499999
 31
0.0
210
0.0
220
1.0
230
0.0
  0
ARC
  5
178
330
1F
100
AcDbEntity
  8
PV-8B
100
AcDbCircle
 10
103.2941748696113
 20
14.64999999499999
 30
0.0
 40
0.9999999999999992
100
AcDbArc
 50
90.0
 51
179.9999999999998
  0
LINE
  5
179
330
1F
100
AcDbEntity
  8
PV-8B
100
AcDbLine
 10
151.2941748696114
 20
14.64999999499999
 30
0.0000000000000088
 11
151.2941748696114
 21
-2.950000005
 31
0.0000000000000088
210
0.0
220
1.0
230
0.0
  0
LINE
  5
17A
330
1F
100
AcDbEntity
  8
PV-8B
100
AcDbLine
 10
122.2941748696114
 20
-7.650000005000002
 30
0.0000000000000035
 11
122.2941748696114
 21
-14.650000005
 31
0.0000000000000035
210
0.0
220
1.0
230
0.0
  0
LINE
  5
17B
330
1F
100
AcDbEntity
  8
PV-8B
100
AcDbLine
 10
130.2941748696113
 20
-7.650000005000002
 30
0.000000000000005
 11
130.2941748696113
 21
-14.650000005
 31
0.000000000000005
210
0.0
220
1.0
230
0.0
  0
LINE
  5
17C
330
1F
100
AcDbEntity
  8
PV-8B
100
AcDbLine
 10
129.2941748696113
 20
-15.650000005
 30
0.0000000000000048
 11
130.2941748696113
 21
-14.650000005
 31
0.000000000000005
210
0.0
220
1.0
230
0.0
  0
LINE
  5
17D
330
1F
100
AcDbEntity
  8
PV-8B
100
AcDbLine
 10
123.2941748696114
 20
-15.650000005
 30
0.0000000000000037
 11
122.2941748696114
 21
-14.650000005
 31
0.0000000000000035
210
0.0
220
1.0
230
0.0
  0
ARC
  5
17E
330
1F
100
AcDbEntity
  8
PV-8B
100
AcDbCircle
 10
103.2941748696113
 20
-40.850000005
 30
0.0
 40
53.99999999999999
100
AcDbArc
 50
37.93846563692754
 51
42.09565660204298
  0
ARC
  5
17F
330
1F
100
AcDbEntity
  8
PV-8B
100
AcDbCircle
 10
103.2941748696113
 20
-40.850000005
 30
0.0
 40
54.0
100
AcDbArc
 50
119.9831317543703
 51
142.0615343630724
  0
ARC
  5
180
330
1F
100
AcDbEntity
  8
PV-8B
100
AcDbCircle
 10
150.2941748696114
 20
14.64999999499999
 30
0.0000000000000086
 40
1.0
100
AcDbArc
 50
0.0
 51
90.00000000000161
  0
ARC
  5
181
330
1F
100
AcDbEntity
  8
PV-8B
100
AcDbCircle
 10
150.2941748696114
 20
-2.950000005000001
 30
0.0000000000000086
 40
1.0
100
AcDbArc
 50
270.0
 51
0.0
  0
LINE
  5
183
330
1F
100
AcDbEntity
  8
PV-8B
100
AcDbLine
 10
-9.90000000000003
 20
-78.36968276700635
 30
0.0
 11
-9.900000000000042
 21
-51.25119981029391
 31
0.0
  0
ARC
  5
184
330
1F
100
AcDbEntity
  8
PV-8B
100
AcDbCircle
 10
0.0000000000000069
 20
-76.35591357115169
 30
0.0
 40
26.98623080414532
100
AcDbArc
 50
68.47828967266767
 51
111.5217103273323
  0
LINE
  5
185
330
1F
100
AcDbEntity
  8
PV-8B
100
AcDbLine
 10
9.899999999999996
 20
-78.36968276700635
 30
0.0
 11
9.899999999999996
 21
-51.25119981029389
 31
0.0
  0
LINE
  5
186
330
1F
100
AcDbEntity
  8
PV-8B
100
AcDbLine
 10
-9.399999999999991
 20
-78.36968276700635
 30
0.0
 11
-9.90000000000003
 21
-78.36968276700635
 31
0.0
  0
LINE
  5
187
330
1F
100
AcDbEntity
  8
PV-8B
100
AcDbLine
 10
9.89999999999997
 20
-78.36968276700635
 30
0.0
 11
9.400000000000007
 21
-78.36968276700635
 31
0.0
  0
ARC
  5
188
330
1F
100
AcDbEntity
  8
PV-8B
100
AcDbCircle
 10
0.0000000000000042
 20
-76.35591357115169
 30
0.0
 40
26.98623080414532
100
AcDbArc
 50
68.24988235667452
 51
111.7501176433255
  0
LINE
  5
189
330
1F
100
AcDbEntity
  8
PV-8B
100
AcDbLine
 10
10.0
 20
-51.29086513683578
 30
0.0
 11
10.0
 21
-115.1574599320893
 31
0.0
  0
ARC
  5
18A
330
1F
100
AcDbEntity
  8
PV-8B
100
AcDbCircle
 10
0.0
 20
-76.35591357115167
 30
0.0
 40
42.58826129345972
100
AcDbArc
 50
282.7512137935116
 51
257.2487862064881
  0
LINE
  5
18B
330
1F
100
AcDbEntity
  8
PV-8B
100
AcDbLine
 10
-10.00000000000003
 20
-115.1574599320893
 30
0.0
 11
-10.00000000000001
 21
-51.29086513683518
 31
0.0
  0
LINE
  5
18C
330
1F
100
AcDbEntity
  8
PV-8B
100
AcDbLine
 10
10.0
 20
-71.85591357115168
 30
0.0
 11
9.899999999999975
 21
-71.85591357115168
 31
0.0
  0
LINE
  5
18D
330
1F
100
AcDbEntity
  8
PV-8B
100
AcDbLine
 10
-9.900000000000023
 20
-71.85591357115168
 30
0.0
 11
-10.00000000000001
 21
-71.85591357115168
 31
0.0
  0
LINE
  5
18E
330
1F
100
AcDbEntity
  8
PV-8B
100
AcDbLine
 10
-10.00000000000001
 20
-56.85591357115169
 30
0.0
 11
-9.900000000000003
 21
-56.85591357115169
 31
0.0
  0
LINE
  5
18F
330
1F
100
AcDbEntity
  8
PV-8B
100
AcDbLine
 10
9.899999999999996
 20
-56.85591357115169
 30
0.0
 11
10.0
 21
-56.85591357115169
 31
0.0
  0
ARC
  5
190
330
1F
100
AcDbEntity
  8
PV-8B
100
AcDbCircle
 10
0.0
 20
-76.35591357115169
 30
0.0
 40
35.89999999999999
100
AcDbArc
 50
253.8262253746814
 51
254.8208233184532
  0
ARC
  5
191
330
1F
100
AcDbEntity
  8
PV-8B
100
AcDbCircle
 10
0.0
 20
-76.35591357115169
 30
0.0
 40
35.89999999999999
100
AcDbArc
 50
285.1791766815466
 51
286.1737746253183
  0
ARC
  5
192
330
1F
100
AcDbEntity
  8
PV-8B
100
AcDbCircle
 10
0.0
 20
-76.35591357115167
 30
0.0
 40
40.06943972655469
100
AcDbArc
 50
283.5676179210976
 51
284.4518763983653
  0
ARC
  5
193
330
1F
100
AcDbEntity
  8
PV-8B
100
AcDbCircle
 10
0.0
 20
-76.35591357115167
 30
0.0
 40
40.06943972655469
100
AcDbArc
 50
255.5481236016346
 51
256.4323820789023
  0
ARC
  5
194
330
1F
100
AcDbEntity
  8
PV-8B
100
AcDbCircle
 10
0.0000000000000063
 20
-76.35591357115169
 30
0.0
 40
24.78523610379783
100
AcDbArc
 50
113.5426334355973
 51
113.795034293713
  0
ARC
  5
195
330
1F
100
AcDbEntity
  8
PV-8B
100
AcDbCircle
 10
0.0000000000000063
 20
-76.35591357115169
 30
0.0
 40
24.78523610379783
100
AcDbArc
 50
66.20496570628699
 51
66.45736656440272
  0
ARC
  5
196
330
1F
100
AcDbEntity
  8
PV-8B
100
AcDbCircle
 10
0.0000000000000002
 20
-76.35591357115169
 30
0.0
 40
35.5
100
AcDbArc
 50
285.3543996240532
 51
286.3611035240321
  0
ARC
  5
197
330
1F
100
AcDbEntity
  8
PV-8B
100
AcDbCircle
 10
0.0000000000000002
 20
-76.35591357115169
 30
0.0
 40
35.5
100
AcDbArc
 50
253.6388964759678
 51
254.6456003759467
  0
LINE
  5
198
330
1F
100
AcDbEntity
  8
PV-8B
100
AcDbLine
 10
9.800000000000007
 20
-78.36968276700635
 30
0.0
 11
9.800000000000007
 21
-86.35591357115169
 31
0.0
  0
LINE
  5
199
330
1F
100
AcDbEntity
  8
PV-8B
100
AcDbLine
 10
-9.799999999999991
 20
-86.35591357115169
 30
0.0
 11
-9.799999999999991
 21
-78.36968276700635
 31
0.0
  0
ARC
  5
19A
330
1F
100
AcDbEntity
  8
PV-8B
100
AcDbCircle
 10
0.0
 20
-76.35591357115167
 30
0.0
 40
27.97999285203626
100
AcDbArc
 50
290.5026233941819
 51
290.9404983104701
  0
LINE
  5
19B
330
1F
100
AcDbEntity
  8
PV-8B
100
AcDbLine
 10
9.800000000000007
 20
-86.35591357115169
 30
0.0
 11
9.400000000000012
 21
-86.35591357115169
 31
0.0
  0
LINE
  5
19C
330
1F
100
AcDbEntity
  8
PV-8B
100
AcDbLine
 10
-9.399999999999996
 20
-86.35591357115169
 30
0.0
 11
-9.799999999999991
 21
-86.35591357115169
 31
0.0
  0
LINE
  5
19D
330
1F
100
AcDbEntity
  8
PV-8B
100
AcDbLine
 10
9.800000000000029
 20
-86.35591357115169
 30
0.0
 11
9.800000000000029
 21
-102.5635460472071
 31
0.0
  0
LINE
  5
19E
330
1F
100
AcDbEntity
  8
PV-8B
100
AcDbLine
 10
9.800000000000029
 20
-102.5635460472071
 30
0.0
 11
9.800000000000027
 21
-104.3559135711516
 31
0.0
  0
LINE
  5
19F
330
1F
100
AcDbEntity
  8
PV-8B
100
AcDbLine
 10
-9.800000000000004
 20
-102.5635460472072
 30
0.0
 11
-9.800000000000004
 21
-86.35591357115169
 31
0.0
  0
LINE
  5
1A0
330
1F
100
AcDbEntity
  8
PV-8B
100
AcDbLine
 10
10.0
 20
-77.91475929796368
 30
0.0
 11
9.89999999999997
 21
-77.91475929796368
 31
0.0
  0
LINE
  5
1A1
330
1F
100
AcDbEntity
  8
PV-8B
100
AcDbLine
 10
9.899999999999971
 20
-76.35591357115169
 30
0.0
 11
10.0
 21
-76.35591357115169
 31
0.0
  0
LINE
  5
1A2
330
1F
100
AcDbEntity
  8
PV-8B
100
AcDbLine
 10
-9.900000000000027
 20
-76.35591357115169
 30
0.0
 11
-10.00000000000001
 21
-76.35591357115169
 31
0.0
  0
LINE
  5
1A3
330
1F
100
AcDbEntity
  8
PV-8B
100
AcDbLine
 10
-9.900000000000027
 20
-77.91475929796368
 30
0.0
 11
-10.00000000000001
 21
-77.91475929796368
 31
0.0
  0
ARC
  5
1A4
330
1F
100
AcDbEntity
  8
PV-8B
100
AcDbCircle
 10
0.0
 20
-76.35591357115167
 30
0.0
 40
27.97999285203626
100
AcDbArc
 50
249.0595016895297
 51
249.497376605818
  0
LINE
  5
1A5
330
1F
100
AcDbEntity
  8
PV-8B
100
AcDbLine
 10
-9.800000000000004
 20
-104.3559135711516
 30
0.0
 11
-9.800000000000004
 21
-102.5635460472072
 31
0.0
  0
LINE
  5
1A6
330
1F
100
AcDbEntity
  8
PV-8B
100
AcDbLine
 10
9.800000000000029
 20
-104.3559135711516
 30
0.0
 11
10.0
 21
-104.3559135711516
 31
0.0
  0
LINE
  5
1A7
330
1F
100
AcDbEntity
  8
PV-8B
100
AcDbLine
 10
-10.00000000000003
 20
-104.3559135711516
 30
0.0
 11
-9.799999999999997
 21
-104.3559135711516
 31
0.0
  0
LINE
  5
1A8
330
1F
100
AcDbEntity
  8
PV-8B
100
AcDbLine
 10
9.800000000000011
 20
-89.85591357115167
 30
0.0
 11
9.400000000000003
 21
-89.85591357115167
 31
0.0
  0
LINE
  5
1A9
330
1F
100
AcDbEntity
  8
PV-8B
100
AcDbLine
 10
9.400000000000016
 20
-104.8559135711516
 30
0.0
 11
10.0
 21
-104.8559135711516
 31
0.0
  0
ARC
  5
1AA
330
1F
100
AcDbEntity
  8
PV-8B
100
AcDbCircle
 10
0.0000000000000118
 20
-75.35591357115169
 30
0.0
 40
49.0
100
AcDbArc
 50
259.9213418922121
 51
280.0786581077876
  0
LINE
  5
1AB
330
1F
100
AcDbEntity
  8
PV-8B
100
AcDbLine
 10
9.400000000000003
 20
-76.35591357115169
 30
0.0
 11
9.400000000000037
 21
-122.6151983731881
 31
0.0
  0
ARC
  5
1AC
330
1F
100
AcDbEntity
  8
PV-8B
100
AcDbCircle
 10
8.400000000000003
 20
-76.35591357115169
 30
0.0
 40
1.0
100
AcDbArc
 50
0.0
 51
90.00000000000007
  0
ARC
  5
1AD
330
1F
100
AcDbEntity
  8
PV-8B
100
AcDbCircle
 10
8.400000000000039
 20
-122.6151983731881
 30
0.0
 40
1.0
100
AcDbArc
 50
280.0786581077874
 51
0.0
  0
LINE
  5
1AE
330
1F
100
AcDbEntity
  8
PV-8B
100
AcDbLine
 10
-8.399999999999991
 20
-75.35591357115169
 30
0.0
 11
8.400000000000002
 21
-75.35591357115169
 31
0.0
  0
LINE
  5
1AF
330
1F
100
AcDbEntity
  8
PV-8B
100
AcDbLine
 10
-9.400000000000003
 20
-104.8559135711516
 30
0.0
 11
-10.00000000000001
 21
-104.8559135711516
 31
0.0
  0
LINE
  5
1B0
330
1F
100
AcDbEntity
  8
PV-8B
100
AcDbLine
 10
-9.799999999999997
 20
-89.85591357115168
 30
0.0
 11
-9.399999999999996
 21
-89.85591357115168
 31
0.0
  0
LINE
  5
1B1
330
1F
100
AcDbEntity
  8
PV-8B
100
AcDbLine
 10
-9.399999999999996
 20
-76.35591357115169
 30
0.0
 11
-9.400000000000007
 21
-122.6151983731881
 31
0.0
  0
ARC
  5
1B2
330
1F
100
AcDbEntity
  8
PV-8B
100
AcDbCircle
 10
-8.399999999999991
 20
-76.35591357115169
 30
0.0
 40
1.0
100
AcDbArc
 50
90.0
 51
180.0
  0
ARC
  5
1B3
330
1F
100
AcDbEntity
  8
PV-8B
100
AcDbCircle
 10
-8.400000000000012
 20
-122.6151983731881
 30
0.0
 40
1.0
100
AcDbArc
 50
180.0
 51
259.9213418922124
  0
ENDSEC
  0
SECTION
  2
OBJECTS
  0
DICTIONARY
  5
C
330
0
100
AcDbDictionary
  3
ACAD_GROUP
350
D
  3
ACAD_LAYOUT
350
1A
  3
ACAD_MLINESTYLE
350
17
  3
ACAD_PLOTSETTINGS
350
19
  3
ACAD_PLOTSTYLENAME
350
10E
  3
ACDBHEADERROUNDTRIPXREC
350
1B5
1001
ACAD
1000
TREAT_AS_HARD
1070
     0
  0
DICTIONARY
  5
108
330
1F
100
AcDbDictionary
  3
ACAD_LAYOUTSELFREF
350
1D6
  0
DICTIONARY
  5
106
330
1B
100
AcDbDictionary
  3
ACAD_LAYOUTSELFREF
350
1D5
  0
DICTIONARY
  5
D
102
{ACAD_REACTORS
330
C
102
}
330
C
100
AcDbDictionary
1001
ACAD
1000
TREAT_AS_HARD
1070
     0
  0
DICTIONARY
  5
1A
102
{ACAD_REACTORS
330
C
102
}
330
C
100
AcDbDictionary
1001
ACAD
1000
TREAT_AS_HARD
1070
     0
  0
DICTIONARY
  5
17
102
{ACAD_REACTORS
330
C
102
}
330
C
100
AcDbDictionary
  3
STANDARD
350
18
1001
ACAD
1000
TREAT_AS_HARD
1070
     0
  0
DICTIONARY
  5
19
102
{ACAD_REACTORS
330
C
102
}
330
C
100
AcDbDictionary
1001
ACAD
1000
TREAT_AS_HARD
1070
     0
  0
ACDBDICTIONARYWDFLT
  5
10E
102
{ACAD_REACTORS
330
C
102
}
330
C
100
AcDbDictionary
281
     1
  3
Normal
350
10F
100
AcDbDictionaryWithDefault
340
10F
  0
DICTIONARY
  5
1B5
102
{ACAD_REACTORS
330
C
102
}
330
C
100
AcDbDictionary
  3
TSTACKALIGN
350
1B6
  3
TSTACKSIZE
350
1B7
  3
HYPERLINKBASE
350
1B8
  3
STYLESHEET
350
1B9
  3
LAYOUTDICT
350
1BA
  3
PLOTSETDICT
350
1BB
  3
PLOTSTYLNAMDICT
350
1BC
  3
LWETCUNION
350
1BD
  3
INSUNITS
350
1BE
  3
CEPSNTYPE
350
1BF
  3
FINGERPRINTGUID
350
1C0
  3
VERSIONGUID
350
1C1
  3
PSVPSCALE
350
1C2
  3
PUCSORTHOREF
350
1C3
  3
PUCSORTHOVIEW
350
1C4
  3
PUCSBASE
350
1C5
  3
PUCSORGTOP
350
1C6
  3
PUCSORGBOTTOM
350
1C7
  3
PUCSORGLEFT
350
1C8
  3
PUCSORGRIGHT
350
1C9
  3
PUCSORGFRONT
350
1CA
  3
PUCSORGBACK
350
1CB
  3
UCSORTHOREF
350
1CC
  3
UCSORTHOVIEW
350
1CD
  3
UCSBASE
350
1CE
  3
UCSORGTOP
350
1CF
  3
UCSORGBOTTOM
350
1D0
  3
UCSORGLEFT
350
1D1
  3
UCSORGRIGHT
350
1D2
  3
UCSORGFRONT
350
1D3
  3
UCSORGBACK
350
1D4
  0
XRECORD
  5
1D6
102
{ACAD_REACTORS
330
108
102
}
330
108
100
AcDbXrecord
340
1F
  0
XRECORD
  5
1D5
102
{ACAD_REACTORS
330
106
102
}
330
106
100
AcDbXrecord
340
1B
  0
MLINESTYLE
  5
18
102
{ACAD_REACTORS
330
17
102
}
330
17
100
AcDbMlineStyle
  2
STANDARD
 70
     0
  3

 62
   256
 51
90.0
 52
90.0
 71
     2
 49
0.5
 62
   256
  6
BYLAYER
 49
-0.5
 62
   256
  6
BYLAYER
  0
ACDBPLACEHOLDER
  5
10F
102
{ACAD_REACTORS
330
10E
102
}
330
10E
100
AcDbPlaceHolder
280
     0
  0
XRECORD
  5
1B6
102
{ACAD_REACTORS
330
1B5
102
}
330
1B5
100
AcDbXrecord
 90
        1
  0
XRECORD
  5
1B7
102
{ACAD_REACTORS
330
1B5
102
}
330
1B5
100
AcDbXrecord
 90
       70
  0
XRECORD
  5
1B8
102
{ACAD_REACTORS
330
1B5
102
}
330
1B5
100
AcDbXrecord
  1

  0
XRECORD
  5
1B9
102
{ACAD_REACTORS
330
1B5
102
}
330
1B5
100
AcDbXrecord
  1

  0
XRECORD
  5
1BA
102
{ACAD_REACTORS
330
1B5
102
}
330
1B5
100
AcDbXrecord
340
1A
  0
XRECORD
  5
1BB
102
{ACAD_REACTORS
330
1B5
102
}
330
1B5
100
AcDbXrecord
340
19
  0
XRECORD
  5
1BC
102
{ACAD_REACTORS
330
1B5
102
}
330
1B5
100
AcDbXrecord
340
10E
  0
XRECORD
  5
1BD
102
{ACAD_REACTORS
330
1B5
102
}
330
1B5
100
AcDbXrecord
 90
    10781
  0
XRECORD
  5
1BE
102
{ACAD_REACTORS
330
1B5
102
}
330
1B5
100
AcDbXrecord
 90
        0
  0
XRECORD
  5
1BF
102
{ACAD_REACTORS
330
1B5
102
}
330
1B5
100
AcDbXrecord
 90
        0
  0
XRECORD
  5
1C0
102
{ACAD_REACTORS
330
1B5
102
}
330
1B5
100
AcDbXrecord
  1
{E09D9BD1-268D-4303-A2C1-E886586BDC5D}
  0
XRECORD
  5
1C1
102
{ACAD_REACTORS
330
1B5
102
}
330
1B5
100
AcDbXrecord
  1
{0ED3B631-EF07-4893-953C-22961CDA906D}
  0
XRECORD
  5
1C2
102
{ACAD_REACTORS
330
1B5
102
}
330
1B5
100
AcDbXrecord
 40
0.0
  0
XRECORD
  5
1C3
102
{ACAD_REACTORS
330
1B5
102
}
330
1B5
100
AcDbXrecord
340
0
  0
XRECORD
  5
1C4
102
{ACAD_REACTORS
330
1B5
102
}
330
1B5
100
AcDbXrecord
 70
     0
  0
XRECORD
  5
1C5
102
{ACAD_REACTORS
330
1B5
102
}
330
1B5
100
AcDbXrecord
340
0
  0
XRECORD
  5
1C6
102
{ACAD_REACTORS
330
1B5
102
}
330
1B5
100
AcDbXrecord
 10
0.0
 20
0.0
 30
0.0
  0
XRECORD
  5
1C7
102
{ACAD_REACTORS
330
1B5
102
}
330
1B5
100
AcDbXrecord
 10
0.0
 20
0.0
 30
0.0
  0
XRECORD
  5
1C8
102
{ACAD_REACTORS
330
1B5
102
}
330
1B5
100
AcDbXrecord
 10
0.0
 20
0.0
 30
0.0
  0
XRECORD
  5
1C9
102
{ACAD_REACTORS
330
1B5
102
}
330
1B5
100
AcDbXrecord
 10
0.0
 20
0.0
 30
0.0
  0
XRECORD
  5
1CA
102
{ACAD_REACTORS
330
1B5
102
}
330
1B5
100
AcDbXrecord
 10
0.0
 20
0.0
 30
0.0
  0
XRECORD
  5
1CB
102
{ACAD_REACTORS
330
1B5
102
}
330
1B5
100
AcDbXrecord
 10
0.0
 20
0.0
 30
0.0
  0
XRECORD
  5
1CC
102
{ACAD_REACTORS
330
1B5
102
}
330
1B5
100
AcDbXrecord
340
0
  0
XRECORD
  5
1CD
102
{ACAD_REACTORS
330
1B5
102
}
330
1B5
100
AcDbXrecord
 70
     0
  0
XRECORD
  5
1CE
102
{ACAD_REACTORS
330
1B5
102
}
330
1B5
100
AcDbXrecord
340
0
  0
XRECORD
  5
1CF
102
{ACAD_REACTORS
330
1B5
102
}
330
1B5
100
AcDbXrecord
 10
0.0
 20
0.0
 30
0.0
  0
XRECORD
  5
1D0
102
{ACAD_REACTORS
330
1B5
102
}
330
1B5
100
AcDbXrecord
 10
0.0
 20
0.0
 30
0.0
  0
XRECORD
  5
1D1
102
{ACAD_REACTORS
330
1B5
102
}
330
1B5
100
AcDbXrecord
 10
0.0
 20
0.0
 30
0.0
  0
XRECORD
  5
1D2
102
{ACAD_REACTORS
330
1B5
102
}
330
1B5
100
AcDbXrecord
 10
0.0
 20
0.0
 30
0.0
  0
XRECORD
  5
1D3
102
{ACAD_REACTORS
330
1B5
102
}
330
1B5
100
AcDbXrecord
 10
0.0
 20
0.0
 30
0.0
  0
XRECORD
  5
1D4
102
{ACAD_REACTORS
330
1B5
102
}
330
1B5
100
AcDbXrecord
 10
0.0
 20
0.0
 30
0.0
  0
ENDSEC
  0
EOF
