  0
SECTION
  2
HEADER
  9
$ACADVER
  1
AC1018
  9
$ACADMAINTVER
 70
     0
  9
$DWGCODEPAGE
  3
ANSI_1252
  9
$INSBASE
 10
0.0
 20
0.0
 30
0.0
  9
$EXTMIN
 10
-0.5
 20
-0.5
 30
-0.5
  9
$EXTMAX
 10
5.0
 20
5.0
 30
5.0
  9
$LIMMIN
 10
-0.5
 20
-0.5
  9
$LIMMAX
 10
5.0
 20
5.0
  9
$ORTHOMODE
 70
     0
  9
$REGENMODE
 70
     1
  9
$FILLMODE
 70
     1
  9
$QTEXTMODE
 70
     0
  9
$MIRRTEXT
 70
     1
  9
$LTSCALE
 40
1.0
  9
$ATTMODE
 70
     1
  9
$TEXTSIZE
 40
0.2
  9
$TRACEWID
 40
0.05
  9
$TEXTSTYLE
  7
Standard
  9
$CLAYER
  8
0
  9
$CELTYPE
  6
ByLayer
  9
$CECOLOR
 62
   256
  9
$CELTSCALE
 40
1.0
  9
$DISPSILH
 70
     0
  9
$DIMSCALE
 40
1.0
  9
$DIMASZ
 40
0.18
  9
$DIMEXO
 40
0.0625
  9
$DIMDLI
 40
0.38
  9
$DIMRND
 40
0.0
  9
$DIMDLE
 40
0.0
  9
$DIMEXE
 40
0.18
  9
$DIMTP
 40
0.0
  9
$DIMTM
 40
0.0
  9
$DIMTXT
 40
0.18
  9
$DIMCEN
 40
0.09
  9
$DIMTSZ
 40
0.0
  9
$DIMTOL
 70
     0
  9
$DIMLIM
 70
     0
  9
$DIMTIH
 70
     1
  9
$DIMTOH
 70
     1
  9
$DIMSE1
 70
     0
  9
$DIMSE2
 70
     0
  9
$DIMTAD
 70
     0
  9
$DIMZIN
 70
     0
  9
$DIMBLK
  1

  9
$DIMASO
 70
     1
  9
$DIMSHO
 70
     1
  9
$DIMPOST
  1

  9
$DIMAPOST
  1

  9
$DIMALT
 70
     0
  9
$DIMALTD
 70
     2
  9
$DIMALTF
 40
25.4
  9
$DIMLFAC
 40
1.0
  9
$DIMTOFL
 70
     0
  9
$DIMTVP
 40
0.0
  9
$DIMTIX
 70
     0
  9
$DIMSOXD
 70
     0
  9
$DIMSAH
 70
     0
  9
$DIMBLK1
  1

  9
$DIMBLK2
  1

  9
$DIMSTYLE
  2
Standard
  9
$DIMCLRD
 70
     0
  9
$DIMCLRE
 70
     0
  9
$DIMCLRT
 70
     0
  9
$DIMTFAC
 40
1.0
  9
$DIMGAP
 40
0.09
  9
$DIMJUST
 70
     0
  9
$DIMSD1
 70
     0
  9
$DIMSD2
 70
     0
  9
$DIMTOLJ
 70
     1
  9
$DIMTZIN
 70
     0
  9
$DIMALTZ
 70
     0
  9
$DIMALTTZ
 70
     0
  9
$DIMUPT
 70
     0
  9
$DIMDEC
 70
     4
  9
$DIMTDEC
 70
     4
  9
$DIMALTU
 70
     2
  9
$DIMALTTD
 70
     2
  9
$DIMTXSTY
  7
Standard
  9
$DIMAUNIT
 70
     0
  9
$DIMADEC
 70
     0
  9
$DIMALTRND
 40
0.0
  9
$DIMAZIN
 70
     0
  9
$DIMDSEP
 70
    46
  9
$DIMATFIT
 70
     3
  9
$DIMFRAC
 70
     0
  9
$DIMLDRBLK
  1

  9
$DIMLUNIT
 70
     2
  9
$DIMLWD
 70
    -2
  9
$DIMLWE
 70
    -2
  9
$DIMTMOVE
 70
     0
  9
$LUNITS
 70
     2
  9
$LUPREC
 70
     4
  9
$SKETCHINC
 40
0.1
  9
$FILLETRAD
 40
0.5
  9
$AUNITS
 70
     0
  9
$AUPREC
 70
     0
  9
$MENU
  1
.
  9
$ELEVATION
 40
0.0
  9
$PELEVATION
 40
0.0
  9
$THICKNESS
 40
0.0
  9
$LIMCHECK
 70
     0
  9
$CHAMFERA
 40
0.0
  9
$CHAMFERB
 40
0.0
  9
$CHAMFERC
 40
0.0
  9
$CHAMFERD
 40
0.0
  9
$SKPOLY
 70
     0
  9
$TDCREATE
 40
2459905.597665833
  9
$TDUCREATE
 40
2459905.555999167
  9
$TDUPDATE
 40
2459905.597666157
  9
$TDUUPDATE
 40
2459905.555999491
  9
$TDINDWG
 40
0.0000000116
  9
$TDUSRTIMER
 40
0.0000000116
  9
$USRTIMER
 70
     1
  9
$ANGBASE
 50
0.0
  9
$ANGDIR
 70
     0
  9
$PDMODE
 70
     0
  9
$PDSIZE
 40
0.0
  9
$PLINEWID
 40
0.0
  9
$SPLFRAME
 70
     0
  9
$SPLINETYPE
 70
     6
  9
$SPLINESEGS
 70
     8
  9
$HANDSEED
  5
F2
  9
$SURFTAB1
 70
     6
  9
$SURFTAB2
 70
     6
  9
$SURFTYPE
 70
     6
  9
$SURFU
 70
     6
  9
$SURFV
 70
     6
  9
$UCSBASE
  2

  9
$UCSNAME
  2

  9
$UCSORG
 10
0.0
 20
0.0
 30
0.0
  9
$UCSXDIR
 10
1.0
 20
0.0
 30
0.0
  9
$UCSYDIR
 10
0.0
 20
1.0
 30
0.0
  9
$UCSORTHOREF
  2

  9
$UCSORTHOVIEW
 70
     0
  9
$UCSORGTOP
 10
0.0
 20
0.0
 30
0.0
  9
$UCSORGBOTTOM
 10
0.0
 20
0.0
 30
0.0
  9
$UCSORGLEFT
 10
0.0
 20
0.0
 30
0.0
  9
$UCSORGRIGHT
 10
0.0
 20
0.0
 30
0.0
  9
$UCSORGFRONT
 10
0.0
 20
0.0
 30
0.0
  9
$UCSORGBACK
 10
0.0
 20
0.0
 30
0.0
  9
$PUCSBASE
  2

  9
$PUCSNAME
  2

  9
$PUCSORG
 10
0.0
 20
0.0
 30
0.0
  9
$PUCSXDIR
 10
1.0
 20
0.0
 30
0.0
  9
$PUCSYDIR
 10
0.0
 20
1.0
 30
0.0
  9
$PUCSORTHOREF
  2

  9
$PUCSORTHOVIEW
 70
     0
  9
$PUCSORGTOP
 10
0.0
 20
0.0
 30
0.0
  9
$PUCSORGBOTTOM
 10
0.0
 20
0.0
 30
0.0
  9
$PUCSORGLEFT
 10
0.0
 20
0.0
 30
0.0
  9
$PUCSORGRIGHT
 10
0.0
 20
0.0
 30
0.0
  9
$PUCSORGFRONT
 10
0.0
 20
0.0
 30
0.0
  9
$PUCSORGBACK
 10
0.0
 20
0.0
 30
0.0
  9
$USERI1
 70
     0
  9
$USERI2
 70
     0
  9
$USERI3
 70
     0
  9
$USERI4
 70
     0
  9
$USERI5
 70
     0
  9
$USERR1
 40
0.0
  9
$USERR2
 40
0.0
  9
$USERR3
 40
0.0
  9
$USERR4
 40
0.0
  9
$USERR5
 40
0.0
  9
$WORLDVIEW
 70
     1
  9
$SHADEDGE
 70
     3
  9
$SHADEDIF
 70
    70
  9
$TILEMODE
 70
     1
  9
$MAXACTVP
 70
    64
  9
$PINSBASE
 10
0.0
 20
0.0
 30
0.0
  9
$PLIMCHECK
 70
     0
  9
$PEXTMIN
 10
-0.5
 20
-0.5
 30
-0.5
  9
$PEXTMAX
 10
5.0
 20
5.0
 30
5.0
  9
$PLIMMIN
 10
-0.5
 20
-0.5
  9
$PLIMMAX
 10
5.0
 20
5.0
  9
$UNITMODE
 70
     0
  9
$VISRETAIN
 70
     1
  9
$PLINEGEN
 70
     0
  9
$PSLTSCALE
 70
     1
  9
$TREEDEPTH
 70
  3020
  9
$CMLSTYLE
  2
Standard
  9
$CMLJUST
 70
     0
  9
$CMLSCALE
 40
1.0
  9
$PROXYGRAPHICS
 70
     1
  9
$MEASUREMENT
 70
     1
  9
$CELWEIGHT
370
    18
  9
$ENDCAPS
280
     0
  9
$JOINSTYLE
280
     0
  9
$LWDISPLAY
290
     1
  9
$INSUNITS
 70
     4
  9
$HYPERLINKBASE
  1

  9
$STYLESHEET
  1

  9
$XEDIT
290
     1
  9
$CEPSNTYPE
380
     0
  9
$PSTYLEMODE
290
     1
  9
$FINGERPRINTGUID
  2
{A3322C4A-AABC-47FE-B534-B53A80F56EA9}
  9
$VERSIONGUID
  2
{FAEB1C32-E019-11D5-929B-00C0DF256EC4}
  9
$EXTNAMES
290
     1
  9
$PSVPSCALE
 40
0.0
  9
$OLESTARTUP
290
     0
  9
$SORTENTS
280
   127
  9
$INDEXCTL
280
     0
  9
$HIDETEXT
280
     1
  9
$XCLIPFRAME
290
     0
  9
$HALOGAP
280
     0
  9
$OBSCOLOR
 70
   257
  9
$OBSLTYPE
280
     0
  9
$INTERSECTIONDISPLAY
280
     0
  9
$INTERSECTIONCOLOR
 70
   257
  9
$DIMASSOC
280
     2
  9
$PROJECTNAME
  1

  0
ENDSEC
  0
SECTION
  2
CLASSES
  0
CLASS
  1
ACDBDICTIONARYWDFLT
  2
AcDbDictionaryWithDefault
  3
ObjectDBX Classes
 90
        0
 91
        3
280
     0
281
     0
  0
CLASS
  1
VISUALSTYLE
  2
AcDbVisualStyle
  3
ObjectDBX Classes
 90
     4095
 91
        3
280
     0
281
     0
  0
CLASS
  1
MATERIAL
  2
AcDbMaterial
  3
ObjectDBX Classes
 90
     1153
 91
        3
280
     0
281
     0
  0
CLASS
  1
SCALE
  2
AcDbScale
  3
ObjectDBX Classes
 90
     1153
 91
        3
280
     0
281
     0
  0
CLASS
  1
TABLESTYLE
  2
AcDbTableStyle
  3
ObjectDBX Classes
 90
     4095
 91
        3
280
     0
281
     0
  0
CLASS
  1
MLEADERSTYLE
  2
AcDbMLeaderStyle
  3
ACDB_MLEADERSTYLE_CLASS
 90
     4095
 91
        3
280
     0
281
     0
  0
CLASS
  1
SUN
  2
AcDbSun
  3
SCENEOE
 90
     1153
 91
        3
280
     0
281
     0
  0
CLASS
  1
DICTIONARYVAR
  2
AcDbDictionaryVar
  3
ObjectDBX Classes
 90
        0
 91
        3
280
     0
281
     0
  0
CLASS
  1
CELLSTYLEMAP
  2
AcDbCellStyleMap
  3
ObjectDBX Classes
 90
     1152
 91
        3
280
     0
281
     0
  0
ENDSEC
  0
SECTION
  2
TABLES
  0
TABLE
  2
VPORT
  5
8
102
{ACAD_XDICTIONARY
360
AB
102
}
330
0
100
AcDbSymbolTable
 70
    16
  0
VPORT
  5
29
330
8
100
AcDbSymbolTableRecord
100
AcDbViewportTableRecord
  2
*Active
 70
     0
 10
0.0
 20
0.0
 11
1.0
 21
1.0
 12
194.273075
 22
129.878524
 13
0.0
 23
0.0
 14
0.5
 24
0.5
 15
0.5
 25
0.5
 16
0.0
 26
0.0
 36
1.0
 17
0.0
 27
0.0
 37
0.0
 40
224.895833
 41
0.078955
 42
50.0
 43
389.063785
 44
-389.063785
 50
0.0
 51
0.0
 71
     0
 72
   100
 73
     1
 74
     3
 75
     0
 76
     0
 77
     0
 78
     0
281
     0
 65
     1
110
0.0
120
0.0
130
0.0
111
1.0
121
0.0
131
0.0
112
0.0
122
1.0
132
0.0
 79
     0
146
0.0
  0
VPORT
  5
9C
330
8
100
AcDbSymbolTableRecord
100
AcDbViewportTableRecord
  2
L1
 70
     0
 10
0.0
 20
0.0
 11
1.0
 21
1.0
 12
194.273075
 22
129.878524
 13
0.0
 23
0.0
 14
0.5
 24
0.5
 15
0.5
 25
0.5
 16
0.0
 26
0.0
 36
1.0
 17
0.0
 27
0.0
 37
0.0
 40
224.895833
 41
0.078955
 42
50.0
 43
389.063785
 44
-389.063785
 50
0.0
 51
0.0
 71
     0
 72
   100
 73
     1
 74
     3
 75
     0
 76
     0
 77
     0
 78
     0
281
     0
 65
     1
110
0.0
120
0.0
130
0.0
111
1.0
121
0.0
131
0.0
112
0.0
122
1.0
132
0.0
 79
     0
146
0.0
  0
VPORT
  5
9D
330
8
100
AcDbSymbolTableRecord
100
AcDbViewportTableRecord
  2
L2
 70
     0
 10
0.0
 20
0.0
 11
0.5
 21
1.0
 12
0.0
 22
0.0
 13
0.0
 23
0.0
 14
0.5
 24
0.5
 15
0.5
 25
0.5
 16
0.0
 26
-1.0
 36
0.0
 17
0.0
 27
0.0
 37
0.0
 40
1512.805249
 41
0.011738
 42
50.0
 43
781.298612
 44
-781.298612
 50
0.0
 51
0.0
 71
     0
 72
   100
 73
     1
 74
     3
 75
     0
 76
     0
 77
     0
 78
     0
281
     0
 65
     1
110
0.0
120
0.0
130
0.0
111
1.0
121
0.0
131
0.0
112
0.0
122
1.0
132
0.0
 79
     0
146
0.0
  0
VPORT
  5
9E
330
8
100
AcDbSymbolTableRecord
100
AcDbViewportTableRecord
  2
L2
 70
     0
 10
0.5
 20
0.0
 11
1.0
 21
1.0
 12
0.0
 22
0.0
 13
0.0
 23
0.0
 14
0.5
 24
0.5
 15
0.5
 25
0.5
 16
1.0
 26
0.0
 36
0.0
 17
0.0
 27
0.0
 37
0.0
 40
1512.805249
 41
0.011738
 42
50.0
 43
764.715283
 44
-764.715283
 50
0.0
 51
0.0
 71
     0
 72
   100
 73
     1
 74
     3
 75
     0
 76
     0
 77
     0
 78
     0
281
     0
 65
     1
110
0.0
120
0.0
130
0.0
111
1.0
121
0.0
131
0.0
112
0.0
122
1.0
132
0.0
 79
     0
146
0.0
  0
VPORT
  5
9F
330
8
100
AcDbSymbolTableRecord
100
AcDbViewportTableRecord
  2
L3
 70
     0
 10
0.0
 20
0.5
 11
1.0
 21
1.0
 12
194.273075
 22
129.878524
 13
0.0
 23
0.0
 14
0.5
 24
0.5
 15
0.5
 25
0.5
 16
0.0
 26
0.0
 36
1.0
 17
0.0
 27
0.0
 37
0.0
 40
224.895833
 41
0.078955
 42
50.0
 43
389.063785
 44
-389.063785
 50
0.0
 51
0.0
 71
     0
 72
   100
 73
     1
 74
     3
 75
     0
 76
     0
 77
     0
 78
     0
281
     0
 65
     1
110
0.0
120
0.0
130
0.0
111
1.0
121
0.0
131
0.0
112
0.0
122
1.0
132
0.0
 79
     0
146
0.0
  0
VPORT
  5
A0
330
8
100
AcDbSymbolTableRecord
100
AcDbViewportTableRecord
  2
L3
 70
     0
 10
0.0
 20
0.0
 11
1.0
 21
0.5
 12
0.0
 22
0.0
 13
0.0
 23
0.0
 14
0.5
 24
0.5
 15
0.5
 25
0.5
 16
0.0
 26
-1.0
 36
0.0
 17
0.0
 27
0.0
 37
0.0
 40
1512.805249
 41
0.011738
 42
50.0
 43
781.298612
 44
-781.298612
 50
0.0
 51
0.0
 71
     0
 72
   100
 73
     1
 74
     3
 75
     0
 76
     0
 77
     0
 78
     0
281
     0
 65
     1
110
0.0
120
0.0
130
0.0
111
1.0
121
0.0
131
0.0
112
0.0
122
1.0
132
0.0
 79
     0
146
0.0
  0
VPORT
  5
A1
330
8
100
AcDbSymbolTableRecord
100
AcDbViewportTableRecord
  2
L4
 70
     0
 10
0.0
 20
0.5
 11
0.5
 21
1.0
 12
194.273075
 22
129.878524
 13
0.0
 23
0.0
 14
0.5
 24
0.5
 15
0.5
 25
0.5
 16
0.0
 26
0.0
 36
1.0
 17
0.0
 27
0.0
 37
0.0
 40
224.895833
 41
0.078955
 42
50.0
 43
389.063785
 44
-389.063785
 50
0.0
 51
0.0
 71
     0
 72
   100
 73
     1
 74
     3
 75
     0
 76
     0
 77
     0
 78
     0
281
     0
 65
     1
110
0.0
120
0.0
130
0.0
111
1.0
121
0.0
131
0.0
112
0.0
122
1.0
132
0.0
 79
     0
146
0.0
  0
VPORT
  5
A2
330
8
100
AcDbSymbolTableRecord
100
AcDbViewportTableRecord
  2
L4
 70
     0
 10
0.0
 20
0.0
 11
0.5
 21
0.5
 12
0.0
 22
0.0
 13
0.0
 23
0.0
 14
0.5
 24
0.5
 15
0.5
 25
0.5
 16
0.0
 26
-1.0
 36
0.0
 17
0.0
 27
0.0
 37
0.0
 40
1512.805249
 41
0.011738
 42
50.0
 43
781.298612
 44
-781.298612
 50
0.0
 51
0.0
 71
     0
 72
   100
 73
     1
 74
     3
 75
     0
 76
     0
 77
     0
 78
     0
281
     0
 65
     1
110
0.0
120
0.0
130
0.0
111
1.0
121
0.0
131
0.0
112
0.0
122
1.0
132
0.0
 79
     0
146
0.0
  0
VPORT
  5
A3
330
8
100
AcDbSymbolTableRecord
100
AcDbViewportTableRecord
  2
L4
 70
     0
 10
0.5
 20
0.0
 11
1.0
 21
0.5
 12
0.0
 22
0.0
 13
0.0
 23
0.0
 14
0.5
 24
0.5
 15
0.5
 25
0.5
 16
1.0
 26
0.0
 36
0.0
 17
0.0
 27
0.0
 37
0.0
 40
1512.805249
 41
0.011738
 42
50.0
 43
764.715283
 44
-764.715283
 50
0.0
 51
0.0
 71
     0
 72
   100
 73
     1
 74
     3
 75
     0
 76
     0
 77
     0
 78
     0
281
     0
 65
     1
110
0.0
120
0.0
130
0.0
111
1.0
121
0.0
131
0.0
112
0.0
122
1.0
132
0.0
 79
     0
146
0.0
  0
VPORT
  5
A4
330
8
100
AcDbSymbolTableRecord
100
AcDbViewportTableRecord
  2
L4
 70
     0
 10
0.5
 20
0.5
 11
1.0
 21
1.0
 12
0.0
 22
0.0
 13
0.0
 23
0.0
 14
0.5
 24
0.5
 15
0.5
 25
0.5
 16
0.5773502691896258
 26
-0.5773502691896258
 36
0.5773502691896258
 17
0.0
 27
0.0
 37
0.0
 40
1486.768864
 41
0.011943
 42
50.0
 43
774.651835
 44
-774.651835
 50
0.0
 51
0.0
 71
     0
 72
   100
 73
     1
 74
     3
 75
     0
 76
     0
 77
     0
 78
     0
281
     0
 65
     1
110
0.0
120
0.0
130
0.0
111
1.0
121
0.0
131
0.0
112
0.0
122
1.0
132
0.0
 79
     0
146
0.0
  0
VPORT
  5
A5
330
8
100
AcDbSymbolTableRecord
100
AcDbViewportTableRecord
  2
L6
 70
     0
 10
0.0
 20
0.5
 11
0.333333
 21
1.0
 12
0.0
 22
0.0
 13
0.0
 23
0.0
 14
0.5
 24
0.5
 15
0.5
 25
0.5
 16
0.7188730927569433
 26
-0.5850486126764433
 36
0.3754192287502549
 17
0.0
 27
0.0
 37
0.0
 40
1569.38822
 41
0.011314
 42
50.0
 43
812.494531
 44
-812.494531
 50
0.0
 51
0.0
 71
     0
 72
   100
 73
     1
 74
     3
 75
     0
 76
     0
 77
     0
 78
     0
281
     0
 65
     1
110
0.0
120
0.0
130
0.0
111
1.0
121
0.0
131
0.0
112
0.0
122
1.0
132
0.0
 79
     0
146
0.0
  0
VPORT
  5
A6
330
8
100
AcDbSymbolTableRecord
100
AcDbViewportTableRecord
  2
L6
 70
     0
 10
0.0
 20
0.0
 11
0.333333
 21
0.5
 12
0.0
 22
0.0
 13
0.0
 23
0.0
 14
0.5
 24
0.5
 15
0.5
 25
0.5
 16
-1.0
 26
0.0
 36
0.0
 17
0.0
 27
0.0
 37
0.0
 40
1512.805249
 41
0.011738
 42
50.0
 43
764.715283
 44
-764.715283
 50
0.0
 51
0.0
 71
     0
 72
   100
 73
     1
 74
     3
 75
     0
 76
     0
 77
     0
 78
     0
281
     0
 65
     1
110
0.0
120
0.0
130
0.0
111
1.0
121
0.0
131
0.0
112
0.0
122
1.0
132
0.0
 79
     0
146
0.0
  0
VPORT
  5
A7
330
8
100
AcDbSymbolTableRecord
100
AcDbViewportTableRecord
  2
L6
 70
     0
 10
0.333333
 20
0.5
 11
0.666667
 21
1.0
 12
194.273075
 22
129.878524
 13
0.0
 23
0.0
 14
0.5
 24
0.5
 15
0.5
 25
0.5
 16
0.0
 26
0.0
 36
1.0
 17
0.0
 27
0.0
 37
0.0
 40
224.895833
 41
0.078955
 42
50.0
 43
389.063785
 44
-389.063785
 50
0.0
 51
0.0
 71
     0
 72
   100
 73
     1
 74
     3
 75
     0
 76
     0
 77
     0
 78
     0
281
     0
 65
     1
110
0.0
120
0.0
130
0.0
111
1.0
121
0.0
131
0.0
112
0.0
122
1.0
132
0.0
 79
     0
146
0.0
  0
VPORT
  5
A8
330
8
100
AcDbSymbolTableRecord
100
AcDbViewportTableRecord
  2
L6
 70
     0
 10
0.333333
 20
0.0
 11
0.666667
 21
0.5
 12
0.0
 22
0.0
 13
0.0
 23
0.0
 14
0.5
 24
0.5
 15
0.5
 25
0.5
 16
0.0
 26
-1.0
 36
0.0
 17
0.0
 27
0.0
 37
0.0
 40
1512.805249
 41
0.011738
 42
50.0
 43
781.298612
 44
-781.298612
 50
0.0
 51
0.0
 71
     0
 72
   100
 73
     1
 74
     3
 75
     0
 76
     0
 77
     0
 78
     0
281
     0
 65
     1
110
0.0
120
0.0
130
0.0
111
1.0
121
0.0
131
0.0
112
0.0
122
1.0
132
0.0
 79
     0
146
0.0
  0
VPORT
  5
A9
330
8
100
AcDbSymbolTableRecord
100
AcDbViewportTableRecord
  2
L6
 70
     0
 10
0.666667
 20
0.5
 11
1.0
 21
1.0
 12
0.0
 22
0.0
 13
0.0
 23
0.0
 14
0.5
 24
0.5
 15
0.5
 25
0.5
 16
0.5773502691896258
 26
-0.5773502691896258
 36
0.5773502691896258
 17
0.0
 27
0.0
 37
0.0
 40
1486.768864
 41
0.011943
 42
50.0
 43
774.651835
 44
-774.651835
 50
0.0
 51
0.0
 71
     0
 72
   100
 73
     1
 74
     3
 75
     0
 76
     0
 77
     0
 78
     0
281
     0
 65
     1
110
0.0
120
0.0
130
0.0
111
1.0
121
0.0
131
0.0
112
0.0
122
1.0
132
0.0
 79
     0
146
0.0
  0
VPORT
  5
AA
330
8
100
AcDbSymbolTableRecord
100
AcDbViewportTableRecord
  2
L6
 70
     0
 10
0.666667
 20
0.0
 11
1.0
 21
0.5
 12
0.0
 22
0.0
 13
0.0
 23
0.0
 14
0.5
 24
0.5
 15
0.5
 25
0.5
 16
1.0
 26
0.0
 36
0.0
 17
0.0
 27
0.0
 37
0.0
 40
1512.805249
 41
0.011738
 42
50.0
 43
764.715283
 44
-764.715283
 50
0.0
 51
0.0
 71
     0
 72
   100
 73
     1
 74
     3
 75
     0
 76
     0
 77
     0
 78
     0
281
     0
 65
     1
110
0.0
120
0.0
130
0.0
111
1.0
121
0.0
131
0.0
112
0.0
122
1.0
132
0.0
 79
     0
146
0.0
  0
ENDTAB
  0
TABLE
  2
LTYPE
  5
5
330
0
100
AcDbSymbolTable
 70
     6
  0
LTYPE
  5
14
330
5
100
AcDbSymbolTableRecord
100
AcDbLinetypeTableRecord
  2
ByBlock
 70
     0
  3

 72
    65
 73
     0
 40
0.0
  0
LTYPE
  5
15
330
5
100
AcDbSymbolTableRecord
100
AcDbLinetypeTableRecord
  2
ByLayer
 70
     0
  3

 72
    65
 73
     0
 40
0.0
  0
LTYPE
  5
16
330
5
100
AcDbSymbolTableRecord
100
AcDbLinetypeTableRecord
  2
Continuous
 70
     0
  3
Solid line
 72
    65
 73
     0
 40
0.0
  0
LTYPE
  5
6E
330
5
100
AcDbSymbolTableRecord
100
AcDbLinetypeTableRecord
  2
CENTER
 70
     0
  3
____ _ ____ _ ____ _ ____
 72
    65
 73
     4
 40
47.4
 49
22.0
 74
     4
 75
     0
340
0
 46
0.0
 50
0.0
 44
0.0
 45
0.0
 49
-8.5
 74
     4
 75
     0
340
0
 46
0.0
 50
0.0
 44
0.0
 45
0.0
 49
8.5
 74
     4
 75
     0
340
0
 46
0.0
 50
0.0
 44
0.0
 45
0.0
 49
-8.5
 74
     4
 75
     0
340
0
 46
0.0
 50
0.0
 44
0.0
 45
0.0
  0
LTYPE
  5
6F
330
5
100
AcDbSymbolTableRecord
100
AcDbLinetypeTableRecord
  2
DASHDOT
 70
     0
  3
_._._._._._._._._._._._._._._._.
 72
    65
 73
     4
 40
70.0
 49
31.0
 74
     4
 75
     0
340
0
 46
0.0
 50
0.0
 44
0.0
 45
0.0
 49
-13.0
 74
     4
 75
     0
340
0
 46
0.0
 50
0.0
 44
0.0
 45
0.0
 49
13.0
 74
     4
 75
     0
340
0
 46
0.0
 50
0.0
 44
0.0
 45
0.0
 49
-13.0
 74
     4
 75
     0
340
0
 46
0.0
 50
0.0
 44
0.0
 45
0.0
  0
LTYPE
  5
70
330
5
100
AcDbSymbolTableRecord
100
AcDbLinetypeTableRecord
  2
DASHED
 70
     0
  3
__ __ __ __ __ __ __ __ __
 72
    65
 73
     2
 40
25.72
 49
12.86
 74
     4
 75
     0
340
0
 46
0.0
 50
0.0
 44
0.0
 45
0.0
 49
-12.86
 74
     4
 75
     0
340
0
 46
0.0
 50
0.0
 44
0.0
 45
0.0
  0
LTYPE
  5
71
330
5
100
AcDbSymbolTableRecord
100
AcDbLinetypeTableRecord
  2
DOT
 70
     0
  3
.........................
 72
    65
 73
     2
 40
10.0
 49
0.0
 74
     4
 75
     0
340
0
 46
0.0
 50
0.0
 44
0.0
 45
0.0
 49
-10.0
 74
     4
 75
     0
340
0
 46
0.0
 50
0.0
 44
0.0
 45
0.0
  0
LTYPE
  5
72
330
5
100
AcDbSymbolTableRecord
100
AcDbLinetypeTableRecord
  2
PHANTOM
 70
     0
  3
____ _ _ ____ _ _ _____ _ _ ____
 72
    65
 73
     6
 40
50.5
 49
18.0
 74
     4
 75
     0
340
0
 46
0.0
 50
0.0
 44
0.0
 45
0.0
 49
-6.5
 74
     4
 75
     0
340
0
 46
0.0
 50
0.0
 44
0.0
 45
0.0
 49
6.5
 74
     4
 75
     0
340
0
 46
0.0
 50
0.0
 44
0.0
 45
0.0
 49
-6.5
 74
     4
 75
     0
340
0
 46
0.0
 50
0.0
 44
0.0
 45
0.0
 49
6.5
 74
     4
 75
     0
340
0
 46
0.0
 50
0.0
 44
0.0
 45
0.0
 49
-6.5
 74
     4
 75
     0
340
0
 46
0.0
 50
0.0
 44
0.0
 45
0.0
  0
ENDTAB
  0
TABLE
  2
LAYER
  5
2
330
0
100
AcDbSymbolTable
 70
     2
  0
LAYER
  5
10
330
2
100
AcDbSymbolTableRecord
100
AcDbLayerTableRecord
  2
0
 70
     0
 62
     7
  6
Continuous
370
    -3
390
F
  0
LAYER
  5
74
330
2
100
AcDbSymbolTableRecord
100
AcDbLayerTableRecord
  2
1
 70
     0
 62
     7
420
 16777215
  6
Continuous
370
    -3
390
F
  0
ENDTAB
  0
TABLE
  2
STYLE
  5
3
330
0
100
AcDbSymbolTable
 70
     1
  0
STYLE
  5
11
330
3
100
AcDbSymbolTableRecord
100
AcDbTextStyleTableRecord
  2
Standard
 70
     0
 40
0.0
 41
1.0
 50
0.0
 71
     0
 42
0.2
  3
txt
  4

  0
ENDTAB
  0
TABLE
  2
VIEW
  5
6
330
0
100
AcDbSymbolTable
 70
     0
  0
ENDTAB
  0
TABLE
  2
UCS
  5
7
330
0
100
AcDbSymbolTable
 70
     0
  0
ENDTAB
  0
TABLE
  2
APPID
  5
9
330
0
100
AcDbSymbolTable
 70
     2
  0
APPID
  5
12
330
9
100
AcDbSymbolTableRecord
100
AcDbRegAppTableRecord
  2
ACAD
 70
     0
  0
APPID
  5
EA
330
9
100
AcDbSymbolTableRecord
100
AcDbRegAppTableRecord
  2
ACAD_MLEADERVER
 70
     0
  0
ENDTAB
  0
TABLE
  2
DIMSTYLE
  5
A
330
0
100
AcDbSymbolTable
 70
     1
100
AcDbDimStyleTable
  0
DIMSTYLE
105
27
330
A
100
AcDbSymbolTableRecord
100
AcDbDimStyleTableRecord
  2
Standard
 70
     0
178
     0
340
11
  0
ENDTAB
  0
TABLE
  2
BLOCK_RECORD
  5
1
330
0
100
AcDbSymbolTable
 70
     1
  0
BLOCK_RECORD
  5
1F
330
1
100
AcDbSymbolTableRecord
100
AcDbBlockTableRecord
  2
*Model_Space
340
22
  0
BLOCK_RECORD
  5
1B
330
1
100
AcDbSymbolTableRecord
100
AcDbBlockTableRecord
  2
*Paper_Space
340
1E
  0
BLOCK_RECORD
  5
23
330
1
100
AcDbSymbolTableRecord
100
AcDbBlockTableRecord
  2
*Paper_Space0
340
26
  0
ENDTAB
  0
ENDSEC
  0
SECTION
  2
BLOCKS
  0
BLOCK
  5
20
330
1F
100
AcDbEntity
  8
0
100
AcDbBlockBegin
  2
*Model_Space
 70
     0
 10
0.0
 20
0.0
 30
0.0
  3
*Model_Space
  1

  0
ENDBLK
  5
21
330
1F
100
AcDbEntity
  8
0
100
AcDbBlockEnd
  0
BLOCK
  5
1C
330
1B
100
AcDbEntity
 67
     1
  8
0
100
AcDbBlockBegin
  2
*Paper_Space
 70
     0
 10
0.0
 20
0.0
 30
0.0
  3
*Paper_Space
  1

  0
ENDBLK
  5
1D
330
1B
100
AcDbEntity
 67
     1
  8
0
100
AcDbBlockEnd
  0
BLOCK
  5
24
330
23
100
AcDbEntity
  8
0
100
AcDbBlockBegin
  2
*Paper_Space0
 70
     0
 10
0.0
 20
0.0
 30
0.0
  3
*Paper_Space0
  1

  0
ENDBLK
  5
25
330
23
100
AcDbEntity
  8
0
100
AcDbBlockEnd
  0
ENDSEC
  0
SECTION
  2
ENTITIES
  0
LINE
  5
73
330
1F
100
AcDbEntity
  8
1
  6
Continuous
 62
   252
370
    18
100
AcDbLine
 10
123.212207
 20
194.681135
 30
0.0
 11
90.329765
 21
194.681135
 31
0.0
  0
LINE
  5
75
330
1F
100
AcDbEntity
  8
1
  6
Continuous
 62
   252
370
    18
100
AcDbLine
 10
168.217603
 20
194.681135
 30
0.0
 11
123.212526
 21
194.681135
 31
0.0
  0
LINE
  5
76
330
1F
100
AcDbEntity
  8
1
  6
Continuous
 62
   252
370
    18
100
AcDbLine
 10
202.212396
 20
180.283866
 30
0.0
 11
202.095403
 21
193.689861
 31
0.0
  0
LINE
  5
77
330
1F
100
AcDbEntity
  8
1
  6
Continuous
 62
   252
370
    18
100
AcDbLine
 10
89.329803
 20
193.689861
 30
0.0
 11
89.21281
 21
180.283866
 31
0.0
  0
LINE
  5
78
330
1F
100
AcDbEntity
  8
1
  6
Continuous
 62
   252
370
    18
100
AcDbLine
 10
168.212603
 20
179.67863
 30
0.0
 11
123.212603
 21
179.67863
 31
0.0
  0
LINE
  5
79
330
1F
100
AcDbEntity
  8
1
  6
Continuous
 62
   252
370
    18
100
AcDbLine
 10
123.212603
 20
179.67863
 30
0.0
 11
89.812787
 21
179.67863
 31
0.0
  0
LINE
  5
7A
330
1F
100
AcDbEntity
  8
1
  6
Continuous
 62
   252
370
    18
100
AcDbLine
 10
168.212603
 20
179.67863
 30
0.0
 11
201.612418
 21
179.67863
 31
0.0
  0
LINE
  5
7B
330
1F
100
AcDbEntity
  8
1
  6
Continuous
 62
   252
370
    18
100
AcDbLine
 10
168.212603
 20
133.075498
 30
0.0
 11
123.212603
 21
133.075498
 31
0.0
  0
LINE
  5
7C
330
1F
100
AcDbEntity
  8
1
  6
Continuous
 62
   252
370
    18
100
AcDbLine
 10
123.212603
 20
65.075913
 30
0.0
 11
168.212603
 21
65.075913
 31
0.0
  0
LINE
  5
7D
330
1F
100
AcDbEntity
  8
1
  6
Continuous
 62
   252
370
    18
100
AcDbLine
 10
298.216559
 20
194.681135
 30
0.0
 11
232.450882
 21
194.681135
 31
0.0
  0
LINE
  5
7E
330
1F
100
AcDbEntity
  8
1
  6
Continuous
 62
   252
370
    18
100
AcDbLine
 10
298.733536
 20
179.67863
 30
0.0
 11
231.933905
 21
179.67863
 31
0.0
  0
LINE
  5
7F
330
1F
100
AcDbEntity
  8
1
  6
Continuous
 62
   252
370
    18
100
AcDbLine
 10
168.217603
 20
194.681135
 30
0.0
 11
201.095441
 21
194.681135
 31
0.0
  0
ARC
  5
80
330
1F
100
AcDbEntity
  8
1
  6
Continuous
 62
   252
370
    18
100
AcDbCircle
 10
90.329765
 20
193.681135
 30
0.0
 40
1.0
100
AcDbArc
 50
90.0
 51
179.5
  0
ARC
  5
81
330
1F
100
AcDbEntity
  8
1
  6
Continuous
 62
   252
370
    18
100
AcDbCircle
 10
201.095441
 20
193.681135
 30
0.0
 40
1.0
100
AcDbArc
 50
0.5
 51
90.0
  0
ARC
  5
82
330
1F
100
AcDbEntity
  8
1
  6
Continuous
 62
   252
370
    18
100
AcDbCircle
 10
89.812787
 20
180.27863
 30
0.0
 40
0.6
100
AcDbArc
 50
179.5
 51
270.0
  0
ARC
  5
83
330
1F
100
AcDbEntity
  8
1
  6
Continuous
 62
   252
370
    18
100
AcDbCircle
 10
201.612418
 20
180.27863
 30
0.0
 40
0.6
100
AcDbArc
 50
270.0
 51
0.5
  0
ARC
  5
84
330
1F
100
AcDbEntity
  8
1
  6
Continuous
 62
   252
370
    18
100
AcDbCircle
 10
168.212603
 20
99.075706
 30
0.0
 40
33.99979261502617
100
AcDbArc
 50
270.0
 51
90.0
  0
ARC
  5
85
330
1F
100
AcDbEntity
  8
1
  6
Continuous
 62
   252
370
    18
100
AcDbCircle
 10
123.212603
 20
99.075706
 30
0.0
 40
33.99979261502617
100
AcDbArc
 50
90.0
 51
270.0
  0
ELLIPSE
  5
86
330
1F
100
AcDbEntity
  8
1
  6
Continuous
 62
   252
370
    18
100
AcDbEllipse
 10
126.676014
 20
110.95026
 30
0.0
 11
2.571058233328844
 21
-0.7498919847299632
 31
0.0
210
0.0
220
0.0
230
1.0
 40
0.999521
 41
3.02213574810758
 42
3.828380242676339
  0
ELLIPSE
  5
87
330
1F
100
AcDbEntity
  8
1
  6
Continuous
 62
   252
370
    18
100
AcDbEllipse
 10
164.749191
 20
110.95026
 30
0.0
 11
2.571058233328844
 21
0.7498919847299649
 31
0.0
210
0.0
220
0.0
230
1.0
 40
0.999521
 41
5.596397718093034
 42
6.402642212661919
  0
ELLIPSE
  5
88
330
1F
100
AcDbEntity
  8
1
  6
Continuous
 62
   252
370
    18
100
AcDbEllipse
 10
164.749191
 20
87.201152
 30
0.0
 11
-2.571058233325653
 21
0.7498919847109391
 31
0.0
210
0.0
220
0.0
230
1.0
 40
0.999521
 41
3.022135748109457
 42
3.82838024266155
  0
ELLIPSE
  5
89
330
1F
100
AcDbEntity
  8
1
  6
Continuous
 62
   252
370
    18
100
AcDbEllipse
 10
126.676014
 20
87.201152
 30
0.0
 11
-2.571058233325653
 21
-0.7498919847109378
 31
0.0
210
0.0
220
0.0
230
1.0
 40
0.999521
 41
5.596397718107879
 42
6.402642212660068
  0
ELLIPSE
  5
8A
330
1F
100
AcDbEntity
  8
1
  6
Continuous
 62
   252
370
    18
100
AcDbEllipse
 10
164.746496
 20
110.9595
 30
0.0
 11
-3.61756937353505
 21
-1.055124400601664
 31
0.0
210
0.0
220
0.0
230
1.0
 40
0.999521
 41
2.454805064503235
 42
3.261049559072096
  0
ELLIPSE
  5
8B
330
1F
100
AcDbEntity
  8
1
  6
Continuous
 62
   252
370
    18
100
AcDbEllipse
 10
164.746496
 20
87.191912
 30
0.0
 11
3.617569373517493
 21
-1.055124400622003
 31
0.0
210
0.0
220
0.0
230
1.0
 40
0.999521
 41
6.163728401699243
 42
6.969972896251343
  0
ELLIPSE
  5
8C
330
1F
100
AcDbEntity
  8
1
  6
Continuous
 62
   252
370
    18
100
AcDbEllipse
 10
126.67871
 20
87.191912
 30
0.0
 11
3.617569373517493
 21
1.055124400622005
 31
0.0
210
0.0
220
0.0
230
1.0
 40
0.999521
 41
2.454805064518073
 42
3.261049559070257
  0
ELLIPSE
  5
8D
330
1F
100
AcDbEntity
  8
1
  6
Continuous
 62
   252
370
    18
100
AcDbEllipse
 10
126.67871
 20
110.9595
 30
0.0
 11
-3.61756937353505
 21
1.055124400601666
 31
0.0
210
0.0
220
0.0
230
1.0
 40
0.999521
 41
6.163728401697386
 42
6.969972896266144
  0
SPLINE
  5
8E
330
1F
100
AcDbEntity
  8
1
  6
Continuous
 62
   252
370
    18
100
AcDbSpline
210
0.0
220
0.0
230
1.0
 70
     8
 71
     3
 72
   136
 73
   132
 74
     0
 42
0.000000001
 43
0.0000000001
 40
0.0
 40
0.0
 40
0.0
 40
0.0
 40
0.0156250000000037
 40
0.0156250000000037
 40
0.0312500000000074
 40
0.0312500000000074
 40
0.0625000000000154
 40
0.0625000000000154
 40
0.0781250000000195
 40
0.0781250000000195
 40
0.0937500000000235
 40
0.0937500000000235
 40
0.1250000000000308
 40
0.1250000000000308
 40
0.1328125000000329
 40
0.1328125000000329
 40
0.1406250000000349
 40
0.1406250000000349
 40
0.1562500000000393
 40
0.1562500000000393
 40
0.1875000000000467
 40
0.1875000000000467
 40
0.1953125000000486
 40
0.1953125000000486
 40
0.2031250000000504
 40
0.2031250000000504
 40
0.2187500000000542
 40
0.2187500000000542
 40
0.2500000000000631
 40
0.2500000000000631
 40
0.2578125000000651
 40
0.2617187500000654
 40
0.2617187500000654
 40
0.2656250000000657
 40
0.2656250000000657
 40
0.2812500000000656
 40
0.2812500000000656
 40
0.312500000000064
 40
0.312500000000064
 40
0.3203125000000636
 40
0.3203125000000636
 40
0.3281250000000632
 40
0.3281250000000632
 40
0.3437500000000639
 40
0.3437500000000639
 40
0.3750000000000666
 40
0.3750000000000666
 40
0.3828125000000672
 40
0.3828125000000672
 40
0.3906250000000678
 40
0.3906250000000678
 40
0.4062500000000697
 40
0.4062500000000697
 40
0.4375000000000734
 40
0.4375000000000734
 40
0.4453125000000742
 40
0.4453125000000742
 40
0.4492187500000744
 40
0.4492187500000744
 40
0.4531250000000746
 40
0.4687500000000744
 40
0.4687500000000744
 40
0.5000000000000734
 40
0.5000000000000734
 40
0.5078125000000727
 40
0.5078125000000727
 40
0.5156250000000718
 40
0.5156250000000718
 40
0.5312500000000704
 40
0.5312500000000704
 40
0.5625000000000671
 40
0.5625000000000671
 40
0.5703125000000657
 40
0.5703125000000657
 40
0.5781250000000645
 40
0.5781250000000645
 40
0.5937500000000615
 40
0.5937500000000615
 40
0.625000000000056
 40
0.625000000000056
 40
0.6289062500000554
 40
0.6289062500000554
 40
0.6328125000000547
 40
0.6328125000000547
 40
0.6406250000000551
 40
0.6406250000000551
 40
0.6562500000000555
 40
0.6562500000000555
 40
0.6875000000000577
 40
0.6875000000000577
 40
0.6914062500000577
 40
0.6914062500000577
 40
0.6953125000000576
 40
0.6953125000000576
 40
0.7031250000000575
 40
0.7031250000000575
 40
0.7187500000000555
 40
0.7187500000000555
 40
0.7500000000000516
 40
0.7500000000000516
 40
0.7578125000000517
 40
0.7578125000000517
 40
0.7656250000000517
 40
0.7656250000000517
 40
0.7812500000000521
 40
0.7812500000000521
 40
0.8125000000000512
 40
0.8125000000000512
 40
0.8203125000000502
 40
0.8203125000000502
 40
0.8281250000000493
 40
0.8281250000000493
 40
0.8437500000000476
 40
0.8437500000000476
 40
0.8750000000000452
 40
0.8750000000000452
 40
0.8828125000000435
 40
0.8828125000000435
 40
0.8906250000000419
 40
0.8906250000000419
 40
0.9062500000000373
 40
0.9062500000000373
 40
0.9375000000000271
 40
0.9375000000000271
 40
0.9453125000000238
 40
0.9453125000000238
 40
0.9531250000000204
 40
0.9531250000000204
 40
0.9687500000000135
 40
0.9687500000000135
 40
1.0
 40
1.0
 40
1.0
 40
1.0
 10
124.2126029411764
 20
109.9007264367057
 30
-0.0000000000000004
 10
124.2430260479129
 20
109.8294117966393
 30
-0.0000000000000004
 10
124.2765577431966
 20
109.7593586230269
 30
-0.0000000000000004
 10
124.349928200479
 20
109.6218118543928
 30
-0.0000000000000003
 10
124.3893584830992
 20
109.5550893815452
 30
-0.0000000000000003
 10
124.5154589301991
 20
109.3611266215074
 30
-0.0000000000000003
 10
124.6099469924913
 20
109.2399288725326
 30
-0.0000000000000003
 10
124.7672562956089
 20
109.0702571252091
 30
-0.0000000000000003
 10
124.8223421304588
 20
109.0156958114627
 30
-0.0000000000000003
 10
124.9377408686073
 20
108.9109120543068
 30
-0.0000000000000003
 10
124.9972776308757
 20
108.8613880111973
 30
-0.0000000000000003
 10
125.1812149691659
 20
108.7211306939886
 30
-0.0000000000000003
 10
125.310905319846
 20
108.6386540516709
 30
-0.0000000000000003
 10
125.4818338315191
 20
108.5493189640368
 30
-0.0000000000000003
 10
125.5164633145622
 20
108.532144667732
 30
-0.0000000000000003
 10
125.586621698401
 20
108.4992000423641
 30
-0.0000000000000003
 10
125.6221923571659
 20
108.4834123287323
 30
-0.0000000000000003
 10
125.7300086219551
 20
108.4383079623983
 30
-0.0000000000000003
 10
125.8026610275641
 20
108.4115277009694
 30
-0.0000000000000003
 10
126.0228681836001
 20
108.3407377306409
 30
-0.0000000000000003
 10
126.172657135128
 20
108.3062120395501
 30
-0.0000000000000003
 10
126.363626436537
 20
108.2789020618878
 30
-0.0000000000000003
 10
126.4020082187998
 20
108.2742377979677
 30
-0.0000000000000003
 10
126.4791528861426
 20
108.2665270622634
 30
-0.0000000000000003
 10
126.5179751581353
 20
108.2634773840212
 30
-0.0000000000000003
 10
126.6346252175361
 20
108.2568245340732
 30
-0.0000000000000003
 10
126.7120377108149
 20
108.2557358547451
 30
-0.0000000000000003
 10
126.9432447731326
 20
108.2622050620866
 30
-0.0000000000000003
 10
127.0960161614753
 20
108.279429835003
 30
-0.0000000000000003
 10
127.2852645735576
 20
108.3171715042497
 30
-0.0000000000000003
 10
127.3419095378242
 20
108.3297180504167
 30
-0.0000000000000003
 10
127.3983572534182
 20
108.344128144355
 30
-0.0000000000000003
 10
127.4359447857142
 20
108.3541531988898
 30
-0.0000000000000003
 10
127.4547380445722
 20
108.3593813584958
 30
-0.0000000000000003
 10
127.5482122060032
 20
108.3864665619014
 30
-0.0000000000000003
 10
127.6215550342974
 20
108.4111785061856
 30
-0.0000000000000003
 10
127.8373959270748
 20
108.494187215975
 30
-0.0000000000000003
 10
127.9757360598462
 20
108.5612940234841
 30
-0.0000000000000003
 10
128.1416589409967
 20
108.6600136677916
 30
-0.0000000000000003
 10
128.1744910211465
 20
108.6805044492942
 30
-0.0000000000000003
 10
128.2394388517476
 20
108.7230037195966
 30
-0.0000000000000003
 10
128.2716307527442
 20
108.7450684073658
 30
-0.0000000000000003
 10
128.3664321102642
 20
108.8130941108532
 30
-0.0000000000000003
 10
128.4272675946488
 20
108.8608548259436
 30
-0.0000000000000003
 10
128.6028646640421
 20
109.0111770224458
 30
-0.0000000000000003
 10
128.7107663477288
 20
109.1207281403325
 30
-0.0000000000000003
 10
128.8340418491782
 20
109.2694871270203
 30
-0.0000000000000003
 10
128.8581128993247
 20
109.2998339736336
 30
-0.0000000000000003
 10
128.9050667342332
 20
109.3617382872889
 30
-0.0000000000000003
 10
128.9279873232301
 20
109.3933558330383
 30
-0.0000000000000003
 10
128.9943271708051
 20
109.4891692958523
 30
-0.0000000000000003
 10
129.0355139792936
 20
109.5545477714068
 30
-0.0000000000000003
 10
129.1501805266897
 20
109.7550799911822
 30
-0.0000000000000004
 10
129.214830756281
 20
109.8945986995115
 30
-0.0000000000000004
 10
129.280657472272
 20
110.0764048312848
 30
-0.0000000000000004
 10
129.2930683513149
 20
110.1131389967901
 30
-0.0000000000000004
 10
129.3105322916359
 20
110.1688098651206
 30
-0.0000000000000004
 10
129.3161674511212
 20
110.1874834313126
 30
-0.0000000000000004
 10
129.3270037981328
 20
110.2248622007744
 30
-0.0000000000000004
 10
129.3530272474218
 20
110.318440235714
 30
-0.0000000000000004
 10
129.3737808493982
 20
110.4126655397424
 30
-0.0000000000000004
 10
129.4137104656763
 20
110.6400195174876
 30
-0.0000000000000004
 10
129.4272301729735
 20
110.7931976397194
 30
-0.0000000000000004
 10
129.4274427858902
 20
110.9867194099983
 30
-0.0000000000000004
 10
129.4266451878358
 20
111.0255269299332
 30
-0.0000000000000004
 10
129.4233378602438
 20
111.1033522188657
 30
-0.0000000000000004
 10
129.4208323363258
 20
111.1422368364806
 30
-0.0000000000000004
 10
129.4107876380944
 20
111.2585168592942
 30
-0.0000000000000004
 10
129.4007201204728
 20
111.3356621839585
 30
-0.0000000000000005
 10
129.3603580732981
 20
111.5659690338226
 30
-0.0000000000000005
 10
129.3203636704671
 20
111.715794175307
 30
-0.0000000000000005
 10
129.2542272887388
 20
111.8983972814652
 30
-0.0000000000000005
 10
129.2401687089749
 20
111.9347276143562
 30
-0.0000000000000005
 10
129.2104881852946
 20
112.0067205731678
 30
-0.0000000000000005
 10
129.1949177269781
 20
112.0422642068546
 30
-0.0000000000000005
 10
129.1460578248934
 20
112.147562695142
 30
-0.0000000000000005
 10
129.1106238156174
 20
112.2159875931216
 30
-0.0000000000000005
 10
128.9959237674372
 20
112.4160545741379
 30
-0.0000000000000005
 10
128.908321139363
 20
112.5425270235261
 30
-0.0000000000000005
 10
128.7969510818853
 20
112.6768616519548
 30
-0.0000000000000005
 10
128.7843973158764
 20
112.6916765427235
 30
-0.0000000000000005
 10
128.7589278539277
 20
112.7210819247284
 30
-0.0000000000000005
 10
128.7459985847875
 20
112.7356868959774
 30
-0.0000000000000005
 10
128.7068414667484
 20
112.7789665036882
 30
-0.0000000000000005
 10
128.6802042330245
 20
112.8071552572321
 30
-0.0000000000000005
 10
128.598725094982
 20
112.8897660813384
 30
-0.0000000000000005
 10
128.5423186244081
 20
112.9422362969197
 30
-0.0000000000000006
 10
128.3669681318492
 20
113.0919986274478
 30
-0.0000000000000006
 10
128.2419377571295
 20
113.1816982232799
 30
-0.0000000000000006
 10
128.0919112306526
 20
113.2709260803832
 30
-0.0000000000000006
 10
128.0751105682363
 20
113.2806768259592
 30
-0.0000000000000006
 10
128.0412447070662
 20
113.2998483566863
 30
-0.0000000000000006
 10
128.0241678174402
 20
113.3092748889213
 30
-0.0000000000000006
 10
127.972783153013
 20
113.3369245342876
 30
-0.0000000000000006
 10
127.9382477220334
 20
113.3545611336859
 30
-0.0000000000000006
 10
127.8338196399704
 20
113.405124810229
 30
-0.0000000000000006
 10
127.7631066942883
 20
113.4357100336921
 30
-0.0000000000000006
 10
127.5477493877581
 20
113.5182776476228
 30
-0.0000000000000006
 10
127.3999100580337
 20
113.5611390877405
 30
-0.0000000000000006
 10
127.2096352121101
 20
113.5990848074029
 30
-0.0000000000000006
 10
127.1712111099123
 20
113.6059003337116
 30
-0.0000000000000006
 10
127.0943412220433
 20
113.6178457455599
 30
-0.0000000000000006
 10
127.0559067135806
 20
113.6229791635918
 30
-0.0000000000000006
 10
126.9406044720744
 20
113.6359049990794
 30
-0.0000000000000006
 10
126.8637380205899
 20
113.6412274760214
 30
-0.0000000000000006
 10
126.6331437029748
 20
113.64748750351
 30
-0.0000000000000006
 10
126.4794208366753
 20
113.6387890003852
 30
-0.0000000000000006
 10
126.2872758512991
 20
113.6113459288808
 30
-0.0000000000000006
 10
126.2487561363192
 20
113.6050043962235
 30
-0.0000000000000006
 10
126.1723129310397
 20
113.590734822213
 30
-0.0000000000000006
 10
126.1343682166045
 20
113.5828085393689
 30
-0.0000000000000006
 10
126.0213512552567
 20
113.5566937207981
 30
-0.0000000000000006
 10
125.9470947153025
 20
113.5361734327023
 30
-0.0000000000000006
 10
125.7275375174187
 20
113.4654294120914
 30
-0.0000000000000006
 10
125.5854253977034
 20
113.4060908229028
 30
-0.0000000000000006
 10
125.4132912536717
 20
113.3161768202415
 30
-0.0000000000000006
 10
125.3790766044532
 20
113.2973607024742
 30
-0.0000000000000006
 10
125.311811180044
 20
113.2584653639463
 30
-0.0000000000000006
 10
125.2787018280621
 20
113.2383592552562
 30
-0.0000000000000006
 10
125.1809199660622
 20
113.1760956133063
 30
-0.0000000000000006
 10
125.1177908571464
 20
113.1319962783428
 30
-0.0000000000000006
 10
124.9344943448173
 20
112.9920348148156
 30
-0.0000000000000006
 10
124.8203717650955
 20
112.8885671051975
 30
-0.0000000000000005
 10
124.6882037869688
 20
112.7460384517599
 30
-0.0000000000000005
 10
124.662292683533
 20
112.7168541427884
 30
-0.0000000000000005
 10
124.6120296230079
 20
112.6577186032542
 30
-0.0000000000000005
 10
124.587612167643
 20
112.627699045594
 30
-0.0000000000000005
 10
124.5164713206362
 20
112.5363043848854
 30
-0.0000000000000005
 10
124.4718556250419
 20
112.473595712435
 30
-0.0000000000000005
 10
124.3463413516507
 20
112.280197016186
 30
-0.0000000000000005
 10
124.2737116867553
 20
112.144274742282
 30
-0.0000000000000005
 10
124.2126029411765
 20
112.0010615309609
 30
-0.0000000000000005
  0
SPLINE
  5
8F
330
1F
100
AcDbEntity
  8
1
  6
Continuous
 62
   252
370
    18
100
AcDbSpline
210
0.0
220
0.0
230
1.0
 70
     8
 71
     3
 72
   139
 73
   135
 74
     0
 42
0.000000001
 43
0.0000000001
 40
0.0
 40
0.0
 40
0.0
 40
0.0
 40
0.0078124999999978
 40
0.0078124999999978
 40
0.0156249999999957
 40
0.0156249999999957
 40
0.0312499999999927
 40
0.0312499999999927
 40
0.0624999999999861
 40
0.0624999999999861
 40
0.0703124999999855
 40
0.0703124999999855
 40
0.078124999999985
 40
0.078124999999985
 40
0.0937499999999838
 40
0.0937499999999838
 40
0.1249999999999793
 40
0.1249999999999793
 40
0.1328124999999773
 40
0.1328124999999773
 40
0.1406249999999753
 40
0.1406249999999753
 40
0.1562499999999711
 40
0.1562499999999711
 40
0.1874999999999623
 40
0.1874999999999623
 40
0.1953124999999623
 40
0.1953124999999623
 40
0.2031249999999622
 40
0.2031249999999622
 40
0.2187499999999649
 40
0.2187499999999649
 40
0.2499999999999675
 40
0.2499999999999675
 40
0.2578124999999689
 40
0.2578124999999689
 40
0.2656249999999702
 40
0.2656249999999702
 40
0.2812499999999706
 40
0.2812499999999706
 40
0.3124999999999714
 40
0.3124999999999714
 40
0.3203124999999697
 40
0.3203124999999697
 40
0.324218749999969
 40
0.324218749999969
 40
0.3281249999999681
 40
0.3437499999999717
 40
0.3437499999999717
 40
0.374999999999981
 40
0.374999999999981
 40
0.382812499999982
 40
0.382812499999982
 40
0.3906249999999829
 40
0.3906249999999829
 40
0.4062499999999849
 40
0.4062499999999849
 40
0.4374999999999895
 40
0.4374999999999895
 40
0.4453124999999901
 40
0.4453124999999901
 40
0.4531249999999908
 40
0.4531249999999908
 40
0.4687499999999922
 40
0.4687499999999922
 40
0.4999999999999953
 40
0.4999999999999953
 40
0.5078124999999958
 40
0.5078124999999958
 40
0.5156249999999961
 40
0.5156249999999961
 40
0.531249999999997
 40
0.531249999999997
 40
0.5624999999999994
 40
0.5624999999999994
 40
0.5703125000000002
 40
0.5703125000000002
 40
0.5781250000000009
 40
0.5781250000000009
 40
0.5937500000000034
 40
0.5937500000000034
 40
0.6250000000000087
 40
0.6250000000000087
 40
0.6328125000000082
 40
0.6328125000000082
 40
0.6406250000000077
 40
0.6406250000000077
 40
0.6562500000000048
 40
0.6562500000000048
 40
0.6874999999999969
 40
0.6874999999999969
 40
0.6953124999999954
 40
0.6953124999999954
 40
0.7031249999999939
 40
0.7031249999999939
 40
0.7187499999999887
 40
0.7187499999999887
 40
0.7499999999999787
 40
0.7499999999999787
 40
0.7539062499999771
 40
0.7539062499999771
 40
0.7578124999999757
 40
0.7656249999999752
 40
0.7656249999999752
 40
0.7812499999999716
 40
0.7812499999999716
 40
0.8124999999999672
 40
0.8124999999999672
 40
0.8164062499999684
 40
0.8164062499999684
 40
0.8203124999999696
 40
0.828124999999969
 40
0.828124999999969
 40
0.8437499999999707
 40
0.8437499999999707
 40
0.8749999999999768
 40
0.8749999999999768
 40
0.8828124999999786
 40
0.8828124999999786
 40
0.8906249999999802
 40
0.8906249999999802
 40
0.9062499999999837
 40
0.9218749999999872
 40
0.9218749999999872
 40
0.9374999999999907
 40
0.9374999999999907
 40
0.9687499999999957
 40
0.9687499999999957
 40
0.9843749999999976
 40
0.9843749999999976
 40
0.9921874999999987
 40
0.9960937499999993
 40
0.9960937499999993
 40
1.0
 40
1.0
 40
1.0
 40
1.0
 10
167.2126029411763
 20
112.0010615309613
 30
-0.0000000000000005
 10
167.1974537880178
 20
112.0365647777072
 30
-0.0000000000000005
 10
167.1815060902728
 20
112.0718170010212
 30
-0.0000000000000005
 10
167.1479895147907
 20
112.1418118527279
 30
-0.0000000000000005
 10
167.1303738692438
 20
112.1766386840758
 30
-0.0000000000000005
 10
167.0754864339577
 20
112.2795309753035
 30
-0.0000000000000005
 10
167.0361687012041
 20
112.3460785033299
 30
-0.0000000000000005
 10
166.9102835624974
 20
112.5397644969274
 30
-0.0000000000000005
 10
166.8158404733862
 20
112.6609886086162
 30
-0.0000000000000005
 10
166.6845664861993
 20
112.8025922792921
 30
-0.0000000000000005
 10
166.6576461600825
 20
112.8304132946443
 30
-0.0000000000000005
 10
166.6024540716443
 20
112.8850406221185
 30
-0.0000000000000005
 10
166.5741179494103
 20
112.911901993501
 30
-0.0000000000000006
 10
166.4878143828324
 20
112.9902489140501
 30
-0.0000000000000006
 10
166.4284071688271
 20
113.0396682992968
 30
-0.0000000000000006
 10
166.2447348391161
 20
113.1797373462808
 30
-0.0000000000000006
 10
166.115057593477
 20
113.2622558337707
 30
-0.0000000000000006
 10
165.9438620344683
 20
113.3517349678109
 30
-0.0000000000000006
 10
165.9091648747577
 20
113.3689426912375
 30
-0.0000000000000006
 10
165.8388401206286
 20
113.4019604211014
 30
-0.0000000000000006
 10
165.8031440433241
 20
113.4177958419164
 30
-0.0000000000000006
 10
165.6956226398336
 20
113.4627649898111
 30
-0.0000000000000006
 10
165.6231166726082
 20
113.4894967378995
 30
-0.0000000000000006
 10
165.4031924697379
 20
113.5602200311596
 30
-0.0000000000000006
 10
165.2533849608739
 20
113.5948066726946
 30
-0.0000000000000006
 10
165.0620984713058
 20
113.6221887419908
 30
-0.0000000000000006
 10
165.0236384511952
 20
113.6268672115713
 30
-0.0000000000000006
 10
164.9463063692113
 20
113.6346023034274
 30
-0.0000000000000006
 10
164.907373500795
 20
113.6376589745062
 30
-0.0000000000000006
 10
164.791032122406
 20
113.6443009823578
 30
-0.0000000000000006
 10
164.7137653740429
 20
113.64540509038
 30
-0.0000000000000006
 10
164.4828247015272
 20
113.6390049304525
 30
-0.0000000000000006
 10
164.3300042358771
 20
113.6218572887174
 30
-0.0000000000000006
 10
164.140422310864
 20
113.5841102510489
 30
-0.0000000000000006
 10
164.1025785991135
 20
113.5757396760313
 30
-0.0000000000000006
 10
164.0270390235851
 20
113.5573279090075
 30
-0.0000000000000006
 10
163.9893120332461
 20
113.5472731810566
 30
-0.0000000000000006
 10
163.8774280847049
 20
113.5148823610417
 30
-0.0000000000000006
 10
163.8042121819388
 20
113.4902454895887
 30
-0.0000000000000006
 10
163.588585926457
 20
113.4074243925734
 30
-0.0000000000000006
 10
163.4501681375252
 20
113.3403937156832
 30
-0.0000000000000006
 10
163.2839283264481
 20
113.2415761223856
 30
-0.0000000000000006
 10
163.2510218004642
 20
113.2210560103457
 30
-0.0000000000000006
 10
163.2021835785017
 20
113.1891200681611
 30
-0.0000000000000006
 10
163.1859739882759
 20
113.178269941648
 30
-0.0000000000000006
 10
163.1538689284519
 20
113.1562760683494
 30
-0.0000000000000006
 10
163.0743359671179
 20
113.1005220213292
 30
-0.0000000000000006
 10
162.9984072152421
 20
113.040967737977
 30
-0.0000000000000006
 10
162.8229456479906
 20
112.8909015294889
 30
-0.0000000000000005
 10
162.7149452851372
 20
112.7813947412117
 30
-0.0000000000000005
 10
162.5914067723298
 20
112.6324237460423
 30
-0.0000000000000005
 10
162.5672761088088
 20
112.6020210143638
 30
-0.0000000000000005
 10
162.5201914734403
 20
112.539974601293
 30
-0.0000000000000005
 10
162.4973472966298
 20
112.5084718517699
 30
-0.0000000000000005
 10
162.4311518237105
 20
112.4129209681838
 30
-0.0000000000000005
 10
162.3900138025913
 20
112.347675519405
 30
-0.0000000000000005
 10
162.2753940792981
 20
112.1473984713639
 30
-0.0000000000000005
 10
162.2106419609171
 20
112.0078595962415
 30
-0.0000000000000005
 10
162.1446502989522
 20
111.8257167265436
 30
-0.0000000000000005
 10
162.1321939571193
 20
111.7888653600351
 30
-0.0000000000000005
 10
162.1088640471922
 20
111.7145187097315
 30
-0.0000000000000005
 10
162.098025861654
 20
111.6771415716992
 30
-0.0000000000000005
 10
162.0679797366764
 20
111.5644016203608
 30
-0.0000000000000005
 10
162.0512326453223
 20
111.4884145486644
 30
-0.0000000000000005
 10
162.0109412773581
 20
111.2581069904218
 30
-0.0000000000000004
 10
161.9976373555699
 20
111.1035766905169
 30
-0.0000000000000004
 10
161.9978476229884
 20
110.9091814540044
 30
-0.0000000000000004
 10
161.9987423668069
 20
110.8701635504569
 30
-0.0000000000000004
 10
162.0022219171999
 20
110.7924907377566
 30
-0.0000000000000004
 10
162.0048025933984
 20
110.7538230906914
 30
-0.0000000000000004
 10
162.0150237222853
 20
110.638317682386
 30
-0.0000000000000004
 10
162.0251387297165
 20
110.5619765406765
 30
-0.0000000000000004
 10
162.0652109725343
 20
110.3349053632227
 30
-0.0000000000000004
 10
162.1048227686527
 20
110.1861129727006
 30
-0.0000000000000004
 10
162.1709607461389
 20
110.0034592984969
 30
-0.0000000000000004
 10
162.1850530356916
 20
109.967038616577
 30
-0.0000000000000004
 10
162.2146518045566
 20
109.8952236541179
 30
-0.0000000000000004
 10
162.2301830497264
 20
109.8597527370727
 30
-0.0000000000000004
 10
162.2789351209001
 20
109.7546274881331
 30
-0.0000000000000004
 10
162.3143103436273
 20
109.6862583082398
 30
-0.0000000000000004
 10
162.4289095196509
 20
109.4862056718682
 30
-0.0000000000000003
 10
162.5165437699012
 20
109.3595393983428
 30
-0.0000000000000003
 10
162.640580376231
 20
109.2098538192067
 30
-0.0000000000000003
 10
162.6661353658369
 20
109.1803396375313
 30
-0.0000000000000003
 10
162.7182057443875
 20
109.1227598903684
 30
-0.0000000000000003
 10
162.7447806448768
 20
109.0946198314123
 30
-0.0000000000000003
 10
162.8260977206371
 20
109.0121169139178
 30
-0.0000000000000003
 10
162.8824293824408
 20
108.959667837977
 30
-0.0000000000000003
 10
163.0576808617325
 20
108.8098538554552
 30
-0.0000000000000003
 10
163.1828105793222
 20
108.7199660915135
 30
-0.0000000000000003
 10
163.349937649699
 20
108.6205087517729
 30
-0.0000000000000003
 10
163.3838966781265
 20
108.6012765817334
 30
-0.0000000000000003
 10
163.4522330516855
 20
108.564483416103
 30
-0.0000000000000003
 10
163.4866917554487
 20
108.5468726004618
 30
-0.0000000000000003
 10
163.5909255712745
 20
108.496360029874
 30
-0.0000000000000003
 10
163.6615568419732
 20
108.46577397064
 30
-0.0000000000000003
 10
163.8768246458234
 20
108.3831417796881
 30
-0.0000000000000003
 10
164.0248100077762
 20
108.3401535826719
 30
-0.0000000000000003
 10
164.1965050441937
 20
108.3058883784484
 30
-0.0000000000000003
 10
164.2156761733592
 20
108.302274931424
 30
-0.0000000000000003
 10
164.2540007194845
 20
108.2954748274792
 30
-0.0000000000000003
 10
164.3114981066084
 20
108.285906139649
 30
-0.0000000000000003
 10
164.3690268737063
 20
108.2782125099585
 30
-0.0000000000000003
 10
164.4841256175363
 20
108.2652876717354
 30
-0.0000000000000003
 10
164.5609129856308
 20
108.2599499219449
 30
-0.0000000000000003
 10
164.7914374698494
 20
108.2536394830001
 30
-0.0000000000000003
 10
164.9453357462454
 20
108.2622967387757
 30
-0.0000000000000003
 10
165.1187229337925
 20
108.2870717162117
 30
-0.0000000000000003
 10
165.1380050424524
 20
108.2900375216386
 30
-0.0000000000000003
 10
165.176396301767
 20
108.2963630426985
 30
-0.0000000000000003
 10
165.2337852821936
 20
108.3064502049909
 30
-0.0000000000000003
 10
165.2905862929606
 20
108.318316587634
 30
-0.0000000000000003
 10
165.4034153748578
 20
108.3443882875369
 30
-0.0000000000000003
 10
165.4776055628165
 20
108.3648838063049
 30
-0.0000000000000003
 10
165.6971243409622
 20
108.4356050179459
 30
-0.0000000000000003
 10
165.8394243711458
 20
108.494995099405
 30
-0.0000000000000003
 10
166.0120230931354
 20
108.5851981602627
 30
-0.0000000000000003
 10
166.0461357029404
 20
108.6039716798939
 30
-0.0000000000000003
 10
166.1132444569765
 20
108.6427925890609
 30
-0.0000000000000003
 10
166.1462904739952
 20
108.6628658692514
 30
-0.0000000000000003
 10
166.2439232637417
 20
108.7250483163337
 30
-0.0000000000000003
 10
166.3700916782441
 20
108.8131848336903
 30
-0.0000000000000003
 10
166.4883193707912
 20
108.9116743818755
 30
-0.0000000000000003
 10
166.6025276932956
 20
109.0154041676662
 30
-0.0000000000000003
 10
166.6576521611672
 20
109.0699207490547
 30
-0.0000000000000003
 10
166.8166043754984
 20
109.2414113599243
 30
-0.0000000000000003
 10
166.9112176055726
 20
109.3631806705055
 30
-0.0000000000000003
 10
167.036745612215
 20
109.5565770463853
 30
-0.0000000000000003
 10
167.0758406729145
 20
109.6228431558453
 30
-0.0000000000000003
 10
167.1303039401927
 20
109.7249811191496
 30
-0.0000000000000004
 10
167.1564893194774
 20
109.7767357335368
 30
-0.0000000000000004
 10
167.181080949198
 20
109.8295347432018
 30
-0.0000000000000004
 10
167.1971174957527
 20
109.8649685974331
 30
-0.0000000000000004
 10
167.2049659709851
 20
109.8828246561575
 30
-0.0000000000000004
 10
167.2126029411764
 20
109.9007264367057
 30
-0.0000000000000004
  0
SPLINE
  5
90
330
1F
100
AcDbEntity
  8
1
  6
Continuous
 62
   252
370
    18
100
AcDbSpline
210
0.0
220
0.0
230
1.0
 70
     8
 71
     3
 72
   136
 73
   132
 74
     0
 42
0.000000001
 43
0.0000000001
 40
0.0
 40
0.0
 40
0.0
 40
0.0
 40
0.0156249999999981
 40
0.0156249999999981
 40
0.0312499999999963
 40
0.0312499999999963
 40
0.0624999999999899
 40
0.0624999999999899
 40
0.0781249999999876
 40
0.0781249999999876
 40
0.0937499999999854
 40
0.0937499999999854
 40
0.1249999999999817
 40
0.1249999999999817
 40
0.1328124999999827
 40
0.1328124999999827
 40
0.1406249999999836
 40
0.1406249999999836
 40
0.1562499999999855
 40
0.1562499999999855
 40
0.1874999999999897
 40
0.1874999999999897
 40
0.1953124999999901
 40
0.1953124999999901
 40
0.2031249999999905
 40
0.2031249999999905
 40
0.2187499999999913
 40
0.2187499999999913
 40
0.249999999999993
 40
0.249999999999993
 40
0.2578124999999939
 40
0.2617187499999942
 40
0.2617187499999942
 40
0.2656249999999946
 40
0.2656249999999946
 40
0.2812499999999962
 40
0.2812499999999962
 40
0.3124999999999968
 40
0.3124999999999968
 40
0.3203124999999966
 40
0.3203124999999966
 40
0.3281249999999964
 40
0.3281249999999964
 40
0.3437499999999974
 40
0.3437499999999974
 40
0.3749999999999974
 40
0.3749999999999974
 40
0.3828124999999977
 40
0.3828124999999977
 40
0.3906249999999981
 40
0.3906249999999981
 40
0.4062499999999988
 40
0.4062499999999988
 40
0.4375000000000002
 40
0.4375000000000002
 40
0.4453125000000003
 40
0.4453125000000003
 40
0.4492187500000003
 40
0.4492187500000003
 40
0.4531250000000004
 40
0.4687500000000014
 40
0.4687500000000014
 40
0.5000000000000019
 40
0.5000000000000019
 40
0.5078125000000017
 40
0.5078125000000017
 40
0.5156250000000013
 40
0.5156250000000013
 40
0.5312499999999996
 40
0.5312499999999996
 40
0.5624999999999944
 40
0.5624999999999944
 40
0.5703124999999931
 40
0.5703124999999931
 40
0.5781249999999918
 40
0.5781249999999918
 40
0.5937499999999913
 40
0.5937499999999913
 40
0.6249999999999903
 40
0.6249999999999903
 40
0.6289062499999899
 40
0.6289062499999899
 40
0.6328124999999895
 40
0.6328124999999895
 40
0.6406249999999887
 40
0.6406249999999887
 40
0.656249999999988
 40
0.656249999999988
 40
0.6874999999999867
 40
0.6874999999999867
 40
0.6914062499999867
 40
0.6914062499999867
 40
0.6953124999999866
 40
0.6953124999999866
 40
0.703124999999989
 40
0.703124999999989
 40
0.7187499999999938
 40
0.7187499999999938
 40
0.7500000000000008
 40
0.7500000000000008
 40
0.7578125000000044
 40
0.7578125000000044
 40
0.765625000000008
 40
0.765625000000008
 40
0.7812500000000127
 40
0.7812500000000127
 40
0.8125000000000216
 40
0.8125000000000216
 40
0.8203125000000231
 40
0.8203125000000231
 40
0.8281250000000245
 40
0.8281250000000245
 40
0.8437500000000271
 40
0.8437500000000271
 40
0.8750000000000299
 40
0.8750000000000299
 40
0.8828125000000296
 40
0.8828125000000296
 40
0.8906250000000294
 40
0.8906250000000294
 40
0.9062500000000282
 40
0.9062500000000282
 40
0.9375000000000258
 40
0.9375000000000258
 40
0.9453125000000231
 40
0.9453125000000231
 40
0.9531250000000205
 40
0.9531250000000205
 40
0.9687500000000137
 40
0.9687500000000137
 40
1.0
 40
1.0
 40
1.0
 40
1.0
 10
167.2126029411764
 20
88.25068532797911
 30
-0.0000000000000008
 10
167.1821798344406
 20
88.32199996804572
 30
-0.0000000000000008
 10
167.1486481391576
 20
88.39205314165835
 30
-0.0000000000000008
 10
167.0752776818765
 20
88.52959991029284
 30
-0.0000000000000008
 10
167.0358473992566
 20
88.59632238314103
 30
-0.0000000000000008
 10
166.9097469521581
 20
88.79028514317986
 30
-0.0000000000000008
 10
166.8152588898669
 20
88.91148289215533
 30
-0.0000000000000009
 10
166.6579495867507
 20
89.08115463947968
 30
-0.0000000000000009
 10
166.6028637519014
 20
89.13571595322624
 30
-0.0000000000000009
 10
166.4874650137536
 20
89.240499710383
 30
-0.0000000000000009
 10
166.4279282514854
 20
89.29002375349296
 30
-0.0000000000000009
 10
166.243990913196
 20
89.43028107070292
 30
0.0000000000000009
 10
166.1143005625166
 20
89.51275771302143
 30
0.0000000000000009
 10
165.9433720508442
 20
89.60209280065644
 30
0.0000000000000009
 10
165.9087425678013
 20
89.61926709696135
 30
0.0000000000000009
 10
165.8385841839628
 20
89.65221172232958
 30
0.0000000000000009
 10
165.8030135251982
 20
89.6679994359616
 30
0.0000000000000009
 10
165.695197260409
 20
89.71310380229626
 30
0.0000000000000009
 10
165.6225448548002
 20
89.73988406372553
 30
0.0000000000000009
 10
165.4023376987645
 20
89.81067403405528
 30
0.0000000000000009
 10
165.2525487472369
 20
89.84519972514691
 30
0.0000000000000009
 10
165.0615794458283
 20
89.87250970281019
 30
0.0000000000000009
 10
165.0231976635656
 20
89.87717396673031
 30
0.0000000000000009
 10
164.9460529962229
 20
89.88488470243496
 30
0.0000000000000009
 10
164.9072307242304
 20
89.88793438067742
 30
0.0000000000000009
 10
164.7905806648295
 20
89.89458723062606
 30
0.0000000000000009
 10
164.7131681715506
 20
89.89567590995456
 30
0.0000000000000009
 10
164.4819611092328
 20
89.88920670261409
 30
0.0000000000000009
 10
164.3291897208902
 20
89.87198192969822
 30
0.0000000000000009
 10
164.139941308808
 20
89.83424026045238
 30
0.0000000000000009
 10
164.0832963445415
 20
89.82169371428562
 30
0.0000000000000009
 10
164.0268486289475
 20
89.80728362034759
 30
0.0000000000000009
 10
163.9892610966515
 20
89.79725856581291
 30
0.0000000000000009
 10
163.9704678377935
 20
89.79203040620689
 30
0.0000000000000009
 10
163.8769936763624
 20
89.76494520280161
 30
0.0000000000000009
 10
163.8036508480679
 20
89.74023325851778
 30
0.0000000000000009
 10
163.5878099552903
 20
89.65722454872909
 30
0.0000000000000009
 10
163.4494698225187
 20
89.59011774122047
 30
0.0000000000000009
 10
163.2835469413681
 20
89.49139809691363
 30
0.0000000000000009
 10
163.2507148612183
 20
89.4709073154111
 30
0.0000000000000009
 10
163.1857670306172
 20
89.42840804510892
 30
0.0000000000000009
 10
163.1535751296206
 20
89.40634335733986
 30
-0.0000000000000009
 10
163.0587737721003
 20
89.3383176538527
 30
-0.0000000000000009
 10
162.9979382877156
 20
89.29055693876242
 30
-0.0000000000000009
 10
162.8223412183219
 20
89.1402347422607
 30
-0.0000000000000009
 10
162.714439534635
 20
89.03068362437432
 30
-0.0000000000000009
 10
162.5911640331854
 20
88.88192463768704
 30
-0.0000000000000009
 10
162.5670929830389
 20
88.85157779107378
 30
-0.0000000000000009
 10
162.5201391481303
 20
88.78967347741862
 30
-0.0000000000000008
 10
162.4972185591335
 20
88.7580559316693
 30
-0.0000000000000008
 10
162.4308787115582
 20
88.6622424688554
 30
-0.0000000000000008
 10
162.3896919030697
 20
88.59686399330087
 30
-0.0000000000000008
 10
162.2750253556733
 20
88.39633177352576
 30
-0.0000000000000008
 10
162.2103751260819
 20
88.25681306519657
 30
-0.0000000000000008
 10
162.1445484100908
 20
88.07500693342358
 30
-0.0000000000000008
 10
162.1321375310478
 20
88.03827276791831
 30
-0.0000000000000008
 10
162.1146735907268
 20
87.9826018995879
 30
-0.0000000000000008
 10
162.1090384312414
 20
87.96392833339593
 30
-0.0000000000000008
 10
162.0982020842298
 20
87.92654956393415
 30
-0.0000000000000008
 10
162.0721786349408
 20
87.83297152899456
 30
-0.0000000000000008
 10
162.0514250329643
 20
87.73874622496615
 30
-0.0000000000000008
 10
162.0114954166861
 20
87.51139224722098
 30
-0.0000000000000008
 10
161.997975709389
 20
87.35821412498933
 30
-0.0000000000000008
 10
161.9977630964722
 20
87.16469235471067
 30
-0.0000000000000007
 10
161.9985606945266
 20
87.1258848347757
 30
-0.0000000000000007
 10
162.0018680221186
 20
87.04805954584339
 30
-0.0000000000000007
 10
162.0043735460367
 20
87.00917492822848
 30
-0.0000000000000007
 10
162.0144182442681
 20
86.89289490541486
 30
-0.0000000000000007
 10
162.0244857618896
 20
86.81574958075062
 30
-0.0000000000000007
 10
162.0648478090645
 20
86.58544273088674
 30
-0.0000000000000007
 10
162.1048422118956
 20
86.43561758940231
 30
-0.0000000000000007
 10
162.1709785936241
 20
86.25301448324433
 30
-0.0000000000000007
 10
162.1850371733881
 20
86.21668415035343
 30
-0.0000000000000007
 10
162.2147176970684
 20
86.1446911915419
 30
-0.0000000000000007
 10
162.230288155385
 20
86.10914755785511
 30
-0.0000000000000007
 10
162.2791480574698
 20
86.00384906956779
 30
-0.0000000000000007
 10
162.3145820667459
 20
85.93542417158832
 30
-0.0000000000000007
 10
162.4292821149264
 20
85.73535719057224
 30
-0.0000000000000007
 10
162.5168847430008
 20
85.60888474118433
 30
-0.0000000000000007
 10
162.6282548004787
 20
85.47455011275596
 30
-0.0000000000000006
 10
162.6408085664876
 20
85.45973522198727
 30
-0.0000000000000006
 10
162.6662780284364
 20
85.4303298399825
 30
-0.0000000000000006
 10
162.6792072975765
 20
85.41572486873345
 30
-0.0000000000000006
 10
162.7183644156158
 20
85.37244526102273
 30
-0.0000000000000006
 10
162.7450016493397
 20
85.34425650747895
 30
-0.0000000000000006
 10
162.8264807873823
 20
85.26164568337289
 30
-0.0000000000000006
 10
162.8828872579564
 20
85.20917546779171
 30
-0.0000000000000006
 10
163.0582377505156
 20
85.05941313726413
 30
-0.0000000000000006
 10
163.1832681252355
 20
84.96971354143253
 30
-0.0000000000000006
 10
163.3332946517127
 20
84.88048568432967
 30
-0.0000000000000006
 10
163.3500953141289
 20
84.87073493875377
 30
-0.0000000000000006
 10
163.3839611752991
 20
84.85156340802673
 30
-0.0000000000000006
 10
163.4010380649251
 20
84.84213687579191
 30
-0.0000000000000006
 10
163.4524227293524
 20
84.8144872304258
 30
-0.0000000000000006
 10
163.486958160332
 20
84.79685063102748
 30
-0.0000000000000006
 10
163.5913862423951
 20
84.74628695448476
 30
-0.0000000000000006
 10
163.6620991880773
 20
84.71570173102195
 30
-0.0000000000000006
 10
163.8774564946077
 20
84.63313411709213
 30
-0.0000000000000006
 10
164.0252958243321
 20
84.59027267697499
 30
-0.0000000000000006
 10
164.2155706702559
 20
84.55232695731341
 30
-0.0000000000000006
 10
164.2539947724536
 20
84.54551143100483
 30
-0.0000000000000006
 10
164.3308646603227
 20
84.5335660191569
 30
-0.0000000000000006
 10
164.3692991687853
 20
84.52843260112527
 30
-0.0000000000000006
 10
164.4846014102916
 20
84.51550676563814
 30
-0.0000000000000006
 10
164.561467861776
 20
84.51018428869648
 30
-0.0000000000000006
 10
164.7920621793911
 20
84.5039242612089
 30
-0.0000000000000006
 10
164.9457850456905
 20
84.5126227643344
 30
-0.0000000000000006
 10
165.1379300310665
 20
84.54006583583987
 30
-0.0000000000000006
 10
165.1764497460463
 20
84.54640736849743
 30
-0.0000000000000006
 10
165.2528929513257
 20
84.56067694250828
 30
-0.0000000000000006
 10
165.2908376657608
 20
84.56860322535262
 30
-0.0000000000000006
 10
165.4038546271084
 20
84.59471804392396
 30
-0.0000000000000006
 10
165.4781111670625
 20
84.61523833202011
 30
-0.0000000000000006
 10
165.6976683649457
 20
84.68598235263227
 30
-0.0000000000000006
 10
165.8397804846606
 20
84.74532094182169
 30
-0.0000000000000006
 10
166.0119146286918
 20
84.83523494448409
 30
-0.0000000000000006
 10
166.0461292779101
 20
84.85405106225164
 30
-0.0000000000000006
 10
166.113394702319
 20
84.89294640077989
 30
-0.0000000000000006
 10
166.1465040543008
 20
84.91305250947025
 30
-0.0000000000000006
 10
166.2442859163002
 20
84.97531615142066
 30
-0.0000000000000006
 10
166.3074150252157
 20
85.01941548638456
 30
-0.0000000000000006
 10
166.4907115375437
 20
85.15937694991291
 30
-0.0000000000000006
 10
166.6048341172647
 20
85.26284465953168
 30
-0.0000000000000006
 10
166.7370020953905
 20
85.4053733129703
 30
-0.0000000000000006
 10
166.762913198826
 20
85.43455762194195
 30
-0.0000000000000006
 10
166.8131762593507
 20
85.4936931614765
 30
-0.0000000000000006
 10
166.8375937147152
 20
85.52371271913682
 30
-0.0000000000000006
 10
166.9087345617214
 20
85.61510737984588
 30
-0.0000000000000007
 10
166.953350257315
 20
85.67781605229659
 30
-0.0000000000000007
 10
167.0788645307046
 20
85.87121474854646
 30
-0.0000000000000007
 10
167.151494195599
 20
86.00713702245105
 30
-0.0000000000000007
 10
167.2126029411766
 20
86.15035023377266
 30
-0.0000000000000007
  0
SPLINE
  5
91
330
1F
100
AcDbEntity
  8
1
  6
Continuous
 62
   252
370
    18
100
AcDbSpline
210
0.0
220
0.0
230
1.0
 70
     8
 71
     3
 72
   139
 73
   135
 74
     0
 42
0.000000001
 43
0.0000000001
 40
0.0
 40
0.0
 40
0.0
 40
0.0
 40
0.007812499999998
 40
0.007812499999998
 40
0.015624999999996
 40
0.015624999999996
 40
0.031249999999992
 40
0.031249999999992
 40
0.0624999999999841
 40
0.0624999999999841
 40
0.0703124999999829
 40
0.0703124999999829
 40
0.0781249999999817
 40
0.0781249999999817
 40
0.0937499999999792
 40
0.0937499999999792
 40
0.1249999999999741
 40
0.1249999999999741
 40
0.1328124999999733
 40
0.1328124999999733
 40
0.1406249999999726
 40
0.1406249999999726
 40
0.156249999999971
 40
0.156249999999971
 40
0.1874999999999679
 40
0.1874999999999679
 40
0.1953124999999673
 40
0.1953124999999673
 40
0.2031249999999667
 40
0.2031249999999667
 40
0.2187499999999654
 40
0.2187499999999654
 40
0.2499999999999629
 40
0.2499999999999629
 40
0.2578124999999621
 40
0.2578124999999621
 40
0.2656249999999614
 40
0.2656249999999614
 40
0.2812499999999589
 40
0.2812499999999589
 40
0.3124999999999553
 40
0.3124999999999553
 40
0.3203124999999546
 40
0.3203124999999546
 40
0.3242187499999542
 40
0.3242187499999542
 40
0.3281249999999538
 40
0.3437499999999538
 40
0.3437499999999538
 40
0.3749999999999548
 40
0.3749999999999548
 40
0.3828124999999551
 40
0.3828124999999551
 40
0.3906249999999554
 40
0.3906249999999554
 40
0.4062499999999562
 40
0.4062499999999562
 40
0.4374999999999588
 40
0.4374999999999588
 40
0.4453124999999591
 40
0.4453124999999591
 40
0.4531249999999593
 40
0.4531249999999593
 40
0.4687499999999594
 40
0.4687499999999594
 40
0.4999999999999596
 40
0.4999999999999596
 40
0.5078124999999593
 40
0.5078124999999593
 40
0.5156249999999589
 40
0.5156249999999589
 40
0.5312499999999583
 40
0.5312499999999583
 40
0.5624999999999557
 40
0.5624999999999557
 40
0.5703124999999554
 40
0.5703124999999554
 40
0.578124999999955
 40
0.578124999999955
 40
0.5937499999999563
 40
0.5937499999999563
 40
0.6249999999999595
 40
0.6249999999999595
 40
0.6328124999999609
 40
0.6328124999999609
 40
0.6406249999999623
 40
0.6406249999999623
 40
0.6562499999999659
 40
0.6562499999999659
 40
0.6874999999999724
 40
0.6874999999999724
 40
0.6953124999999738
 40
0.6953124999999738
 40
0.7031249999999752
 40
0.7031249999999752
 40
0.718749999999979
 40
0.718749999999979
 40
0.7499999999999849
 40
0.7499999999999849
 40
0.753906249999986
 40
0.753906249999986
 40
0.7578124999999871
 40
0.7656249999999892
 40
0.7656249999999892
 40
0.781249999999992
 40
0.781249999999992
 40
0.8124999999999991
 40
0.8124999999999991
 40
0.8164062500000006
 40
0.8164062500000006
 40
0.820312500000002
 40
0.8281250000000036
 40
0.8281250000000036
 40
0.8437500000000067
 40
0.8437500000000067
 40
0.8750000000000133
 40
0.8750000000000133
 40
0.8828125000000139
 40
0.8828125000000139
 40
0.8906250000000143
 40
0.8906250000000143
 40
0.9062500000000132
 40
0.9218750000000121
 40
0.9218750000000121
 40
0.937500000000011
 40
0.937500000000011
 40
0.9687500000000069
 40
0.9687500000000069
 40
0.9843750000000044
 40
0.9843750000000044
 40
0.9921875000000026
 40
0.9960937500000013
 40
0.9960937500000013
 40
1.0
 40
1.0
 40
1.0
 40
1.0
 10
124.2126029411766
 20
86.15035023377209
 30
-0.0000000000000007
 10
124.2277520943348
 20
86.11484698702606
 30
-0.0000000000000007
 10
124.2436997920795
 20
86.07959476371194
 30
-0.0000000000000007
 10
124.277216367561
 20
86.00959991200511
 30
-0.0000000000000007
 10
124.2948320131075
 20
85.97477308065703
 30
-0.0000000000000007
 10
124.3497194483927
 20
85.87188078942894
 30
-0.0000000000000007
 10
124.3890371811459
 20
85.8053332614022
 30
-0.0000000000000007
 10
124.514922319851
 20
85.61164726780378
 30
-0.0000000000000007
 10
124.6093654089613
 20
85.49042315611439
 30
-0.0000000000000006
 10
124.740639396147
 20
85.34881948543763
 30
-0.0000000000000006
 10
124.7675597222636
 20
85.32099847008524
 30
-0.0000000000000006
 10
124.8227518107014
 20
85.26637114261072
 30
-0.0000000000000006
 10
124.8510879329351
 20
85.23950977122803
 30
-0.0000000000000006
 10
124.9373914995126
 20
85.1611628506783
 30
-0.0000000000000006
 10
124.9967987135175
 20
85.1117434654312
 30
-0.0000000000000006
 10
125.1804710432275
 20
84.97167441844607
 30
-0.0000000000000006
 10
125.3101482888659
 20
84.8891559309554
 30
-0.0000000000000006
 10
125.481343847874
 20
84.7996767969142
 30
-0.0000000000000006
 10
125.5160410075845
 20
84.78246907348736
 30
-0.0000000000000006
 10
125.5863657617134
 20
84.74945134362315
 30
-0.0000000000000006
 10
125.6220618390177
 20
84.73361592280793
 30
-0.0000000000000006
 10
125.7295832425079
 20
84.68864677491257
 30
-0.0000000000000006
 10
125.8020892097331
 20
84.66191502682382
 30
-0.0000000000000006
 10
126.0220134126029
 20
84.59119173356251
 30
-0.0000000000000006
 10
126.1718209214666
 20
84.55660509202663
 30
-0.0000000000000006
 10
126.3631074110345
 20
84.52922302272944
 30
-0.0000000000000006
 10
126.4015674311451
 20
84.52454455314876
 30
-0.0000000000000006
 10
126.4788995131289
 20
84.51680946129224
 30
-0.0000000000000006
 10
126.5178323815451
 20
84.51375279021326
 30
-0.0000000000000006
 10
126.634173759934
 20
84.50711078236108
 30
-0.0000000000000006
 10
126.7114405082971
 20
84.50600667433856
 30
-0.0000000000000006
 10
126.9423811808127
 20
84.51240683426502
 30
-0.0000000000000006
 10
127.0952016464628
 20
84.52955447599933
 30
-0.0000000000000006
 10
127.284783571476
 20
84.56730151366708
 30
-0.0000000000000006
 10
127.3226272832265
 20
84.57567208868457
 30
-0.0000000000000006
 10
127.3981668587549
 20
84.59408385570804
 30
-0.0000000000000006
 10
127.435893849094
 20
84.60413858365874
 30
-0.0000000000000006
 10
127.5477777976352
 20
84.63652940367328
 30
-0.0000000000000006
 10
127.6209937004014
 20
84.66116627512596
 30
-0.0000000000000006
 10
127.8366199558833
 20
84.7439873721404
 30
-0.0000000000000006
 10
127.9750377448153
 20
84.81101804903008
 30
-0.0000000000000006
 10
128.1412775558927
 20
84.90983564232711
 30
-0.0000000000000006
 10
128.1741840818766
 20
84.93035575436701
 30
-0.0000000000000006
 10
128.2230223038392
 20
84.96229169655147
 30
-0.0000000000000006
 10
128.239231894065
 20
84.97314182306445
 30
-0.0000000000000006
 10
128.2713369538891
 20
84.99513569636294
 30
-0.0000000000000006
 10
128.3508699152231
 20
85.05088974338288
 30
-0.0000000000000006
 10
128.426798667099
 20
85.11044402673483
 30
-0.0000000000000006
 10
128.6022602343509
 20
85.26051023522237
 30
-0.0000000000000006
 10
128.7102605972044
 20
85.37001702349926
 30
-0.0000000000000006
 10
128.8337991100122
 20
85.51898801866835
 30
-0.0000000000000006
 10
128.8579297735332
 20
85.54939075034676
 30
-0.0000000000000007
 10
128.9050144089018
 20
85.61143716341746
 30
-0.0000000000000007
 10
128.9278585857124
 20
85.64293991294045
 30
-0.0000000000000007
 10
128.9940540586318
 20
85.73849079652632
 30
-0.0000000000000007
 10
129.0351920797511
 20
85.803736245305
 30
-0.0000000000000007
 10
129.1498118030446
 20
86.00401329334588
 30
-0.0000000000000007
 10
129.2145639214257
 20
86.14355216846803
 30
-0.0000000000000007
 10
129.2805555833908
 20
86.32569503816586
 30
-0.0000000000000007
 10
129.2930119252238
 20
86.36254640467443
 30
-0.0000000000000007
 10
129.3163418351509
 20
86.43689305497793
 30
-0.0000000000000007
 10
129.3271800206892
 20
86.47427019301011
 30
-0.0000000000000007
 10
129.3572261456669
 20
86.58701014434851
 30
-0.0000000000000007
 10
129.3739732370209
 20
86.66299721604486
 30
-0.0000000000000007
 10
129.4142646049853
 20
86.89330477428727
 30
-0.0000000000000007
 10
129.4275685267736
 20
87.04783507419202
 30
-0.0000000000000007
 10
129.4273582593551
 20
87.24223031070451
 30
-0.0000000000000008
 10
129.4264635155365
 20
87.28124821425202
 30
-0.0000000000000008
 10
129.4229839651435
 20
87.35892102695216
 30
-0.0000000000000008
 10
129.420403288945
 20
87.3975886740173
 30
-0.0000000000000008
 10
129.4101821600581
 20
87.51309408232265
 30
-0.0000000000000008
 10
129.400067152627
 20
87.58943522403207
 30
-0.0000000000000008
 10
129.3599949098091
 20
87.81650640148575
 30
-0.0000000000000008
 10
129.3203831136905
 20
87.96529879200779
 30
-0.0000000000000008
 10
129.2542451362041
 20
88.14795246621142
 30
-0.0000000000000008
 10
129.2401528466513
 20
88.1843731481313
 30
-0.0000000000000008
 10
129.2105540777863
 20
88.2561881105902
 30
-0.0000000000000008
 10
129.1950228326166
 20
88.29165902763536
 30
-0.0000000000000008
 10
129.1462707614428
 20
88.39678427657482
 30
-0.0000000000000008
 10
129.1108955387156
 20
88.46515345646802
 30
-0.0000000000000008
 10
128.9962963626917
 20
88.66520609283936
 30
-0.0000000000000008
 10
128.9086621124412
 20
88.79187236636456
 30
-0.0000000000000008
 10
128.784625506111
 20
88.94155794550052
 30
-0.0000000000000009
 10
128.7590705165052
 20
88.9710721271758
 30
-0.0000000000000009
 10
128.7070001379545
 20
89.0286518743385
 30
-0.0000000000000009
 10
128.6804252374651
 20
89.05679193329448
 30
-0.0000000000000009
 10
128.5991081617048
 20
89.13929485078873
 30
-0.0000000000000009
 10
128.542776499901
 20
89.19174392672933
 30
-0.0000000000000009
 10
128.367525020609
 20
89.34155790925064
 30
-0.0000000000000009
 10
128.2423953030191
 20
89.43144567319197
 30
0.0000000000000009
 10
128.0752682326418
 20
89.53090301293207
 30
0.0000000000000009
 10
128.0413092042144
 20
89.55013518297153
 30
0.0000000000000009
 10
127.9729728306553
 20
89.58692834860167
 30
0.0000000000000009
 10
127.9385141268921
 20
89.60453916424274
 30
0.0000000000000009
 10
127.8342803110663
 20
89.6550517348301
 30
0.0000000000000009
 10
127.7636490403676
 20
89.68563779406384
 30
0.0000000000000009
 10
127.5483812365172
 20
89.76826998501497
 30
0.0000000000000009
 10
127.4003958745643
 20
89.81125818203054
 30
0.0000000000000009
 10
127.2287008381465
 20
89.84552338625343
 30
0.0000000000000009
 10
127.2095297089811
 20
89.84913683327777
 30
0.0000000000000009
 10
127.1712051628557
 20
89.85593693722242
 30
0.0000000000000009
 10
127.1137077757319
 20
89.86550562505235
 30
0.0000000000000009
 10
127.056179008634
 20
89.87319925474253
 30
0.0000000000000009
 10
126.9410802648041
 20
89.88612409296513
 30
0.0000000000000009
 10
126.8642928967097
 20
89.89146184275538
 30
0.0000000000000009
 10
126.6337684124912
 20
89.89777228169913
 30
0.0000000000000009
 10
126.4798701360952
 20
89.88911502592279
 30
0.0000000000000009
 10
126.3064829485481
 20
89.8643400484859
 30
0.0000000000000009
 10
126.2872008398882
 20
89.8613742430588
 30
0.0000000000000009
 10
126.2488095805737
 20
89.85504872199876
 30
0.0000000000000009
 10
126.1914206001473
 20
89.8449615597062
 30
0.0000000000000009
 10
126.1346195893804
 20
89.83309517706269
 30
0.0000000000000009
 10
126.0217905074835
 20
89.80702347715922
 30
0.0000000000000009
 10
125.947600319525
 20
89.78652795839088
 30
0.0000000000000009
 10
125.7280815413798
 20
89.71580674674873
 30
0.0000000000000009
 10
125.5857815111965
 20
89.65641666528892
 30
0.0000000000000009
 10
125.4131827892073
 20
89.56621360442998
 30
0.0000000000000009
 10
125.3790701794026
 20
89.54744008479861
 30
0.0000000000000009
 10
125.3119614253668
 20
89.50861917563125
 30
0.0000000000000009
 10
125.2789154083482
 20
89.48854589544072
 30
0.0000000000000009
 10
125.1812826186022
 20
89.42636344835788
 30
0.0000000000000009
 10
125.0551142041006
 20
89.33822693100049
 30
-0.0000000000000009
 10
124.9368865115542
 20
89.23973738281452
 30
-0.0000000000000009
 10
124.8226781890505
 20
89.136007597023
 30
-0.0000000000000009
 10
124.767553721179
 20
89.08149101563384
 30
-0.0000000000000009
 10
124.6086015068494
 20
88.9100004047636
 30
-0.0000000000000009
 10
124.5139882767761
 20
88.78823109418184
 30
-0.0000000000000008
 10
124.3884602701352
 20
88.59483471830123
 30
-0.0000000000000008
 10
124.3493652094363
 20
88.52856860884089
 30
-0.0000000000000008
 10
124.2949019421589
 20
88.42643064553613
 30
-0.0000000000000008
 10
124.2687165628745
 20
88.37467603114864
 30
-0.0000000000000008
 10
124.2441249331544
 20
88.32187702148337
 30
-0.0000000000000008
 10
124.2280883866
 20
88.28644316725186
 30
-0.0000000000000008
 10
124.2202399113677
 20
88.26858710852738
 30
-0.0000000000000008
 10
124.2126029411766
 20
88.25068532797923
 30
-0.0000000000000008
  0
SPLINE
  5
92
330
1F
100
AcDbEntity
  8
1
  6
Continuous
 62
   252
370
    18
100
AcDbSpline
210
0.0
220
0.0
230
1.0
 70
     8
 71
     3
 72
   142
 73
   138
 74
     0
 42
0.000000001
 43
0.0000000001
 40
0.0
 40
0.0
 40
0.0
 40
0.0
 40
0.0156250000000014
 40
0.0312500000000028
 40
0.0468750000000042
 40
0.0468750000000042
 40
0.0546875000000052
 40
0.0585937500000057
 40
0.0585937500000057
 40
0.0625000000000062
 40
0.0625000000000062
 40
0.0781250000000099
 40
0.0937500000000136
 40
0.1093750000000174
 40
0.1093750000000174
 40
0.1171875000000189
 40
0.1171875000000189
 40
0.1250000000000205
 40
0.1250000000000205
 40
0.1406250000000234
 40
0.1562500000000263
 40
0.1718750000000292
 40
0.1718750000000292
 40
0.1796875000000306
 40
0.1796875000000306
 40
0.1835937500000308
 40
0.1835937500000308
 40
0.187500000000031
 40
0.2031250000000316
 40
0.2187500000000323
 40
0.2343750000000329
 40
0.2343750000000329
 40
0.2421875000000327
 40
0.2421875000000327
 40
0.2460937500000321
 40
0.2460937500000321
 40
0.2500000000000315
 40
0.2656250000000317
 40
0.2812500000000319
 40
0.2968750000000321
 40
0.2968750000000321
 40
0.304687500000032
 40
0.304687500000032
 40
0.3085937500000322
 40
0.3085937500000322
 40
0.3125000000000325
 40
0.3281250000000328
 40
0.3437500000000331
 40
0.3593750000000335
 40
0.3593750000000335
 40
0.3671875000000336
 40
0.3671875000000336
 40
0.3710937500000336
 40
0.3710937500000336
 40
0.3750000000000335
 40
0.3906250000000336
 40
0.4062500000000338
 40
0.4218750000000339
 40
0.4218750000000339
 40
0.429687500000034
 40
0.429687500000034
 40
0.437500000000034
 40
0.437500000000034
 40
0.453125000000035
 40
0.453125000000035
 40
0.468750000000036
 40
0.468750000000036
 40
0.4843750000000369
 40
0.4843750000000369
 40
0.4921875000000374
 40
0.4921875000000374
 40
0.500000000000038
 40
0.500000000000038
 40
0.5156250000000385
 40
0.531250000000039
 40
0.5468750000000395
 40
0.5468750000000395
 40
0.5507812500000393
 40
0.5507812500000393
 40
0.5546875000000391
 40
0.5546875000000391
 40
0.5625000000000393
 40
0.5625000000000393
 40
0.5781250000000395
 40
0.5937500000000396
 40
0.6093750000000399
 40
0.6093750000000399
 40
0.6171875000000399
 40
0.6171875000000399
 40
0.6250000000000399
 40
0.6250000000000399
 40
0.6562500000000402
 40
0.6562500000000402
 40
0.6718750000000404
 40
0.6718750000000404
 40
0.6757812500000406
 40
0.6757812500000406
 40
0.6796875000000409
 40
0.6875000000000403
 40
0.6875000000000403
 40
0.7187500000000366
 40
0.7187500000000366
 40
0.7343750000000346
 40
0.7343750000000346
 40
0.7382812500000338
 40
0.7382812500000338
 40
0.7421875000000328
 40
0.7500000000000306
 40
0.7500000000000306
 40
0.7812500000000253
 40
0.7812500000000253
 40
0.7968750000000228
 40
0.7968750000000228
 40
0.8007812500000223
 40
0.8007812500000223
 40
0.8046875000000219
 40
0.812500000000021
 40
0.812500000000021
 40
0.8437500000000188
 40
0.8437500000000188
 40
0.8593750000000178
 40
0.8593750000000178
 40
0.8671875000000171
 40
0.8671875000000171
 40
0.8750000000000164
 40
0.8750000000000164
 40
0.9062500000000119
 40
0.9062500000000119
 40
0.9218750000000099
 40
0.9218750000000099
 40
0.937500000000008
 40
0.937500000000008
 40
0.9687500000000041
 40
0.9687500000000041
 40
0.984375000000002
 40
0.984375000000002
 40
1.0
 40
1.0
 40
1.0
 40
1.0
 10
123.2126029411765
 20
112.4380153376797
 30
-0.0000000000000005
 10
123.255289261827
 20
112.5385568367086
 30
-0.0000000000000005
 10
123.3487546658871
 20
112.7345439779803
 30
-0.0000000000000005
 10
123.512494398582
 20
113.0137018848976
 30
-0.0000000000000006
 10
123.6372130366514
 20
113.1900113376615
 30
-0.0000000000000006
 10
123.7366641035689
 20
113.3185214572293
 30
-0.0000000000000006
 10
123.7878696662347
 20
113.3818447612339
 30
-0.0000000000000006
 10
123.8413288321752
 20
113.4437493587973
 30
-0.0000000000000006
 10
123.8774742093482
 20
113.4847005976229
 30
-0.0000000000000006
 10
123.8957962279602
 20
113.5050115799486
 30
-0.0000000000000006
 10
123.9882262016722
 20
113.6052794513219
 30
-0.0000000000000006
 10
124.1420456088789
 20
113.7582815641846
 30
-0.0000000000000006
 10
124.3900618410105
 20
113.9661416042842
 30
-0.0000000000000006
 10
124.5668538218448
 20
114.090383322141
 30
-0.0000000000000006
 10
124.7038059199396
 20
114.1781089427507
 30
-0.0000000000000006
 10
124.7501839589552
 20
114.2064403019013
 30
-0.0000000000000006
 10
124.8444180712945
 20
114.2612528019296
 30
-0.0000000000000006
 10
124.8923600781908
 20
114.2877740014347
 30
-0.0000000000000006
 10
125.0370962990667
 20
114.3638201762228
 30
-0.0000000000000006
 10
125.2332121891814
 20
114.4562995197784
 30
-0.0000000000000006
 10
125.5365376684292
 20
114.5689872491345
 30
-0.0000000000000007
 10
125.7448257240657
 20
114.6268441772935
 30
-0.0000000000000007
 10
125.9033569209865
 20
114.6636519379419
 30
-0.0000000000000007
 10
125.9565870461985
 20
114.6748221838199
 30
-0.0000000000000007
 10
126.0370216530509
 20
114.6899010995323
 30
-0.0000000000000007
 10
126.0639630488452
 20
114.6946529617084
 30
-0.0000000000000007
 10
126.117876767004
 20
114.7035646079309
 30
-0.0000000000000007
 10
126.2526618397542
 20
114.7243530133674
 30
-0.0000000000000007
 10
126.4952818755738
 20
114.7485309141075
 30
-0.0000000000000007
 10
126.8187896148506
 20
114.7532341807111
 30
-0.0000000000000007
 10
127.0344709788442
 20
114.7380795620189
 30
-0.0000000000000007
 10
127.1962356441864
 20
114.7197288238577
 30
-0.0000000000000007
 10
127.2501578072029
 20
114.712446162001
 30
-0.0000000000000007
 10
127.3310419797211
 20
114.6997425833388
 30
-0.0000000000000007
 10
127.358034730963
 20
114.6952053855362
 30
-0.0000000000000007
 10
127.4117951450774
 20
114.6855729146308
 30
-0.0000000000000007
 10
127.5457018019614
 20
114.6600875260612
 30
-0.0000000000000007
 10
127.7823410364943
 20
114.6017368075233
 30
-0.0000000000000007
 10
128.0887167516203
 20
114.4979650199967
 30
-0.0000000000000006
 10
128.2868870087124
 20
114.4115128526012
 30
-0.0000000000000006
 10
128.4331903753472
 20
114.340071196553
 30
-0.0000000000000006
 10
128.4815702347199
 20
114.3151553498899
 30
-0.0000000000000006
 10
128.5535475046737
 20
114.2760984227978
 30
-0.0000000000000006
 10
128.5774620928076
 20
114.2627862047399
 30
-0.0000000000000006
 10
128.6248714720812
 20
114.2357223374547
 30
-0.0000000000000006
 10
128.7424601177614
 20
114.1669025035208
 30
-0.0000000000000006
 10
128.94581194777
 20
114.0327161063027
 30
-0.0000000000000006
 10
129.1996425429679
 20
113.8323223811736
 30
-0.0000000000000006
 10
129.3573463397767
 20
113.6844318007897
 30
-0.0000000000000006
 10
129.4712181252704
 20
113.5680446105861
 30
-0.0000000000000006
 10
129.5084400109841
 20
113.528336056296
 30
-0.0000000000000006
 10
129.5631491490336
 20
113.4673783449934
 30
-0.0000000000000006
 10
129.5812034780807
 20
113.4468190839669
 30
-0.0000000000000006
 10
129.6167604056588
 20
113.4054362147401
 30
-0.0000000000000006
 10
129.7043832391173
 20
113.3011950753493
 30
-0.0000000000000006
 10
129.8508204861328
 20
113.106592577018
 30
-0.0000000000000006
 10
130.0225468080521
 20
112.8325944135682
 30
-0.0000000000000005
 10
130.1213661024971
 20
112.6402535248893
 30
-0.0000000000000005
 10
130.1894821990239
 20
112.4922927198213
 30
-0.0000000000000005
 10
130.2111864577808
 20
112.4423540776143
 30
-0.0000000000000005
 10
130.2525544436484
 20
112.3412163401049
 30
-0.0000000000000005
 10
130.2721378624698
 20
112.2902067231754
 30
-0.0000000000000005
 10
130.3274220934607
 20
112.1363586835766
 30
-0.0000000000000005
 10
130.3597481987099
 20
112.0324963430447
 30
-0.0000000000000005
 10
130.4153909253447
 20
111.8221919820506
 30
-0.0000000000000005
 10
130.4387125740835
 20
111.7157220464037
 30
-0.0000000000000005
 10
130.4761751013978
 20
111.5002723568535
 30
-0.0000000000000005
 10
130.4901908291385
 20
111.3920260353676
 30
-0.0000000000000005
 10
130.504174643766
 20
111.2288779778901
 30
-0.0000000000000004
 10
130.5076627235405
 20
111.17432153142
 30
-0.0000000000000004
 10
130.5122671948347
 20
111.06513645127
 30
-0.0000000000000004
 10
130.5133779772821
 20
111.0106894864132
 30
-0.0000000000000004
 10
130.5132017638547
 20
110.8477772755021
 30
-0.0000000000000004
 10
130.503623523939
 20
110.6317025744771
 30
-0.0000000000000004
 10
130.4617852685107
 20
110.3109470513964
 30
-0.0000000000000004
 10
130.4155447344409
 20
110.0993520922947
 30
-0.0000000000000004
 10
130.3807723692359
 20
109.9678228536703
 30
-0.0000000000000004
 10
130.3735237554489
 20
109.9415529525207
 30
-0.0000000000000004
 10
130.358432607103
 20
109.8890857351901
 30
-0.0000000000000004
 10
130.350583434149
 20
109.8628692422981
 30
-0.0000000000000004
 10
130.3262540760114
 20
109.784698923743
 30
-0.0000000000000004
 10
130.3089623184785
 20
109.7331127064874
 30
-0.0000000000000004
 10
130.2539267897217
 20
109.5799083830032
 30
-0.0000000000000003
 10
130.1721302745103
 20
109.3797751496431
 30
-0.0000000000000003
 10
130.0246480607679
 20
109.0917672517351
 30
-0.0000000000000003
 10
129.9097423562575
 20
108.907919569051
 30
-0.0000000000000003
 10
129.8171830825406
 20
108.7731722473371
 30
-0.0000000000000003
 10
129.7851942876365
 20
108.7286924114139
 30
-0.0000000000000003
 10
129.7196359766494
 20
108.6415692544668
 30
-0.0000000000000003
 10
129.6860225833939
 20
108.5988533573033
 30
-0.0000000000000003
 10
129.5138532363056
 20
108.3894326054239
 30
-0.0000000000000003
 10
129.3630792668486
 20
108.2351135997104
 30
-0.0000000000000003
 10
129.1175745742711
 20
108.0232460842607
 30
-0.0000000000000003
 10
129.0324983702656
 20
107.955909666603
 30
-0.0000000000000002
 10
128.921988081717
 20
107.8759618823789
 30
-0.0000000000000002
 10
128.8996505613248
 20
107.8601655079553
 30
-0.0000000000000002
 10
128.8547000881478
 20
107.8291004887823
 30
-0.0000000000000002
 10
128.7868906270891
 20
107.7833119531306
 30
-0.0000000000000002
 10
128.7179419903633
 20
107.7399249505933
 30
-0.0000000000000002
 10
128.4856211181849
 20
107.6005553175111
 30
-0.0000000000000002
 10
128.2918437585397
 20
107.5057576441023
 30
-0.0000000000000002
 10
127.9893833822033
 20
107.3884266202418
 30
-0.0000000000000002
 10
127.8865870304793
 20
107.3534826668057
 30
-0.0000000000000002
 10
127.7555474873004
 20
107.3151664358893
 30
-0.0000000000000002
 10
127.7291931733236
 20
107.3077674328665
 30
-0.0000000000000002
 10
127.6764775624484
 20
107.2935774878945
 30
-0.0000000000000002
 10
127.5973098495741
 20
107.2731789994567
 30
-0.0000000000000002
 10
127.5178620962906
 20
107.2554130218404
 30
-0.0000000000000002
 10
127.2524231319519
 20
107.201956742428
 30
-0.0000000000000002
 10
127.0381232446067
 20
107.1775106799421
 30
-0.0000000000000002
 10
126.7137627076205
 20
107.1682040710393
 30
-0.0000000000000002
 10
126.6051548323633
 20
107.169686517901
 30
-0.0000000000000002
 10
126.4687661710201
 20
107.1774508478927
 30
-0.0000000000000002
 10
126.4414689141074
 20
107.1793000120805
 30
-0.0000000000000002
 10
126.3870761858909
 20
107.1835719359549
 30
-0.0000000000000002
 10
126.3056920422614
 20
107.1908454855688
 30
-0.0000000000000002
 10
126.2249167388184
 20
107.2006906561389
 30
-0.0000000000000002
 10
125.956999512476
 20
107.2391415195665
 30
-0.0000000000000002
 10
125.7469049792349
 20
107.2878079252378
 30
-0.0000000000000002
 10
125.4381097094385
 20
107.3876133713797
 30
-0.0000000000000002
 10
125.3362413139814
 20
107.4253731677855
 30
-0.0000000000000002
 10
125.1850859543716
 20
107.4889701597835
 30
-0.0000000000000002
 10
125.135229473535
 20
107.5112266376263
 30
-0.0000000000000002
 10
125.0369001367878
 20
107.5576684802106
 30
-0.0000000000000002
 10
124.9883714742298
 20
107.5818772255712
 30
-0.0000000000000002
 10
124.7488645035007
 20
107.7077921580933
 30
-0.0000000000000002
 10
124.5672272642796
 20
107.8240064277562
 30
-0.0000000000000002
 10
124.309719769602
 20
108.0215435563084
 30
-0.0000000000000003
 10
124.2263885242921
 20
108.0912790402179
 30
-0.0000000000000003
 10
124.0649037911436
 20
108.2387911301329
 30
-0.0000000000000003
 10
123.9878623854489
 20
108.3155586523584
 30
-0.0000000000000003
 10
123.767860894662
 20
108.5542610294592
 30
-0.0000000000000003
 10
123.6357765102655
 20
108.7246904002494
 30
-0.0000000000000003
 10
123.4595507522923
 20
108.9972946404271
 30
-0.0000000000000003
 10
123.404454028188
 20
109.0910502349577
 30
-0.0000000000000003
 10
123.3019513475059
 20
109.2842543419946
 30
-0.0000000000000003
 10
123.2551069459645
 20
109.3826359006443
 30
-0.0000000000000003
 10
123.2126029411764
 20
109.4827699789286
 30
-0.0000000000000003
  0
SPLINE
  5
93
330
1F
100
AcDbEntity
  8
1
  6
Continuous
 62
   252
370
    18
100
AcDbSpline
210
0.0
220
0.0
230
1.0
 70
     8
 71
     3
 72
   148
 73
   144
 74
     0
 42
0.000000001
 43
0.0000000001
 40
0.0
 40
0.0
 40
0.0
 40
0.0
 40
0.0039062499999994
 40
0.0039062499999994
 40
0.0078124999999987
 40
0.0156249999999987
 40
0.0156249999999987
 40
0.0312499999999988
 40
0.0468749999999989
 40
0.0624999999999989
 40
0.0624999999999989
 40
0.0703124999999986
 40
0.0703124999999986
 40
0.0781249999999983
 40
0.0781249999999983
 40
0.0937499999999977
 40
0.109374999999997
 40
0.109374999999997
 40
0.117187499999997
 40
0.1210937499999967
 40
0.1210937499999967
 40
0.1249999999999964
 40
0.1249999999999964
 40
0.1406249999999961
 40
0.1562499999999958
 40
0.1718749999999955
 40
0.1718749999999955
 40
0.1796874999999953
 40
0.1835937499999951
 40
0.1835937499999951
 40
0.187499999999995
 40
0.187499999999995
 40
0.2031249999999973
 40
0.2187499999999996
 40
0.2343750000000019
 40
0.2343750000000019
 40
0.242187500000003
 40
0.246093750000003
 40
0.246093750000003
 40
0.2500000000000031
 40
0.2500000000000031
 40
0.2656250000000034
 40
0.2812500000000038
 40
0.2968750000000043
 40
0.2968750000000043
 40
0.3046875000000042
 40
0.3085937500000042
 40
0.3085937500000042
 40
0.3125000000000042
 40
0.3125000000000042
 40
0.3281250000000067
 40
0.3437500000000092
 40
0.3593750000000117
 40
0.3593750000000117
 40
0.3671875000000126
 40
0.3671875000000126
 40
0.3750000000000135
 40
0.3750000000000135
 40
0.3906250000000139
 40
0.4062500000000143
 40
0.4218750000000147
 40
0.4218750000000147
 40
0.4296875000000152
 40
0.4296875000000152
 40
0.4375000000000157
 40
0.4375000000000157
 40
0.4531250000000165
 40
0.4687500000000175
 40
0.4843750000000184
 40
0.4843750000000184
 40
0.4921875000000188
 40
0.4921875000000188
 40
0.5000000000000193
 40
0.5000000000000193
 40
0.5156250000000193
 40
0.5312500000000192
 40
0.5312500000000192
 40
0.5468750000000192
 40
0.5468750000000192
 40
0.5546875000000191
 40
0.5546875000000191
 40
0.562500000000019
 40
0.562500000000019
 40
0.578125000000018
 40
0.593750000000017
 40
0.6093750000000159
 40
0.6093750000000159
 40
0.6171875000000157
 40
0.6171875000000157
 40
0.6250000000000155
 40
0.6250000000000155
 40
0.6406250000000135
 40
0.6562500000000117
 40
0.6718750000000098
 40
0.6718750000000098
 40
0.6757812500000097
 40
0.6757812500000097
 40
0.6796875000000095
 40
0.6796875000000095
 40
0.6875000000000101
 40
0.6875000000000101
 40
0.7187500000000138
 40
0.7187500000000138
 40
0.7343750000000152
 40
0.7343750000000152
 40
0.7382812500000149
 40
0.7382812500000149
 40
0.7421875000000145
 40
0.7421875000000145
 40
0.750000000000013
 40
0.750000000000013
 40
0.78125000000001
 40
0.78125000000001
 40
0.7968750000000089
 40
0.7968750000000089
 40
0.804687500000009
 40
0.804687500000009
 40
0.812500000000009
 40
0.812500000000009
 40
0.8437500000000099
 40
0.8437500000000099
 40
0.8593750000000104
 40
0.8593750000000104
 40
0.8671875000000107
 40
0.8671875000000107
 40
0.8750000000000109
 40
0.8750000000000109
 40
0.9062500000000087
 40
0.9062500000000087
 40
0.9218750000000075
 40
0.9218750000000075
 40
0.929687500000007
 40
0.929687500000007
 40
0.9375000000000066
 40
0.9375000000000066
 40
0.968750000000003
 40
0.968750000000003
 40
0.9843750000000012
 40
0.9843750000000012
 40
0.988281250000001
 40
0.988281250000001
 40
0.9921875000000007
 40
1.0
 40
1.0
 40
1.0
 40
1.0
 10
123.2126029411764
 20
88.668641785746
 30
-0.0000000000000008
 10
123.2232722098016
 20
88.69377723792518
 30
-0.0000000000000008
 10
123.2342366425575
 20
88.71884935911882
 30
-0.0000000000000008
 10
123.2566403743744
 20
88.76860665822247
 30
-0.0000000000000008
 10
123.29099619991
 20
88.84275344182241
 30
-0.0000000000000009
 10
123.3275801179663
 20
88.9154474450527
 30
-0.0000000000000009
 10
123.4036751131884
 20
89.05892681789234
 30
-0.0000000000000009
 10
123.5129302878436
 20
89.24514985634985
 30
-0.0000000000000009
 10
123.699901661417
 20
89.50942893424383
 30
0.0000000000000009
 10
123.840080410905
 20
89.67548699986469
 30
0.0000000000000009
 10
123.9512240827526
 20
89.79611142848225
 30
0.0000000000000009
 10
123.9890567076757
 20
89.83542604120603
 30
0.0000000000000009
 10
124.0661084870967
 20
89.9121370773654
 30
0.0000000000000009
 10
124.1053527328481
 20
89.94956074100688
 30
0.0000000000000009
 10
124.2252108069794
 20
90.05907468911474
 30
0.0000000000000008
 10
124.3906814777072
 20
90.19775110803276
 30
0.0000000000000008
 10
124.5673464380477
 20
90.32190551205406
 30
0.0000000000000008
 10
124.7040882309996
 20
90.40951672785604
 30
0.0000000000000008
 10
124.7735213297709
 20
90.45194432859915
 30
0.0000000000000008
 10
124.8445697195356
 20
90.49227636206084
 30
0.0000000000000008
 10
124.8922977003584
 20
90.5186942441623
 30
0.0000000000000008
 10
124.9163693419918
 20
90.53168197880899
 30
0.0000000000000008
 10
125.0373100107141
 20
90.59525957125197
 30
0.0000000000000008
 10
125.2338189137296
 20
90.687939958278
 30
0.0000000000000008
 10
125.5373147301321
 20
90.8006688260045
 30
0.0000000000000008
 10
125.7454127090678
 20
90.85845649947834
 30
0.0000000000000008
 10
125.903676031903
 20
90.8952038794213
 30
0.0000000000000008
 10
125.9833558963776
 20
90.91192698765576
 30
0.0000000000000008
 10
126.063870145315
 20
90.92613783860213
 30
0.0000000000000008
 10
126.117733588091
 20
90.93504786418055
 30
0.0000000000000008
 10
126.144787415717
 20
90.93922463313413
 30
0.0000000000000008
 10
126.2799311411213
 20
90.95860248904359
 30
0.0000000000000008
 10
126.4960014154074
 20
90.9801129617016
 30
0.0000000000000008
 10
126.8196419796586
 20
90.98474120906545
 30
0.0000000000000008
 10
127.0350948920349
 20
90.96954645293911
 30
0.0000000000000008
 10
127.1965676745434
 20
90.95120001706425
 30
0.0000000000000008
 10
127.2772748007856
 20
90.94028685483894
 30
0.0000000000000008
 10
127.3579373529044
 20
90.92672355749619
 30
0.0000000000000008
 10
127.4117023793612
 20
90.91708632206578
 30
0.0000000000000008
 10
127.4385911906085
 20
90.91196717605935
 30
0.0000000000000008
 10
127.5723586011925
 20
90.88500673453129
 30
0.0000000000000008
 10
127.7830833356838
 20
90.83298014498592
 30
0.0000000000000008
 10
128.0895450623134
 20
90.72903526235086
 30
0.0000000000000008
 10
128.2874798891102
 20
90.64258717593759
 30
0.0000000000000008
 10
128.4335054875372
 20
90.57122348464155
 30
0.0000000000000008
 10
128.5059110751393
 20
90.53390749582212
 30
0.0000000000000008
 10
128.5773913122849
 20
90.49410120807599
 30
0.0000000000000008
 10
128.6248369757897
 20
90.46700438061995
 30
0.0000000000000008
 10
128.6484494589127
 20
90.45317901569817
 30
0.0000000000000008
 10
128.7654144709532
 20
90.38299374562295
 30
0.0000000000000008
 10
128.9464777129036
 20
90.26341177013086
 30
0.0000000000000008
 10
129.2003397105761
 20
90.06279327725582
 30
0.0000000000000008
 10
129.3578312394739
 20
89.91497080571719
 30
0.0000000000000009
 10
129.4714744626425
 20
89.79874237661264
 30
0.0000000000000009
 10
129.5086086058844
 20
89.7591047404665
 30
0.0000000000000009
 10
129.5813586158227
 20
89.67801059917953
 30
0.0000000000000009
 10
129.6170540831037
 20
89.6364527692697
 30
0.0000000000000009
 10
129.7209527878784
 20
89.5100635206687
 30
0.0000000000000009
 10
129.8513144094436
 20
89.33669454035021
 30
-0.0000000000000009
 10
130.023013945097
 20
89.0624879151137
 30
-0.0000000000000009
 10
130.1216702798096
 20
88.87029915905275
 30
-0.0000000000000009
 10
130.1896358549746
 20
88.72258051527862
 30
-0.0000000000000008
 10
130.2112852103104
 20
88.67274396248578
 30
-0.0000000000000008
 10
130.252538501625
 20
88.57185684339376
 30
-0.0000000000000008
 10
130.2721727476117
 20
88.5207090805919
 30
-0.0000000000000008
 10
130.327449034439
 20
88.36684171936861
 30
-0.0000000000000008
 10
130.3918319461314
 20
88.15982197989838
 30
-0.0000000000000008
 10
130.4611838055528
 20
87.84384986877183
 30
-0.0000000000000008
 10
130.4893496062849
 20
87.62958962642455
 30
-0.0000000000000008
 10
130.5035791935918
 20
87.46751615824041
 30
-0.0000000000000008
 10
130.5071716619863
 20
87.4132616341873
 30
-0.0000000000000008
 10
130.5120152554597
 20
87.30428454818147
 30
-0.0000000000000008
 10
130.5132606652564
 20
87.24954546441293
 30
-0.0000000000000008
 10
130.5134364766752
 20
87.08590573018333
 30
-0.0000000000000007
 10
130.5042417624626
 20
86.86840600223167
 30
-0.0000000000000007
 10
130.4763375688552
 20
86.65226855120477
 30
-0.0000000000000007
 10
130.4389429756301
 20
86.43682202693212
 30
-0.0000000000000007
 10
130.4156220086364
 20
86.33016249152759
 30
-0.0000000000000007
 10
130.3737783026348
 20
86.1719085059836
 30
-0.0000000000000007
 10
130.3586836477218
 20
86.11943847382557
 30
-0.0000000000000007
 10
130.3261893570605
 20
86.0150637923881
 30
-0.0000000000000007
 10
130.3088328481367
 20
85.96330638400414
 30
-0.0000000000000007
 10
130.2536606464183
 20
85.80981679018234
 30
-0.0000000000000007
 10
130.1717020494721
 20
85.60947778687597
 30
-0.0000000000000007
 10
130.0241450333591
 20
85.3216180772092
 30
-0.0000000000000006
 10
129.9093728825671
 20
85.13813738628303
 30
-0.0000000000000006
 10
129.8170121499186
 20
85.00375373923711
 30
-0.0000000000000006
 10
129.7851470866509
 20
84.95945840677041
 30
-0.0000000000000006
 10
129.7194053651168
 20
84.87213213521792
 30
-0.0000000000000006
 10
129.6857082554204
 20
84.82933601450043
 30
-0.0000000000000006
 10
129.5821846378679
 20
84.7034998713757
 30
-0.0000000000000006
 10
129.4376761959503
 20
84.54251466201788
 30
-0.0000000000000006
 10
129.2018817312609
 20
84.32100585459983
 30
-0.0000000000000006
 10
129.0319840628093
 20
84.18665933305019
 30
-0.0000000000000006
 10
128.9217360350059
 20
84.10695425923268
 30
-0.0000000000000006
 10
128.8994829686104
 20
84.0912266989236
 30
-0.0000000000000006
 10
128.8545661015083
 20
84.06020248092328
 30
-0.0000000000000006
 10
128.8318800044681
 20
84.04489173120945
 30
-0.0000000000000006
 10
128.7635099585077
 20
83.99981423692083
 30
-0.0000000000000006
 10
128.7174383276851
 20
83.97084649706693
 30
-0.0000000000000006
 10
128.4846658464866
 20
83.83133099485516
 30
-0.0000000000000005
 10
128.2907744943224
 20
83.73663708754131
 30
-0.0000000000000005
 10
127.9886106450789
 20
83.6195679696497
 30
-0.0000000000000005
 10
127.8859913293872
 20
83.5847294465344
 30
-0.0000000000000005
 10
127.7552846693362
 20
83.54654399538286
 30
-0.0000000000000005
 10
127.7290214937827
 20
83.53917552050399
 30
-0.0000000000000005
 10
127.6762490575927
 20
83.52498108445809
 30
-0.0000000000000005
 10
127.649757521491
 20
83.5181607298779
 30
-0.0000000000000005
 10
127.5702949216614
 20
83.49860995123225
 30
-0.0000000000000005
 10
127.5172148869472
 20
83.48675626264176
 30
-0.0000000000000005
 10
127.2512987772471
 20
83.43328846429824
 30
-0.0000000000000005
 10
127.0369260804356
 20
83.40895047381582
 30
-0.0000000000000005
 10
126.7129390556955
 20
83.39974049251643
 30
-0.0000000000000005
 10
126.6045365386198
 20
83.40124450556448
 30
-0.0000000000000005
 10
126.4413061151263
 20
83.41054575256652
 30
-0.0000000000000005
 10
126.3866770283562
 20
83.4148371502974
 30
-0.0000000000000005
 10
126.278168889616
 20
83.42571228480665
 30
-0.0000000000000005
 10
126.2242073873758
 20
83.43229567450511
 30
-0.0000000000000005
 10
125.9558387424879
 20
83.47084789356946
 30
-0.0000000000000005
 10
125.7457170266605
 20
83.51960040837324
 30
-0.0000000000000005
 10
125.4373211120578
 20
83.61930997224925
 30
-0.0000000000000005
 10
125.3356596519781
 20
83.65700039967956
 30
-0.0000000000000005
 10
125.1849210648043
 20
83.72040447267798
 30
-0.0000000000000005
 10
125.1348822441416
 20
83.74273084260996
 30
-0.0000000000000005
 10
125.036318491016
 20
83.78927596261951
 30
-0.0000000000000005
 10
124.9876945190273
 20
83.81353189832839
 30
-0.0000000000000005
 10
124.7478116129423
 20
83.93964998570497
 30
-0.0000000000000006
 10
124.5661933707492
 20
84.05592245805398
 30
-0.0000000000000006
 10
124.3090586397497
 20
84.25319193509195
 30
-0.0000000000000006
 10
124.225909488559
 20
84.3227789681568
 30
-0.0000000000000006
 10
124.1051406694606
 20
84.43307198142878
 30
-0.0000000000000006
 10
124.0654974646182
 20
84.47087774564501
 30
-0.0000000000000006
 10
123.9882941234367
 20
84.54774827274183
 30
-0.0000000000000006
 10
123.9506417686222
 20
84.58689275164193
 30
-0.0000000000000006
 10
123.7670523731206
 20
84.78610591377789
 30
-0.0000000000000006
 10
123.6350310413325
 20
84.95657113152795
 30
-0.0000000000000006
 10
123.4591051003872
 20
85.22878684594826
 30
-0.0000000000000006
 10
123.404167190269
 20
85.32229313543608
 30
-0.0000000000000006
 10
123.340262776557
 20
85.44273889648173
 30
-0.0000000000000006
 10
123.3277060641395
 20
85.46703605504635
 30
-0.0000000000000006
 10
123.3031560178373
 20
85.51582977806281
 30
-0.0000000000000006
 10
123.2671887756631
 20
85.5892886550483
 30
-0.0000000000000007
 10
123.2337684455718
 20
85.66354412058149
 30
-0.0000000000000007
 10
123.2126029411766
 20
85.71339642706302
 30
-0.0000000000000007
  0
SPLINE
  5
94
330
1F
100
AcDbEntity
  8
1
  6
Continuous
 62
   252
370
    18
100
AcDbSpline
210
0.0
220
0.0
230
1.0
 70
     8
 71
     3
 72
   142
 73
   138
 74
     0
 42
0.000000001
 43
0.0000000001
 40
0.0
 40
0.0
 40
0.0
 40
0.0
 40
0.0156250000000024
 40
0.0312500000000048
 40
0.0468750000000072
 40
0.0468750000000072
 40
0.0546875000000088
 40
0.0585937500000099
 40
0.0585937500000099
 40
0.0625000000000109
 40
0.0625000000000109
 40
0.0781250000000138
 40
0.0937500000000167
 40
0.1093750000000196
 40
0.1093750000000196
 40
0.117187500000021
 40
0.117187500000021
 40
0.1250000000000225
 40
0.1250000000000225
 40
0.1406250000000276
 40
0.1562500000000327
 40
0.1718750000000379
 40
0.1718750000000379
 40
0.1796875000000393
 40
0.1796875000000393
 40
0.1835937500000392
 40
0.1835937500000392
 40
0.1875000000000391
 40
0.2031250000000365
 40
0.2187500000000339
 40
0.2343750000000313
 40
0.2343750000000313
 40
0.2421875000000301
 40
0.2421875000000301
 40
0.2460937500000296
 40
0.2460937500000296
 40
0.250000000000029
 40
0.2656250000000323
 40
0.2812500000000356
 40
0.2968750000000389
 40
0.2968750000000389
 40
0.3046875000000397
 40
0.3046875000000397
 40
0.3085937500000402
 40
0.3085937500000402
 40
0.3125000000000409
 40
0.32812500000004
 40
0.343750000000039
 40
0.3593750000000381
 40
0.3593750000000381
 40
0.3671875000000376
 40
0.3671875000000376
 40
0.3710937500000378
 40
0.3710937500000378
 40
0.3750000000000379
 40
0.3906250000000372
 40
0.4062500000000365
 40
0.4218750000000358
 40
0.4218750000000358
 40
0.4296875000000364
 40
0.4296875000000364
 40
0.4375000000000369
 40
0.4375000000000369
 40
0.4531250000000376
 40
0.4531250000000376
 40
0.4687500000000384
 40
0.4687500000000384
 40
0.4843750000000391
 40
0.4843750000000391
 40
0.4921875000000391
 40
0.4921875000000391
 40
0.5000000000000391
 40
0.5000000000000391
 40
0.5156250000000381
 40
0.531250000000037
 40
0.546875000000036
 40
0.546875000000036
 40
0.5507812500000355
 40
0.5507812500000355
 40
0.5546875000000352
 40
0.5546875000000352
 40
0.5625000000000339
 40
0.5625000000000339
 40
0.5781250000000319
 40
0.59375000000003
 40
0.6093750000000281
 40
0.6093750000000281
 40
0.6171875000000266
 40
0.6171875000000266
 40
0.6250000000000253
 40
0.6250000000000253
 40
0.6562500000000219
 40
0.6562500000000219
 40
0.6718750000000203
 40
0.6718750000000203
 40
0.6757812500000202
 40
0.6757812500000202
 40
0.67968750000002
 40
0.6875000000000207
 40
0.6875000000000207
 40
0.7187500000000279
 40
0.7187500000000279
 40
0.7343750000000305
 40
0.7343750000000305
 40
0.7382812500000305
 40
0.7382812500000305
 40
0.7421875000000306
 40
0.7500000000000306
 40
0.7500000000000306
 40
0.7812500000000325
 40
0.7812500000000325
 40
0.7968750000000333
 40
0.7968750000000333
 40
0.8007812500000321
 40
0.8007812500000321
 40
0.8046875000000308
 40
0.8125000000000283
 40
0.8125000000000283
 40
0.8437500000000242
 40
0.8437500000000242
 40
0.8593750000000224
 40
0.8593750000000224
 40
0.8671875000000224
 40
0.8671875000000224
 40
0.8750000000000224
 40
0.8750000000000224
 40
0.9062500000000175
 40
0.9062500000000175
 40
0.9218750000000151
 40
0.9218750000000151
 40
0.9375000000000125
 40
0.9375000000000125
 40
0.9687500000000063
 40
0.9687500000000063
 40
0.9843750000000031
 40
0.9843750000000031
 40
1.0
 40
1.0
 40
1.0
 40
1.0
 10
168.2126029411764
 20
85.71339642706347
 30
-0.0000000000000007
 10
168.1699166205267
 20
85.61285492803421
 30
-0.0000000000000007
 10
168.0764512164682
 20
85.41686778676174
 30
-0.0000000000000006
 10
167.9127114837756
 20
85.13770987984316
 30
-0.0000000000000006
 10
167.7879928457076
 20
84.96140042707853
 30
-0.0000000000000006
 10
167.6885417787912
 20
84.83289030751007
 30
-0.0000000000000006
 10
167.6373362161261
 20
84.76956700350507
 30
-0.0000000000000006
 10
167.583877050186
 20
84.7076624059414
 30
-0.0000000000000006
 10
167.5477316730133
 20
84.66671116711557
 30
-0.0000000000000006
 10
167.5294096544014
 20
84.64640018478977
 30
-0.0000000000000006
 10
167.4369796806901
 20
84.54613231341582
 30
-0.0000000000000006
 10
167.2831606562115
 20
84.39312972084508
 30
-0.0000000000000006
 10
167.0351440413546
 20
84.18527016045063
 30
-0.0000000000000006
 10
166.8583520605211
 20
84.06102844259303
 30
-0.0000000000000006
 10
166.721399962427
 20
83.97330282198254
 30
-0.0000000000000006
 10
166.6750219234116
 20
83.94497146283152
 30
-0.0000000000000006
 10
166.5807878110729
 20
83.8901589628027
 30
-0.0000000000000005
 10
166.5328458041766
 20
83.86363776329733
 30
-0.0000000000000005
 10
166.3881095833012
 20
83.78759158850835
 30
-0.0000000000000005
 10
166.1919938744343
 20
83.69511172892308
 30
-0.0000000000000005
 10
165.8886681483396
 20
83.58242470191607
 30
-0.0000000000000005
 10
165.6803801583041
 20
83.52456758743361
 30
-0.0000000000000005
 10
165.5218489613836
 20
83.48775982678436
 30
-0.0000000000000005
 10
165.4686188361717
 20
83.47658958090616
 30
-0.0000000000000005
 10
165.3881842293194
 20
83.46151066519342
 30
-0.0000000000000005
 10
165.3612428335252
 20
83.45675880301711
 30
-0.0000000000000005
 10
165.3073291153665
 20
83.4478471567943
 30
-0.0000000000000005
 10
165.1725440426164
 20
83.42705875135718
 30
-0.0000000000000005
 10
164.929924006797
 20
83.4028808506157
 30
-0.0000000000000005
 10
164.6064162673926
 20
83.39817782908897
 30
-0.0000000000000005
 10
164.3907349035268
 20
83.4133322027019
 30
-0.0000000000000005
 10
164.2289702381846
 20
83.43168294086234
 30
-0.0000000000000005
 10
164.1750480751681
 20
83.43896560271877
 30
-0.0000000000000005
 10
164.0941639026499
 20
83.4516691813806
 30
-0.0000000000000005
 10
164.0671711514081
 20
83.45620637918329
 30
-0.0000000000000005
 10
164.0134107372936
 20
83.4658388500884
 30
-0.0000000000000005
 10
163.8795040804096
 20
83.49132423865737
 30
-0.0000000000000005
 10
163.6428646934532
 20
83.5496745244416
 30
-0.0000000000000005
 10
163.3364891307503
 20
83.65344674471963
 30
-0.0000000000000005
 10
163.138318873658
 20
83.73989891211444
 30
-0.0000000000000005
 10
162.992015507023
 20
83.81134056816214
 30
-0.0000000000000005
 10
162.9436356476502
 20
83.83625641482517
 30
-0.0000000000000005
 10
162.8716583776964
 20
83.875313341917
 30
-0.0000000000000005
 10
162.8477437895625
 20
83.8886255599748
 30
-0.0000000000000005
 10
162.8003344102888
 20
83.91568942725985
 30
-0.0000000000000006
 10
162.6827457646084
 20
83.98450926119327
 30
-0.0000000000000006
 10
162.4793939345997
 20
84.11869565841079
 30
-0.0000000000000006
 10
162.2255633394013
 20
84.31908938353905
 30
-0.0000000000000006
 10
162.0678595425922
 20
84.46697996392248
 30
-0.0000000000000006
 10
161.9539877570983
 20
84.58336715412571
 30
-0.0000000000000006
 10
161.9167658713843
 20
84.6230757084156
 30
-0.0000000000000006
 10
161.8620567333348
 20
84.68403341971816
 30
-0.0000000000000006
 10
161.8440024042876
 20
84.70459268074455
 30
-0.0000000000000006
 10
161.8084454767095
 20
84.74597554997132
 30
-0.0000000000000006
 10
161.7208226432508
 20
84.85021668936184
 30
-0.0000000000000006
 10
161.574385745374
 20
85.04481940284072
 30
-0.0000000000000006
 10
161.4026587883028
 20
85.31881717411315
 30
-0.0000000000000006
 10
161.3038397798701
 20
85.5111582398207
 30
-0.0000000000000006
 10
161.2357236833431
 20
85.65911904488866
 30
-0.0000000000000007
 10
161.2140194245862
 20
85.70905768709565
 30
-0.0000000000000007
 10
161.1726514387184
 20
85.81019542460501
 30
-0.0000000000000007
 10
161.1530680198971
 20
85.86120504153442
 30
-0.0000000000000007
 10
161.0977837889061
 20
86.01505308113299
 30
-0.0000000000000007
 10
161.0654576836567
 20
86.11891542166484
 30
-0.0000000000000007
 10
161.0098149570218
 20
86.32921978265874
 30
-0.0000000000000007
 10
160.9864933082828
 20
86.4356897183057
 30
-0.0000000000000007
 10
160.9490307809686
 20
86.65113940785571
 30
-0.0000000000000007
 10
160.9350150532278
 20
86.75938572934157
 30
-0.0000000000000007
 10
160.9210312386002
 20
86.92253378681902
 30
-0.0000000000000007
 10
160.9175431588256
 20
86.97709023328905
 30
-0.0000000000000007
 10
160.9129386875315
 20
87.08627531343896
 30
-0.0000000000000007
 10
160.9118279050841
 20
87.14072227829561
 30
-0.0000000000000007
 10
160.9120041185116
 20
87.3036344892066
 30
-0.0000000000000008
 10
160.9215823584271
 20
87.5197091902315
 30
-0.0000000000000008
 10
160.9634206138556
 20
87.84046471331192
 30
-0.0000000000000008
 10
161.0096611479255
 20
88.0520596724136
 30
-0.0000000000000008
 10
161.0444335131306
 20
88.18358891103807
 30
-0.0000000000000008
 10
161.0516821269176
 20
88.2098588121876
 30
-0.0000000000000008
 10
161.0667732752636
 20
88.26232602951819
 30
-0.0000000000000008
 10
161.0746224482177
 20
88.28854252241013
 30
-0.0000000000000008
 10
161.0989518063553
 20
88.36671284096512
 30
-0.0000000000000008
 10
161.1162435638883
 20
88.41829905822058
 30
-0.0000000000000008
 10
161.1712790926452
 20
88.57150338170456
 30
-0.0000000000000008
 10
161.2530756078567
 20
88.77163661506444
 30
-0.0000000000000008
 10
161.4005578215995
 20
89.05964451297217
 30
-0.0000000000000009
 10
161.5154635261101
 20
89.24349219565613
 30
-0.0000000000000009
 10
161.6080227998273
 20
89.37823951736992
 30
-0.0000000000000009
 10
161.6400115947314
 20
89.42271935329303
 30
0.0000000000000009
 10
161.7055699057186
 20
89.5098425102399
 30
0.0000000000000009
 10
161.7391832989742
 20
89.55255840740324
 30
0.0000000000000009
 10
161.9113526460627
 20
89.76197915928208
 30
0.0000000000000009
 10
162.06212661552
 20
89.91629816499511
 30
0.0000000000000009
 10
162.3076313080979
 20
90.12816568044414
 30
0.0000000000000008
 10
162.3927075121036
 20
90.19550209810174
 30
0.0000000000000008
 10
162.5032178006525
 20
90.27544988232557
 30
0.0000000000000008
 10
162.5255553210449
 20
90.29124625674896
 30
0.0000000000000008
 10
162.5705057942219
 20
90.32231127592178
 30
0.0000000000000008
 10
162.6383152552806
 20
90.3680998115732
 30
0.0000000000000008
 10
162.7072638920064
 20
90.4114868141103
 30
0.0000000000000008
 10
162.939584764185
 20
90.55085644719168
 30
0.0000000000000008
 10
163.1333621238304
 20
90.64565412059981
 30
0.0000000000000008
 10
163.4358225001673
 20
90.76298514445918
 30
0.0000000000000008
 10
163.5386188518914
 20
90.7979290978949
 30
0.0000000000000008
 10
163.6696583950705
 20
90.83624532881083
 30
0.0000000000000008
 10
163.6960127090474
 20
90.8436443318335
 30
0.0000000000000008
 10
163.7487283199225
 20
90.85783427680526
 30
0.0000000000000008
 10
163.8278960327968
 20
90.87823276524287
 30
0.0000000000000008
 10
163.9073437860802
 20
90.89599874285864
 30
0.0000000000000008
 10
164.1727827504188
 20
90.94945502226992
 30
0.0000000000000008
 10
164.387082637764
 20
90.97390108475497
 30
0.0000000000000008
 10
164.7114431747503
 20
90.98320769365627
 30
0.0000000000000008
 10
164.8200510500076
 20
90.981725246794
 30
0.0000000000000008
 10
164.9564397113508
 20
90.97396091680164
 30
0.0000000000000008
 10
164.9837369682635
 20
90.97211175261377
 30
0.0000000000000008
 10
165.0381296964798
 20
90.96783982873905
 30
0.0000000000000008
 10
165.1195138401091
 20
90.96056627912478
 30
0.0000000000000008
 10
165.200289143552
 20
90.95072110855425
 30
0.0000000000000008
 10
165.4682063698938
 20
90.91227024512534
 30
0.0000000000000008
 10
165.6783009031346
 20
90.86360383945295
 30
0.0000000000000008
 10
165.9870961729305
 20
90.7637983933093
 30
0.0000000000000008
 10
166.0889645683874
 20
90.72603859690301
 30
0.0000000000000008
 10
166.2401199279971
 20
90.66244160490405
 30
0.0000000000000008
 10
166.2899764088333
 20
90.64018512706105
 30
0.0000000000000008
 10
166.38830574558
 20
90.5937432844762
 30
0.0000000000000008
 10
166.4368344081377
 20
90.5695345391153
 30
0.0000000000000008
 10
166.6763413788657
 20
90.4436196065919
 30
0.0000000000000008
 10
166.857978618086
 20
90.32740533692794
 30
0.0000000000000008
 10
167.1154861127624
 20
90.12986820837392
 30
0.0000000000000008
 10
167.1988173580719
 20
90.06013272446381
 30
0.0000000000000008
 10
167.3603020912197
 20
89.9126206345475
 30
0.0000000000000009
 10
167.4373434969133
 20
89.83585311232177
 30
0.0000000000000009
 10
167.6573449876981
 20
89.59715073521984
 30
0.0000000000000009
 10
167.7894293720934
 20
89.42672136442874
 30
0.0000000000000009
 10
167.9656551300646
 20
89.15411712424954
 30
-0.0000000000000009
 10
168.0207518541685
 20
89.06036152971816
 30
-0.0000000000000009
 10
168.1232545348487
 20
88.86715742268073
 30
-0.0000000000000009
 10
168.1700989363893
 20
88.7687758640308
 30
-0.0000000000000008
 10
168.2126029411765
 20
88.66864178574616
 30
-0.0000000000000008
  0
SPLINE
  5
95
330
1F
100
AcDbEntity
  8
1
  6
Continuous
 62
   252
370
    18
100
AcDbSpline
210
0.0
220
0.0
230
1.0
 70
     8
 71
     3
 72
   148
 73
   144
 74
     0
 42
0.000000001
 43
0.0000000001
 40
0.0
 40
0.0
 40
0.0
 40
0.0
 40
0.0039062499999999
 40
0.0039062499999999
 40
0.0078124999999998
 40
0.0156249999999991
 40
0.0156249999999991
 40
0.0312499999999978
 40
0.0468749999999965
 40
0.0624999999999952
 40
0.0624999999999952
 40
0.0703124999999937
 40
0.0703124999999937
 40
0.0781249999999922
 40
0.0781249999999922
 40
0.0937499999999906
 40
0.1093749999999891
 40
0.1093749999999891
 40
0.1171874999999892
 40
0.1210937499999891
 40
0.1210937499999891
 40
0.124999999999989
 40
0.124999999999989
 40
0.1406249999999869
 40
0.1562499999999848
 40
0.1718749999999827
 40
0.1718749999999827
 40
0.1796874999999815
 40
0.183593749999981
 40
0.183593749999981
 40
0.1874999999999805
 40
0.1874999999999805
 40
0.20312499999998
 40
0.2187499999999795
 40
0.234374999999979
 40
0.234374999999979
 40
0.2421874999999798
 40
0.2460937499999802
 40
0.2460937499999802
 40
0.2499999999999806
 40
0.2499999999999806
 40
0.2656249999999765
 40
0.2812499999999725
 40
0.2968749999999684
 40
0.2968749999999684
 40
0.3046874999999655
 40
0.308593749999965
 40
0.308593749999965
 40
0.3124999999999644
 40
0.3124999999999644
 40
0.3281249999999679
 40
0.3437499999999714
 40
0.3593749999999748
 40
0.3593749999999748
 40
0.367187499999976
 40
0.367187499999976
 40
0.3749999999999773
 40
0.3749999999999773
 40
0.3906249999999781
 40
0.4062499999999789
 40
0.4218749999999796
 40
0.4218749999999796
 40
0.4296874999999798
 40
0.4296874999999798
 40
0.43749999999998
 40
0.43749999999998
 40
0.4531249999999815
 40
0.4687499999999829
 40
0.4843749999999844
 40
0.4843749999999844
 40
0.492187499999985
 40
0.492187499999985
 40
0.4999999999999855
 40
0.4999999999999855
 40
0.5156249999999871
 40
0.5312499999999888
 40
0.5312499999999888
 40
0.5468749999999905
 40
0.5468749999999905
 40
0.5546874999999913
 40
0.5546874999999913
 40
0.5624999999999921
 40
0.5624999999999921
 40
0.5781249999999933
 40
0.5937499999999946
 40
0.6093749999999958
 40
0.6093749999999958
 40
0.6171874999999963
 40
0.6171874999999963
 40
0.6249999999999969
 40
0.6249999999999969
 40
0.6406249999999993
 40
0.6562500000000019
 40
0.6718750000000043
 40
0.6718750000000043
 40
0.675781250000005
 40
0.675781250000005
 40
0.6796875000000057
 40
0.6796875000000057
 40
0.687500000000007
 40
0.687500000000007
 40
0.71875000000001
 40
0.71875000000001
 40
0.7343750000000115
 40
0.7343750000000115
 40
0.738281250000012
 40
0.738281250000012
 40
0.7421875000000124
 40
0.7421875000000124
 40
0.7500000000000114
 40
0.7500000000000114
 40
0.7812500000000037
 40
0.7812500000000037
 40
0.7968749999999997
 40
0.7968749999999997
 40
0.8046874999999987
 40
0.8046874999999987
 40
0.8124999999999977
 40
0.8124999999999977
 40
0.8437499999999996
 40
0.8437499999999996
 40
0.8593750000000006
 40
0.8593750000000006
 40
0.8671875000000011
 40
0.8671875000000011
 40
0.8750000000000017
 40
0.8750000000000017
 40
0.9062500000000021
 40
0.9062500000000021
 40
0.9218750000000017
 40
0.9218750000000017
 40
0.9296875000000014
 40
0.9296875000000014
 40
0.9375000000000012
 40
0.9375000000000012
 40
0.9687500000000022
 40
0.9687500000000022
 40
0.9843750000000027
 40
0.9843750000000027
 40
0.9882812500000023
 40
0.9882812500000023
 40
0.992187500000002
 40
1.0
 40
1.0
 40
1.0
 40
1.0
 10
168.2126029411765
 20
109.4827699789287
 30
-0.0000000000000003
 10
168.2019336725511
 20
109.4576345267495
 30
-0.0000000000000003
 10
168.1909692397949
 20
109.432562405556
 30
-0.0000000000000003
 10
168.1685655079776
 20
109.3828051064526
 30
-0.0000000000000003
 10
168.1342096824414
 20
109.3086583228531
 30
-0.0000000000000003
 10
168.0976257643847
 20
109.235964319623
 30
-0.0000000000000003
 10
168.0215307691614
 20
109.0924849467841
 30
-0.0000000000000003
 10
167.9122756470335
 20
108.9062618743759
 30
-0.0000000000000003
 10
167.7253042209289
 20
108.6419828304348
 30
-0.0000000000000003
 10
167.5851254714399
 20
108.4759247648145
 30
-0.0000000000000003
 10
167.473981799591
 20
108.3553003361974
 30
-0.0000000000000003
 10
167.4361491746679
 20
108.3159857234741
 30
-0.0000000000000003
 10
167.3590973952464
 20
108.2392746873153
 30
-0.0000000000000003
 10
167.3198531494947
 20
108.2018510236742
 30
-0.0000000000000003
 10
167.1999950753627
 20
108.0923370755672
 30
-0.0000000000000003
 10
167.0345244046339
 20
107.9536606566503
 30
-0.0000000000000002
 10
166.8578594442925
 20
107.82950625263
 30
-0.0000000000000002
 10
166.7211176513399
 20
107.7418950368288
 30
-0.0000000000000002
 10
166.6516845525681
 20
107.6994674360861
 30
-0.0000000000000002
 10
166.5806361628031
 20
107.6591354026247
 30
-0.0000000000000002
 10
166.53290818198
 20
107.6327175205235
 30
-0.0000000000000002
 10
166.5088365403465
 20
107.6197297858769
 30
-0.0000000000000002
 10
166.3878958716239
 20
107.5561521934348
 30
-0.0000000000000002
 10
166.1913869686078
 20
107.4634718064102
 30
-0.0000000000000002
 10
165.8878911361397
 20
107.350742987215
 30
-0.0000000000000002
 10
165.6797931732686
 20
107.2929552652124
 30
-0.0000000000000002
 10
165.521529850433
 20
107.2562078852702
 30
-0.0000000000000002
 10
165.4418499859581
 20
107.2394847770362
 30
-0.0000000000000002
 10
165.3613357370206
 20
107.2252739260901
 30
-0.0000000000000002
 10
165.3074722942443
 20
107.2163639005119
 30
-0.0000000000000002
 10
165.2804184666183
 20
107.2121871315586
 30
-0.0000000000000002
 10
165.1452747412141
 20
107.1928092756499
 30
-0.0000000000000002
 10
164.9292044559483
 20
107.1712981503097
 30
-0.0000000000000002
 10
164.6055639026767
 20
107.1666705556304
 30
-0.0000000000000002
 10
164.3901109903002
 20
107.1818653117579
 30
-0.0000000000000002
 10
164.2286382077916
 20
107.2002117476335
 30
-0.0000000000000002
 10
164.1479310815493
 20
107.2111249098592
 30
-0.0000000000000002
 10
164.0672685294305
 20
107.2246882072022
 30
-0.0000000000000002
 10
164.0135035029736
 20
107.2343254426329
 30
-0.0000000000000002
 10
163.9866146917263
 20
107.2394445886395
 30
-0.0000000000000002
 10
163.8528472811425
 20
107.2664050301681
 30
-0.0000000000000002
 10
163.6421223318934
 20
107.3184310416371
 30
-0.0000000000000002
 10
163.3356608659354
 20
107.4223766257112
 30
-0.0000000000000002
 10
163.1377259932255
 20
107.5088245887643
 30
-0.0000000000000002
 10
162.9917003947985
 20
107.580188280061
 30
-0.0000000000000002
 10
162.9192948071965
 20
107.6175042688809
 30
-0.0000000000000002
 10
162.8478145700509
 20
107.6573105566272
 30
-0.0000000000000002
 10
162.8003689065461
 20
107.6844073840834
 30
-0.0000000000000002
 10
162.7767564234232
 20
107.6982327490053
 30
-0.0000000000000002
 10
162.659791411383
 20
107.7684180190808
 30
-0.0000000000000002
 10
162.4787277903997
 20
107.8879995401787
 30
-0.0000000000000002
 10
162.2248662732579
 20
108.0886186087407
 30
-0.0000000000000003
 10
162.0673746428633
 20
108.2364409589884
 30
-0.0000000000000003
 10
161.9537314196949
 20
108.3526693880933
 30
-0.0000000000000003
 10
161.916597276453
 20
108.3923070242395
 30
-0.0000000000000003
 10
161.8438472665148
 20
108.4734011655268
 30
-0.0000000000000003
 10
161.8081517992338
 20
108.5149589954367
 30
-0.0000000000000003
 10
161.7042530944594
 20
108.6413482440379
 30
-0.0000000000000003
 10
161.5738909849356
 20
108.8147169343402
 30
-0.0000000000000003
 10
161.402192096466
 20
109.0889239438266
 30
-0.0000000000000003
 10
161.3035356025293
 20
109.2811126056548
 30
-0.0000000000000003
 10
161.2355700273645
 20
109.4288312494292
 30
-0.0000000000000003
 10
161.2139206720286
 20
109.478667802222
 30
-0.0000000000000003
 10
161.172667380714
 20
109.5795549213143
 30
-0.0000000000000003
 10
161.1530331347273
 20
109.6307026841162
 30
-0.0000000000000003
 10
161.0977568479003
 20
109.7845700453395
 30
-0.0000000000000004
 10
161.0333734125817
 20
109.9915896798458
 30
-0.0000000000000004
 10
160.9640222926252
 20
110.3075619389918
 30
-0.0000000000000004
 10
160.9358562760546
 20
110.5218221382839
 30
-0.0000000000000004
 10
160.9216266887478
 20
110.6838956064682
 30
-0.0000000000000004
 10
160.9180342203534
 20
110.7381501305214
 30
-0.0000000000000004
 10
160.91319062688
 20
110.8471272165273
 30
-0.0000000000000004
 10
160.9119452170833
 20
110.9018663002959
 30
-0.0000000000000004
 10
160.9117694056645
 20
111.0655060345256
 30
-0.0000000000000004
 10
160.9209641198771
 20
111.2830057624773
 30
-0.0000000000000005
 10
160.9488683134842
 20
111.4991432135044
 30
-0.0000000000000005
 10
160.9862629067093
 20
111.7145897377772
 30
-0.0000000000000005
 10
161.009583873703
 20
111.8212492731818
 30
-0.0000000000000005
 10
161.0514275797045
 20
111.9795032587259
 30
-0.0000000000000005
 10
161.0665222346173
 20
112.0319732908839
 30
-0.0000000000000005
 10
161.0990165252786
 20
112.1363479723215
 30
-0.0000000000000005
 10
161.1163730342024
 20
112.1881053807055
 30
-0.0000000000000005
 10
161.1715452359206
 20
112.3415949745274
 30
-0.0000000000000005
 10
161.2535034752771
 20
112.5419341618592
 30
-0.0000000000000005
 10
161.4010611576294
 20
112.8297935293772
 30
-0.0000000000000005
 10
161.515832999771
 20
113.0132743784275
 30
-0.0000000000000006
 10
161.6081937324193
 20
113.1476580254737
 30
-0.0000000000000006
 10
161.640058795687
 20
113.1919533579405
 30
-0.0000000000000006
 10
161.705800517221
 20
113.2792796294931
 30
-0.0000000000000006
 10
161.7394976269173
 20
113.3220757502107
 30
-0.0000000000000006
 10
161.8430212444696
 20
113.4479118933357
 30
-0.0000000000000006
 10
161.9875296863867
 20
113.608897102694
 30
-0.0000000000000006
 10
162.223323867275
 20
113.8304062073819
 30
-0.0000000000000006
 10
162.3932218195272
 20
113.9647524316628
 30
-0.0000000000000006
 10
162.5034698473304
 20
114.0444575054808
 30
-0.0000000000000006
 10
162.5257229137258
 20
114.06018506579
 30
-0.0000000000000006
 10
162.5706397808277
 20
114.0912092837904
 30
-0.0000000000000006
 10
162.593325877868
 20
114.1065200335043
 30
-0.0000000000000006
 10
162.6616959238282
 20
114.1515975277931
 30
-0.0000000000000006
 10
162.7077675546508
 20
114.1805652676471
 30
-0.0000000000000006
 10
162.9405400358491
 20
114.3200807698597
 30
-0.0000000000000006
 10
163.1344313880129
 20
114.4147746771743
 30
-0.0000000000000006
 10
163.4365952372561
 20
114.5318437950671
 30
-0.0000000000000006
 10
163.5392145529478
 20
114.5666823181828
 30
-0.0000000000000007
 10
163.6699212129987
 20
114.6048677693349
 30
-0.0000000000000007
 10
163.6961843885523
 20
114.6122362442138
 30
-0.0000000000000007
 10
163.7489568247422
 20
114.6264306802599
 30
-0.0000000000000007
 10
163.7754483608438
 20
114.6332510348403
 30
-0.0000000000000007
 10
163.8549109606734
 20
114.6528018134863
 30
-0.0000000000000007
 10
163.9079909953876
 20
114.664655502077
 30
-0.0000000000000007
 10
164.1739071050877
 20
114.7181233004216
 30
-0.0000000000000007
 10
164.3882798018991
 20
114.742461290905
 30
-0.0000000000000007
 10
164.7122668266393
 20
114.7516712722059
 30
-0.0000000000000007
 10
164.8206693437151
 20
114.7501672591584
 30
-0.0000000000000007
 10
164.9838997672088
 20
114.7408660121571
 30
-0.0000000000000007
 10
165.0385288539789
 20
114.7365746144265
 30
-0.0000000000000007
 10
165.1470369927192
 20
114.7256994799178
 30
-0.0000000000000007
 10
165.2009984949594
 20
114.7191160902196
 30
-0.0000000000000007
 10
165.4693671398477
 20
114.6805638711566
 30
-0.0000000000000007
 10
165.6794888556755
 20
114.631811356354
 30
-0.0000000000000007
 10
165.9878847702789
 20
114.5321017924797
 30
-0.0000000000000006
 10
166.0895462303588
 20
114.4944113650499
 30
-0.0000000000000006
 10
166.2402848175331
 20
114.4310072920523
 30
-0.0000000000000006
 10
166.2903236381958
 20
114.4086809221206
 30
-0.0000000000000006
 10
166.3888873913218
 20
114.3621358021116
 30
-0.0000000000000006
 10
166.4375113633108
 20
114.3378798664031
 30
-0.0000000000000006
 10
166.6773942693967
 20
114.211761779028
 30
-0.0000000000000006
 10
166.8590125115907
 20
114.09548930668
 30
-0.0000000000000006
 10
167.1161472425916
 20
113.8982198296438
 30
-0.0000000000000006
 10
167.1992963937828
 20
113.8286327965794
 30
-0.0000000000000006
 10
167.3200652128818
 20
113.7183397833082
 30
-0.0000000000000006
 10
167.3597084177246
 20
113.6805340190922
 30
-0.0000000000000006
 10
167.4369117589067
 20
113.6036634919959
 30
-0.0000000000000006
 10
167.4745641137214
 20
113.564519013096
 30
-0.0000000000000006
 10
167.6581535092247
 20
113.3653058509612
 30
-0.0000000000000006
 10
167.7901748410142
 20
113.1948406332121
 30
-0.0000000000000006
 10
167.9661007819617
 20
112.9226249187931
 30
-0.0000000000000006
 10
168.0210386920807
 20
112.8291186293057
 30
-0.0000000000000005
 10
168.0849431057936
 20
112.7086728682606
 30
-0.0000000000000005
 10
168.0974998182114
 20
112.6843757096961
 30
-0.0000000000000005
 10
168.1220498645141
 20
112.6355819866798
 30
-0.0000000000000005
 10
168.1580171066885
 20
112.5621231096944
 30
-0.0000000000000005
 10
168.1914374367806
 20
112.4878676441615
 30
-0.0000000000000005
 10
168.2126029411762
 20
112.43801533768
 30
-0.0000000000000005
  0
SPLINE
  5
96
330
1F
100
AcDbEntity
  8
1
  6
Continuous
 62
   252
370
    18
100
AcDbSpline
210
0.0
220
0.0
230
1.0
 70
     8
 71
     3
 72
    22
 73
    18
 74
     0
 42
0.000000001
 43
0.0000000001
 40
0.0
 40
0.0
 40
0.0
 40
0.0
 40
0.0790682847185343
 40
0.0790682847185343
 40
0.2106299583301722
 40
0.2106299583301722
 40
0.3421916319418102
 40
0.3421916319418102
 40
0.4737533055534481
 40
0.4737533055534481
 40
0.6053149791650861
 40
0.6053149791650861
 40
0.7368766527767241
 40
0.7368766527767241
 40
0.868438326388362
 40
0.868438326388362
 40
1.0
 40
1.0
 40
1.0
 40
1.0
 10
232.4509734722886
 20
194.6811305221137
 30
0.0
 10
232.409801072198
 20
194.6811328341864
 30
0.0
 10
232.368628411126
 20
194.678596314389
 30
0.0
 10
232.2597834894349
 20
194.6650933589763
 30
0.0
 10
232.1926695577805
 20
194.6496488103284
 30
0.0
 10
232.0630021391396
 20
194.6053870401216
 30
0.0
 10
232.0004525000773
 20
194.5765711320458
 30
0.0
 10
231.8825467429184
 20
194.5067787528945
 30
0.0
 10
231.8271941237146
 20
194.4658043529313
 30
0.0
 10
231.7260127057826
 20
194.3734189405325
 30
0.0
 10
231.6801869096468
 20
194.3220106696651
 30
0.0
 10
231.5999885777839
 20
194.2109207451659
 30
0.0
 10
231.5656184219691
 20
194.1512423881651
 30
0.0
 10
231.5097787405778
 20
194.0261237495017
 30
0.0
 10
231.4883108720626
 20
193.960687180777
 30
0.0
 10
231.4591801449008
 20
193.8268060973714
 30
0.0
 10
231.4515181507184
 20
193.7583655556567
 30
0.0
 10
231.4509203234229
 20
193.6898613328509
 30
0.0
  0
SPLINE
  5
97
330
1F
100
AcDbEntity
  8
1
  6
Continuous
 62
   252
370
    18
100
AcDbSpline
210
0.0
220
0.0
230
1.0
 70
     8
 71
     3
 72
    22
 73
    18
 74
     0
 42
0.000000001
 43
0.0000000001
 40
0.0
 40
0.0
 40
0.0
 40
0.0
 40
0.1315616736100911
 40
0.1315616736100911
 40
0.2631233472201822
 40
0.2631233472201822
 40
0.3946850208302732
 40
0.3946850208302732
 40
0.5262466944403643
 40
0.5262466944403643
 40
0.6578083680504553
 40
0.6578083680504553
 40
0.7893700416605464
 40
0.7893700416605464
 40
0.9209317152706374
 40
0.9209317152706374
 40
1.0
 40
1.0
 40
1.0
 40
1.0
 10
299.2165208527582
 20
193.6898613328509
 30
0.0
 10
299.2159230254627
 20
193.7583655556567
 30
0.0
 10
299.2082610312802
 20
193.8268060973714
 30
0.0
 10
299.1791303041185
 20
193.960687180777
 30
0.0
 10
299.1576624356033
 20
194.0261237495017
 30
0.0
 10
299.101822754212
 20
194.1512423881651
 30
0.0
 10
299.0674525983973
 20
194.2109207451659
 30
0.0
 10
298.9872542665343
 20
194.3220106696651
 30
0.0
 10
298.9414284703985
 20
194.3734189405325
 30
0.0
 10
298.8402470524665
 20
194.4658043529313
 30
0.0
 10
298.7848944332627
 20
194.5067787528945
 30
0.0
 10
298.6669886761038
 20
194.5765711320458
 30
0.0
 10
298.6044390370415
 20
194.6053870401216
 30
0.0
 10
298.4747716184006
 20
194.6496488103284
 30
0.0
 10
298.4076576867462
 20
194.6650933589763
 30
0.0
 10
298.298812765049
 20
194.6785963143898
 30
0.0
 10
298.2576401039708
 20
194.6811328341872
 30
0.0
 10
298.2164677038741
 20
194.6811305221137
 30
0.0
  0
SPLINE
  5
98
330
1F
100
AcDbEntity
  8
1
  6
Continuous
 62
   252
370
    18
100
AcDbSpline
210
0.0
220
0.0
230
1.0
 70
     8
 71
     3
 72
    22
 73
    18
 74
     0
 42
0.000000001
 43
0.0000000001
 40
0.0
 40
0.0
 40
0.0
 40
0.0
 40
0.125
 40
0.125
 40
0.25
 40
0.25
 40
0.375
 40
0.375
 40
0.5
 40
0.5
 40
0.625
 40
0.625
 40
0.75
 40
0.75
 40
0.875
 40
0.875
 40
1.0
 40
1.0
 40
1.0
 40
1.0
 10
231.3339279732091
 20
180.2838658298154
 30
0.0
 10
231.3335833791267
 20
180.2443792590739
 30
0.0
 10
231.3371495293246
 20
180.2048595581018
 30
0.0
 10
231.3519651082613
 20
180.1272855245803
 30
0.0
 10
231.3632141624543
 20
180.0892331531442
 30
0.0
 10
231.3929588309908
 20
180.0160724618567
 30
0.0
 10
231.4114536933732
 20
179.9809659915469
 30
0.0
 10
231.4549716859107
 20
179.9150613909372
 30
0.0
 10
231.4799937159075
 20
179.8842649267409
 30
0.0
 10
231.5355940874398
 20
179.8281772209446
 30
0.0
 10
231.5661710233681
 20
179.8028873972721
 30
0.0
 10
231.6316933532259
 20
179.7587959429297
 30
0.0
 10
231.6666370907157
 20
179.7399954269156
 30
0.0
 10
231.7395354283624
 20
179.7096134515953
 30
0.0
 10
231.7774881856101
 20
179.6980327603617
 30
0.0
 10
231.8549299766746
 20
179.6825407929996
 30
0.0
 10
231.8944170527212
 20
179.6786299085163
 30
0.0
 10
231.9339051270476
 20
179.6786299085163
 30
0.0
  0
SPLINE
  5
99
330
1F
100
AcDbEntity
  8
1
  6
Continuous
 62
   252
370
    18
100
AcDbSpline
210
0.0
220
0.0
230
1.0
 70
     8
 71
     3
 72
    22
 73
    18
 74
     0
 42
0.000000001
 43
0.0000000001
 40
0.0
 40
0.0
 40
0.0
 40
0.0
 40
0.125
 40
0.125
 40
0.25
 40
0.25
 40
0.375
 40
0.375
 40
0.5
 40
0.5
 40
0.625
 40
0.625
 40
0.75
 40
0.75
 40
0.875
 40
0.875
 40
1.0
 40
1.0
 40
1.0
 40
1.0
 10
299.3335132032614
 20
180.2838658298154
 30
0.0
 10
299.3338577973438
 20
180.2443792590739
 30
0.0
 10
299.3302916471459
 20
180.2048595581018
 30
0.0
 10
299.3154760682093
 20
180.1272855245803
 30
0.0
 10
299.3042270140163
 20
180.0892331531442
 30
0.0
 10
299.2744823454797
 20
180.0160724618567
 30
0.0
 10
299.2559874830973
 20
179.9809659915469
 30
0.0
 10
299.2124694905599
 20
179.9150613909372
 30
0.0
 10
299.1874474605631
 20
179.8842649267409
 30
0.0
 10
299.1318470890307
 20
179.8281772209446
 30
0.0
 10
299.1012701531025
 20
179.8028873972721
 30
0.0
 10
299.0357478232447
 20
179.7587959429297
 30
0.0
 10
299.0008040857549
 20
179.7399954269156
 30
0.0
 10
298.9279057481081
 20
179.7096134515953
 30
0.0
 10
298.8899529908604
 20
179.6980327603617
 30
0.0
 10
298.8125111997959
 20
179.6825407929996
 30
0.0
 10
298.7730241237493
 20
179.6786299085163
 30
0.0
 10
298.7335360494229
 20
179.6786299085163
 30
0.0
  0
SPLINE
  5
9A
330
1F
100
AcDbEntity
  8
1
  6
Continuous
 62
   252
370
    18
100
AcDbSpline
210
0.0
220
0.0
230
1.0
 70
    24
 71
     1
 72
     4
 73
     2
 74
     0
 42
0.000000001
 43
0.0000000001
 40
0.0
 40
0.0
 40
1.0
 40
1.0
 10
299.2165208529028
 20
193.6898613328644
 30
0.0
 10
299.3335132032614
 20
180.2838658298154
 30
0.0
  0
SPLINE
  5
9B
330
1F
100
AcDbEntity
  8
1
  6
Continuous
 62
   252
370
    18
100
AcDbSpline
210
0.0
220
0.0
230
1.0
 70
    24
 71
     3
 72
     8
 73
     4
 74
     0
 42
0.000000001
 43
0.0000000001
 40
0.0
 40
0.0
 40
0.0
 40
0.0
 40
1.0
 40
1.0
 40
1.0
 40
1.0
 10
231.4509203235675
 20
193.6898613328405
 30
0.0
 10
231.411922873448
 20
189.2211961651655
 30
0.0
 10
231.3729254233286
 20
184.7525309974904
 30
0.0
 10
231.3339279732091
 20
180.2838658298154
 30
0.0
  0
ENDSEC
  0
SECTION
  2
OBJECTS
  0
DICTIONARY
  5
C
330
0
100
AcDbDictionary
281
     1
  3
ACAD_DETAILVIEWSTYLE
350
F0
  3
ACAD_GROUP
350
D
  3
ACAD_LAYOUT
350
1A
  3
ACAD_MATERIAL
350
43
  3
ACAD_MLEADERSTYLE
350
6B
  3
ACAD_MLINESTYLE
350
17
  3
ACAD_PLOTSETTINGS
350
19
  3
ACAD_PLOTSTYLENAME
350
E
  3
ACAD_SCALELIST
350
47
  3
ACAD_SECTIONVIEWSTYLE
350
F1
  3
ACAD_TABLESTYLE
350
69
  3
ACAD_VISUALSTYLE
350
2A
  3
ACDB_RECOMPOSE_DATA
350
ED
  3
AcDbVariableDictionary
350
AD
  0
DICTIONARY
  5
AB
330
8
100
AcDbDictionary
280
     1
281
     1
  3
ACAD_XREC_ROUNDTRIP
360
AC
  0
DICTIONARY
  5
F0
102
{ACAD_REACTORS
330
C
102
}
330
C
100
AcDbDictionary
281
     1
  0
DICTIONARY
  5
D
102
{ACAD_REACTORS
330
C
102
}
330
C
100
AcDbDictionary
281
     1
  0
DICTIONARY
  5
1A
102
{ACAD_REACTORS
330
C
102
}
330
C
100
AcDbDictionary
281
     1
  3
Layout1
350
1E
  3
Layout2
350
26
  3
Model
350
22
  0
DICTIONARY
  5
43
102
{ACAD_REACTORS
330
C
102
}
330
C
100
AcDbDictionary
281
     1
  3
ByBlock
350
45
  3
ByLayer
350
44
  3
Global
350
46
  0
DICTIONARY
  5
6B
102
{ACAD_REACTORS
330
C
102
}
330
C
100
AcDbDictionary
281
     1
  3
Standard
350
6C
  0
DICTIONARY
  5
17
102
{ACAD_REACTORS
330
C
102
}
330
C
100
AcDbDictionary
281
     1
  3
Standard
350
18
  0
DICTIONARY
  5
19
102
{ACAD_REACTORS
330
C
102
}
330
C
100
AcDbDictionary
281
     1
  0
ACDBDICTIONARYWDFLT
  5
E
102
{ACAD_REACTORS
330
C
102
}
330
C
100
AcDbDictionary
281
     1
  3
Normal
350
F
100
AcDbDictionaryWithDefault
340
F
  0
DICTIONARY
  5
47
102
{ACAD_REACTORS
330
C
102
}
330
C
100
AcDbDictionary
281
     1
  3
A0
350
48
  3
A1
350
49
  3
A2
350
4A
  3
A3
350
4B
  3
A4
350
4C
  3
A5
350
4D
  3
A6
350
4E
  3
A7
350
4F
  3
A8
350
50
  3
A9
350
51
  3
B0
350
52
  3
B1
350
53
  3
B2
350
54
  3
B3
350
55
  3
B4
350
56
  3
B5
350
57
  3
B6
350
58
  3
B7
350
59
  3
B8
350
5A
  3
B9
350
5B
  3
C0
350
5C
  3
C1
350
5D
  3
C2
350
5E
  3
C3
350
5F
  3
C4
350
60
  3
C5
350
61
  3
C6
350
62
  3
C7
350
63
  3
C8
350
64
  3
C9
350
65
  3
D0
350
66
  3
D1
350
67
  3
D2
350
68
  0
DICTIONARY
  5
F1
102
{ACAD_REACTORS
330
C
102
}
330
C
100
AcDbDictionary
281
     1
  0
DICTIONARY
  5
69
102
{ACAD_REACTORS
330
C
102
}
330
C
100
AcDbDictionary
281
     1
  3
Standard
350
6A
  0
DICTIONARY
  5
2A
102
{ACAD_REACTORS
330
C
102
}
330
C
100
AcDbDictionary
281
     1
  3
2dWireframe
350
2F
  3
Basic
350
32
  3
Brighten
350
36
  3
ColorChange
350
3A
  3
Conceptual
350
34
  3
Dim
350
35
  3
EdgeColorOff
350
3D
  3
Facepattern
350
39
  3
Flat
350
2B
  3
FlatWithEdges
350
2C
  3
Gouraud
350
2D
  3
GouraudWithEdges
350
2E
  3
Hidden
350
31
  3
JitterOff
350
3B
  3
Linepattern
350
38
  3
OverhangOff
350
3C
  3
Realistic
350
33
  3
Shaded
350
42
  3
Shaded with edges
350
41
  3
Shades of Gray
350
3E
  3
Sketchy
350
3F
  3
Thicken
350
37
  3
Wireframe
350
30
  3
X-Ray
350
40
  0
XRECORD
  5
ED
102
{ACAD_REACTORS
330
C
102
}
330
C
100
AcDbXrecord
280
     1
 90
        1
330
6A
  0
DICTIONARY
  5
AD
102
{ACAD_REACTORS
330
C
102
}
330
C
100
AcDbDictionary
281
     1
  3
CANNOSCALE
350
AE
  3
CMLEADERSTYLE
350
EF
  3
CTABLESTYLE
350
EE
  3
MSLTSCALE
350
AF
  3
XCLIPFRAME
350
B0
  0
XRECORD
  5
AC
102
{ACAD_REACTORS
330
AB
102
}
330
AB
100
AcDbXrecord
280
     1
102
VTR_0.000_0.000_1.000_1.000_VISUALSTYLE
340
2F
102
VTR_0.000_0.000_1.000_1.000_GRIDDISPLAY
 70
     3
102
VTR_0.000_0.000_1.000_1.000_GRIDMAJOR
 70
     5
102
VTR_0.000_0.000_1.000_1.000_DEFAULTLIGHTING
280
     1
102
VTR_0.000_0.000_1.000_1.000_DEFAULTLIGHTINGTYPE
 70
     1
102
VTR_0.000_0.000_1.000_1.000_BRIGHTNESS
141
0.0
102
VTR_0.000_0.000_1.000_1.000_CONTRAST
142
0.0
102
VTR_0.000_0.000_0.500_1.000_VISUALSTYLE
340
2F
102
VTR_0.000_0.000_0.500_1.000_GRIDDISPLAY
 70
     3
102
VTR_0.000_0.000_0.500_1.000_GRIDMAJOR
 70
     5
102
VTR_0.000_0.000_0.500_1.000_DEFAULTLIGHTING
280
     1
102
VTR_0.000_0.000_0.500_1.000_DEFAULTLIGHTINGTYPE
 70
     1
102
VTR_0.000_0.000_0.500_1.000_BRIGHTNESS
141
0.0
102
VTR_0.000_0.000_0.500_1.000_CONTRAST
142
0.0
102
VTR_0.500_0.000_1.000_1.000_VISUALSTYLE
340
2F
102
VTR_0.500_0.000_1.000_1.000_GRIDDISPLAY
 70
     3
102
VTR_0.500_0.000_1.000_1.000_GRIDMAJOR
 70
     5
102
VTR_0.500_0.000_1.000_1.000_DEFAULTLIGHTING
280
     1
102
VTR_0.500_0.000_1.000_1.000_DEFAULTLIGHTINGTYPE
 70
     1
102
VTR_0.500_0.000_1.000_1.000_BRIGHTNESS
141
0.0
102
VTR_0.500_0.000_1.000_1.000_CONTRAST
142
0.0
102
VTR_0.000_0.500_1.000_1.000_VISUALSTYLE
340
2F
102
VTR_0.000_0.500_1.000_1.000_GRIDDISPLAY
 70
     3
102
VTR_0.000_0.500_1.000_1.000_GRIDMAJOR
 70
     5
102
VTR_0.000_0.500_1.000_1.000_DEFAULTLIGHTING
280
     1
102
VTR_0.000_0.500_1.000_1.000_DEFAULTLIGHTINGTYPE
 70
     1
102
VTR_0.000_0.500_1.000_1.000_BRIGHTNESS
141
0.0
102
VTR_0.000_0.500_1.000_1.000_CONTRAST
142
0.0
102
VTR_0.000_0.000_1.000_0.500_VISUALSTYLE
340
2F
102
VTR_0.000_0.000_1.000_0.500_GRIDDISPLAY
 70
     3
102
VTR_0.000_0.000_1.000_0.500_GRIDMAJOR
 70
     5
102
VTR_0.000_0.000_1.000_0.500_DEFAULTLIGHTING
280
     1
102
VTR_0.000_0.000_1.000_0.500_DEFAULTLIGHTINGTYPE
 70
     1
102
VTR_0.000_0.000_1.000_0.500_BRIGHTNESS
141
0.0
102
VTR_0.000_0.000_1.000_0.500_CONTRAST
142
0.0
102
VTR_0.000_0.500_0.500_1.000_VISUALSTYLE
340
2F
102
VTR_0.000_0.500_0.500_1.000_GRIDDISPLAY
 70
     3
102
VTR_0.000_0.500_0.500_1.000_GRIDMAJOR
 70
     5
102
VTR_0.000_0.500_0.500_1.000_DEFAULTLIGHTING
280
     1
102
VTR_0.000_0.500_0.500_1.000_DEFAULTLIGHTINGTYPE
 70
     1
102
VTR_0.000_0.500_0.500_1.000_BRIGHTNESS
141
0.0
102
VTR_0.000_0.500_0.500_1.000_CONTRAST
142
0.0
102
VTR_0.000_0.000_0.500_0.500_VISUALSTYLE
340
2F
102
VTR_0.000_0.000_0.500_0.500_GRIDDISPLAY
 70
     3
102
VTR_0.000_0.000_0.500_0.500_GRIDMAJOR
 70
     5
102
VTR_0.000_0.000_0.500_0.500_DEFAULTLIGHTING
280
     1
102
VTR_0.000_0.000_0.500_0.500_DEFAULTLIGHTINGTYPE
 70
     1
102
VTR_0.000_0.000_0.500_0.500_BRIGHTNESS
141
0.0
102
VTR_0.000_0.000_0.500_0.500_CONTRAST
142
0.0
102
VTR_0.500_0.000_1.000_0.500_VISUALSTYLE
340
2F
102
VTR_0.500_0.000_1.000_0.500_GRIDDISPLAY
 70
     3
102
VTR_0.500_0.000_1.000_0.500_GRIDMAJOR
 70
     5
102
VTR_0.500_0.000_1.000_0.500_DEFAULTLIGHTING
280
     1
102
VTR_0.500_0.000_1.000_0.500_DEFAULTLIGHTINGTYPE
 70
     1
102
VTR_0.500_0.000_1.000_0.500_BRIGHTNESS
141
0.0
102
VTR_0.500_0.000_1.000_0.500_CONTRAST
142
0.0
102
VTR_0.500_0.500_1.000_1.000_VISUALSTYLE
340
2F
102
VTR_0.500_0.500_1.000_1.000_GRIDDISPLAY
 70
     3
102
VTR_0.500_0.500_1.000_1.000_GRIDMAJOR
 70
     5
102
VTR_0.500_0.500_1.000_1.000_DEFAULTLIGHTING
280
     1
102
VTR_0.500_0.500_1.000_1.000_DEFAULTLIGHTINGTYPE
 70
     1
102
VTR_0.500_0.500_1.000_1.000_BRIGHTNESS
141
0.0
102
VTR_0.500_0.500_1.000_1.000_CONTRAST
142
0.0
102
VTR_0.000_0.500_0.333_1.000_VISUALSTYLE
340
2F
102
VTR_0.000_0.500_0.333_1.000_GRIDDISPLAY
 70
     3
102
VTR_0.000_0.500_0.333_1.000_GRIDMAJOR
 70
     5
102
VTR_0.000_0.500_0.333_1.000_DEFAULTLIGHTING
280
     1
102
VTR_0.000_0.500_0.333_1.000_DEFAULTLIGHTINGTYPE
 70
     1
102
VTR_0.000_0.500_0.333_1.000_BRIGHTNESS
141
0.0
102
VTR_0.000_0.500_0.333_1.000_CONTRAST
142
0.0
102
VTR_0.000_0.000_0.333_0.500_VISUALSTYLE
340
2F
102
VTR_0.000_0.000_0.333_0.500_GRIDDISPLAY
 70
     3
102
VTR_0.000_0.000_0.333_0.500_GRIDMAJOR
 70
     5
102
VTR_0.000_0.000_0.333_0.500_DEFAULTLIGHTING
280
     1
102
VTR_0.000_0.000_0.333_0.500_DEFAULTLIGHTINGTYPE
 70
     1
102
VTR_0.000_0.000_0.333_0.500_BRIGHTNESS
141
0.0
102
VTR_0.000_0.000_0.333_0.500_CONTRAST
142
0.0
102
VTR_0.333_0.500_0.667_1.000_VISUALSTYLE
340
2F
102
VTR_0.333_0.500_0.667_1.000_GRIDDISPLAY
 70
     3
102
VTR_0.333_0.500_0.667_1.000_GRIDMAJOR
 70
     5
102
VTR_0.333_0.500_0.667_1.000_DEFAULTLIGHTING
280
     1
102
VTR_0.333_0.500_0.667_1.000_DEFAULTLIGHTINGTYPE
 70
     1
102
VTR_0.333_0.500_0.667_1.000_BRIGHTNESS
141
0.0
102
VTR_0.333_0.500_0.667_1.000_CONTRAST
142
0.0
102
VTR_0.333_0.000_0.667_0.500_VISUALSTYLE
340
2F
102
VTR_0.333_0.000_0.667_0.500_GRIDDISPLAY
 70
     3
102
VTR_0.333_0.000_0.667_0.500_GRIDMAJOR
 70
     5
102
VTR_0.333_0.000_0.667_0.500_DEFAULTLIGHTING
280
     1
102
VTR_0.333_0.000_0.667_0.500_DEFAULTLIGHTINGTYPE
 70
     1
102
VTR_0.333_0.000_0.667_0.500_BRIGHTNESS
141
0.0
102
VTR_0.333_0.000_0.667_0.500_CONTRAST
142
0.0
102
VTR_0.667_0.500_1.000_1.000_VISUALSTYLE
340
2F
102
VTR_0.667_0.500_1.000_1.000_GRIDDISPLAY
 70
     3
102
VTR_0.667_0.500_1.000_1.000_GRIDMAJOR
 70
     5
102
VTR_0.667_0.500_1.000_1.000_DEFAULTLIGHTING
280
     1
102
VTR_0.667_0.500_1.000_1.000_DEFAULTLIGHTINGTYPE
 70
     1
102
VTR_0.667_0.500_1.000_1.000_BRIGHTNESS
141
0.0
102
VTR_0.667_0.500_1.000_1.000_CONTRAST
142
0.0
102
VTR_0.667_0.000_1.000_0.500_VISUALSTYLE
340
2F
102
VTR_0.667_0.000_1.000_0.500_GRIDDISPLAY
 70
     3
102
VTR_0.667_0.000_1.000_0.500_GRIDMAJOR
 70
     5
102
VTR_0.667_0.000_1.000_0.500_DEFAULTLIGHTING
280
     1
102
VTR_0.667_0.000_1.000_0.500_DEFAULTLIGHTINGTYPE
 70
     1
102
VTR_0.667_0.000_1.000_0.500_BRIGHTNESS
141
0.0
102
VTR_0.667_0.000_1.000_0.500_CONTRAST
142
0.0
  0
LAYOUT
  5
1E
102
{ACAD_REACTORS
330
1A
102
}
330
1A
100
AcDbPlotSettings
  1

  2
none_device
  4

  6

 40
0.0
 41
0.0
 42
0.0
 43
0.0
 44
0.0
 45
0.0
 46
0.0
 47
0.0
 48
0.0
 49
0.0
140
0.0
141
0.0
142
1.0
143
1.0
 70
   688
 72
     0
 73
     0
 74
     5
  7

 75
    16
 76
     0
 77
     2
 78
   300
147
1.0
148
0.0
149
0.0
100
AcDbLayout
  1
Layout1
 70
     1
 71
     1
 10
-0.5
 20
-0.5
 11
5.0
 21
5.0
 12
0.0
 22
0.0
 32
0.0
 14
-0.5
 24
-0.5
 34
-0.5
 15
5.0
 25
5.0
 35
5.0
146
0.0
 13
0.0
 23
0.0
 33
0.0
 16
1.0
 26
0.0
 36
0.0
 17
0.0
 27
1.0
 37
0.0
 76
     0
330
1B
  0
LAYOUT
  5
26
102
{ACAD_REACTORS
330
1A
102
}
330
1A
100
AcDbPlotSettings
  1

  2
none_device
  4

  6

 40
0.0
 41
0.0
 42
0.0
 43
0.0
 44
0.0
 45
0.0
 46
0.0
 47
0.0
 48
0.0
 49
0.0
140
0.0
141
0.0
142
1.0
143
1.0
 70
   688
 72
     0
 73
     0
 74
     5
  7

 75
    16
 76
     0
 77
     2
 78
   300
147
1.0
148
0.0
149
0.0
100
AcDbLayout
  1
Layout2
 70
     1
 71
     2
 10
0.0
 20
0.0
 11
0.0
 21
0.0
 12
0.0
 22
0.0
 32
0.0
 14
0.0
 24
0.0
 34
0.0
 15
0.0
 25
0.0
 35
0.0
146
0.0
 13
0.0
 23
0.0
 33
0.0
 16
1.0
 26
0.0
 36
0.0
 17
0.0
 27
1.0
 37
0.0
 76
     0
330
23
  0
LAYOUT
  5
22
102
{ACAD_REACTORS
330
1A
102
}
330
1A
100
AcDbPlotSettings
  1

  2
none_device
  4
Letter_(8.50_x_11.00_Inches)
  6

 40
6.35
 41
6.35
 42
6.350005
 43
6.350005
 44
215.9
 45
279.4
 46
0.0
 47
0.0
 48
0.0
 49
0.0
140
0.0
141
0.0
142
1.0
143
1.0
 70
  1712
 72
     0
 73
     0
 74
     0
  7

 75
     0
 76
     0
 77
     2
 78
   300
147
1.0
148
0.0
149
0.0
100
AcDbLayout
  1
Model
 70
     1
 71
     0
 10
-0.5
 20
-0.5
 11
5.0
 21
5.0
 12
0.0
 22
0.0
 32
0.0
 14
-0.5
 24
-0.5
 34
-0.5
 15
5.0
 25
5.0
 35
5.0
146
0.0
 13
0.0
 23
0.0
 33
0.0
 16
1.0
 26
0.0
 36
0.0
 17
0.0
 27
1.0
 37
0.0
 76
     0
330
1F
331
29
  0
MATERIAL
  5
45
102
{ACAD_REACTORS
330
43
102
}
102
{ACAD_XDICTIONARY
360
E3
102
}
330
43
100
AcDbMaterial
  1
ByBlock
  0
MATERIAL
  5
44
102
{ACAD_REACTORS
330
43
102
}
102
{ACAD_XDICTIONARY
360
E1
102
}
330
43
100
AcDbMaterial
  1
ByLayer
  0
MATERIAL
  5
46
102
{ACAD_REACTORS
330
43
102
}
102
{ACAD_XDICTIONARY
360
E5
102
}
330
43
100
AcDbMaterial
  1
Global
  0
MLEADERSTYLE
  5
6C
102
{ACAD_REACTORS
330
6B
102
}
102
{ACAD_XDICTIONARY
360
EB
102
}
330
6B
100
AcDbMLeaderStyle
170
     2
171
     1
172
     0
 90
        2
 40
0.0
 41
0.0
173
     1
 91
-1056964608
340
14
 92
       -2
290
     1
 42
0.09
291
     1
 43
0.36
  3
Standard
341
0
 44
0.18
300

342
11
174
     1
178
     6
175
     1
176
     0
 93
-1056964608
 45
0.18
292
     0
297
     0
 46
0.18
343
0
 94
-1056964608
 47
1.0
 49
1.0
140
1.0
293
     1
141
0.0
294
     1
177
     0
142
1.0
295
     0
296
     0
143
0.125
1001
ACAD_MLEADERVER
1070
     2
  0
MLINESTYLE
  5
18
102
{ACAD_REACTORS
330
17
102
}
330
17
100
AcDbMlineStyle
  2
Standard
 70
     0
  3

 62
   256
 51
90.0
 52
90.0
 71
     2
 49
0.5
 62
   256
  6
BYLAYER
 49
-0.5
 62
   256
  6
BYLAYER
  0
ACDBPLACEHOLDER
  5
F
102
{ACAD_REACTORS
330
E
102
}
330
E
  0
SCALE
  5
48
102
{ACAD_REACTORS
330
47
102
}
330
47
100
AcDbScale
 70
     0
300
1:1
140
1.0
141
1.0
290
     1
  0
SCALE
  5
49
102
{ACAD_REACTORS
330
47
102
}
330
47
100
AcDbScale
 70
     0
300
1:2
140
1.0
141
2.0
290
     0
  0
SCALE
  5
4A
102
{ACAD_REACTORS
330
47
102
}
330
47
100
AcDbScale
 70
     0
300
1:4
140
1.0
141
4.0
290
     0
  0
SCALE
  5
4B
102
{ACAD_REACTORS
330
47
102
}
330
47
100
AcDbScale
 70
     0
300
1:5
140
1.0
141
5.0
290
     0
  0
SCALE
  5
4C
102
{ACAD_REACTORS
330
47
102
}
330
47
100
AcDbScale
 70
     0
300
1:8
140
1.0
141
8.0
290
     0
  0
SCALE
  5
4D
102
{ACAD_REACTORS
330
47
102
}
330
47
100
AcDbScale
 70
     0
300
1:10
140
1.0
141
10.0
290
     0
  0
SCALE
  5
4E
102
{ACAD_REACTORS
330
47
102
}
330
47
100
AcDbScale
 70
     0
300
1:16
140
1.0
141
16.0
290
     0
  0
SCALE
  5
4F
102
{ACAD_REACTORS
330
47
102
}
330
47
100
AcDbScale
 70
     0
300
1:20
140
1.0
141
20.0
290
     0
  0
SCALE
  5
50
102
{ACAD_REACTORS
330
47
102
}
330
47
100
AcDbScale
 70
     0
300
1:30
140
1.0
141
30.0
290
     0
  0
SCALE
  5
51
102
{ACAD_REACTORS
330
47
102
}
330
47
100
AcDbScale
 70
     0
300
1:40
140
1.0
141
40.0
290
     0
  0
SCALE
  5
52
102
{ACAD_REACTORS
330
47
102
}
330
47
100
AcDbScale
 70
     0
300
1:50
140
1.0
141
50.0
290
     0
  0
SCALE
  5
53
102
{ACAD_REACTORS
330
47
102
}
330
47
100
AcDbScale
 70
     0
300
1:100
140
1.0
141
100.0
290
     0
  0
SCALE
  5
54
102
{ACAD_REACTORS
330
47
102
}
330
47
100
AcDbScale
 70
     0
300
2:1
140
2.0
141
1.0
290
     0
  0
SCALE
  5
55
102
{ACAD_REACTORS
330
47
102
}
330
47
100
AcDbScale
 70
     0
300
4:1
140
4.0
141
1.0
290
     0
  0
SCALE
  5
56
102
{ACAD_REACTORS
330
47
102
}
330
47
100
AcDbScale
 70
     0
300
8:1
140
8.0
141
1.0
290
     0
  0
SCALE
  5
57
102
{ACAD_REACTORS
330
47
102
}
330
47
100
AcDbScale
 70
     0
300
10:1
140
10.0
141
1.0
290
     0
  0
SCALE
  5
58
102
{ACAD_REACTORS
330
47
102
}
330
47
100
AcDbScale
 70
     0
300
100:1
140
100.0
141
1.0
290
     0
  0
SCALE
  5
59
102
{ACAD_REACTORS
330
47
102
}
330
47
100
AcDbScale
 70
     0
300
1/128" = 1'-0"
140
0.007812
141
12.0
290
     0
  0
SCALE
  5
5A
102
{ACAD_REACTORS
330
47
102
}
330
47
100
AcDbScale
 70
     0
300
1/64" = 1'-0"
140
0.015625
141
12.0
290
     0
  0
SCALE
  5
5B
102
{ACAD_REACTORS
330
47
102
}
330
47
100
AcDbScale
 70
     0
300
1/32" = 1'-0"
140
0.03125
141
12.0
290
     0
  0
SCALE
  5
5C
102
{ACAD_REACTORS
330
47
102
}
330
47
100
AcDbScale
 70
     0
300
1/16" = 1'-0"
140
0.0625
141
12.0
290
     0
  0
SCALE
  5
5D
102
{ACAD_REACTORS
330
47
102
}
330
47
100
AcDbScale
 70
     0
300
3/32" = 1'-0"
140
0.09375
141
12.0
290
     0
  0
SCALE
  5
5E
102
{ACAD_REACTORS
330
47
102
}
330
47
100
AcDbScale
 70
     0
300
1/8" = 1'-0"
140
0.125
141
12.0
290
     0
  0
SCALE
  5
5F
102
{ACAD_REACTORS
330
47
102
}
330
47
100
AcDbScale
 70
     0
300
3/16" = 1'-0"
140
0.1875
141
12.0
290
     0
  0
SCALE
  5
60
102
{ACAD_REACTORS
330
47
102
}
330
47
100
AcDbScale
 70
     0
300
1/4" = 1'-0"
140
0.25
141
12.0
290
     0
  0
SCALE
  5
61
102
{ACAD_REACTORS
330
47
102
}
330
47
100
AcDbScale
 70
     0
300
3/8" = 1'-0"
140
0.375
141
12.0
290
     0
  0
SCALE
  5
62
102
{ACAD_REACTORS
330
47
102
}
330
47
100
AcDbScale
 70
     0
300
1/2" = 1'-0"
140
0.5
141
12.0
290
     0
  0
SCALE
  5
63
102
{ACAD_REACTORS
330
47
102
}
330
47
100
AcDbScale
 70
     0
300
3/4" = 1'-0"
140
0.75
141
12.0
290
     0
  0
SCALE
  5
64
102
{ACAD_REACTORS
330
47
102
}
330
47
100
AcDbScale
 70
     0
300
1" = 1'-0"
140
1.0
141
12.0
290
     0
  0
SCALE
  5
65
102
{ACAD_REACTORS
330
47
102
}
330
47
100
AcDbScale
 70
     0
300
1-1/2" = 1'-0"
140
1.5
141
12.0
290
     0
  0
SCALE
  5
66
102
{ACAD_REACTORS
330
47
102
}
330
47
100
AcDbScale
 70
     0
300
3" = 1'-0"
140
3.0
141
12.0
290
     0
  0
SCALE
  5
67
102
{ACAD_REACTORS
330
47
102
}
330
47
100
AcDbScale
 70
     0
300
6" = 1'-0"
140
6.0
141
12.0
290
     0
  0
SCALE
  5
68
102
{ACAD_REACTORS
330
47
102
}
330
47
100
AcDbScale
 70
     0
300
1'-0" = 1'-0"
140
12.0
141
12.0
290
     0
  0
TABLESTYLE
  5
6A
102
{ACAD_REACTORS
330
69
102
}
102
{ACAD_XDICTIONARY
360
E7
102
}
330
69
100
AcDbTableStyle
  3
Standard
 70
     0
 71
     0
 40
0.06
 41
0.06
280
     0
281
     0
  7
Standard
140
0.18
170
     2
 62
     0
 63
   257
283
     0
274
    -2
284
     1
 64
     0
275
    -2
285
     1
 65
     0
276
    -2
286
     1
 66
     0
277
    -2
287
     1
 67
     0
278
    -2
288
     1
 68
     0
279
    -2
289
     1
 69
     0
  7
Standard
140
0.25
170
     5
 62
     0
 63
   257
283
     0
274
    -2
284
     1
 64
     0
275
    -2
285
     1
 65
     0
276
    -2
286
     1
 66
     0
277
    -2
287
     1
 67
     0
278
    -2
288
     1
 68
     0
279
    -2
289
     1
 69
     0
  7
Standard
140
0.18
170
     5
 62
     0
 63
   257
283
     0
274
    -2
284
     1
 64
     0
275
    -2
285
     1
 65
     0
276
    -2
286
     1
 66
     0
277
    -2
287
     1
 67
     0
278
    -2
288
     1
 68
     0
279
    -2
289
     1
 69
     0
  0
VISUALSTYLE
  5
2F
102
{ACAD_REACTORS
330
2A
102
}
102
{ACAD_XDICTIONARY
360
B9
102
}
330
2A
100
AcDbVisualStyle
  2
2dWireframe
 70
     4
 71
     0
 72
     2
 73
     0
 90
        0
 40
0.6
 41
30.0
 62
     5
 63
     7
421
 16777215
 74
     1
 91
        4
 64
     7
 65
   257
 75
     1
175
     1
 42
1.0
 92
        0
 66
   257
 43
1.0
 76
     1
 77
     6
 78
     2
 67
     7
 79
     5
170
     0
171
     0
290
     0
174
     0
 93
        1
 44
0.0
173
     0
291
     0
 45
0.0
1001
ACAD
1000
AcDbSavedByObjectVersion
1070
     0
  0
VISUALSTYLE
  5
32
102
{ACAD_REACTORS
330
2A
102
}
102
{ACAD_XDICTIONARY
360
BF
102
}
330
2A
100
AcDbVisualStyle
  2
Basic
 70
     7
 71
     1
 72
     0
 73
     1
 90
        0
 40
0.6
 41
30.0
 62
     5
 63
     7
421
 16777215
 74
     0
 91
        4
 64
     7
 65
   257
 75
     1
175
     1
 42
1.0
 92
        8
 66
     7
 43
1.0
 76
     1
 77
     6
 78
     2
 67
     7
 79
     5
170
     0
171
     0
290
     0
174
     0
 93
        1
 44
0.0
173
     0
291
     1
 45
0.0
1001
ACAD
1000
AcDbSavedByObjectVersion
1070
     0
  0
VISUALSTYLE
  5
36
102
{ACAD_REACTORS
330
2A
102
}
102
{ACAD_XDICTIONARY
360
C7
102
}
330
2A
100
AcDbVisualStyle
  2
Brighten
 70
    12
 71
     2
 72
     2
 73
     0
 90
        0
 40
0.6
 41
30.0
 62
     5
 63
     7
421
 16777215
 74
     1
 91
        4
 64
     7
 65
   257
 75
     1
175
     1
 42
1.0
 92
        8
 66
     7
 43
1.0
 76
     1
 77
     6
 78
     2
 67
     7
 79
     5
170
     0
171
     0
290
     0
174
     0
 93
        1
 44
50.0
173
     0
291
     1
 45
0.0
1001
ACAD
1000
AcDbSavedByObjectVersion
1070
     0
  0
VISUALSTYLE
  5
3A
102
{ACAD_REACTORS
330
2A
102
}
102
{ACAD_XDICTIONARY
360
CF
102
}
330
2A
100
AcDbVisualStyle
  2
ColorChange
 70
    16
 71
     2
 72
     2
 73
     3
 90
        0
 40
0.6
 41
30.0
 62
     5
 63
     8
421
  8421504
 74
     1
 91
        4
 64
     7
 65
   257
 75
     1
175
     1
 42
1.0
 92
        8
 66
     8
424
  8421504
 43
1.0
 76
     1
 77
     6
 78
     2
 67
     7
 79
     5
170
     0
171
     0
290
     0
174
     0
 93
        1
 44
0.0
173
     0
291
     1
 45
0.0
1001
ACAD
1000
AcDbSavedByObjectVersion
1070
     0
  0
VISUALSTYLE
  5
34
102
{ACAD_REACTORS
330
2A
102
}
102
{ACAD_XDICTIONARY
360
C3
102
}
330
2A
100
AcDbVisualStyle
  2
Conceptual
 70
     9
 71
     3
 72
     2
 73
     0
 90
        0
 40
0.6
 41
30.0
 62
     5
 63
     7
421
 16777215
 74
     2
 91
        2
 64
     7
 65
   257
 75
     1
175
     1
 42
179.0
 92
        8
 66
     7
 43
1.0
 76
     1
 77
     6
 78
     2
 67
     7
 79
     3
170
     0
171
     0
290
     0
174
     0
 93
        1
 44
0.0
173
     0
291
     0
 45
0.0
1001
ACAD
1000
AcDbSavedByObjectVersion
1070
     0
  0
VISUALSTYLE
  5
35
102
{ACAD_REACTORS
330
2A
102
}
102
{ACAD_XDICTIONARY
360
C5
102
}
330
2A
100
AcDbVisualStyle
  2
Dim
 70
    11
 71
     2
 72
     2
 73
     0
 90
        0
 40
0.6
 41
30.0
 62
     5
 63
     7
421
 16777215
 74
     1
 91
        4
 64
     7
 65
   257
 75
     1
175
     1
 42
1.0
 92
        8
 66
     7
 43
1.0
 76
     1
 77
     6
 78
     2
 67
     7
 79
     5
170
     0
171
     0
290
     0
174
     0
 93
        1
 44
-50.0
173
     0
291
     1
 45
0.0
1001
ACAD
1000
AcDbSavedByObjectVersion
1070
     0
  0
VISUALSTYLE
  5
3D
102
{ACAD_REACTORS
330
2A
102
}
102
{ACAD_XDICTIONARY
360
D5
102
}
330
2A
100
AcDbVisualStyle
  2
EdgeColorOff
 70
    22
 71
     2
 72
     2
 73
     0
 90
        0
 40
0.6
 41
30.0
 62
     5
 63
     7
421
 16777215
 74
     1
 91
        4
 64
     7
 65
   257
 75
     1
175
     1
 42
1.0
 92
        8
 66
     7
 43
1.0
 76
     1
 77
     6
 78
     2
 67
     7
 79
     5
170
     0
171
     0
290
     0
174
     0
 93
        1
 44
0.0
173
     0
291
     1
 45
0.0
1001
ACAD
1000
AcDbSavedByObjectVersion
1070
     0
  0
VISUALSTYLE
  5
39
102
{ACAD_REACTORS
330
2A
102
}
102
{ACAD_XDICTIONARY
360
CD
102
}
330
2A
100
AcDbVisualStyle
  2
Facepattern
 70
    15
 71
     2
 72
     2
 73
     0
 90
        0
 40
0.6
 41
30.0
 62
     5
 63
     7
421
 16777215
 74
     1
 91
        4
 64
     7
 65
   257
 75
     1
175
     1
 42
1.0
 92
        8
 66
     7
 43
1.0
 76
     1
 77
     6
 78
     2
 67
     7
 79
     5
170
     0
171
     0
290
     0
174
     0
 93
        1
 44
0.0
173
     0
291
     1
 45
0.0
1001
ACAD
1000
AcDbSavedByObjectVersion
1070
     0
  0
VISUALSTYLE
  5
2B
102
{ACAD_REACTORS
330
2A
102
}
102
{ACAD_XDICTIONARY
360
B1
102
}
330
2A
100
AcDbVisualStyle
  2
Flat
 70
     0
 71
     2
 72
     1
 73
     1
 90
        2
 40
0.6
 41
30.0
 62
     5
 63
     7
421
 16777215
 74
     0
 91
        0
 64
     7
 65
   257
 75
     1
175
     1
 42
1.0
 92
        8
 66
     7
 43
1.0
 76
     1
 77
     6
 78
     2
 67
     7
 79
     5
170
     0
171
     0
290
     0
174
     0
 93
       13
 44
0.0
173
     0
291
     1
 45
0.0
1001
ACAD
1000
AcDbSavedByObjectVersion
1070
     0
  0
VISUALSTYLE
  5
2C
102
{ACAD_REACTORS
330
2A
102
}
102
{ACAD_XDICTIONARY
360
B3
102
}
330
2A
100
AcDbVisualStyle
  2
FlatWithEdges
 70
     1
 71
     2
 72
     1
 73
     1
 90
        2
 40
0.6
 41
30.0
 62
     5
 63
     7
421
 16777215
 74
     1
 91
        0
 64
     7
 65
   257
 75
     1
175
     1
 42
1.0
 92
        0
 66
   257
 43
1.0
 76
     1
 77
     6
 78
     2
 67
     7
 79
     5
170
     0
171
     0
290
     0
174
     0
 93
       13
 44
0.0
173
     0
291
     1
 45
0.0
1001
ACAD
1000
AcDbSavedByObjectVersion
1070
     0
  0
VISUALSTYLE
  5
2D
102
{ACAD_REACTORS
330
2A
102
}
102
{ACAD_XDICTIONARY
360
B5
102
}
330
2A
100
AcDbVisualStyle
  2
Gouraud
 70
     2
 71
     2
 72
     2
 73
     1
 90
        2
 40
0.6
 41
30.0
 62
     5
 63
     7
421
 16777215
 74
     0
 91
        0
 64
     7
 65
   257
 75
     1
175
     1
 42
1.0
 92
        0
 66
     7
 43
1.0
 76
     1
 77
     6
 78
     2
 67
     7
 79
     5
170
     0
171
     0
290
     0
174
     0
 93
       13
 44
0.0
173
     0
291
     1
 45
0.0
1001
ACAD
1000
AcDbSavedByObjectVersion
1070
     0
  0
VISUALSTYLE
  5
2E
102
{ACAD_REACTORS
330
2A
102
}
102
{ACAD_XDICTIONARY
360
B7
102
}
330
2A
100
AcDbVisualStyle
  2
GouraudWithEdges
 70
     3
 71
     2
 72
     2
 73
     1
 90
        2
 40
0.6
 41
30.0
 62
     5
 63
     7
421
 16777215
 74
     1
 91
        0
 64
     7
 65
   257
 75
     1
175
     1
 42
1.0
 92
        0
 66
   257
 43
1.0
 76
     1
 77
     6
 78
     2
 67
     7
 79
     5
170
     0
171
     0
290
     0
174
     0
 93
       13
 44
0.0
173
     0
291
     1
 45
0.0
1001
ACAD
1000
AcDbSavedByObjectVersion
1070
     0
  0
VISUALSTYLE
  5
31
102
{ACAD_REACTORS
330
2A
102
}
102
{ACAD_XDICTIONARY
360
BD
102
}
330
2A
100
AcDbVisualStyle
  2
Hidden
 70
     6
 71
     1
 72
     2
 73
     2
 90
        0
 40
0.6
 41
30.0
 62
     5
 63
     7
421
 16777215
 74
     2
 91
        2
 64
     7
 65
   257
 75
     2
175
     1
 42
40.0
 92
        0
 66
   257
 43
1.0
 76
     1
 77
     6
 78
     2
 67
     7
 79
     3
170
     0
171
     0
290
     0
174
     0
 93
        1
 44
0.0
173
     0
291
     0
 45
0.0
1001
ACAD
1000
AcDbSavedByObjectVersion
1070
     0
  0
VISUALSTYLE
  5
3B
102
{ACAD_REACTORS
330
2A
102
}
102
{ACAD_XDICTIONARY
360
D1
102
}
330
2A
100
AcDbVisualStyle
  2
JitterOff
 70
    20
 71
     2
 72
     2
 73
     0
 90
        0
 40
0.6
 41
30.0
 62
     5
 63
     7
421
 16777215
 74
     1
 91
        4
 64
     7
 65
   257
 75
     1
175
     1
 42
1.0
 92
       10
 66
     7
 43
1.0
 76
     1
 77
     6
 78
     2
 67
     7
 79
     5
170
     0
171
     0
290
     0
174
     0
 93
        1
 44
0.0
173
     0
291
     1
 45
0.0
1001
ACAD
1000
AcDbSavedByObjectVersion
1070
     0
  0
VISUALSTYLE
  5
38
102
{ACAD_REACTORS
330
2A
102
}
102
{ACAD_XDICTIONARY
360
CB
102
}
330
2A
100
AcDbVisualStyle
  2
Linepattern
 70
    14
 71
     2
 72
     2
 73
     0
 90
        0
 40
0.6
 41
30.0
 62
     5
 63
     7
421
 16777215
 74
     1
 91
        4
 64
     7
 65
   257
 75
     7
175
     7
 42
1.0
 92
        8
 66
     7
 43
1.0
 76
     1
 77
     6
 78
     2
 67
     7
 79
     5
170
     0
171
     0
290
     0
174
     0
 93
        1
 44
0.0
173
     0
291
     1
 45
0.0
1001
ACAD
1000
AcDbSavedByObjectVersion
1070
     0
  0
VISUALSTYLE
  5
3C
102
{ACAD_REACTORS
330
2A
102
}
102
{ACAD_XDICTIONARY
360
D3
102
}
330
2A
100
AcDbVisualStyle
  2
OverhangOff
 70
    21
 71
     2
 72
     2
 73
     0
 90
        0
 40
0.6
 41
30.0
 62
     5
 63
     7
421
 16777215
 74
     1
 91
        4
 64
     7
 65
   257
 75
     1
175
     1
 42
1.0
 92
        9
 66
     7
 43
1.0
 76
     1
 77
     6
 78
     2
 67
     7
 79
     5
170
     0
171
     0
290
     0
174
     0
 93
        1
 44
0.0
173
     0
291
     1
 45
0.0
1001
ACAD
1000
AcDbSavedByObjectVersion
1070
     0
  0
VISUALSTYLE
  5
33
102
{ACAD_REACTORS
330
2A
102
}
102
{ACAD_XDICTIONARY
360
C1
102
}
330
2A
100
AcDbVisualStyle
  2
Realistic
 70
     8
 71
     2
 72
     3
 73
     0
 90
        2
 40
0.6
 41
30.0
 62
     5
 63
     7
421
 16777215
 74
     0
 91
        0
 64
     7
 65
   257
 75
     1
175
     1
 42
1.0
 92
        8
 66
   257
 43
1.0
 76
     1
 77
     6
 78
     2
 67
     7
 79
     3
170
     0
171
     0
290
     0
174
     0
 93
       13
 44
0.0
173
     0
291
     0
 45
0.0
1001
ACAD
1000
AcDbSavedByObjectVersion
1070
     0
  0
VISUALSTYLE
  5
42
102
{ACAD_REACTORS
330
2A
102
}
102
{ACAD_XDICTIONARY
360
DF
102
}
330
2A
100
AcDbVisualStyle
  2
Shaded
 70
    27
 71
     2
 72
     2
 73
     1
 90
        2
 40
0.6
 41
30.0
 62
     5
 63
     7
421
 16777215
 74
     0
 91
        4
 64
     7
 65
   257
 75
     1
175
     1
 42
1.0
 92
        8
 66
   257
 43
1.0
 76
     1
 77
     6
 78
     2
 67
     8
425
  7895160
 79
     3
170
     0
171
     0
290
     0
174
     0
 93
        5
 44
0.0
173
     0
291
     0
 45
0.0
1001
ACAD
1000
AcDbSavedByObjectVersion
1070
     0
  0
VISUALSTYLE
  5
41
102
{ACAD_REACTORS
330
2A
102
}
102
{ACAD_XDICTIONARY
360
DD
102
}
330
2A
100
AcDbVisualStyle
  2
Shaded with edges
 70
    26
 71
     2
 72
     2
 73
     1
 90
        2
 40
0.6
 41
30.0
 62
     5
 63
     7
421
 16777215
 74
     1
 91
       10
 64
     7
 65
   257
 75
     2
175
     1
 42
1.0
 92
        8
 66
   257
 43
1.0
 76
     1
 77
     6
 78
     2
 67
     7
 79
     3
170
     0
171
     0
290
     0
174
     0
 93
        5
 44
0.0
173
     0
291
     0
 45
0.0
1001
ACAD
1000
AcDbSavedByObjectVersion
1070
     0
  0
VISUALSTYLE
  5
3E
102
{ACAD_REACTORS
330
2A
102
}
102
{ACAD_XDICTIONARY
360
D7
102
}
330
2A
100
AcDbVisualStyle
  2
Shades of Gray
 70
    23
 71
     2
 72
     2
 73
     3
 90
        0
 40
0.6
 41
30.0
 62
     5
 63
     7
421
 16777215
 74
     2
 91
        2
 64
     7
 65
     7
 75
     1
175
     1
 42
40.0
 92
        8
 66
     7
 43
1.0
 76
     1
 77
     6
 78
     2
 67
     7
 79
     3
170
     0
171
     0
290
     0
174
     0
 93
        1
 44
0.0
173
     0
291
     0
 45
0.0
1001
ACAD
1000
AcDbSavedByObjectVersion
1070
     0
  0
VISUALSTYLE
  5
3F
102
{ACAD_REACTORS
330
2A
102
}
102
{ACAD_XDICTIONARY
360
D9
102
}
330
2A
100
AcDbVisualStyle
  2
Sketchy
 70
    24
 71
     1
 72
     2
 73
     2
 90
        0
 40
0.6
 41
30.0
 62
     5
 63
     7
421
 16777215
 74
     2
 91
        2
 64
     7
 65
     7
 75
     1
175
     1
 42
40.0
 92
       11
 66
     7
 43
1.0
 76
     1
 77
     6
 78
     2
 67
     7
 79
     6
170
     0
171
     0
290
     0
174
     0
 93
        1
 44
0.0
173
     0
291
     0
 45
0.0
1001
ACAD
1000
AcDbSavedByObjectVersion
1070
     0
  0
VISUALSTYLE
  5
37
102
{ACAD_REACTORS
330
2A
102
}
102
{ACAD_XDICTIONARY
360
C9
102
}
330
2A
100
AcDbVisualStyle
  2
Thicken
 70
    13
 71
     2
 72
     2
 73
     0
 90
        0
 40
0.6
 41
30.0
 62
     5
 63
     7
421
 16777215
 74
     1
 91
        4
 64
     7
 65
   257
 75
     1
175
     1
 42
1.0
 92
       12
 66
     7
 43
1.0
 76
     1
 77
     6
 78
     2
 67
     7
 79
     5
170
     0
171
     0
290
     0
174
     0
 93
        1
 44
0.0
173
     0
291
     1
 45
0.0
1001
ACAD
1000
AcDbSavedByObjectVersion
1070
     0
  0
VISUALSTYLE
  5
30
102
{ACAD_REACTORS
330
2A
102
}
102
{ACAD_XDICTIONARY
360
BB
102
}
330
2A
100
AcDbVisualStyle
  2
Wireframe
 70
     5
 71
     0
 72
     2
 73
     0
 90
        0
 40
0.6
 41
30.0
 62
     5
 63
     7
421
 16777215
 74
     1
 91
        4
 64
     7
 65
   257
 75
     1
175
     1
 42
1.0
 92
        0
 66
   257
 43
1.0
 76
     1
 77
     6
 78
     2
 67
     7
 79
     3
170
     0
171
     0
290
     0
174
     0
 93
        1
 44
0.0
173
     0
291
     0
 45
0.0
1001
ACAD
1000
AcDbSavedByObjectVersion
1070
     0
  0
VISUALSTYLE
  5
40
102
{ACAD_REACTORS
330
2A
102
}
102
{ACAD_XDICTIONARY
360
DB
102
}
330
2A
100
AcDbVisualStyle
  2
X-Ray
 70
    25
 71
     2
 72
     2
 73
     1
 90
        1
 40
0.5
 41
30.0
 62
     5
 63
     7
421
 16777215
 74
     1
 91
        0
 64
     7
 65
   257
 75
     1
175
     1
 42
1.0
 92
        8
 66
     7
 43
1.0
 76
     1
 77
     6
 78
     2
 67
     7
 79
     3
170
     0
171
     0
290
     0
174
     0
 93
       13
 44
0.0
173
     0
291
     0
 45
0.0
1001
ACAD
1000
AcDbSavedByObjectVersion
1070
     0
  0
DICTIONARYVAR
  5
AE
102
{ACAD_REACTORS
330
AD
102
}
330
AD
100
DictionaryVariables
280
     0
  1
1:1
  0
DICTIONARYVAR
  5
EF
102
{ACAD_REACTORS
330
AD
102
}
330
AD
100
DictionaryVariables
280
     0
  1
Standard
  0
DICTIONARYVAR
  5
EE
102
{ACAD_REACTORS
330
AD
102
}
330
AD
100
DictionaryVariables
280
     0
  1
Standard
  0
DICTIONARYVAR
  5
AF
102
{ACAD_REACTORS
330
AD
102
}
330
AD
100
DictionaryVariables
280
     0
  1
1
  0
DICTIONARYVAR
  5
B0
102
{ACAD_REACTORS
330
AD
102
}
330
AD
100
DictionaryVariables
280
     0
  1
2
  0
DICTIONARY
  5
E3
330
45
100
AcDbDictionary
280
     1
281
     1
  3
ACAD_XREC_ROUNDTRIP
360
E4
  0
DICTIONARY
  5
E1
330
44
100
AcDbDictionary
280
     1
281
     1
  3
ACAD_XREC_ROUNDTRIP
360
E2
  0
DICTIONARY
  5
E5
330
46
100
AcDbDictionary
280
     1
281
     1
  3
ACAD_XREC_ROUNDTRIP
360
E6
  0
DICTIONARY
  5
EB
330
6C
100
AcDbDictionary
280
     1
281
     1
  3
ACAD_XREC_ROUNDTRIP
360
EC
  0
DICTIONARY
  5
E7
330
6A
100
AcDbDictionary
280
     1
281
     1
  3
ACAD_ROUNDTRIP_2008_TABLESTYLE_CELLSTYLEMAP
360
E9
  3
ACAD_XREC_ROUNDTRIP
360
E8
  0
DICTIONARY
  5
B9
330
2F
100
AcDbDictionary
280
     1
281
     1
  3
ACAD_XREC_ROUNDTRIP
360
BA
  0
DICTIONARY
  5
BF
330
32
100
AcDbDictionary
280
     1
281
     1
  3
ACAD_XREC_ROUNDTRIP
360
C0
  0
DICTIONARY
  5
C7
330
36
100
AcDbDictionary
280
     1
281
     1
  3
ACAD_XREC_ROUNDTRIP
360
C8
  0
DICTIONARY
  5
CF
330
3A
100
AcDbDictionary
280
     1
281
     1
  3
ACAD_XREC_ROUNDTRIP
360
D0
  0
DICTIONARY
  5
C3
330
34
100
AcDbDictionary
280
     1
281
     1
  3
ACAD_XREC_ROUNDTRIP
360
C4
  0
DICTIONARY
  5
C5
330
35
100
AcDbDictionary
280
     1
281
     1
  3
ACAD_XREC_ROUNDTRIP
360
C6
  0
DICTIONARY
  5
D5
330
3D
100
AcDbDictionary
280
     1
281
     1
  3
ACAD_XREC_ROUNDTRIP
360
D6
  0
DICTIONARY
  5
CD
330
39
100
AcDbDictionary
280
     1
281
     1
  3
ACAD_XREC_ROUNDTRIP
360
CE
  0
DICTIONARY
  5
B1
330
2B
100
AcDbDictionary
280
     1
281
     1
  3
ACAD_XREC_ROUNDTRIP
360
B2
  0
DICTIONARY
  5
B3
330
2C
100
AcDbDictionary
280
     1
281
     1
  3
ACAD_XREC_ROUNDTRIP
360
B4
  0
DICTIONARY
  5
B5
330
2D
100
AcDbDictionary
280
     1
281
     1
  3
ACAD_XREC_ROUNDTRIP
360
B6
  0
DICTIONARY
  5
B7
330
2E
100
AcDbDictionary
280
     1
281
     1
  3
ACAD_XREC_ROUNDTRIP
360
B8
  0
DICTIONARY
  5
BD
330
31
100
AcDbDictionary
280
     1
281
     1
  3
ACAD_XREC_ROUNDTRIP
360
BE
  0
DICTIONARY
  5
D1
330
3B
100
AcDbDictionary
280
     1
281
     1
  3
ACAD_XREC_ROUNDTRIP
360
D2
  0
DICTIONARY
  5
CB
330
38
100
AcDbDictionary
280
     1
281
     1
  3
ACAD_XREC_ROUNDTRIP
360
CC
  0
DICTIONARY
  5
D3
330
3C
100
AcDbDictionary
280
     1
281
     1
  3
ACAD_XREC_ROUNDTRIP
360
D4
  0
DICTIONARY
  5
C1
330
33
100
AcDbDictionary
280
     1
281
     1
  3
ACAD_XREC_ROUNDTRIP
360
C2
  0
DICTIONARY
  5
DF
330
42
100
AcDbDictionary
280
     1
281
     1
  3
ACAD_XREC_ROUNDTRIP
360
E0
  0
DICTIONARY
  5
DD
330
41
100
AcDbDictionary
280
     1
281
     1
  3
ACAD_XREC_ROUNDTRIP
360
DE
  0
DICTIONARY
  5
D7
330
3E
100
AcDbDictionary
280
     1
281
     1
  3
ACAD_XREC_ROUNDTRIP
360
D8
  0
DICTIONARY
  5
D9
330
3F
100
AcDbDictionary
280
     1
281
     1
  3
ACAD_XREC_ROUNDTRIP
360
DA
  0
DICTIONARY
  5
C9
330
37
100
AcDbDictionary
280
     1
281
     1
  3
ACAD_XREC_ROUNDTRIP
360
CA
  0
DICTIONARY
  5
BB
330
30
100
AcDbDictionary
280
     1
281
     1
  3
ACAD_XREC_ROUNDTRIP
360
BC
  0
DICTIONARY
  5
DB
330
40
100
AcDbDictionary
280
     1
281
     1
  3
ACAD_XREC_ROUNDTRIP
360
DC
  0
XRECORD
  5
E4
102
{ACAD_REACTORS
330
E3
102
}
330
E3
100
AcDbXrecord
280
     1
102
MATERIAL
148
0.0
149
0.0
149
0.0
 93
        0
 94
      127
282
     0
 72
     1
 77
     1
171
     1
175
     1
179
     1
273
     0
  0
XRECORD
  5
E2
102
{ACAD_REACTORS
330
E1
102
}
330
E1
100
AcDbXrecord
280
     1
102
MATERIAL
148
0.0
149
0.0
149
0.0
 93
        0
 94
      127
282
     0
 72
     1
 77
     1
171
     1
175
     1
179
     1
273
     0
  0
XRECORD
  5
E6
102
{ACAD_REACTORS
330
E5
102
}
330
E5
100
AcDbXrecord
280
     1
102
MATERIAL
148
0.0
149
0.0
149
0.0
 93
        0
 94
      127
282
     0
 72
     1
 77
     1
171
     1
175
     1
179
     1
273
     0
  0
XRECORD
  5
EC
102
{ACAD_REACTORS
330
EB
102
}
330
EB
100
AcDbXrecord
280
     1
102
ACAD_ROUNDTRIP_2010_MLEADER_STYLE
  0
CELLSTYLEMAP
  5
E9
102
{ACAD_REACTORS
330
E7
102
}
330
E7
100
AcDbCellStyleMap
 90
        3
300
CELLSTYLE
  1
TABLEFORMAT_BEGIN
 90
        5
170
     1
 91
        0
 92
    32768
 62
   257
 93
        1
300
CONTENTFORMAT
  1
CONTENTFORMAT_BEGIN
 90
        0
 91
        0
 92
        4
 93
        0
300

 40
0.0
140
1.0
 94
        5
 62
     0
340
11
144
0.25
309
CONTENTFORMAT_END
171
     1
301
MARGIN
  1
CELLMARGIN_BEGIN
 40
0.06
 40
0.06
 40
0.06
 40
0.06
 40
0.06
 40
0.06
309
CELLMARGIN_END
 94
        6
 95
        1
302
GRIDFORMAT
  1
GRIDFORMAT_BEGIN
 90
        0
 91
        1
 62
     0
 92
       -2
340
14
 93
        0
 40
0.045
309
GRIDFORMAT_END
 95
        2
302
GRIDFORMAT
  1
GRIDFORMAT_BEGIN
 90
        0
 91
        1
 62
     0
 92
       -2
340
14
 93
        0
 40
0.045
309
GRIDFORMAT_END
 95
        4
302
GRIDFORMAT
  1
GRIDFORMAT_BEGIN
 90
        0
 91
        1
 62
     0
 92
       -2
340
14
 93
        0
 40
0.045
309
GRIDFORMAT_END
 95
        8
302
GRIDFORMAT
  1
GRIDFORMAT_BEGIN
 90
        0
 91
        1
 62
     0
 92
       -2
340
14
 93
        0
 40
0.045
309
GRIDFORMAT_END
 95
       16
302
GRIDFORMAT
  1
GRIDFORMAT_BEGIN
 90
        0
 91
        1
 62
     0
 92
       -2
340
14
 93
        0
 40
0.045
309
GRIDFORMAT_END
 95
       32
302
GRIDFORMAT
  1
GRIDFORMAT_BEGIN
 90
        0
 91
        1
 62
     0
 92
       -2
340
14
 93
        0
 40
0.045
309
GRIDFORMAT_END
309
TABLEFORMAT_END
  1
CELLSTYLE_BEGIN
 90
        1
 91
        1
300
_TITLE
309
CELLSTYLE_END
300
CELLSTYLE
  1
TABLEFORMAT_BEGIN
 90
        5
170
     1
 91
        0
 92
        0
 62
   257
 93
        1
300
CONTENTFORMAT
  1
CONTENTFORMAT_BEGIN
 90
        0
 91
        0
 92
        4
 93
        0
300

 40
0.0
140
1.0
 94
        5
 62
     0
340
11
144
0.18
309
CONTENTFORMAT_END
171
     1
301
MARGIN
  1
CELLMARGIN_BEGIN
 40
0.06
 40
0.06
 40
0.06
 40
0.06
 40
0.06
 40
0.06
309
CELLMARGIN_END
 94
        6
 95
        1
302
GRIDFORMAT
  1
GRIDFORMAT_BEGIN
 90
        0
 91
        1
 62
     0
 92
       -2
340
14
 93
        0
 40
0.045
309
GRIDFORMAT_END
 95
        2
302
GRIDFORMAT
  1
GRIDFORMAT_BEGIN
 90
        0
 91
        1
 62
     0
 92
       -2
340
14
 93
        0
 40
0.045
309
GRIDFORMAT_END
 95
        4
302
GRIDFORMAT
  1
GRIDFORMAT_BEGIN
 90
        0
 91
        1
 62
     0
 92
       -2
340
14
 93
        0
 40
0.045
309
GRIDFORMAT_END
 95
        8
302
GRIDFORMAT
  1
GRIDFORMAT_BEGIN
 90
        0
 91
        1
 62
     0
 92
       -2
340
14
 93
        0
 40
0.045
309
GRIDFORMAT_END
 95
       16
302
GRIDFORMAT
  1
GRIDFORMAT_BEGIN
 90
        0
 91
        1
 62
     0
 92
       -2
340
14
 93
        0
 40
0.045
309
GRIDFORMAT_END
 95
       32
302
GRIDFORMAT
  1
GRIDFORMAT_BEGIN
 90
        0
 91
        1
 62
     0
 92
       -2
340
14
 93
        0
 40
0.045
309
GRIDFORMAT_END
309
TABLEFORMAT_END
  1
CELLSTYLE_BEGIN
 90
        2
 91
        1
300
_HEADER
309
CELLSTYLE_END
300
CELLSTYLE
  1
TABLEFORMAT_BEGIN
 90
        5
170
     1
 91
        0
 92
        0
 62
   257
 93
        1
300
CONTENTFORMAT
  1
CONTENTFORMAT_BEGIN
 90
        0
 91
        0
 92
        4
 93
        0
300

 40
0.0
140
1.0
 94
        2
 62
     0
340
11
144
0.18
309
CONTENTFORMAT_END
171
     1
301
MARGIN
  1
CELLMARGIN_BEGIN
 40
0.06
 40
0.06
 40
0.06
 40
0.06
 40
0.06
 40
0.06
309
CELLMARGIN_END
 94
        6
 95
        1
302
GRIDFORMAT
  1
GRIDFORMAT_BEGIN
 90
        0
 91
        1
 62
     0
 92
       -2
340
14
 93
        0
 40
0.045
309
GRIDFORMAT_END
 95
        2
302
GRIDFORMAT
  1
GRIDFORMAT_BEGIN
 90
        0
 91
        1
 62
     0
 92
       -2
340
14
 93
        0
 40
0.045
309
GRIDFORMAT_END
 95
        4
302
GRIDFORMAT
  1
GRIDFORMAT_BEGIN
 90
        0
 91
        1
 62
     0
 92
       -2
340
14
 93
        0
 40
0.045
309
GRIDFORMAT_END
 95
        8
302
GRIDFORMAT
  1
GRIDFORMAT_BEGIN
 90
        0
 91
        1
 62
     0
 92
       -2
340
14
 93
        0
 40
0.045
309
GRIDFORMAT_END
 95
       16
302
GRIDFORMAT
  1
GRIDFORMAT_BEGIN
 90
        0
 91
        1
 62
     0
 92
       -2
340
14
 93
        0
 40
0.045
309
GRIDFORMAT_END
 95
       32
302
GRIDFORMAT
  1
GRIDFORMAT_BEGIN
 90
        0
 91
        1
 62
     0
 92
       -2
340
14
 93
        0
 40
0.045
309
GRIDFORMAT_END
309
TABLEFORMAT_END
  1
CELLSTYLE_BEGIN
 90
        3
 91
        2
300
_DATA
309
CELLSTYLE_END
  0
XRECORD
  5
E8
102
{ACAD_REACTORS
330
E7
102
}
330
E7
100
AcDbXrecord
280
     1
102
ACAD_ROUNDTRIP_PRE2007_TABLESTYLE
 90
        4
 91
        0
  1

 92
        4
 93
        0
  2

 94
        4
 95
        0
  3

  0
XRECORD
  5
BA
102
{ACAD_REACTORS
330
B9
102
}
330
B9
100
AcDbXrecord
280
     1
102
RTVSPropertyOp0
 70
     1
102
RTVSPropertyOp1
 70
     1
102
RTVSPropertyOp2
 70
     1
102
RTVSPropertyOp3
 70
     1
102
RTVSPropertyOp4
 70
     1
102
RTVSPropertyOp5
 70
     1
102
RTVSPropertyOp6
 70
     1
102
RTVSPropertyOp7
 70
     1
102
RTVSPropertyOp8
 70
     1
102
RTVSPropertyOp9
 70
     1
102
RTVSPropertyOp10
 70
     1
102
RTVSPropertyOp11
 70
     1
102
RTVSPropertyOp12
 70
     1
102
RTVSPropertyOp13
 70
     1
102
RTVSPropertyOp14
 70
     1
102
RTVSPropertyOp15
 70
     1
102
RTVSPropertyOp16
 70
     1
102
RTVSPropertyOp17
 70
     1
102
RTVSPropertyOp18
 70
     1
102
RTVSPropertyOp19
 70
     1
102
RTVSPropertyOp20
 70
     1
102
RTVSPropertyOp21
 70
     1
102
RTVSPropertyOp22
 70
     1
102
RTVSPropertyOp23
 70
     1
102
RTVSPropertyOp24
 70
     1
102
RTVSPropertyOp25
 70
     1
102
RTVSPropertyOp26
 70
     1
102
RTVSPropertyOp27
 70
     1
102
RTVSPropertyOp28
 70
     1
102
RTVSPropertyOp29
 70
     1
102
RTVSPropertyOp30
 70
     1
102
RTVSPropertyOp31
 70
     1
102
RTVSPropertyOp32
 70
     1
102
RTVSPropertyOp33
 70
     1
102
RTVSPropertyOp34
 70
     1
102
RTVSPropertyOp35
 70
     1
102
RTVSPropertyOp36
 70
     1
102
RTVSPropertyOp37
 70
     1
102
RTVSPropertyOp38
 70
     1
102
RTVSPropertyOp39
 70
     1
102
RTVSPropertyOp40
 70
     1
102
RTVSPropertyOp41
 70
     1
102
RTVSPropertyOp42
 70
     1
102
RTVSPropertyOp43
 70
     1
102
RTVSPropertyOp44
 70
     1
102
RTVSPropertyOp45
 70
     1
102
RTVSPropertyOp46
 70
     1
102
RTVSPropertyOp47
 70
     1
102
RTVSPropertyOp48
 70
     1
102
RTVSPropertyOp49
 70
     1
102
RTVSPropertyOp50
 70
     1
102
RTVSPropertyOp51
 70
     0
102
RTVSPropertyOp52
 70
     0
102
RTVSPropertyOp53
 70
     1
102
RTVSPropertyOp54
 70
     1
102
RTVSPropertyOp55
 70
     1
102
RTVSPropertyOp56
 70
     1
102
RTVSPropertyOp57
 70
     1
102
RTVSPost2010Prop28
280
     1
102
RTVSPost2010PropOp28
 70
     1
102
RTVSPost2010Prop29
280
     1
102
RTVSPost2010PropOp29
 70
     1
102
RTVSPost2010Prop30
280
     0
102
RTVSPost2010PropOp30
 70
     1
102
RTVSPost2010Prop31
280
     0
102
RTVSPost2010PropOp31
 70
     1
102
RTVSPost2010Prop32
280
     0
102
RTVSPost2010PropOp32
 70
     1
102
RTVSPost2010Prop33
280
     0
102
RTVSPost2010PropOp33
 70
     1
102
RTVSPost2010Prop34
280
     0
102
RTVSPost2010PropOp34
 70
     1
102
RTVSPost2010Prop35
280
     0
102
RTVSPost2010PropOp35
 70
     1
102
RTVSPost2010Prop36
280
     0
102
RTVSPost2010PropOp36
 70
     1
102
RTVSPost2010Prop37
 90
       50
102
RTVSPost2010PropOp37
 70
     1
102
RTVSPost2010Prop38
140
0.0
102
RTVSPost2010PropOp38
 70
     1
102
RTVSPost2010Prop39
140
1.0
102
RTVSPost2010PropOp39
 70
     1
102
RTVSPost2010Prop40
 90
        0
102
RTVSPost2010PropOp40
 70
     1
102
RTVSPost2010Prop41ColorIndex
 90
       18
102
RTVSPost2010Prop41ColorRGB
 90
        0
102
RTVSPost2010PropOp41
 70
     1
102
RTVSPost2010Prop42
 90
       50
102
RTVSPost2010PropOp42
 70
     1
102
RTVSPost2010Prop43
 90
        3
102
RTVSPost2010PropOp43
 70
     1
102
RTVSPost2010Prop44ColorIndex
 90
        5
102
RTVSPost2010Prop44ColorRGB
 90
      255
102
RTVSPost2010PropOp44
 70
     1
102
RTVSPost2010Prop45
280
     0
102
RTVSPost2010PropOp45
 70
     1
102
RTVSPost2010Prop46
 90
       50
102
RTVSPost2010PropOp46
 70
     1
102
RTVSPost2010Prop47
 90
       50
102
RTVSPost2010PropOp47
 70
     1
102
RTVSPost2010Prop48
 90
       50
102
RTVSPost2010PropOp48
 70
     1
102
RTVSPost2010Prop49
280
     0
102
RTVSPost2010PropOp49
 70
     1
102
RTVSPost2010Prop50
 90
       50
102
RTVSPost2010PropOp50
 70
     1
102
RTVSPost2010Prop51ColorIndex
 90
      256
102
RTVSPost2010Prop51ColorRGB
 90
-16777216
102
RTVSPost2010PropOp51
 70
     0
102
RTVSPost2010Prop52
140
1.0
102
RTVSPost2010PropOp52
 70
     0
102
RTVSPost2010Prop53
 90
        2
102
RTVSPost2010PropOp53
 70
     1
102
RTVSPost2010Prop54
  1
strokes_ogs.tif
102
RTVSPost2010PropOp54
 70
     1
102
RTVSPost2010Prop55
280
     0
102
RTVSPost2010PropOp55
 70
     1
102
RTVSPost2010Prop56
140
1.0
102
RTVSPost2010PropOp56
 70
     1
102
RTVSPost2010Prop57
140
1.0
102
RTVSPost2010PropOp57
 70
     1
  0
XRECORD
  5
C0
102
{ACAD_REACTORS
330
BF
102
}
330
BF
100
AcDbXrecord
280
     1
102
RTVSPropertyOp0
 70
     1
102
RTVSPropertyOp1
 70
     1
102
RTVSPropertyOp2
 70
     1
102
RTVSPropertyOp3
 70
     1
102
RTVSPropertyOp4
 70
     1
102
RTVSPropertyOp5
 70
     1
102
RTVSPropertyOp6
 70
     1
102
RTVSPropertyOp7
 70
     1
102
RTVSPropertyOp8
 70
     1
102
RTVSPropertyOp9
 70
     1
102
RTVSPropertyOp10
 70
     1
102
RTVSPropertyOp11
 70
     1
102
RTVSPropertyOp12
 70
     1
102
RTVSPropertyOp13
 70
     1
102
RTVSPropertyOp14
 70
     1
102
RTVSPropertyOp15
 70
     1
102
RTVSPropertyOp16
 70
     1
102
RTVSPropertyOp17
 70
     1
102
RTVSPropertyOp18
 70
     1
102
RTVSPropertyOp19
 70
     1
102
RTVSPropertyOp20
 70
     1
102
RTVSPropertyOp21
 70
     1
102
RTVSPropertyOp22
 70
     1
102
RTVSPropertyOp23
 70
     1
102
RTVSPropertyOp24
 70
     1
102
RTVSPropertyOp25
 70
     1
102
RTVSPropertyOp26
 70
     1
102
RTVSPropertyOp27
 70
     1
102
RTVSPropertyOp28
 70
     1
102
RTVSPropertyOp29
 70
     1
102
RTVSPropertyOp30
 70
     1
102
RTVSPropertyOp31
 70
     1
102
RTVSPropertyOp32
 70
     1
102
RTVSPropertyOp33
 70
     1
102
RTVSPropertyOp34
 70
     1
102
RTVSPropertyOp35
 70
     1
102
RTVSPropertyOp36
 70
     1
102
RTVSPropertyOp37
 70
     1
102
RTVSPropertyOp38
 70
     1
102
RTVSPropertyOp39
 70
     1
102
RTVSPropertyOp40
 70
     1
102
RTVSPropertyOp41
 70
     1
102
RTVSPropertyOp42
 70
     1
102
RTVSPropertyOp43
 70
     1
102
RTVSPropertyOp44
 70
     1
102
RTVSPropertyOp45
 70
     1
102
RTVSPropertyOp46
 70
     1
102
RTVSPropertyOp47
 70
     1
102
RTVSPropertyOp48
 70
     1
102
RTVSPropertyOp49
 70
     1
102
RTVSPropertyOp50
 70
     1
102
RTVSPropertyOp51
 70
     0
102
RTVSPropertyOp52
 70
     0
102
RTVSPropertyOp53
 70
     1
102
RTVSPropertyOp54
 70
     1
102
RTVSPropertyOp55
 70
     1
102
RTVSPropertyOp56
 70
     1
102
RTVSPropertyOp57
 70
     1
102
RTVSPost2010Prop28
280
     0
102
RTVSPost2010PropOp28
 70
     1
102
RTVSPost2010Prop29
280
     1
102
RTVSPost2010PropOp29
 70
     1
102
RTVSPost2010Prop30
280
     1
102
RTVSPost2010PropOp30
 70
     1
102
RTVSPost2010Prop31
280
     0
102
RTVSPost2010PropOp31
 70
     1
102
RTVSPost2010Prop32
280
     0
102
RTVSPost2010PropOp32
 70
     1
102
RTVSPost2010Prop33
280
     0
102
RTVSPost2010PropOp33
 70
     1
102
RTVSPost2010Prop34
280
     0
102
RTVSPost2010PropOp34
 70
     1
102
RTVSPost2010Prop35
280
     0
102
RTVSPost2010PropOp35
 70
     1
102
RTVSPost2010Prop36
280
     0
102
RTVSPost2010PropOp36
 70
     1
102
RTVSPost2010Prop37
 90
       50
102
RTVSPost2010PropOp37
 70
     1
102
RTVSPost2010Prop38
140
0.0
102
RTVSPost2010PropOp38
 70
     1
102
RTVSPost2010Prop39
140
1.0
102
RTVSPost2010PropOp39
 70
     1
102
RTVSPost2010Prop40
 90
        0
102
RTVSPost2010PropOp40
 70
     1
102
RTVSPost2010Prop41ColorIndex
 90
       18
102
RTVSPost2010Prop41ColorRGB
 90
        0
102
RTVSPost2010PropOp41
 70
     1
102
RTVSPost2010Prop42
 90
       50
102
RTVSPost2010PropOp42
 70
     1
102
RTVSPost2010Prop43
 90
        3
102
RTVSPost2010PropOp43
 70
     1
102
RTVSPost2010Prop44ColorIndex
 90
        5
102
RTVSPost2010Prop44ColorRGB
 90
      255
102
RTVSPost2010PropOp44
 70
     1
102
RTVSPost2010Prop45
280
     0
102
RTVSPost2010PropOp45
 70
     1
102
RTVSPost2010Prop46
 90
       50
102
RTVSPost2010PropOp46
 70
     1
102
RTVSPost2010Prop47
 90
       50
102
RTVSPost2010PropOp47
 70
     1
102
RTVSPost2010Prop48
 90
       50
102
RTVSPost2010PropOp48
 70
     1
102
RTVSPost2010Prop49
280
     0
102
RTVSPost2010PropOp49
 70
     1
102
RTVSPost2010Prop50
 90
       50
102
RTVSPost2010PropOp50
 70
     1
102
RTVSPost2010Prop51ColorIndex
 90
      256
102
RTVSPost2010Prop51ColorRGB
 90
-16777216
102
RTVSPost2010PropOp51
 70
     0
102
RTVSPost2010Prop52
140
1.0
102
RTVSPost2010PropOp52
 70
     0
102
RTVSPost2010Prop53
 90
        2
102
RTVSPost2010PropOp53
 70
     1
102
RTVSPost2010Prop54
  1
strokes_ogs.tif
102
RTVSPost2010PropOp54
 70
     1
102
RTVSPost2010Prop55
280
     0
102
RTVSPost2010PropOp55
 70
     1
102
RTVSPost2010Prop56
140
1.0
102
RTVSPost2010PropOp56
 70
     1
102
RTVSPost2010Prop57
140
1.0
102
RTVSPost2010PropOp57
 70
     1
  0
XRECORD
  5
C8
102
{ACAD_REACTORS
330
C7
102
}
330
C7
100
AcDbXrecord
280
     1
102
RTVSPropertyOp0
 70
     1
102
RTVSPropertyOp1
 70
     1
102
RTVSPropertyOp2
 70
     1
102
RTVSPropertyOp3
 70
     1
102
RTVSPropertyOp4
 70
     1
102
RTVSPropertyOp5
 70
     1
102
RTVSPropertyOp6
 70
     1
102
RTVSPropertyOp7
 70
     1
102
RTVSPropertyOp8
 70
     1
102
RTVSPropertyOp9
 70
     1
102
RTVSPropertyOp10
 70
     1
102
RTVSPropertyOp11
 70
     1
102
RTVSPropertyOp12
 70
     1
102
RTVSPropertyOp13
 70
     1
102
RTVSPropertyOp14
 70
     1
102
RTVSPropertyOp15
 70
     1
102
RTVSPropertyOp16
 70
     1
102
RTVSPropertyOp17
 70
     1
102
RTVSPropertyOp18
 70
     1
102
RTVSPropertyOp19
 70
     1
102
RTVSPropertyOp20
 70
     1
102
RTVSPropertyOp21
 70
     1
102
RTVSPropertyOp22
 70
     1
102
RTVSPropertyOp23
 70
     1
102
RTVSPropertyOp24
 70
     1
102
RTVSPropertyOp25
 70
     1
102
RTVSPropertyOp26
 70
     1
102
RTVSPropertyOp27
 70
     1
102
RTVSPropertyOp28
 70
     1
102
RTVSPropertyOp29
 70
     1
102
RTVSPropertyOp30
 70
     1
102
RTVSPropertyOp31
 70
     1
102
RTVSPropertyOp32
 70
     1
102
RTVSPropertyOp33
 70
     1
102
RTVSPropertyOp34
 70
     1
102
RTVSPropertyOp35
 70
     1
102
RTVSPropertyOp36
 70
     1
102
RTVSPropertyOp37
 70
     1
102
RTVSPropertyOp38
 70
     1
102
RTVSPropertyOp39
 70
     1
102
RTVSPropertyOp40
 70
     1
102
RTVSPropertyOp41
 70
     1
102
RTVSPropertyOp42
 70
     1
102
RTVSPropertyOp43
 70
     1
102
RTVSPropertyOp44
 70
     1
102
RTVSPropertyOp45
 70
     1
102
RTVSPropertyOp46
 70
     1
102
RTVSPropertyOp47
 70
     1
102
RTVSPropertyOp48
 70
     1
102
RTVSPropertyOp49
 70
     1
102
RTVSPropertyOp50
 70
     1
102
RTVSPropertyOp51
 70
     0
102
RTVSPropertyOp52
 70
     0
102
RTVSPropertyOp53
 70
     1
102
RTVSPropertyOp54
 70
     1
102
RTVSPropertyOp55
 70
     1
102
RTVSPropertyOp56
 70
     1
102
RTVSPropertyOp57
 70
     1
102
RTVSPost2010Prop28
280
     0
102
RTVSPost2010PropOp28
 70
     1
102
RTVSPost2010Prop29
280
     1
102
RTVSPost2010PropOp29
 70
     1
102
RTVSPost2010Prop30
280
     1
102
RTVSPost2010PropOp30
 70
     1
102
RTVSPost2010Prop31
280
     0
102
RTVSPost2010PropOp31
 70
     1
102
RTVSPost2010Prop32
280
     0
102
RTVSPost2010PropOp32
 70
     1
102
RTVSPost2010Prop33
280
     0
102
RTVSPost2010PropOp33
 70
     1
102
RTVSPost2010Prop34
280
     0
102
RTVSPost2010PropOp34
 70
     1
102
RTVSPost2010Prop35
280
     0
102
RTVSPost2010PropOp35
 70
     1
102
RTVSPost2010Prop36
280
     0
102
RTVSPost2010PropOp36
 70
     1
102
RTVSPost2010Prop37
 90
       50
102
RTVSPost2010PropOp37
 70
     1
102
RTVSPost2010Prop38
140
0.0
102
RTVSPost2010PropOp38
 70
     1
102
RTVSPost2010Prop39
140
1.0
102
RTVSPost2010PropOp39
 70
     1
102
RTVSPost2010Prop40
 90
        0
102
RTVSPost2010PropOp40
 70
     1
102
RTVSPost2010Prop41ColorIndex
 90
       18
102
RTVSPost2010Prop41ColorRGB
 90
        0
102
RTVSPost2010PropOp41
 70
     1
102
RTVSPost2010Prop42
 90
       50
102
RTVSPost2010PropOp42
 70
     1
102
RTVSPost2010Prop43
 90
        3
102
RTVSPost2010PropOp43
 70
     1
102
RTVSPost2010Prop44ColorIndex
 90
        5
102
RTVSPost2010Prop44ColorRGB
 90
      255
102
RTVSPost2010PropOp44
 70
     1
102
RTVSPost2010Prop45
280
     0
102
RTVSPost2010PropOp45
 70
     1
102
RTVSPost2010Prop46
 90
       50
102
RTVSPost2010PropOp46
 70
     1
102
RTVSPost2010Prop47
 90
       50
102
RTVSPost2010PropOp47
 70
     1
102
RTVSPost2010Prop48
 90
       50
102
RTVSPost2010PropOp48
 70
     1
102
RTVSPost2010Prop49
280
     0
102
RTVSPost2010PropOp49
 70
     1
102
RTVSPost2010Prop50
 90
       50
102
RTVSPost2010PropOp50
 70
     1
102
RTVSPost2010Prop51ColorIndex
 90
      256
102
RTVSPost2010Prop51ColorRGB
 90
-16777216
102
RTVSPost2010PropOp51
 70
     0
102
RTVSPost2010Prop52
140
1.0
102
RTVSPost2010PropOp52
 70
     0
102
RTVSPost2010Prop53
 90
        2
102
RTVSPost2010PropOp53
 70
     1
102
RTVSPost2010Prop54
  1
strokes_ogs.tif
102
RTVSPost2010PropOp54
 70
     1
102
RTVSPost2010Prop55
280
     0
102
RTVSPost2010PropOp55
 70
     1
102
RTVSPost2010Prop56
140
1.0
102
RTVSPost2010PropOp56
 70
     1
102
RTVSPost2010Prop57
140
1.0
102
RTVSPost2010PropOp57
 70
     1
  0
XRECORD
  5
D0
102
{ACAD_REACTORS
330
CF
102
}
330
CF
100
AcDbXrecord
280
     1
102
RTVSPropertyOp0
 70
     1
102
RTVSPropertyOp1
 70
     1
102
RTVSPropertyOp2
 70
     1
102
RTVSPropertyOp3
 70
     1
102
RTVSPropertyOp4
 70
     1
102
RTVSPropertyOp5
 70
     1
102
RTVSPropertyOp6
 70
     1
102
RTVSPropertyOp7
 70
     1
102
RTVSPropertyOp8
 70
     1
102
RTVSPropertyOp9
 70
     1
102
RTVSPropertyOp10
 70
     1
102
RTVSPropertyOp11
 70
     1
102
RTVSPropertyOp12
 70
     1
102
RTVSPropertyOp13
 70
     1
102
RTVSPropertyOp14
 70
     1
102
RTVSPropertyOp15
 70
     1
102
RTVSPropertyOp16
 70
     1
102
RTVSPropertyOp17
 70
     1
102
RTVSPropertyOp18
 70
     1
102
RTVSPropertyOp19
 70
     1
102
RTVSPropertyOp20
 70
     1
102
RTVSPropertyOp21
 70
     1
102
RTVSPropertyOp22
 70
     1
102
RTVSPropertyOp23
 70
     1
102
RTVSPropertyOp24
 70
     1
102
RTVSPropertyOp25
 70
     1
102
RTVSPropertyOp26
 70
     1
102
RTVSPropertyOp27
 70
     1
102
RTVSPropertyOp28
 70
     1
102
RTVSPropertyOp29
 70
     1
102
RTVSPropertyOp30
 70
     1
102
RTVSPropertyOp31
 70
     1
102
RTVSPropertyOp32
 70
     1
102
RTVSPropertyOp33
 70
     1
102
RTVSPropertyOp34
 70
     1
102
RTVSPropertyOp35
 70
     1
102
RTVSPropertyOp36
 70
     1
102
RTVSPropertyOp37
 70
     1
102
RTVSPropertyOp38
 70
     1
102
RTVSPropertyOp39
 70
     1
102
RTVSPropertyOp40
 70
     1
102
RTVSPropertyOp41
 70
     1
102
RTVSPropertyOp42
 70
     1
102
RTVSPropertyOp43
 70
     1
102
RTVSPropertyOp44
 70
     1
102
RTVSPropertyOp45
 70
     1
102
RTVSPropertyOp46
 70
     1
102
RTVSPropertyOp47
 70
     1
102
RTVSPropertyOp48
 70
     1
102
RTVSPropertyOp49
 70
     1
102
RTVSPropertyOp50
 70
     1
102
RTVSPropertyOp51
 70
     0
102
RTVSPropertyOp52
 70
     0
102
RTVSPropertyOp53
 70
     1
102
RTVSPropertyOp54
 70
     1
102
RTVSPropertyOp55
 70
     1
102
RTVSPropertyOp56
 70
     1
102
RTVSPropertyOp57
 70
     1
102
RTVSPost2010Prop28
280
     0
102
RTVSPost2010PropOp28
 70
     1
102
RTVSPost2010Prop29
280
     1
102
RTVSPost2010PropOp29
 70
     1
102
RTVSPost2010Prop30
280
     1
102
RTVSPost2010PropOp30
 70
     1
102
RTVSPost2010Prop31
280
     0
102
RTVSPost2010PropOp31
 70
     1
102
RTVSPost2010Prop32
280
     0
102
RTVSPost2010PropOp32
 70
     1
102
RTVSPost2010Prop33
280
     0
102
RTVSPost2010PropOp33
 70
     1
102
RTVSPost2010Prop34
280
     0
102
RTVSPost2010PropOp34
 70
     1
102
RTVSPost2010Prop35
280
     0
102
RTVSPost2010PropOp35
 70
     1
102
RTVSPost2010Prop36
280
     0
102
RTVSPost2010PropOp36
 70
     1
102
RTVSPost2010Prop37
 90
       50
102
RTVSPost2010PropOp37
 70
     1
102
RTVSPost2010Prop38
140
0.0
102
RTVSPost2010PropOp38
 70
     1
102
RTVSPost2010Prop39
140
1.0
102
RTVSPost2010PropOp39
 70
     1
102
RTVSPost2010Prop40
 90
        0
102
RTVSPost2010PropOp40
 70
     1
102
RTVSPost2010Prop41ColorIndex
 90
       18
102
RTVSPost2010Prop41ColorRGB
 90
        0
102
RTVSPost2010PropOp41
 70
     1
102
RTVSPost2010Prop42
 90
       50
102
RTVSPost2010PropOp42
 70
     1
102
RTVSPost2010Prop43
 90
        3
102
RTVSPost2010PropOp43
 70
     1
102
RTVSPost2010Prop44ColorIndex
 90
        5
102
RTVSPost2010Prop44ColorRGB
 90
      255
102
RTVSPost2010PropOp44
 70
     1
102
RTVSPost2010Prop45
280
     0
102
RTVSPost2010PropOp45
 70
     1
102
RTVSPost2010Prop46
 90
       50
102
RTVSPost2010PropOp46
 70
     1
102
RTVSPost2010Prop47
 90
       50
102
RTVSPost2010PropOp47
 70
     1
102
RTVSPost2010Prop48
 90
       50
102
RTVSPost2010PropOp48
 70
     1
102
RTVSPost2010Prop49
280
     0
102
RTVSPost2010PropOp49
 70
     1
102
RTVSPost2010Prop50
 90
       50
102
RTVSPost2010PropOp50
 70
     1
102
RTVSPost2010Prop51ColorIndex
 90
      256
102
RTVSPost2010Prop51ColorRGB
 90
-16777216
102
RTVSPost2010PropOp51
 70
     0
102
RTVSPost2010Prop52
140
1.0
102
RTVSPost2010PropOp52
 70
     0
102
RTVSPost2010Prop53
 90
        2
102
RTVSPost2010PropOp53
 70
     1
102
RTVSPost2010Prop54
  1
strokes_ogs.tif
102
RTVSPost2010PropOp54
 70
     1
102
RTVSPost2010Prop55
280
     0
102
RTVSPost2010PropOp55
 70
     1
102
RTVSPost2010Prop56
140
1.0
102
RTVSPost2010PropOp56
 70
     1
102
RTVSPost2010Prop57
140
1.0
102
RTVSPost2010PropOp57
 70
     1
  0
XRECORD
  5
C4
102
{ACAD_REACTORS
330
C3
102
}
330
C3
100
AcDbXrecord
280
     1
102
RTVSPropertyOp0
 70
     1
102
RTVSPropertyOp1
 70
     1
102
RTVSPropertyOp2
 70
     1
102
RTVSPropertyOp3
 70
     1
102
RTVSPropertyOp4
 70
     1
102
RTVSPropertyOp5
 70
     1
102
RTVSPropertyOp6
 70
     1
102
RTVSPropertyOp7
 70
     1
102
RTVSPropertyOp8
 70
     1
102
RTVSPropertyOp9
 70
     1
102
RTVSPropertyOp10
 70
     1
102
RTVSPropertyOp11
 70
     1
102
RTVSPropertyOp12
 70
     1
102
RTVSPropertyOp13
 70
     1
102
RTVSPropertyOp14
 70
     1
102
RTVSPropertyOp15
 70
     1
102
RTVSPropertyOp16
 70
     1
102
RTVSPropertyOp17
 70
     1
102
RTVSPropertyOp18
 70
     1
102
RTVSPropertyOp19
 70
     1
102
RTVSPropertyOp20
 70
     1
102
RTVSPropertyOp21
 70
     1
102
RTVSPropertyOp22
 70
     1
102
RTVSPropertyOp23
 70
     1
102
RTVSPropertyOp24
 70
     1
102
RTVSPropertyOp25
 70
     1
102
RTVSPropertyOp26
 70
     1
102
RTVSPropertyOp27
 70
     1
102
RTVSPropertyOp28
 70
     1
102
RTVSPropertyOp29
 70
     1
102
RTVSPropertyOp30
 70
     1
102
RTVSPropertyOp31
 70
     1
102
RTVSPropertyOp32
 70
     1
102
RTVSPropertyOp33
 70
     1
102
RTVSPropertyOp34
 70
     1
102
RTVSPropertyOp35
 70
     1
102
RTVSPropertyOp36
 70
     1
102
RTVSPropertyOp37
 70
     1
102
RTVSPropertyOp38
 70
     1
102
RTVSPropertyOp39
 70
     1
102
RTVSPropertyOp40
 70
     1
102
RTVSPropertyOp41
 70
     1
102
RTVSPropertyOp42
 70
     1
102
RTVSPropertyOp43
 70
     1
102
RTVSPropertyOp44
 70
     1
102
RTVSPropertyOp45
 70
     1
102
RTVSPropertyOp46
 70
     1
102
RTVSPropertyOp47
 70
     1
102
RTVSPropertyOp48
 70
     1
102
RTVSPropertyOp49
 70
     1
102
RTVSPropertyOp50
 70
     1
102
RTVSPropertyOp51
 70
     0
102
RTVSPropertyOp52
 70
     0
102
RTVSPropertyOp53
 70
     1
102
RTVSPropertyOp54
 70
     1
102
RTVSPropertyOp55
 70
     1
102
RTVSPropertyOp56
 70
     1
102
RTVSPropertyOp57
 70
     1
102
RTVSPost2010Prop28
280
     0
102
RTVSPost2010PropOp28
 70
     1
102
RTVSPost2010Prop29
280
     1
102
RTVSPost2010PropOp29
 70
     1
102
RTVSPost2010Prop30
280
     1
102
RTVSPost2010PropOp30
 70
     1
102
RTVSPost2010Prop31
280
     0
102
RTVSPost2010PropOp31
 70
     1
102
RTVSPost2010Prop32
280
     0
102
RTVSPost2010PropOp32
 70
     1
102
RTVSPost2010Prop33
280
     0
102
RTVSPost2010PropOp33
 70
     1
102
RTVSPost2010Prop34
280
     0
102
RTVSPost2010PropOp34
 70
     1
102
RTVSPost2010Prop35
280
     0
102
RTVSPost2010PropOp35
 70
     1
102
RTVSPost2010Prop36
280
     0
102
RTVSPost2010PropOp36
 70
     1
102
RTVSPost2010Prop37
 90
       50
102
RTVSPost2010PropOp37
 70
     1
102
RTVSPost2010Prop38
140
0.0
102
RTVSPost2010PropOp38
 70
     1
102
RTVSPost2010Prop39
140
1.0
102
RTVSPost2010PropOp39
 70
     1
102
RTVSPost2010Prop40
 90
        0
102
RTVSPost2010PropOp40
 70
     1
102
RTVSPost2010Prop41ColorIndex
 90
       18
102
RTVSPost2010Prop41ColorRGB
 90
        0
102
RTVSPost2010PropOp41
 70
     1
102
RTVSPost2010Prop42
 90
       50
102
RTVSPost2010PropOp42
 70
     1
102
RTVSPost2010Prop43
 90
        3
102
RTVSPost2010PropOp43
 70
     1
102
RTVSPost2010Prop44ColorIndex
 90
        5
102
RTVSPost2010Prop44ColorRGB
 90
      255
102
RTVSPost2010PropOp44
 70
     1
102
RTVSPost2010Prop45
280
     0
102
RTVSPost2010PropOp45
 70
     1
102
RTVSPost2010Prop46
 90
       50
102
RTVSPost2010PropOp46
 70
     1
102
RTVSPost2010Prop47
 90
       50
102
RTVSPost2010PropOp47
 70
     1
102
RTVSPost2010Prop48
 90
       50
102
RTVSPost2010PropOp48
 70
     1
102
RTVSPost2010Prop49
280
     0
102
RTVSPost2010PropOp49
 70
     1
102
RTVSPost2010Prop50
 90
       50
102
RTVSPost2010PropOp50
 70
     1
102
RTVSPost2010Prop51ColorIndex
 90
      256
102
RTVSPost2010Prop51ColorRGB
 90
-16777216
102
RTVSPost2010PropOp51
 70
     0
102
RTVSPost2010Prop52
140
1.0
102
RTVSPost2010PropOp52
 70
     0
102
RTVSPost2010Prop53
 90
        2
102
RTVSPost2010PropOp53
 70
     1
102
RTVSPost2010Prop54
  1
strokes_ogs.tif
102
RTVSPost2010PropOp54
 70
     1
102
RTVSPost2010Prop55
280
     0
102
RTVSPost2010PropOp55
 70
     1
102
RTVSPost2010Prop56
140
1.0
102
RTVSPost2010PropOp56
 70
     1
102
RTVSPost2010Prop57
140
1.0
102
RTVSPost2010PropOp57
 70
     1
  0
XRECORD
  5
C6
102
{ACAD_REACTORS
330
C5
102
}
330
C5
100
AcDbXrecord
280
     1
102
RTVSPropertyOp0
 70
     1
102
RTVSPropertyOp1
 70
     1
102
RTVSPropertyOp2
 70
     1
102
RTVSPropertyOp3
 70
     1
102
RTVSPropertyOp4
 70
     1
102
RTVSPropertyOp5
 70
     1
102
RTVSPropertyOp6
 70
     1
102
RTVSPropertyOp7
 70
     1
102
RTVSPropertyOp8
 70
     1
102
RTVSPropertyOp9
 70
     1
102
RTVSPropertyOp10
 70
     1
102
RTVSPropertyOp11
 70
     1
102
RTVSPropertyOp12
 70
     1
102
RTVSPropertyOp13
 70
     1
102
RTVSPropertyOp14
 70
     1
102
RTVSPropertyOp15
 70
     1
102
RTVSPropertyOp16
 70
     1
102
RTVSPropertyOp17
 70
     1
102
RTVSPropertyOp18
 70
     1
102
RTVSPropertyOp19
 70
     1
102
RTVSPropertyOp20
 70
     1
102
RTVSPropertyOp21
 70
     1
102
RTVSPropertyOp22
 70
     1
102
RTVSPropertyOp23
 70
     1
102
RTVSPropertyOp24
 70
     1
102
RTVSPropertyOp25
 70
     1
102
RTVSPropertyOp26
 70
     1
102
RTVSPropertyOp27
 70
     1
102
RTVSPropertyOp28
 70
     1
102
RTVSPropertyOp29
 70
     1
102
RTVSPropertyOp30
 70
     1
102
RTVSPropertyOp31
 70
     1
102
RTVSPropertyOp32
 70
     1
102
RTVSPropertyOp33
 70
     1
102
RTVSPropertyOp34
 70
     1
102
RTVSPropertyOp35
 70
     1
102
RTVSPropertyOp36
 70
     1
102
RTVSPropertyOp37
 70
     1
102
RTVSPropertyOp38
 70
     1
102
RTVSPropertyOp39
 70
     1
102
RTVSPropertyOp40
 70
     1
102
RTVSPropertyOp41
 70
     1
102
RTVSPropertyOp42
 70
     1
102
RTVSPropertyOp43
 70
     1
102
RTVSPropertyOp44
 70
     1
102
RTVSPropertyOp45
 70
     1
102
RTVSPropertyOp46
 70
     1
102
RTVSPropertyOp47
 70
     1
102
RTVSPropertyOp48
 70
     1
102
RTVSPropertyOp49
 70
     1
102
RTVSPropertyOp50
 70
     1
102
RTVSPropertyOp51
 70
     0
102
RTVSPropertyOp52
 70
     0
102
RTVSPropertyOp53
 70
     1
102
RTVSPropertyOp54
 70
     1
102
RTVSPropertyOp55
 70
     1
102
RTVSPropertyOp56
 70
     1
102
RTVSPropertyOp57
 70
     1
102
RTVSPost2010Prop28
280
     0
102
RTVSPost2010PropOp28
 70
     1
102
RTVSPost2010Prop29
280
     1
102
RTVSPost2010PropOp29
 70
     1
102
RTVSPost2010Prop30
280
     1
102
RTVSPost2010PropOp30
 70
     1
102
RTVSPost2010Prop31
280
     0
102
RTVSPost2010PropOp31
 70
     1
102
RTVSPost2010Prop32
280
     0
102
RTVSPost2010PropOp32
 70
     1
102
RTVSPost2010Prop33
280
     0
102
RTVSPost2010PropOp33
 70
     1
102
RTVSPost2010Prop34
280
     0
102
RTVSPost2010PropOp34
 70
     1
102
RTVSPost2010Prop35
280
     0
102
RTVSPost2010PropOp35
 70
     1
102
RTVSPost2010Prop36
280
     0
102
RTVSPost2010PropOp36
 70
     1
102
RTVSPost2010Prop37
 90
       50
102
RTVSPost2010PropOp37
 70
     1
102
RTVSPost2010Prop38
140
0.0
102
RTVSPost2010PropOp38
 70
     1
102
RTVSPost2010Prop39
140
1.0
102
RTVSPost2010PropOp39
 70
     1
102
RTVSPost2010Prop40
 90
        0
102
RTVSPost2010PropOp40
 70
     1
102
RTVSPost2010Prop41ColorIndex
 90
       18
102
RTVSPost2010Prop41ColorRGB
 90
        0
102
RTVSPost2010PropOp41
 70
     1
102
RTVSPost2010Prop42
 90
       50
102
RTVSPost2010PropOp42
 70
     1
102
RTVSPost2010Prop43
 90
        3
102
RTVSPost2010PropOp43
 70
     1
102
RTVSPost2010Prop44ColorIndex
 90
        5
102
RTVSPost2010Prop44ColorRGB
 90
      255
102
RTVSPost2010PropOp44
 70
     1
102
RTVSPost2010Prop45
280
     0
102
RTVSPost2010PropOp45
 70
     1
102
RTVSPost2010Prop46
 90
       50
102
RTVSPost2010PropOp46
 70
     1
102
RTVSPost2010Prop47
 90
       50
102
RTVSPost2010PropOp47
 70
     1
102
RTVSPost2010Prop48
 90
       50
102
RTVSPost2010PropOp48
 70
     1
102
RTVSPost2010Prop49
280
     0
102
RTVSPost2010PropOp49
 70
     1
102
RTVSPost2010Prop50
 90
       50
102
RTVSPost2010PropOp50
 70
     1
102
RTVSPost2010Prop51ColorIndex
 90
      256
102
RTVSPost2010Prop51ColorRGB
 90
-16777216
102
RTVSPost2010PropOp51
 70
     0
102
RTVSPost2010Prop52
140
1.0
102
RTVSPost2010PropOp52
 70
     0
102
RTVSPost2010Prop53
 90
        2
102
RTVSPost2010PropOp53
 70
     1
102
RTVSPost2010Prop54
  1
strokes_ogs.tif
102
RTVSPost2010PropOp54
 70
     1
102
RTVSPost2010Prop55
280
     0
102
RTVSPost2010PropOp55
 70
     1
102
RTVSPost2010Prop56
140
1.0
102
RTVSPost2010PropOp56
 70
     1
102
RTVSPost2010Prop57
140
1.0
102
RTVSPost2010PropOp57
 70
     1
  0
XRECORD
  5
D6
102
{ACAD_REACTORS
330
D5
102
}
330
D5
100
AcDbXrecord
280
     1
102
RTVSPropertyOp0
 70
     0
102
RTVSPropertyOp1
 70
     0
102
RTVSPropertyOp2
 70
     0
102
RTVSPropertyOp3
 70
     0
102
RTVSPropertyOp4
 70
     0
102
RTVSPropertyOp5
 70
     0
102
RTVSPropertyOp6
 70
     0
102
RTVSPropertyOp7
 70
     0
102
RTVSPropertyOp8
 70
     0
102
RTVSPropertyOp9
 70
     0
102
RTVSPropertyOp10
 70
     0
102
RTVSPropertyOp11
 70
     0
102
RTVSPropertyOp12
 70
     0
102
RTVSPropertyOp13
 70
     0
102
RTVSPropertyOp14
 70
     2
102
RTVSPropertyOp15
 70
     0
102
RTVSPropertyOp16
 70
     0
102
RTVSPropertyOp17
 70
     0
102
RTVSPropertyOp18
 70
     0
102
RTVSPropertyOp19
 70
     0
102
RTVSPropertyOp20
 70
     0
102
RTVSPropertyOp21
 70
     0
102
RTVSPropertyOp22
 70
     0
102
RTVSPropertyOp23
 70
     0
102
RTVSPropertyOp24
 70
     0
102
RTVSPropertyOp25
 70
     0
102
RTVSPropertyOp26
 70
     0
102
RTVSPropertyOp27
 70
     0
102
RTVSPropertyOp28
 70
     0
102
RTVSPropertyOp29
 70
     0
102
RTVSPropertyOp30
 70
     0
102
RTVSPropertyOp31
 70
     0
102
RTVSPropertyOp32
 70
     0
102
RTVSPropertyOp33
 70
     0
102
RTVSPropertyOp34
 70
     0
102
RTVSPropertyOp35
 70
     0
102
RTVSPropertyOp36
 70
     0
102
RTVSPropertyOp37
 70
     0
102
RTVSPropertyOp38
 70
     0
102
RTVSPropertyOp39
 70
     0
102
RTVSPropertyOp40
 70
     0
102
RTVSPropertyOp41
 70
     0
102
RTVSPropertyOp42
 70
     0
102
RTVSPropertyOp43
 70
     0
102
RTVSPropertyOp44
 70
     0
102
RTVSPropertyOp45
 70
     0
102
RTVSPropertyOp46
 70
     0
102
RTVSPropertyOp47
 70
     0
102
RTVSPropertyOp48
 70
     0
102
RTVSPropertyOp49
 70
     0
102
RTVSPropertyOp50
 70
     0
102
RTVSPropertyOp51
 70
     0
102
RTVSPropertyOp52
 70
     0
102
RTVSPropertyOp53
 70
     0
102
RTVSPropertyOp54
 70
     0
102
RTVSPropertyOp55
 70
     0
102
RTVSPropertyOp56
 70
     0
102
RTVSPropertyOp57
 70
     0
102
RTVSPost2010Prop28
280
     0
102
RTVSPost2010PropOp28
 70
     0
102
RTVSPost2010Prop29
280
     1
102
RTVSPost2010PropOp29
 70
     0
102
RTVSPost2010Prop30
280
     1
102
RTVSPost2010PropOp30
 70
     0
102
RTVSPost2010Prop31
280
     0
102
RTVSPost2010PropOp31
 70
     0
102
RTVSPost2010Prop32
280
     0
102
RTVSPost2010PropOp32
 70
     0
102
RTVSPost2010Prop33
280
     0
102
RTVSPost2010PropOp33
 70
     0
102
RTVSPost2010Prop34
280
     0
102
RTVSPost2010PropOp34
 70
     0
102
RTVSPost2010Prop35
280
     0
102
RTVSPost2010PropOp35
 70
     0
102
RTVSPost2010Prop36
280
     0
102
RTVSPost2010PropOp36
 70
     0
102
RTVSPost2010Prop37
 90
       50
102
RTVSPost2010PropOp37
 70
     0
102
RTVSPost2010Prop38
140
0.0
102
RTVSPost2010PropOp38
 70
     0
102
RTVSPost2010Prop39
140
1.0
102
RTVSPost2010PropOp39
 70
     0
102
RTVSPost2010Prop40
 90
        0
102
RTVSPost2010PropOp40
 70
     0
102
RTVSPost2010Prop41ColorIndex
 90
       18
102
RTVSPost2010Prop41ColorRGB
 90
        0
102
RTVSPost2010PropOp41
 70
     0
102
RTVSPost2010Prop42
 90
       50
102
RTVSPost2010PropOp42
 70
     0
102
RTVSPost2010Prop43
 90
        3
102
RTVSPost2010PropOp43
 70
     0
102
RTVSPost2010Prop44ColorIndex
 90
        5
102
RTVSPost2010Prop44ColorRGB
 90
      255
102
RTVSPost2010PropOp44
 70
     0
102
RTVSPost2010Prop45
280
     0
102
RTVSPost2010PropOp45
 70
     0
102
RTVSPost2010Prop46
 90
       50
102
RTVSPost2010PropOp46
 70
     0
102
RTVSPost2010Prop47
 90
       50
102
RTVSPost2010PropOp47
 70
     0
102
RTVSPost2010Prop48
 90
       50
102
RTVSPost2010PropOp48
 70
     0
102
RTVSPost2010Prop49
280
     0
102
RTVSPost2010PropOp49
 70
     0
102
RTVSPost2010Prop50
 90
       50
102
RTVSPost2010PropOp50
 70
     0
102
RTVSPost2010Prop51ColorIndex
 90
      256
102
RTVSPost2010Prop51ColorRGB
 90
-16777216
102
RTVSPost2010PropOp51
 70
     0
102
RTVSPost2010Prop52
140
1.0
102
RTVSPost2010PropOp52
 70
     0
102
RTVSPost2010Prop53
 90
        2
102
RTVSPost2010PropOp53
 70
     0
102
RTVSPost2010Prop54
  1
strokes_ogs.tif
102
RTVSPost2010PropOp54
 70
     0
102
RTVSPost2010Prop55
280
     0
102
RTVSPost2010PropOp55
 70
     0
102
RTVSPost2010Prop56
140
1.0
102
RTVSPost2010PropOp56
 70
     0
102
RTVSPost2010Prop57
140
1.0
102
RTVSPost2010PropOp57
 70
     0
  0
XRECORD
  5
CE
102
{ACAD_REACTORS
330
CD
102
}
330
CD
100
AcDbXrecord
280
     1
102
RTVSPropertyOp0
 70
     1
102
RTVSPropertyOp1
 70
     1
102
RTVSPropertyOp2
 70
     1
102
RTVSPropertyOp3
 70
     1
102
RTVSPropertyOp4
 70
     1
102
RTVSPropertyOp5
 70
     1
102
RTVSPropertyOp6
 70
     1
102
RTVSPropertyOp7
 70
     1
102
RTVSPropertyOp8
 70
     1
102
RTVSPropertyOp9
 70
     1
102
RTVSPropertyOp10
 70
     1
102
RTVSPropertyOp11
 70
     1
102
RTVSPropertyOp12
 70
     1
102
RTVSPropertyOp13
 70
     1
102
RTVSPropertyOp14
 70
     1
102
RTVSPropertyOp15
 70
     1
102
RTVSPropertyOp16
 70
     1
102
RTVSPropertyOp17
 70
     1
102
RTVSPropertyOp18
 70
     1
102
RTVSPropertyOp19
 70
     1
102
RTVSPropertyOp20
 70
     1
102
RTVSPropertyOp21
 70
     1
102
RTVSPropertyOp22
 70
     1
102
RTVSPropertyOp23
 70
     1
102
RTVSPropertyOp24
 70
     1
102
RTVSPropertyOp25
 70
     1
102
RTVSPropertyOp26
 70
     1
102
RTVSPropertyOp27
 70
     1
102
RTVSPropertyOp28
 70
     1
102
RTVSPropertyOp29
 70
     1
102
RTVSPropertyOp30
 70
     1
102
RTVSPropertyOp31
 70
     1
102
RTVSPropertyOp32
 70
     1
102
RTVSPropertyOp33
 70
     1
102
RTVSPropertyOp34
 70
     1
102
RTVSPropertyOp35
 70
     1
102
RTVSPropertyOp36
 70
     1
102
RTVSPropertyOp37
 70
     1
102
RTVSPropertyOp38
 70
     1
102
RTVSPropertyOp39
 70
     1
102
RTVSPropertyOp40
 70
     1
102
RTVSPropertyOp41
 70
     1
102
RTVSPropertyOp42
 70
     1
102
RTVSPropertyOp43
 70
     1
102
RTVSPropertyOp44
 70
     1
102
RTVSPropertyOp45
 70
     1
102
RTVSPropertyOp46
 70
     1
102
RTVSPropertyOp47
 70
     1
102
RTVSPropertyOp48
 70
     1
102
RTVSPropertyOp49
 70
     1
102
RTVSPropertyOp50
 70
     1
102
RTVSPropertyOp51
 70
     0
102
RTVSPropertyOp52
 70
     0
102
RTVSPropertyOp53
 70
     1
102
RTVSPropertyOp54
 70
     1
102
RTVSPropertyOp55
 70
     1
102
RTVSPropertyOp56
 70
     1
102
RTVSPropertyOp57
 70
     1
102
RTVSPost2010Prop28
280
     0
102
RTVSPost2010PropOp28
 70
     1
102
RTVSPost2010Prop29
280
     1
102
RTVSPost2010PropOp29
 70
     1
102
RTVSPost2010Prop30
280
     1
102
RTVSPost2010PropOp30
 70
     1
102
RTVSPost2010Prop31
280
     0
102
RTVSPost2010PropOp31
 70
     1
102
RTVSPost2010Prop32
280
     0
102
RTVSPost2010PropOp32
 70
     1
102
RTVSPost2010Prop33
280
     0
102
RTVSPost2010PropOp33
 70
     1
102
RTVSPost2010Prop34
280
     0
102
RTVSPost2010PropOp34
 70
     1
102
RTVSPost2010Prop35
280
     0
102
RTVSPost2010PropOp35
 70
     1
102
RTVSPost2010Prop36
280
     0
102
RTVSPost2010PropOp36
 70
     1
102
RTVSPost2010Prop37
 90
       50
102
RTVSPost2010PropOp37
 70
     1
102
RTVSPost2010Prop38
140
0.0
102
RTVSPost2010PropOp38
 70
     1
102
RTVSPost2010Prop39
140
1.0
102
RTVSPost2010PropOp39
 70
     1
102
RTVSPost2010Prop40
 90
        0
102
RTVSPost2010PropOp40
 70
     1
102
RTVSPost2010Prop41ColorIndex
 90
       18
102
RTVSPost2010Prop41ColorRGB
 90
        0
102
RTVSPost2010PropOp41
 70
     1
102
RTVSPost2010Prop42
 90
       50
102
RTVSPost2010PropOp42
 70
     1
102
RTVSPost2010Prop43
 90
        3
102
RTVSPost2010PropOp43
 70
     1
102
RTVSPost2010Prop44ColorIndex
 90
        5
102
RTVSPost2010Prop44ColorRGB
 90
      255
102
RTVSPost2010PropOp44
 70
     1
102
RTVSPost2010Prop45
280
     0
102
RTVSPost2010PropOp45
 70
     1
102
RTVSPost2010Prop46
 90
       50
102
RTVSPost2010PropOp46
 70
     1
102
RTVSPost2010Prop47
 90
       50
102
RTVSPost2010PropOp47
 70
     1
102
RTVSPost2010Prop48
 90
       50
102
RTVSPost2010PropOp48
 70
     1
102
RTVSPost2010Prop49
280
     0
102
RTVSPost2010PropOp49
 70
     1
102
RTVSPost2010Prop50
 90
       50
102
RTVSPost2010PropOp50
 70
     1
102
RTVSPost2010Prop51ColorIndex
 90
      256
102
RTVSPost2010Prop51ColorRGB
 90
-16777216
102
RTVSPost2010PropOp51
 70
     0
102
RTVSPost2010Prop52
140
1.0
102
RTVSPost2010PropOp52
 70
     0
102
RTVSPost2010Prop53
 90
        2
102
RTVSPost2010PropOp53
 70
     1
102
RTVSPost2010Prop54
  1
strokes_ogs.tif
102
RTVSPost2010PropOp54
 70
     1
102
RTVSPost2010Prop55
280
     0
102
RTVSPost2010PropOp55
 70
     1
102
RTVSPost2010Prop56
140
1.0
102
RTVSPost2010PropOp56
 70
     1
102
RTVSPost2010Prop57
140
1.0
102
RTVSPost2010PropOp57
 70
     1
  0
XRECORD
  5
B2
102
{ACAD_REACTORS
330
B1
102
}
330
B1
100
AcDbXrecord
280
     1
102
RTVSPropertyOp0
 70
     1
102
RTVSPropertyOp1
 70
     1
102
RTVSPropertyOp2
 70
     1
102
RTVSPropertyOp3
 70
     1
102
RTVSPropertyOp4
 70
     1
102
RTVSPropertyOp5
 70
     1
102
RTVSPropertyOp6
 70
     1
102
RTVSPropertyOp7
 70
     1
102
RTVSPropertyOp8
 70
     1
102
RTVSPropertyOp9
 70
     1
102
RTVSPropertyOp10
 70
     1
102
RTVSPropertyOp11
 70
     1
102
RTVSPropertyOp12
 70
     1
102
RTVSPropertyOp13
 70
     1
102
RTVSPropertyOp14
 70
     1
102
RTVSPropertyOp15
 70
     1
102
RTVSPropertyOp16
 70
     1
102
RTVSPropertyOp17
 70
     1
102
RTVSPropertyOp18
 70
     1
102
RTVSPropertyOp19
 70
     1
102
RTVSPropertyOp20
 70
     1
102
RTVSPropertyOp21
 70
     1
102
RTVSPropertyOp22
 70
     1
102
RTVSPropertyOp23
 70
     1
102
RTVSPropertyOp24
 70
     1
102
RTVSPropertyOp25
 70
     1
102
RTVSPropertyOp26
 70
     1
102
RTVSPropertyOp27
 70
     1
102
RTVSPropertyOp28
 70
     1
102
RTVSPropertyOp29
 70
     1
102
RTVSPropertyOp30
 70
     1
102
RTVSPropertyOp31
 70
     1
102
RTVSPropertyOp32
 70
     1
102
RTVSPropertyOp33
 70
     1
102
RTVSPropertyOp34
 70
     1
102
RTVSPropertyOp35
 70
     1
102
RTVSPropertyOp36
 70
     1
102
RTVSPropertyOp37
 70
     1
102
RTVSPropertyOp38
 70
     1
102
RTVSPropertyOp39
 70
     1
102
RTVSPropertyOp40
 70
     1
102
RTVSPropertyOp41
 70
     1
102
RTVSPropertyOp42
 70
     1
102
RTVSPropertyOp43
 70
     1
102
RTVSPropertyOp44
 70
     1
102
RTVSPropertyOp45
 70
     1
102
RTVSPropertyOp46
 70
     1
102
RTVSPropertyOp47
 70
     1
102
RTVSPropertyOp48
 70
     1
102
RTVSPropertyOp49
 70
     1
102
RTVSPropertyOp50
 70
     1
102
RTVSPropertyOp51
 70
     0
102
RTVSPropertyOp52
 70
     0
102
RTVSPropertyOp53
 70
     1
102
RTVSPropertyOp54
 70
     1
102
RTVSPropertyOp55
 70
     1
102
RTVSPropertyOp56
 70
     1
102
RTVSPropertyOp57
 70
     1
102
RTVSPost2010Prop28
280
     0
102
RTVSPost2010PropOp28
 70
     1
102
RTVSPost2010Prop29
280
     1
102
RTVSPost2010PropOp29
 70
     1
102
RTVSPost2010Prop30
280
     1
102
RTVSPost2010PropOp30
 70
     1
102
RTVSPost2010Prop31
280
     0
102
RTVSPost2010PropOp31
 70
     1
102
RTVSPost2010Prop32
280
     0
102
RTVSPost2010PropOp32
 70
     1
102
RTVSPost2010Prop33
280
     0
102
RTVSPost2010PropOp33
 70
     1
102
RTVSPost2010Prop34
280
     0
102
RTVSPost2010PropOp34
 70
     1
102
RTVSPost2010Prop35
280
     0
102
RTVSPost2010PropOp35
 70
     1
102
RTVSPost2010Prop36
280
     0
102
RTVSPost2010PropOp36
 70
     1
102
RTVSPost2010Prop37
 90
       50
102
RTVSPost2010PropOp37
 70
     1
102
RTVSPost2010Prop38
140
0.0
102
RTVSPost2010PropOp38
 70
     1
102
RTVSPost2010Prop39
140
1.0
102
RTVSPost2010PropOp39
 70
     1
102
RTVSPost2010Prop40
 90
        0
102
RTVSPost2010PropOp40
 70
     1
102
RTVSPost2010Prop41ColorIndex
 90
       18
102
RTVSPost2010Prop41ColorRGB
 90
        0
102
RTVSPost2010PropOp41
 70
     1
102
RTVSPost2010Prop42
 90
       50
102
RTVSPost2010PropOp42
 70
     1
102
RTVSPost2010Prop43
 90
        3
102
RTVSPost2010PropOp43
 70
     1
102
RTVSPost2010Prop44ColorIndex
 90
        5
102
RTVSPost2010Prop44ColorRGB
 90
      255
102
RTVSPost2010PropOp44
 70
     1
102
RTVSPost2010Prop45
280
     0
102
RTVSPost2010PropOp45
 70
     1
102
RTVSPost2010Prop46
 90
       50
102
RTVSPost2010PropOp46
 70
     1
102
RTVSPost2010Prop47
 90
       50
102
RTVSPost2010PropOp47
 70
     1
102
RTVSPost2010Prop48
 90
       50
102
RTVSPost2010PropOp48
 70
     1
102
RTVSPost2010Prop49
280
     0
102
RTVSPost2010PropOp49
 70
     1
102
RTVSPost2010Prop50
 90
       50
102
RTVSPost2010PropOp50
 70
     1
102
RTVSPost2010Prop51ColorIndex
 90
      256
102
RTVSPost2010Prop51ColorRGB
 90
-16777216
102
RTVSPost2010PropOp51
 70
     0
102
RTVSPost2010Prop52
140
1.0
102
RTVSPost2010PropOp52
 70
     0
102
RTVSPost2010Prop53
 90
        2
102
RTVSPost2010PropOp53
 70
     1
102
RTVSPost2010Prop54
  1
strokes_ogs.tif
102
RTVSPost2010PropOp54
 70
     1
102
RTVSPost2010Prop55
280
     0
102
RTVSPost2010PropOp55
 70
     1
102
RTVSPost2010Prop56
140
1.0
102
RTVSPost2010PropOp56
 70
     1
102
RTVSPost2010Prop57
140
1.0
102
RTVSPost2010PropOp57
 70
     1
  0
XRECORD
  5
B4
102
{ACAD_REACTORS
330
B3
102
}
330
B3
100
AcDbXrecord
280
     1
102
RTVSPropertyOp0
 70
     1
102
RTVSPropertyOp1
 70
     1
102
RTVSPropertyOp2
 70
     1
102
RTVSPropertyOp3
 70
     1
102
RTVSPropertyOp4
 70
     1
102
RTVSPropertyOp5
 70
     1
102
RTVSPropertyOp6
 70
     1
102
RTVSPropertyOp7
 70
     1
102
RTVSPropertyOp8
 70
     1
102
RTVSPropertyOp9
 70
     1
102
RTVSPropertyOp10
 70
     1
102
RTVSPropertyOp11
 70
     1
102
RTVSPropertyOp12
 70
     1
102
RTVSPropertyOp13
 70
     1
102
RTVSPropertyOp14
 70
     1
102
RTVSPropertyOp15
 70
     1
102
RTVSPropertyOp16
 70
     1
102
RTVSPropertyOp17
 70
     1
102
RTVSPropertyOp18
 70
     1
102
RTVSPropertyOp19
 70
     1
102
RTVSPropertyOp20
 70
     1
102
RTVSPropertyOp21
 70
     1
102
RTVSPropertyOp22
 70
     1
102
RTVSPropertyOp23
 70
     1
102
RTVSPropertyOp24
 70
     1
102
RTVSPropertyOp25
 70
     1
102
RTVSPropertyOp26
 70
     1
102
RTVSPropertyOp27
 70
     1
102
RTVSPropertyOp28
 70
     1
102
RTVSPropertyOp29
 70
     1
102
RTVSPropertyOp30
 70
     1
102
RTVSPropertyOp31
 70
     1
102
RTVSPropertyOp32
 70
     1
102
RTVSPropertyOp33
 70
     1
102
RTVSPropertyOp34
 70
     1
102
RTVSPropertyOp35
 70
     1
102
RTVSPropertyOp36
 70
     1
102
RTVSPropertyOp37
 70
     1
102
RTVSPropertyOp38
 70
     1
102
RTVSPropertyOp39
 70
     1
102
RTVSPropertyOp40
 70
     1
102
RTVSPropertyOp41
 70
     1
102
RTVSPropertyOp42
 70
     1
102
RTVSPropertyOp43
 70
     1
102
RTVSPropertyOp44
 70
     1
102
RTVSPropertyOp45
 70
     1
102
RTVSPropertyOp46
 70
     1
102
RTVSPropertyOp47
 70
     1
102
RTVSPropertyOp48
 70
     1
102
RTVSPropertyOp49
 70
     1
102
RTVSPropertyOp50
 70
     1
102
RTVSPropertyOp51
 70
     0
102
RTVSPropertyOp52
 70
     0
102
RTVSPropertyOp53
 70
     1
102
RTVSPropertyOp54
 70
     1
102
RTVSPropertyOp55
 70
     1
102
RTVSPropertyOp56
 70
     1
102
RTVSPropertyOp57
 70
     1
102
RTVSPost2010Prop28
280
     0
102
RTVSPost2010PropOp28
 70
     1
102
RTVSPost2010Prop29
280
     1
102
RTVSPost2010PropOp29
 70
     1
102
RTVSPost2010Prop30
280
     1
102
RTVSPost2010PropOp30
 70
     1
102
RTVSPost2010Prop31
280
     0
102
RTVSPost2010PropOp31
 70
     1
102
RTVSPost2010Prop32
280
     0
102
RTVSPost2010PropOp32
 70
     1
102
RTVSPost2010Prop33
280
     0
102
RTVSPost2010PropOp33
 70
     1
102
RTVSPost2010Prop34
280
     0
102
RTVSPost2010PropOp34
 70
     1
102
RTVSPost2010Prop35
280
     0
102
RTVSPost2010PropOp35
 70
     1
102
RTVSPost2010Prop36
280
     0
102
RTVSPost2010PropOp36
 70
     1
102
RTVSPost2010Prop37
 90
       50
102
RTVSPost2010PropOp37
 70
     1
102
RTVSPost2010Prop38
140
0.0
102
RTVSPost2010PropOp38
 70
     1
102
RTVSPost2010Prop39
140
1.0
102
RTVSPost2010PropOp39
 70
     1
102
RTVSPost2010Prop40
 90
        0
102
RTVSPost2010PropOp40
 70
     1
102
RTVSPost2010Prop41ColorIndex
 90
       18
102
RTVSPost2010Prop41ColorRGB
 90
        0
102
RTVSPost2010PropOp41
 70
     1
102
RTVSPost2010Prop42
 90
       50
102
RTVSPost2010PropOp42
 70
     1
102
RTVSPost2010Prop43
 90
        3
102
RTVSPost2010PropOp43
 70
     1
102
RTVSPost2010Prop44ColorIndex
 90
        5
102
RTVSPost2010Prop44ColorRGB
 90
      255
102
RTVSPost2010PropOp44
 70
     1
102
RTVSPost2010Prop45
280
     0
102
RTVSPost2010PropOp45
 70
     1
102
RTVSPost2010Prop46
 90
       50
102
RTVSPost2010PropOp46
 70
     1
102
RTVSPost2010Prop47
 90
       50
102
RTVSPost2010PropOp47
 70
     1
102
RTVSPost2010Prop48
 90
       50
102
RTVSPost2010PropOp48
 70
     1
102
RTVSPost2010Prop49
280
     0
102
RTVSPost2010PropOp49
 70
     1
102
RTVSPost2010Prop50
 90
       50
102
RTVSPost2010PropOp50
 70
     1
102
RTVSPost2010Prop51ColorIndex
 90
      256
102
RTVSPost2010Prop51ColorRGB
 90
-16777216
102
RTVSPost2010PropOp51
 70
     0
102
RTVSPost2010Prop52
140
1.0
102
RTVSPost2010PropOp52
 70
     0
102
RTVSPost2010Prop53
 90
        2
102
RTVSPost2010PropOp53
 70
     1
102
RTVSPost2010Prop54
  1
strokes_ogs.tif
102
RTVSPost2010PropOp54
 70
     1
102
RTVSPost2010Prop55
280
     0
102
RTVSPost2010PropOp55
 70
     1
102
RTVSPost2010Prop56
140
1.0
102
RTVSPost2010PropOp56
 70
     1
102
RTVSPost2010Prop57
140
1.0
102
RTVSPost2010PropOp57
 70
     1
  0
XRECORD
  5
B6
102
{ACAD_REACTORS
330
B5
102
}
330
B5
100
AcDbXrecord
280
     1
102
RTVSPropertyOp0
 70
     1
102
RTVSPropertyOp1
 70
     1
102
RTVSPropertyOp2
 70
     1
102
RTVSPropertyOp3
 70
     1
102
RTVSPropertyOp4
 70
     1
102
RTVSPropertyOp5
 70
     1
102
RTVSPropertyOp6
 70
     1
102
RTVSPropertyOp7
 70
     1
102
RTVSPropertyOp8
 70
     1
102
RTVSPropertyOp9
 70
     1
102
RTVSPropertyOp10
 70
     1
102
RTVSPropertyOp11
 70
     1
102
RTVSPropertyOp12
 70
     1
102
RTVSPropertyOp13
 70
     1
102
RTVSPropertyOp14
 70
     1
102
RTVSPropertyOp15
 70
     1
102
RTVSPropertyOp16
 70
     1
102
RTVSPropertyOp17
 70
     1
102
RTVSPropertyOp18
 70
     1
102
RTVSPropertyOp19
 70
     1
102
RTVSPropertyOp20
 70
     1
102
RTVSPropertyOp21
 70
     1
102
RTVSPropertyOp22
 70
     1
102
RTVSPropertyOp23
 70
     1
102
RTVSPropertyOp24
 70
     1
102
RTVSPropertyOp25
 70
     1
102
RTVSPropertyOp26
 70
     1
102
RTVSPropertyOp27
 70
     1
102
RTVSPropertyOp28
 70
     1
102
RTVSPropertyOp29
 70
     1
102
RTVSPropertyOp30
 70
     1
102
RTVSPropertyOp31
 70
     1
102
RTVSPropertyOp32
 70
     1
102
RTVSPropertyOp33
 70
     1
102
RTVSPropertyOp34
 70
     1
102
RTVSPropertyOp35
 70
     1
102
RTVSPropertyOp36
 70
     1
102
RTVSPropertyOp37
 70
     1
102
RTVSPropertyOp38
 70
     1
102
RTVSPropertyOp39
 70
     1
102
RTVSPropertyOp40
 70
     1
102
RTVSPropertyOp41
 70
     1
102
RTVSPropertyOp42
 70
     1
102
RTVSPropertyOp43
 70
     1
102
RTVSPropertyOp44
 70
     1
102
RTVSPropertyOp45
 70
     1
102
RTVSPropertyOp46
 70
     1
102
RTVSPropertyOp47
 70
     1
102
RTVSPropertyOp48
 70
     1
102
RTVSPropertyOp49
 70
     1
102
RTVSPropertyOp50
 70
     1
102
RTVSPropertyOp51
 70
     0
102
RTVSPropertyOp52
 70
     0
102
RTVSPropertyOp53
 70
     1
102
RTVSPropertyOp54
 70
     1
102
RTVSPropertyOp55
 70
     1
102
RTVSPropertyOp56
 70
     1
102
RTVSPropertyOp57
 70
     1
102
RTVSPost2010Prop28
280
     0
102
RTVSPost2010PropOp28
 70
     1
102
RTVSPost2010Prop29
280
     1
102
RTVSPost2010PropOp29
 70
     1
102
RTVSPost2010Prop30
280
     1
102
RTVSPost2010PropOp30
 70
     1
102
RTVSPost2010Prop31
280
     0
102
RTVSPost2010PropOp31
 70
     1
102
RTVSPost2010Prop32
280
     0
102
RTVSPost2010PropOp32
 70
     1
102
RTVSPost2010Prop33
280
     0
102
RTVSPost2010PropOp33
 70
     1
102
RTVSPost2010Prop34
280
     0
102
RTVSPost2010PropOp34
 70
     1
102
RTVSPost2010Prop35
280
     0
102
RTVSPost2010PropOp35
 70
     1
102
RTVSPost2010Prop36
280
     0
102
RTVSPost2010PropOp36
 70
     1
102
RTVSPost2010Prop37
 90
       50
102
RTVSPost2010PropOp37
 70
     1
102
RTVSPost2010Prop38
140
0.0
102
RTVSPost2010PropOp38
 70
     1
102
RTVSPost2010Prop39
140
1.0
102
RTVSPost2010PropOp39
 70
     1
102
RTVSPost2010Prop40
 90
        0
102
RTVSPost2010PropOp40
 70
     1
102
RTVSPost2010Prop41ColorIndex
 90
       18
102
RTVSPost2010Prop41ColorRGB
 90
        0
102
RTVSPost2010PropOp41
 70
     1
102
RTVSPost2010Prop42
 90
       50
102
RTVSPost2010PropOp42
 70
     1
102
RTVSPost2010Prop43
 90
        3
102
RTVSPost2010PropOp43
 70
     1
102
RTVSPost2010Prop44ColorIndex
 90
        5
102
RTVSPost2010Prop44ColorRGB
 90
      255
102
RTVSPost2010PropOp44
 70
     1
102
RTVSPost2010Prop45
280
     0
102
RTVSPost2010PropOp45
 70
     1
102
RTVSPost2010Prop46
 90
       50
102
RTVSPost2010PropOp46
 70
     1
102
RTVSPost2010Prop47
 90
       50
102
RTVSPost2010PropOp47
 70
     1
102
RTVSPost2010Prop48
 90
       50
102
RTVSPost2010PropOp48
 70
     1
102
RTVSPost2010Prop49
280
     0
102
RTVSPost2010PropOp49
 70
     1
102
RTVSPost2010Prop50
 90
       50
102
RTVSPost2010PropOp50
 70
     1
102
RTVSPost2010Prop51ColorIndex
 90
      256
102
RTVSPost2010Prop51ColorRGB
 90
-16777216
102
RTVSPost2010PropOp51
 70
     0
102
RTVSPost2010Prop52
140
1.0
102
RTVSPost2010PropOp52
 70
     0
102
RTVSPost2010Prop53
 90
        2
102
RTVSPost2010PropOp53
 70
     1
102
RTVSPost2010Prop54
  1
strokes_ogs.tif
102
RTVSPost2010PropOp54
 70
     1
102
RTVSPost2010Prop55
280
     0
102
RTVSPost2010PropOp55
 70
     1
102
RTVSPost2010Prop56
140
1.0
102
RTVSPost2010PropOp56
 70
     1
102
RTVSPost2010Prop57
140
1.0
102
RTVSPost2010PropOp57
 70
     1
  0
XRECORD
  5
B8
102
{ACAD_REACTORS
330
B7
102
}
330
B7
100
AcDbXrecord
280
     1
102
RTVSPropertyOp0
 70
     1
102
RTVSPropertyOp1
 70
     1
102
RTVSPropertyOp2
 70
     1
102
RTVSPropertyOp3
 70
     1
102
RTVSPropertyOp4
 70
     1
102
RTVSPropertyOp5
 70
     1
102
RTVSPropertyOp6
 70
     1
102
RTVSPropertyOp7
 70
     1
102
RTVSPropertyOp8
 70
     1
102
RTVSPropertyOp9
 70
     1
102
RTVSPropertyOp10
 70
     1
102
RTVSPropertyOp11
 70
     1
102
RTVSPropertyOp12
 70
     1
102
RTVSPropertyOp13
 70
     1
102
RTVSPropertyOp14
 70
     1
102
RTVSPropertyOp15
 70
     1
102
RTVSPropertyOp16
 70
     1
102
RTVSPropertyOp17
 70
     1
102
RTVSPropertyOp18
 70
     1
102
RTVSPropertyOp19
 70
     1
102
RTVSPropertyOp20
 70
     1
102
RTVSPropertyOp21
 70
     1
102
RTVSPropertyOp22
 70
     1
102
RTVSPropertyOp23
 70
     1
102
RTVSPropertyOp24
 70
     1
102
RTVSPropertyOp25
 70
     1
102
RTVSPropertyOp26
 70
     1
102
RTVSPropertyOp27
 70
     1
102
RTVSPropertyOp28
 70
     1
102
RTVSPropertyOp29
 70
     1
102
RTVSPropertyOp30
 70
     1
102
RTVSPropertyOp31
 70
     1
102
RTVSPropertyOp32
 70
     1
102
RTVSPropertyOp33
 70
     1
102
RTVSPropertyOp34
 70
     1
102
RTVSPropertyOp35
 70
     1
102
RTVSPropertyOp36
 70
     1
102
RTVSPropertyOp37
 70
     1
102
RTVSPropertyOp38
 70
     1
102
RTVSPropertyOp39
 70
     1
102
RTVSPropertyOp40
 70
     1
102
RTVSPropertyOp41
 70
     1
102
RTVSPropertyOp42
 70
     1
102
RTVSPropertyOp43
 70
     1
102
RTVSPropertyOp44
 70
     1
102
RTVSPropertyOp45
 70
     1
102
RTVSPropertyOp46
 70
     1
102
RTVSPropertyOp47
 70
     1
102
RTVSPropertyOp48
 70
     1
102
RTVSPropertyOp49
 70
     1
102
RTVSPropertyOp50
 70
     1
102
RTVSPropertyOp51
 70
     0
102
RTVSPropertyOp52
 70
     0
102
RTVSPropertyOp53
 70
     1
102
RTVSPropertyOp54
 70
     1
102
RTVSPropertyOp55
 70
     1
102
RTVSPropertyOp56
 70
     1
102
RTVSPropertyOp57
 70
     1
102
RTVSPost2010Prop28
280
     0
102
RTVSPost2010PropOp28
 70
     1
102
RTVSPost2010Prop29
280
     1
102
RTVSPost2010PropOp29
 70
     1
102
RTVSPost2010Prop30
280
     1
102
RTVSPost2010PropOp30
 70
     1
102
RTVSPost2010Prop31
280
     0
102
RTVSPost2010PropOp31
 70
     1
102
RTVSPost2010Prop32
280
     0
102
RTVSPost2010PropOp32
 70
     1
102
RTVSPost2010Prop33
280
     0
102
RTVSPost2010PropOp33
 70
     1
102
RTVSPost2010Prop34
280
     0
102
RTVSPost2010PropOp34
 70
     1
102
RTVSPost2010Prop35
280
     0
102
RTVSPost2010PropOp35
 70
     1
102
RTVSPost2010Prop36
280
     0
102
RTVSPost2010PropOp36
 70
     1
102
RTVSPost2010Prop37
 90
       50
102
RTVSPost2010PropOp37
 70
     1
102
RTVSPost2010Prop38
140
0.0
102
RTVSPost2010PropOp38
 70
     1
102
RTVSPost2010Prop39
140
1.0
102
RTVSPost2010PropOp39
 70
     1
102
RTVSPost2010Prop40
 90
        0
102
RTVSPost2010PropOp40
 70
     1
102
RTVSPost2010Prop41ColorIndex
 90
       18
102
RTVSPost2010Prop41ColorRGB
 90
        0
102
RTVSPost2010PropOp41
 70
     1
102
RTVSPost2010Prop42
 90
       50
102
RTVSPost2010PropOp42
 70
     1
102
RTVSPost2010Prop43
 90
        3
102
RTVSPost2010PropOp43
 70
     1
102
RTVSPost2010Prop44ColorIndex
 90
        5
102
RTVSPost2010Prop44ColorRGB
 90
      255
102
RTVSPost2010PropOp44
 70
     1
102
RTVSPost2010Prop45
280
     0
102
RTVSPost2010PropOp45
 70
     1
102
RTVSPost2010Prop46
 90
       50
102
RTVSPost2010PropOp46
 70
     1
102
RTVSPost2010Prop47
 90
       50
102
RTVSPost2010PropOp47
 70
     1
102
RTVSPost2010Prop48
 90
       50
102
RTVSPost2010PropOp48
 70
     1
102
RTVSPost2010Prop49
280
     0
102
RTVSPost2010PropOp49
 70
     1
102
RTVSPost2010Prop50
 90
       50
102
RTVSPost2010PropOp50
 70
     1
102
RTVSPost2010Prop51ColorIndex
 90
      256
102
RTVSPost2010Prop51ColorRGB
 90
-16777216
102
RTVSPost2010PropOp51
 70
     0
102
RTVSPost2010Prop52
140
1.0
102
RTVSPost2010PropOp52
 70
     0
102
RTVSPost2010Prop53
 90
        2
102
RTVSPost2010PropOp53
 70
     1
102
RTVSPost2010Prop54
  1
strokes_ogs.tif
102
RTVSPost2010PropOp54
 70
     1
102
RTVSPost2010Prop55
280
     0
102
RTVSPost2010PropOp55
 70
     1
102
RTVSPost2010Prop56
140
1.0
102
RTVSPost2010PropOp56
 70
     1
102
RTVSPost2010Prop57
140
1.0
102
RTVSPost2010PropOp57
 70
     1
  0
XRECORD
  5
BE
102
{ACAD_REACTORS
330
BD
102
}
330
BD
100
AcDbXrecord
280
     1
102
RTVSPropertyOp0
 70
     1
102
RTVSPropertyOp1
 70
     1
102
RTVSPropertyOp2
 70
     1
102
RTVSPropertyOp3
 70
     1
102
RTVSPropertyOp4
 70
     1
102
RTVSPropertyOp5
 70
     1
102
RTVSPropertyOp6
 70
     1
102
RTVSPropertyOp7
 70
     1
102
RTVSPropertyOp8
 70
     1
102
RTVSPropertyOp9
 70
     1
102
RTVSPropertyOp10
 70
     1
102
RTVSPropertyOp11
 70
     1
102
RTVSPropertyOp12
 70
     1
102
RTVSPropertyOp13
 70
     1
102
RTVSPropertyOp14
 70
     1
102
RTVSPropertyOp15
 70
     1
102
RTVSPropertyOp16
 70
     1
102
RTVSPropertyOp17
 70
     1
102
RTVSPropertyOp18
 70
     1
102
RTVSPropertyOp19
 70
     1
102
RTVSPropertyOp20
 70
     1
102
RTVSPropertyOp21
 70
     1
102
RTVSPropertyOp22
 70
     1
102
RTVSPropertyOp23
 70
     1
102
RTVSPropertyOp24
 70
     1
102
RTVSPropertyOp25
 70
     1
102
RTVSPropertyOp26
 70
     1
102
RTVSPropertyOp27
 70
     1
102
RTVSPropertyOp28
 70
     1
102
RTVSPropertyOp29
 70
     1
102
RTVSPropertyOp30
 70
     1
102
RTVSPropertyOp31
 70
     1
102
RTVSPropertyOp32
 70
     1
102
RTVSPropertyOp33
 70
     1
102
RTVSPropertyOp34
 70
     1
102
RTVSPropertyOp35
 70
     1
102
RTVSPropertyOp36
 70
     1
102
RTVSPropertyOp37
 70
     1
102
RTVSPropertyOp38
 70
     1
102
RTVSPropertyOp39
 70
     1
102
RTVSPropertyOp40
 70
     1
102
RTVSPropertyOp41
 70
     1
102
RTVSPropertyOp42
 70
     1
102
RTVSPropertyOp43
 70
     1
102
RTVSPropertyOp44
 70
     1
102
RTVSPropertyOp45
 70
     1
102
RTVSPropertyOp46
 70
     1
102
RTVSPropertyOp47
 70
     1
102
RTVSPropertyOp48
 70
     1
102
RTVSPropertyOp49
 70
     1
102
RTVSPropertyOp50
 70
     1
102
RTVSPropertyOp51
 70
     0
102
RTVSPropertyOp52
 70
     0
102
RTVSPropertyOp53
 70
     1
102
RTVSPropertyOp54
 70
     1
102
RTVSPropertyOp55
 70
     1
102
RTVSPropertyOp56
 70
     1
102
RTVSPropertyOp57
 70
     1
102
RTVSPost2010Prop28
280
     0
102
RTVSPost2010PropOp28
 70
     1
102
RTVSPost2010Prop29
280
     1
102
RTVSPost2010PropOp29
 70
     1
102
RTVSPost2010Prop30
280
     1
102
RTVSPost2010PropOp30
 70
     1
102
RTVSPost2010Prop31
280
     0
102
RTVSPost2010PropOp31
 70
     1
102
RTVSPost2010Prop32
280
     0
102
RTVSPost2010PropOp32
 70
     1
102
RTVSPost2010Prop33
280
     0
102
RTVSPost2010PropOp33
 70
     1
102
RTVSPost2010Prop34
280
     0
102
RTVSPost2010PropOp34
 70
     1
102
RTVSPost2010Prop35
280
     0
102
RTVSPost2010PropOp35
 70
     1
102
RTVSPost2010Prop36
280
     0
102
RTVSPost2010PropOp36
 70
     1
102
RTVSPost2010Prop37
 90
       50
102
RTVSPost2010PropOp37
 70
     1
102
RTVSPost2010Prop38
140
0.0
102
RTVSPost2010PropOp38
 70
     1
102
RTVSPost2010Prop39
140
1.0
102
RTVSPost2010PropOp39
 70
     1
102
RTVSPost2010Prop40
 90
        0
102
RTVSPost2010PropOp40
 70
     1
102
RTVSPost2010Prop41ColorIndex
 90
       18
102
RTVSPost2010Prop41ColorRGB
 90
        0
102
RTVSPost2010PropOp41
 70
     1
102
RTVSPost2010Prop42
 90
       50
102
RTVSPost2010PropOp42
 70
     1
102
RTVSPost2010Prop43
 90
        3
102
RTVSPost2010PropOp43
 70
     1
102
RTVSPost2010Prop44ColorIndex
 90
        5
102
RTVSPost2010Prop44ColorRGB
 90
      255
102
RTVSPost2010PropOp44
 70
     1
102
RTVSPost2010Prop45
280
     0
102
RTVSPost2010PropOp45
 70
     1
102
RTVSPost2010Prop46
 90
       50
102
RTVSPost2010PropOp46
 70
     1
102
RTVSPost2010Prop47
 90
       50
102
RTVSPost2010PropOp47
 70
     1
102
RTVSPost2010Prop48
 90
       50
102
RTVSPost2010PropOp48
 70
     1
102
RTVSPost2010Prop49
280
     0
102
RTVSPost2010PropOp49
 70
     1
102
RTVSPost2010Prop50
 90
       50
102
RTVSPost2010PropOp50
 70
     1
102
RTVSPost2010Prop51ColorIndex
 90
      256
102
RTVSPost2010Prop51ColorRGB
 90
-16777216
102
RTVSPost2010PropOp51
 70
     0
102
RTVSPost2010Prop52
140
1.0
102
RTVSPost2010PropOp52
 70
     0
102
RTVSPost2010Prop53
 90
        2
102
RTVSPost2010PropOp53
 70
     1
102
RTVSPost2010Prop54
  1
strokes_ogs.tif
102
RTVSPost2010PropOp54
 70
     1
102
RTVSPost2010Prop55
280
     0
102
RTVSPost2010PropOp55
 70
     1
102
RTVSPost2010Prop56
140
1.0
102
RTVSPost2010PropOp56
 70
     1
102
RTVSPost2010Prop57
140
1.0
102
RTVSPost2010PropOp57
 70
     1
  0
XRECORD
  5
D2
102
{ACAD_REACTORS
330
D1
102
}
330
D1
100
AcDbXrecord
280
     1
102
RTVSPropertyOp0
 70
     0
102
RTVSPropertyOp1
 70
     0
102
RTVSPropertyOp2
 70
     0
102
RTVSPropertyOp3
 70
     0
102
RTVSPropertyOp4
 70
     0
102
RTVSPropertyOp5
 70
     0
102
RTVSPropertyOp6
 70
     0
102
RTVSPropertyOp7
 70
     0
102
RTVSPropertyOp8
 70
     0
102
RTVSPropertyOp9
 70
     0
102
RTVSPropertyOp10
 70
     0
102
RTVSPropertyOp11
 70
     0
102
RTVSPropertyOp12
 70
     0
102
RTVSPropertyOp13
 70
     0
102
RTVSPropertyOp14
 70
     2
102
RTVSPropertyOp15
 70
     0
102
RTVSPropertyOp16
 70
     0
102
RTVSPropertyOp17
 70
     0
102
RTVSPropertyOp18
 70
     0
102
RTVSPropertyOp19
 70
     0
102
RTVSPropertyOp20
 70
     0
102
RTVSPropertyOp21
 70
     0
102
RTVSPropertyOp22
 70
     0
102
RTVSPropertyOp23
 70
     0
102
RTVSPropertyOp24
 70
     0
102
RTVSPropertyOp25
 70
     0
102
RTVSPropertyOp26
 70
     0
102
RTVSPropertyOp27
 70
     0
102
RTVSPropertyOp28
 70
     0
102
RTVSPropertyOp29
 70
     0
102
RTVSPropertyOp30
 70
     0
102
RTVSPropertyOp31
 70
     0
102
RTVSPropertyOp32
 70
     0
102
RTVSPropertyOp33
 70
     0
102
RTVSPropertyOp34
 70
     0
102
RTVSPropertyOp35
 70
     0
102
RTVSPropertyOp36
 70
     0
102
RTVSPropertyOp37
 70
     0
102
RTVSPropertyOp38
 70
     0
102
RTVSPropertyOp39
 70
     0
102
RTVSPropertyOp40
 70
     0
102
RTVSPropertyOp41
 70
     0
102
RTVSPropertyOp42
 70
     0
102
RTVSPropertyOp43
 70
     0
102
RTVSPropertyOp44
 70
     0
102
RTVSPropertyOp45
 70
     0
102
RTVSPropertyOp46
 70
     0
102
RTVSPropertyOp47
 70
     0
102
RTVSPropertyOp48
 70
     0
102
RTVSPropertyOp49
 70
     0
102
RTVSPropertyOp50
 70
     0
102
RTVSPropertyOp51
 70
     0
102
RTVSPropertyOp52
 70
     0
102
RTVSPropertyOp53
 70
     0
102
RTVSPropertyOp54
 70
     0
102
RTVSPropertyOp55
 70
     0
102
RTVSPropertyOp56
 70
     0
102
RTVSPropertyOp57
 70
     0
102
RTVSPost2010Prop28
280
     0
102
RTVSPost2010PropOp28
 70
     0
102
RTVSPost2010Prop29
280
     1
102
RTVSPost2010PropOp29
 70
     0
102
RTVSPost2010Prop30
280
     1
102
RTVSPost2010PropOp30
 70
     0
102
RTVSPost2010Prop31
280
     0
102
RTVSPost2010PropOp31
 70
     0
102
RTVSPost2010Prop32
280
     0
102
RTVSPost2010PropOp32
 70
     0
102
RTVSPost2010Prop33
280
     0
102
RTVSPost2010PropOp33
 70
     0
102
RTVSPost2010Prop34
280
     0
102
RTVSPost2010PropOp34
 70
     0
102
RTVSPost2010Prop35
280
     0
102
RTVSPost2010PropOp35
 70
     0
102
RTVSPost2010Prop36
280
     0
102
RTVSPost2010PropOp36
 70
     0
102
RTVSPost2010Prop37
 90
       50
102
RTVSPost2010PropOp37
 70
     0
102
RTVSPost2010Prop38
140
0.0
102
RTVSPost2010PropOp38
 70
     0
102
RTVSPost2010Prop39
140
1.0
102
RTVSPost2010PropOp39
 70
     0
102
RTVSPost2010Prop40
 90
        0
102
RTVSPost2010PropOp40
 70
     0
102
RTVSPost2010Prop41ColorIndex
 90
       18
102
RTVSPost2010Prop41ColorRGB
 90
        0
102
RTVSPost2010PropOp41
 70
     0
102
RTVSPost2010Prop42
 90
       50
102
RTVSPost2010PropOp42
 70
     0
102
RTVSPost2010Prop43
 90
        3
102
RTVSPost2010PropOp43
 70
     0
102
RTVSPost2010Prop44ColorIndex
 90
        5
102
RTVSPost2010Prop44ColorRGB
 90
      255
102
RTVSPost2010PropOp44
 70
     0
102
RTVSPost2010Prop45
280
     0
102
RTVSPost2010PropOp45
 70
     0
102
RTVSPost2010Prop46
 90
       50
102
RTVSPost2010PropOp46
 70
     0
102
RTVSPost2010Prop47
 90
       50
102
RTVSPost2010PropOp47
 70
     0
102
RTVSPost2010Prop48
 90
       50
102
RTVSPost2010PropOp48
 70
     0
102
RTVSPost2010Prop49
280
     0
102
RTVSPost2010PropOp49
 70
     0
102
RTVSPost2010Prop50
 90
       50
102
RTVSPost2010PropOp50
 70
     0
102
RTVSPost2010Prop51ColorIndex
 90
      256
102
RTVSPost2010Prop51ColorRGB
 90
-16777216
102
RTVSPost2010PropOp51
 70
     0
102
RTVSPost2010Prop52
140
1.0
102
RTVSPost2010PropOp52
 70
     0
102
RTVSPost2010Prop53
 90
        2
102
RTVSPost2010PropOp53
 70
     0
102
RTVSPost2010Prop54
  1
strokes_ogs.tif
102
RTVSPost2010PropOp54
 70
     0
102
RTVSPost2010Prop55
280
     0
102
RTVSPost2010PropOp55
 70
     0
102
RTVSPost2010Prop56
140
1.0
102
RTVSPost2010PropOp56
 70
     0
102
RTVSPost2010Prop57
140
1.0
102
RTVSPost2010PropOp57
 70
     0
  0
XRECORD
  5
CC
102
{ACAD_REACTORS
330
CB
102
}
330
CB
100
AcDbXrecord
280
     1
102
RTVSPropertyOp0
 70
     1
102
RTVSPropertyOp1
 70
     1
102
RTVSPropertyOp2
 70
     1
102
RTVSPropertyOp3
 70
     1
102
RTVSPropertyOp4
 70
     1
102
RTVSPropertyOp5
 70
     1
102
RTVSPropertyOp6
 70
     1
102
RTVSPropertyOp7
 70
     1
102
RTVSPropertyOp8
 70
     1
102
RTVSPropertyOp9
 70
     1
102
RTVSPropertyOp10
 70
     1
102
RTVSPropertyOp11
 70
     1
102
RTVSPropertyOp12
 70
     1
102
RTVSPropertyOp13
 70
     1
102
RTVSPropertyOp14
 70
     1
102
RTVSPropertyOp15
 70
     1
102
RTVSPropertyOp16
 70
     1
102
RTVSPropertyOp17
 70
     1
102
RTVSPropertyOp18
 70
     1
102
RTVSPropertyOp19
 70
     1
102
RTVSPropertyOp20
 70
     1
102
RTVSPropertyOp21
 70
     1
102
RTVSPropertyOp22
 70
     1
102
RTVSPropertyOp23
 70
     1
102
RTVSPropertyOp24
 70
     1
102
RTVSPropertyOp25
 70
     1
102
RTVSPropertyOp26
 70
     1
102
RTVSPropertyOp27
 70
     1
102
RTVSPropertyOp28
 70
     1
102
RTVSPropertyOp29
 70
     1
102
RTVSPropertyOp30
 70
     1
102
RTVSPropertyOp31
 70
     1
102
RTVSPropertyOp32
 70
     1
102
RTVSPropertyOp33
 70
     1
102
RTVSPropertyOp34
 70
     1
102
RTVSPropertyOp35
 70
     1
102
RTVSPropertyOp36
 70
     1
102
RTVSPropertyOp37
 70
     1
102
RTVSPropertyOp38
 70
     1
102
RTVSPropertyOp39
 70
     1
102
RTVSPropertyOp40
 70
     1
102
RTVSPropertyOp41
 70
     1
102
RTVSPropertyOp42
 70
     1
102
RTVSPropertyOp43
 70
     1
102
RTVSPropertyOp44
 70
     1
102
RTVSPropertyOp45
 70
     1
102
RTVSPropertyOp46
 70
     1
102
RTVSPropertyOp47
 70
     1
102
RTVSPropertyOp48
 70
     1
102
RTVSPropertyOp49
 70
     1
102
RTVSPropertyOp50
 70
     1
102
RTVSPropertyOp51
 70
     0
102
RTVSPropertyOp52
 70
     0
102
RTVSPropertyOp53
 70
     1
102
RTVSPropertyOp54
 70
     1
102
RTVSPropertyOp55
 70
     1
102
RTVSPropertyOp56
 70
     1
102
RTVSPropertyOp57
 70
     1
102
RTVSPost2010Prop28
280
     0
102
RTVSPost2010PropOp28
 70
     1
102
RTVSPost2010Prop29
280
     1
102
RTVSPost2010PropOp29
 70
     1
102
RTVSPost2010Prop30
280
     1
102
RTVSPost2010PropOp30
 70
     1
102
RTVSPost2010Prop31
280
     0
102
RTVSPost2010PropOp31
 70
     1
102
RTVSPost2010Prop32
280
     0
102
RTVSPost2010PropOp32
 70
     1
102
RTVSPost2010Prop33
280
     0
102
RTVSPost2010PropOp33
 70
     1
102
RTVSPost2010Prop34
280
     0
102
RTVSPost2010PropOp34
 70
     1
102
RTVSPost2010Prop35
280
     0
102
RTVSPost2010PropOp35
 70
     1
102
RTVSPost2010Prop36
280
     0
102
RTVSPost2010PropOp36
 70
     1
102
RTVSPost2010Prop37
 90
       50
102
RTVSPost2010PropOp37
 70
     1
102
RTVSPost2010Prop38
140
0.0
102
RTVSPost2010PropOp38
 70
     1
102
RTVSPost2010Prop39
140
1.0
102
RTVSPost2010PropOp39
 70
     1
102
RTVSPost2010Prop40
 90
        0
102
RTVSPost2010PropOp40
 70
     1
102
RTVSPost2010Prop41ColorIndex
 90
       18
102
RTVSPost2010Prop41ColorRGB
 90
        0
102
RTVSPost2010PropOp41
 70
     1
102
RTVSPost2010Prop42
 90
       50
102
RTVSPost2010PropOp42
 70
     1
102
RTVSPost2010Prop43
 90
        3
102
RTVSPost2010PropOp43
 70
     1
102
RTVSPost2010Prop44ColorIndex
 90
        5
102
RTVSPost2010Prop44ColorRGB
 90
      255
102
RTVSPost2010PropOp44
 70
     1
102
RTVSPost2010Prop45
280
     0
102
RTVSPost2010PropOp45
 70
     1
102
RTVSPost2010Prop46
 90
       50
102
RTVSPost2010PropOp46
 70
     1
102
RTVSPost2010Prop47
 90
       50
102
RTVSPost2010PropOp47
 70
     1
102
RTVSPost2010Prop48
 90
       50
102
RTVSPost2010PropOp48
 70
     1
102
RTVSPost2010Prop49
280
     0
102
RTVSPost2010PropOp49
 70
     1
102
RTVSPost2010Prop50
 90
       50
102
RTVSPost2010PropOp50
 70
     1
102
RTVSPost2010Prop51ColorIndex
 90
      256
102
RTVSPost2010Prop51ColorRGB
 90
-16777216
102
RTVSPost2010PropOp51
 70
     0
102
RTVSPost2010Prop52
140
1.0
102
RTVSPost2010PropOp52
 70
     0
102
RTVSPost2010Prop53
 90
        2
102
RTVSPost2010PropOp53
 70
     1
102
RTVSPost2010Prop54
  1
strokes_ogs.tif
102
RTVSPost2010PropOp54
 70
     1
102
RTVSPost2010Prop55
280
     0
102
RTVSPost2010PropOp55
 70
     1
102
RTVSPost2010Prop56
140
1.0
102
RTVSPost2010PropOp56
 70
     1
102
RTVSPost2010Prop57
140
1.0
102
RTVSPost2010PropOp57
 70
     1
  0
XRECORD
  5
D4
102
{ACAD_REACTORS
330
D3
102
}
330
D3
100
AcDbXrecord
280
     1
102
RTVSPropertyOp0
 70
     0
102
RTVSPropertyOp1
 70
     0
102
RTVSPropertyOp2
 70
     0
102
RTVSPropertyOp3
 70
     0
102
RTVSPropertyOp4
 70
     0
102
RTVSPropertyOp5
 70
     0
102
RTVSPropertyOp6
 70
     0
102
RTVSPropertyOp7
 70
     0
102
RTVSPropertyOp8
 70
     0
102
RTVSPropertyOp9
 70
     0
102
RTVSPropertyOp10
 70
     0
102
RTVSPropertyOp11
 70
     0
102
RTVSPropertyOp12
 70
     0
102
RTVSPropertyOp13
 70
     0
102
RTVSPropertyOp14
 70
     2
102
RTVSPropertyOp15
 70
     0
102
RTVSPropertyOp16
 70
     0
102
RTVSPropertyOp17
 70
     0
102
RTVSPropertyOp18
 70
     0
102
RTVSPropertyOp19
 70
     0
102
RTVSPropertyOp20
 70
     0
102
RTVSPropertyOp21
 70
     0
102
RTVSPropertyOp22
 70
     0
102
RTVSPropertyOp23
 70
     0
102
RTVSPropertyOp24
 70
     0
102
RTVSPropertyOp25
 70
     0
102
RTVSPropertyOp26
 70
     0
102
RTVSPropertyOp27
 70
     0
102
RTVSPropertyOp28
 70
     0
102
RTVSPropertyOp29
 70
     0
102
RTVSPropertyOp30
 70
     0
102
RTVSPropertyOp31
 70
     0
102
RTVSPropertyOp32
 70
     0
102
RTVSPropertyOp33
 70
     0
102
RTVSPropertyOp34
 70
     0
102
RTVSPropertyOp35
 70
     0
102
RTVSPropertyOp36
 70
     0
102
RTVSPropertyOp37
 70
     0
102
RTVSPropertyOp38
 70
     0
102
RTVSPropertyOp39
 70
     0
102
RTVSPropertyOp40
 70
     0
102
RTVSPropertyOp41
 70
     0
102
RTVSPropertyOp42
 70
     0
102
RTVSPropertyOp43
 70
     0
102
RTVSPropertyOp44
 70
     0
102
RTVSPropertyOp45
 70
     0
102
RTVSPropertyOp46
 70
     0
102
RTVSPropertyOp47
 70
     0
102
RTVSPropertyOp48
 70
     0
102
RTVSPropertyOp49
 70
     0
102
RTVSPropertyOp50
 70
     0
102
RTVSPropertyOp51
 70
     0
102
RTVSPropertyOp52
 70
     0
102
RTVSPropertyOp53
 70
     0
102
RTVSPropertyOp54
 70
     0
102
RTVSPropertyOp55
 70
     0
102
RTVSPropertyOp56
 70
     0
102
RTVSPropertyOp57
 70
     0
102
RTVSPost2010Prop28
280
     0
102
RTVSPost2010PropOp28
 70
     0
102
RTVSPost2010Prop29
280
     1
102
RTVSPost2010PropOp29
 70
     0
102
RTVSPost2010Prop30
280
     1
102
RTVSPost2010PropOp30
 70
     0
102
RTVSPost2010Prop31
280
     0
102
RTVSPost2010PropOp31
 70
     0
102
RTVSPost2010Prop32
280
     0
102
RTVSPost2010PropOp32
 70
     0
102
RTVSPost2010Prop33
280
     0
102
RTVSPost2010PropOp33
 70
     0
102
RTVSPost2010Prop34
280
     0
102
RTVSPost2010PropOp34
 70
     0
102
RTVSPost2010Prop35
280
     0
102
RTVSPost2010PropOp35
 70
     0
102
RTVSPost2010Prop36
280
     0
102
RTVSPost2010PropOp36
 70
     0
102
RTVSPost2010Prop37
 90
       50
102
RTVSPost2010PropOp37
 70
     0
102
RTVSPost2010Prop38
140
0.0
102
RTVSPost2010PropOp38
 70
     0
102
RTVSPost2010Prop39
140
1.0
102
RTVSPost2010PropOp39
 70
     0
102
RTVSPost2010Prop40
 90
        0
102
RTVSPost2010PropOp40
 70
     0
102
RTVSPost2010Prop41ColorIndex
 90
       18
102
RTVSPost2010Prop41ColorRGB
 90
        0
102
RTVSPost2010PropOp41
 70
     0
102
RTVSPost2010Prop42
 90
       50
102
RTVSPost2010PropOp42
 70
     0
102
RTVSPost2010Prop43
 90
        3
102
RTVSPost2010PropOp43
 70
     0
102
RTVSPost2010Prop44ColorIndex
 90
        5
102
RTVSPost2010Prop44ColorRGB
 90
      255
102
RTVSPost2010PropOp44
 70
     0
102
RTVSPost2010Prop45
280
     0
102
RTVSPost2010PropOp45
 70
     0
102
RTVSPost2010Prop46
 90
       50
102
RTVSPost2010PropOp46
 70
     0
102
RTVSPost2010Prop47
 90
       50
102
RTVSPost2010PropOp47
 70
     0
102
RTVSPost2010Prop48
 90
       50
102
RTVSPost2010PropOp48
 70
     0
102
RTVSPost2010Prop49
280
     0
102
RTVSPost2010PropOp49
 70
     0
102
RTVSPost2010Prop50
 90
       50
102
RTVSPost2010PropOp50
 70
     0
102
RTVSPost2010Prop51ColorIndex
 90
      256
102
RTVSPost2010Prop51ColorRGB
 90
-16777216
102
RTVSPost2010PropOp51
 70
     0
102
RTVSPost2010Prop52
140
1.0
102
RTVSPost2010PropOp52
 70
     0
102
RTVSPost2010Prop53
 90
        2
102
RTVSPost2010PropOp53
 70
     0
102
RTVSPost2010Prop54
  1
strokes_ogs.tif
102
RTVSPost2010PropOp54
 70
     0
102
RTVSPost2010Prop55
280
     0
102
RTVSPost2010PropOp55
 70
     0
102
RTVSPost2010Prop56
140
1.0
102
RTVSPost2010PropOp56
 70
     0
102
RTVSPost2010Prop57
140
1.0
102
RTVSPost2010PropOp57
 70
     0
  0
XRECORD
  5
C2
102
{ACAD_REACTORS
330
C1
102
}
330
C1
100
AcDbXrecord
280
     1
102
RTVSPropertyOp0
 70
     1
102
RTVSPropertyOp1
 70
     1
102
RTVSPropertyOp2
 70
     1
102
RTVSPropertyOp3
 70
     1
102
RTVSPropertyOp4
 70
     1
102
RTVSPropertyOp5
 70
     1
102
RTVSPropertyOp6
 70
     1
102
RTVSPropertyOp7
 70
     1
102
RTVSPropertyOp8
 70
     1
102
RTVSPropertyOp9
 70
     1
102
RTVSPropertyOp10
 70
     1
102
RTVSPropertyOp11
 70
     1
102
RTVSPropertyOp12
 70
     1
102
RTVSPropertyOp13
 70
     1
102
RTVSPropertyOp14
 70
     1
102
RTVSPropertyOp15
 70
     1
102
RTVSPropertyOp16
 70
     1
102
RTVSPropertyOp17
 70
     1
102
RTVSPropertyOp18
 70
     1
102
RTVSPropertyOp19
 70
     1
102
RTVSPropertyOp20
 70
     1
102
RTVSPropertyOp21
 70
     1
102
RTVSPropertyOp22
 70
     1
102
RTVSPropertyOp23
 70
     1
102
RTVSPropertyOp24
 70
     1
102
RTVSPropertyOp25
 70
     1
102
RTVSPropertyOp26
 70
     1
102
RTVSPropertyOp27
 70
     1
102
RTVSPropertyOp28
 70
     1
102
RTVSPropertyOp29
 70
     1
102
RTVSPropertyOp30
 70
     1
102
RTVSPropertyOp31
 70
     1
102
RTVSPropertyOp32
 70
     1
102
RTVSPropertyOp33
 70
     1
102
RTVSPropertyOp34
 70
     1
102
RTVSPropertyOp35
 70
     1
102
RTVSPropertyOp36
 70
     1
102
RTVSPropertyOp37
 70
     1
102
RTVSPropertyOp38
 70
     1
102
RTVSPropertyOp39
 70
     1
102
RTVSPropertyOp40
 70
     1
102
RTVSPropertyOp41
 70
     1
102
RTVSPropertyOp42
 70
     1
102
RTVSPropertyOp43
 70
     1
102
RTVSPropertyOp44
 70
     1
102
RTVSPropertyOp45
 70
     1
102
RTVSPropertyOp46
 70
     1
102
RTVSPropertyOp47
 70
     1
102
RTVSPropertyOp48
 70
     1
102
RTVSPropertyOp49
 70
     1
102
RTVSPropertyOp50
 70
     1
102
RTVSPropertyOp51
 70
     0
102
RTVSPropertyOp52
 70
     0
102
RTVSPropertyOp53
 70
     1
102
RTVSPropertyOp54
 70
     1
102
RTVSPropertyOp55
 70
     1
102
RTVSPropertyOp56
 70
     1
102
RTVSPropertyOp57
 70
     1
102
RTVSPost2010Prop28
280
     0
102
RTVSPost2010PropOp28
 70
     1
102
RTVSPost2010Prop29
280
     1
102
RTVSPost2010PropOp29
 70
     1
102
RTVSPost2010Prop30
280
     1
102
RTVSPost2010PropOp30
 70
     1
102
RTVSPost2010Prop31
280
     0
102
RTVSPost2010PropOp31
 70
     1
102
RTVSPost2010Prop32
280
     0
102
RTVSPost2010PropOp32
 70
     1
102
RTVSPost2010Prop33
280
     0
102
RTVSPost2010PropOp33
 70
     1
102
RTVSPost2010Prop34
280
     0
102
RTVSPost2010PropOp34
 70
     1
102
RTVSPost2010Prop35
280
     0
102
RTVSPost2010PropOp35
 70
     1
102
RTVSPost2010Prop36
280
     0
102
RTVSPost2010PropOp36
 70
     1
102
RTVSPost2010Prop37
 90
       50
102
RTVSPost2010PropOp37
 70
     1
102
RTVSPost2010Prop38
140
0.0
102
RTVSPost2010PropOp38
 70
     1
102
RTVSPost2010Prop39
140
1.0
102
RTVSPost2010PropOp39
 70
     1
102
RTVSPost2010Prop40
 90
        0
102
RTVSPost2010PropOp40
 70
     1
102
RTVSPost2010Prop41ColorIndex
 90
       18
102
RTVSPost2010Prop41ColorRGB
 90
        0
102
RTVSPost2010PropOp41
 70
     1
102
RTVSPost2010Prop42
 90
       50
102
RTVSPost2010PropOp42
 70
     1
102
RTVSPost2010Prop43
 90
        3
102
RTVSPost2010PropOp43
 70
     1
102
RTVSPost2010Prop44ColorIndex
 90
        5
102
RTVSPost2010Prop44ColorRGB
 90
      255
102
RTVSPost2010PropOp44
 70
     1
102
RTVSPost2010Prop45
280
     0
102
RTVSPost2010PropOp45
 70
     1
102
RTVSPost2010Prop46
 90
       50
102
RTVSPost2010PropOp46
 70
     1
102
RTVSPost2010Prop47
 90
       50
102
RTVSPost2010PropOp47
 70
     1
102
RTVSPost2010Prop48
 90
       50
102
RTVSPost2010PropOp48
 70
     1
102
RTVSPost2010Prop49
280
     0
102
RTVSPost2010PropOp49
 70
     1
102
RTVSPost2010Prop50
 90
       50
102
RTVSPost2010PropOp50
 70
     1
102
RTVSPost2010Prop51ColorIndex
 90
      256
102
RTVSPost2010Prop51ColorRGB
 90
-16777216
102
RTVSPost2010PropOp51
 70
     0
102
RTVSPost2010Prop52
140
1.0
102
RTVSPost2010PropOp52
 70
     0
102
RTVSPost2010Prop53
 90
        2
102
RTVSPost2010PropOp53
 70
     1
102
RTVSPost2010Prop54
  1
strokes_ogs.tif
102
RTVSPost2010PropOp54
 70
     1
102
RTVSPost2010Prop55
280
     0
102
RTVSPost2010PropOp55
 70
     1
102
RTVSPost2010Prop56
140
1.0
102
RTVSPost2010PropOp56
 70
     1
102
RTVSPost2010Prop57
140
1.0
102
RTVSPost2010PropOp57
 70
     1
  0
XRECORD
  5
E0
102
{ACAD_REACTORS
330
DF
102
}
330
DF
100
AcDbXrecord
280
     1
102
RTVSPropertyOp0
 70
     1
102
RTVSPropertyOp1
 70
     1
102
RTVSPropertyOp2
 70
     1
102
RTVSPropertyOp3
 70
     1
102
RTVSPropertyOp4
 70
     1
102
RTVSPropertyOp5
 70
     1
102
RTVSPropertyOp6
 70
     1
102
RTVSPropertyOp7
 70
     1
102
RTVSPropertyOp8
 70
     1
102
RTVSPropertyOp9
 70
     1
102
RTVSPropertyOp10
 70
     1
102
RTVSPropertyOp11
 70
     1
102
RTVSPropertyOp12
 70
     1
102
RTVSPropertyOp13
 70
     1
102
RTVSPropertyOp14
 70
     1
102
RTVSPropertyOp15
 70
     1
102
RTVSPropertyOp16
 70
     1
102
RTVSPropertyOp17
 70
     1
102
RTVSPropertyOp18
 70
     1
102
RTVSPropertyOp19
 70
     1
102
RTVSPropertyOp20
 70
     1
102
RTVSPropertyOp21
 70
     1
102
RTVSPropertyOp22
 70
     1
102
RTVSPropertyOp23
 70
     1
102
RTVSPropertyOp24
 70
     1
102
RTVSPropertyOp25
 70
     1
102
RTVSPropertyOp26
 70
     1
102
RTVSPropertyOp27
 70
     1
102
RTVSPropertyOp28
 70
     1
102
RTVSPropertyOp29
 70
     1
102
RTVSPropertyOp30
 70
     1
102
RTVSPropertyOp31
 70
     1
102
RTVSPropertyOp32
 70
     1
102
RTVSPropertyOp33
 70
     1
102
RTVSPropertyOp34
 70
     1
102
RTVSPropertyOp35
 70
     1
102
RTVSPropertyOp36
 70
     1
102
RTVSPropertyOp37
 70
     1
102
RTVSPropertyOp38
 70
     1
102
RTVSPropertyOp39
 70
     1
102
RTVSPropertyOp40
 70
     1
102
RTVSPropertyOp41
 70
     1
102
RTVSPropertyOp42
 70
     1
102
RTVSPropertyOp43
 70
     1
102
RTVSPropertyOp44
 70
     1
102
RTVSPropertyOp45
 70
     1
102
RTVSPropertyOp46
 70
     1
102
RTVSPropertyOp47
 70
     1
102
RTVSPropertyOp48
 70
     1
102
RTVSPropertyOp49
 70
     1
102
RTVSPropertyOp50
 70
     1
102
RTVSPropertyOp51
 70
     0
102
RTVSPropertyOp52
 70
     0
102
RTVSPropertyOp53
 70
     1
102
RTVSPropertyOp54
 70
     1
102
RTVSPropertyOp55
 70
     1
102
RTVSPropertyOp56
 70
     1
102
RTVSPropertyOp57
 70
     1
102
RTVSPost2010Prop28
280
     0
102
RTVSPost2010PropOp28
 70
     1
102
RTVSPost2010Prop29
280
     1
102
RTVSPost2010PropOp29
 70
     1
102
RTVSPost2010Prop30
280
     1
102
RTVSPost2010PropOp30
 70
     1
102
RTVSPost2010Prop31
280
     0
102
RTVSPost2010PropOp31
 70
     1
102
RTVSPost2010Prop32
280
     0
102
RTVSPost2010PropOp32
 70
     1
102
RTVSPost2010Prop33
280
     0
102
RTVSPost2010PropOp33
 70
     1
102
RTVSPost2010Prop34
280
     0
102
RTVSPost2010PropOp34
 70
     1
102
RTVSPost2010Prop35
280
     0
102
RTVSPost2010PropOp35
 70
     1
102
RTVSPost2010Prop36
280
     0
102
RTVSPost2010PropOp36
 70
     1
102
RTVSPost2010Prop37
 90
       50
102
RTVSPost2010PropOp37
 70
     1
102
RTVSPost2010Prop38
140
0.0
102
RTVSPost2010PropOp38
 70
     1
102
RTVSPost2010Prop39
140
1.0
102
RTVSPost2010PropOp39
 70
     1
102
RTVSPost2010Prop40
 90
        0
102
RTVSPost2010PropOp40
 70
     1
102
RTVSPost2010Prop41ColorIndex
 90
       18
102
RTVSPost2010Prop41ColorRGB
 90
        0
102
RTVSPost2010PropOp41
 70
     1
102
RTVSPost2010Prop42
 90
       50
102
RTVSPost2010PropOp42
 70
     1
102
RTVSPost2010Prop43
 90
        3
102
RTVSPost2010PropOp43
 70
     1
102
RTVSPost2010Prop44ColorIndex
 90
        5
102
RTVSPost2010Prop44ColorRGB
 90
      255
102
RTVSPost2010PropOp44
 70
     1
102
RTVSPost2010Prop45
280
     0
102
RTVSPost2010PropOp45
 70
     1
102
RTVSPost2010Prop46
 90
       50
102
RTVSPost2010PropOp46
 70
     1
102
RTVSPost2010Prop47
 90
       50
102
RTVSPost2010PropOp47
 70
     1
102
RTVSPost2010Prop48
 90
       50
102
RTVSPost2010PropOp48
 70
     1
102
RTVSPost2010Prop49
280
     0
102
RTVSPost2010PropOp49
 70
     1
102
RTVSPost2010Prop50
 90
       50
102
RTVSPost2010PropOp50
 70
     1
102
RTVSPost2010Prop51ColorIndex
 90
      256
102
RTVSPost2010Prop51ColorRGB
 90
-16777216
102
RTVSPost2010PropOp51
 70
     0
102
RTVSPost2010Prop52
140
1.0
102
RTVSPost2010PropOp52
 70
     0
102
RTVSPost2010Prop53
 90
        2
102
RTVSPost2010PropOp53
 70
     1
102
RTVSPost2010Prop54
  1
strokes_ogs.tif
102
RTVSPost2010PropOp54
 70
     1
102
RTVSPost2010Prop55
280
     0
102
RTVSPost2010PropOp55
 70
     1
102
RTVSPost2010Prop56
140
1.0
102
RTVSPost2010PropOp56
 70
     1
102
RTVSPost2010Prop57
140
1.0
102
RTVSPost2010PropOp57
 70
     1
  0
XRECORD
  5
DE
102
{ACAD_REACTORS
330
DD
102
}
330
DD
100
AcDbXrecord
280
     1
102
RTVSPropertyOp0
 70
     1
102
RTVSPropertyOp1
 70
     1
102
RTVSPropertyOp2
 70
     1
102
RTVSPropertyOp3
 70
     1
102
RTVSPropertyOp4
 70
     1
102
RTVSPropertyOp5
 70
     1
102
RTVSPropertyOp6
 70
     1
102
RTVSPropertyOp7
 70
     1
102
RTVSPropertyOp8
 70
     1
102
RTVSPropertyOp9
 70
     1
102
RTVSPropertyOp10
 70
     1
102
RTVSPropertyOp11
 70
     1
102
RTVSPropertyOp12
 70
     1
102
RTVSPropertyOp13
 70
     1
102
RTVSPropertyOp14
 70
     1
102
RTVSPropertyOp15
 70
     1
102
RTVSPropertyOp16
 70
     1
102
RTVSPropertyOp17
 70
     1
102
RTVSPropertyOp18
 70
     1
102
RTVSPropertyOp19
 70
     1
102
RTVSPropertyOp20
 70
     1
102
RTVSPropertyOp21
 70
     1
102
RTVSPropertyOp22
 70
     1
102
RTVSPropertyOp23
 70
     1
102
RTVSPropertyOp24
 70
     1
102
RTVSPropertyOp25
 70
     1
102
RTVSPropertyOp26
 70
     1
102
RTVSPropertyOp27
 70
     1
102
RTVSPropertyOp28
 70
     1
102
RTVSPropertyOp29
 70
     1
102
RTVSPropertyOp30
 70
     1
102
RTVSPropertyOp31
 70
     1
102
RTVSPropertyOp32
 70
     1
102
RTVSPropertyOp33
 70
     1
102
RTVSPropertyOp34
 70
     1
102
RTVSPropertyOp35
 70
     1
102
RTVSPropertyOp36
 70
     1
102
RTVSPropertyOp37
 70
     1
102
RTVSPropertyOp38
 70
     1
102
RTVSPropertyOp39
 70
     1
102
RTVSPropertyOp40
 70
     1
102
RTVSPropertyOp41
 70
     1
102
RTVSPropertyOp42
 70
     1
102
RTVSPropertyOp43
 70
     1
102
RTVSPropertyOp44
 70
     1
102
RTVSPropertyOp45
 70
     1
102
RTVSPropertyOp46
 70
     1
102
RTVSPropertyOp47
 70
     1
102
RTVSPropertyOp48
 70
     1
102
RTVSPropertyOp49
 70
     1
102
RTVSPropertyOp50
 70
     1
102
RTVSPropertyOp51
 70
     0
102
RTVSPropertyOp52
 70
     0
102
RTVSPropertyOp53
 70
     1
102
RTVSPropertyOp54
 70
     1
102
RTVSPropertyOp55
 70
     1
102
RTVSPropertyOp56
 70
     1
102
RTVSPropertyOp57
 70
     1
102
RTVSPost2010Prop28
280
     0
102
RTVSPost2010PropOp28
 70
     1
102
RTVSPost2010Prop29
280
     1
102
RTVSPost2010PropOp29
 70
     1
102
RTVSPost2010Prop30
280
     1
102
RTVSPost2010PropOp30
 70
     1
102
RTVSPost2010Prop31
280
     0
102
RTVSPost2010PropOp31
 70
     1
102
RTVSPost2010Prop32
280
     0
102
RTVSPost2010PropOp32
 70
     1
102
RTVSPost2010Prop33
280
     0
102
RTVSPost2010PropOp33
 70
     1
102
RTVSPost2010Prop34
280
     0
102
RTVSPost2010PropOp34
 70
     1
102
RTVSPost2010Prop35
280
     0
102
RTVSPost2010PropOp35
 70
     1
102
RTVSPost2010Prop36
280
     0
102
RTVSPost2010PropOp36
 70
     1
102
RTVSPost2010Prop37
 90
       50
102
RTVSPost2010PropOp37
 70
     1
102
RTVSPost2010Prop38
140
0.0
102
RTVSPost2010PropOp38
 70
     1
102
RTVSPost2010Prop39
140
1.0
102
RTVSPost2010PropOp39
 70
     1
102
RTVSPost2010Prop40
 90
        0
102
RTVSPost2010PropOp40
 70
     1
102
RTVSPost2010Prop41ColorIndex
 90
       18
102
RTVSPost2010Prop41ColorRGB
 90
        0
102
RTVSPost2010PropOp41
 70
     1
102
RTVSPost2010Prop42
 90
       50
102
RTVSPost2010PropOp42
 70
     1
102
RTVSPost2010Prop43
 90
        3
102
RTVSPost2010PropOp43
 70
     1
102
RTVSPost2010Prop44ColorIndex
 90
        5
102
RTVSPost2010Prop44ColorRGB
 90
      255
102
RTVSPost2010PropOp44
 70
     1
102
RTVSPost2010Prop45
280
     0
102
RTVSPost2010PropOp45
 70
     1
102
RTVSPost2010Prop46
 90
       50
102
RTVSPost2010PropOp46
 70
     1
102
RTVSPost2010Prop47
 90
       50
102
RTVSPost2010PropOp47
 70
     1
102
RTVSPost2010Prop48
 90
       50
102
RTVSPost2010PropOp48
 70
     1
102
RTVSPost2010Prop49
280
     0
102
RTVSPost2010PropOp49
 70
     1
102
RTVSPost2010Prop50
 90
       50
102
RTVSPost2010PropOp50
 70
     1
102
RTVSPost2010Prop51ColorIndex
 90
      256
102
RTVSPost2010Prop51ColorRGB
 90
-16777216
102
RTVSPost2010PropOp51
 70
     0
102
RTVSPost2010Prop52
140
1.0
102
RTVSPost2010PropOp52
 70
     0
102
RTVSPost2010Prop53
 90
        2
102
RTVSPost2010PropOp53
 70
     1
102
RTVSPost2010Prop54
  1
strokes_ogs.tif
102
RTVSPost2010PropOp54
 70
     1
102
RTVSPost2010Prop55
280
     0
102
RTVSPost2010PropOp55
 70
     1
102
RTVSPost2010Prop56
140
1.0
102
RTVSPost2010PropOp56
 70
     1
102
RTVSPost2010Prop57
140
1.0
102
RTVSPost2010PropOp57
 70
     1
  0
XRECORD
  5
D8
102
{ACAD_REACTORS
330
D7
102
}
330
D7
100
AcDbXrecord
280
     1
102
RTVSPropertyOp0
 70
     1
102
RTVSPropertyOp1
 70
     1
102
RTVSPropertyOp2
 70
     1
102
RTVSPropertyOp3
 70
     1
102
RTVSPropertyOp4
 70
     1
102
RTVSPropertyOp5
 70
     1
102
RTVSPropertyOp6
 70
     1
102
RTVSPropertyOp7
 70
     1
102
RTVSPropertyOp8
 70
     1
102
RTVSPropertyOp9
 70
     1
102
RTVSPropertyOp10
 70
     1
102
RTVSPropertyOp11
 70
     1
102
RTVSPropertyOp12
 70
     1
102
RTVSPropertyOp13
 70
     1
102
RTVSPropertyOp14
 70
     1
102
RTVSPropertyOp15
 70
     1
102
RTVSPropertyOp16
 70
     1
102
RTVSPropertyOp17
 70
     1
102
RTVSPropertyOp18
 70
     1
102
RTVSPropertyOp19
 70
     1
102
RTVSPropertyOp20
 70
     1
102
RTVSPropertyOp21
 70
     1
102
RTVSPropertyOp22
 70
     1
102
RTVSPropertyOp23
 70
     1
102
RTVSPropertyOp24
 70
     1
102
RTVSPropertyOp25
 70
     1
102
RTVSPropertyOp26
 70
     1
102
RTVSPropertyOp27
 70
     1
102
RTVSPropertyOp28
 70
     1
102
RTVSPropertyOp29
 70
     1
102
RTVSPropertyOp30
 70
     1
102
RTVSPropertyOp31
 70
     1
102
RTVSPropertyOp32
 70
     1
102
RTVSPropertyOp33
 70
     1
102
RTVSPropertyOp34
 70
     1
102
RTVSPropertyOp35
 70
     1
102
RTVSPropertyOp36
 70
     1
102
RTVSPropertyOp37
 70
     1
102
RTVSPropertyOp38
 70
     1
102
RTVSPropertyOp39
 70
     1
102
RTVSPropertyOp40
 70
     1
102
RTVSPropertyOp41
 70
     1
102
RTVSPropertyOp42
 70
     1
102
RTVSPropertyOp43
 70
     1
102
RTVSPropertyOp44
 70
     1
102
RTVSPropertyOp45
 70
     1
102
RTVSPropertyOp46
 70
     1
102
RTVSPropertyOp47
 70
     1
102
RTVSPropertyOp48
 70
     1
102
RTVSPropertyOp49
 70
     1
102
RTVSPropertyOp50
 70
     1
102
RTVSPropertyOp51
 70
     0
102
RTVSPropertyOp52
 70
     0
102
RTVSPropertyOp53
 70
     1
102
RTVSPropertyOp54
 70
     1
102
RTVSPropertyOp55
 70
     1
102
RTVSPropertyOp56
 70
     1
102
RTVSPropertyOp57
 70
     1
102
RTVSPost2010Prop28
280
     0
102
RTVSPost2010PropOp28
 70
     1
102
RTVSPost2010Prop29
280
     1
102
RTVSPost2010PropOp29
 70
     1
102
RTVSPost2010Prop30
280
     1
102
RTVSPost2010PropOp30
 70
     1
102
RTVSPost2010Prop31
280
     0
102
RTVSPost2010PropOp31
 70
     1
102
RTVSPost2010Prop32
280
     0
102
RTVSPost2010PropOp32
 70
     1
102
RTVSPost2010Prop33
280
     0
102
RTVSPost2010PropOp33
 70
     1
102
RTVSPost2010Prop34
280
     0
102
RTVSPost2010PropOp34
 70
     1
102
RTVSPost2010Prop35
280
     0
102
RTVSPost2010PropOp35
 70
     1
102
RTVSPost2010Prop36
280
     0
102
RTVSPost2010PropOp36
 70
     1
102
RTVSPost2010Prop37
 90
       50
102
RTVSPost2010PropOp37
 70
     1
102
RTVSPost2010Prop38
140
0.0
102
RTVSPost2010PropOp38
 70
     1
102
RTVSPost2010Prop39
140
1.0
102
RTVSPost2010PropOp39
 70
     1
102
RTVSPost2010Prop40
 90
        0
102
RTVSPost2010PropOp40
 70
     1
102
RTVSPost2010Prop41ColorIndex
 90
       18
102
RTVSPost2010Prop41ColorRGB
 90
        0
102
RTVSPost2010PropOp41
 70
     1
102
RTVSPost2010Prop42
 90
       50
102
RTVSPost2010PropOp42
 70
     1
102
RTVSPost2010Prop43
 90
        3
102
RTVSPost2010PropOp43
 70
     1
102
RTVSPost2010Prop44ColorIndex
 90
        5
102
RTVSPost2010Prop44ColorRGB
 90
      255
102
RTVSPost2010PropOp44
 70
     1
102
RTVSPost2010Prop45
280
     0
102
RTVSPost2010PropOp45
 70
     1
102
RTVSPost2010Prop46
 90
       50
102
RTVSPost2010PropOp46
 70
     1
102
RTVSPost2010Prop47
 90
       50
102
RTVSPost2010PropOp47
 70
     1
102
RTVSPost2010Prop48
 90
       50
102
RTVSPost2010PropOp48
 70
     1
102
RTVSPost2010Prop49
280
     0
102
RTVSPost2010PropOp49
 70
     1
102
RTVSPost2010Prop50
 90
       50
102
RTVSPost2010PropOp50
 70
     1
102
RTVSPost2010Prop51ColorIndex
 90
      256
102
RTVSPost2010Prop51ColorRGB
 90
-16777216
102
RTVSPost2010PropOp51
 70
     0
102
RTVSPost2010Prop52
140
1.0
102
RTVSPost2010PropOp52
 70
     0
102
RTVSPost2010Prop53
 90
        2
102
RTVSPost2010PropOp53
 70
     1
102
RTVSPost2010Prop54
  1
strokes_ogs.tif
102
RTVSPost2010PropOp54
 70
     1
102
RTVSPost2010Prop55
280
     0
102
RTVSPost2010PropOp55
 70
     1
102
RTVSPost2010Prop56
140
1.0
102
RTVSPost2010PropOp56
 70
     1
102
RTVSPost2010Prop57
140
1.0
102
RTVSPost2010PropOp57
 70
     1
  0
XRECORD
  5
DA
102
{ACAD_REACTORS
330
D9
102
}
330
D9
100
AcDbXrecord
280
     1
102
RTVSPropertyOp0
 70
     1
102
RTVSPropertyOp1
 70
     1
102
RTVSPropertyOp2
 70
     1
102
RTVSPropertyOp3
 70
     1
102
RTVSPropertyOp4
 70
     1
102
RTVSPropertyOp5
 70
     1
102
RTVSPropertyOp6
 70
     1
102
RTVSPropertyOp7
 70
     1
102
RTVSPropertyOp8
 70
     1
102
RTVSPropertyOp9
 70
     1
102
RTVSPropertyOp10
 70
     1
102
RTVSPropertyOp11
 70
     1
102
RTVSPropertyOp12
 70
     1
102
RTVSPropertyOp13
 70
     1
102
RTVSPropertyOp14
 70
     1
102
RTVSPropertyOp15
 70
     1
102
RTVSPropertyOp16
 70
     1
102
RTVSPropertyOp17
 70
     1
102
RTVSPropertyOp18
 70
     1
102
RTVSPropertyOp19
 70
     1
102
RTVSPropertyOp20
 70
     1
102
RTVSPropertyOp21
 70
     1
102
RTVSPropertyOp22
 70
     1
102
RTVSPropertyOp23
 70
     1
102
RTVSPropertyOp24
 70
     1
102
RTVSPropertyOp25
 70
     1
102
RTVSPropertyOp26
 70
     1
102
RTVSPropertyOp27
 70
     1
102
RTVSPropertyOp28
 70
     1
102
RTVSPropertyOp29
 70
     1
102
RTVSPropertyOp30
 70
     1
102
RTVSPropertyOp31
 70
     1
102
RTVSPropertyOp32
 70
     1
102
RTVSPropertyOp33
 70
     1
102
RTVSPropertyOp34
 70
     1
102
RTVSPropertyOp35
 70
     1
102
RTVSPropertyOp36
 70
     1
102
RTVSPropertyOp37
 70
     1
102
RTVSPropertyOp38
 70
     1
102
RTVSPropertyOp39
 70
     1
102
RTVSPropertyOp40
 70
     1
102
RTVSPropertyOp41
 70
     1
102
RTVSPropertyOp42
 70
     1
102
RTVSPropertyOp43
 70
     1
102
RTVSPropertyOp44
 70
     1
102
RTVSPropertyOp45
 70
     1
102
RTVSPropertyOp46
 70
     1
102
RTVSPropertyOp47
 70
     1
102
RTVSPropertyOp48
 70
     1
102
RTVSPropertyOp49
 70
     1
102
RTVSPropertyOp50
 70
     1
102
RTVSPropertyOp51
 70
     0
102
RTVSPropertyOp52
 70
     0
102
RTVSPropertyOp53
 70
     1
102
RTVSPropertyOp54
 70
     1
102
RTVSPropertyOp55
 70
     1
102
RTVSPropertyOp56
 70
     1
102
RTVSPropertyOp57
 70
     1
102
RTVSPost2010Prop28
280
     0
102
RTVSPost2010PropOp28
 70
     1
102
RTVSPost2010Prop29
280
     1
102
RTVSPost2010PropOp29
 70
     1
102
RTVSPost2010Prop30
280
     1
102
RTVSPost2010PropOp30
 70
     1
102
RTVSPost2010Prop31
280
     0
102
RTVSPost2010PropOp31
 70
     1
102
RTVSPost2010Prop32
280
     0
102
RTVSPost2010PropOp32
 70
     1
102
RTVSPost2010Prop33
280
     0
102
RTVSPost2010PropOp33
 70
     1
102
RTVSPost2010Prop34
280
     0
102
RTVSPost2010PropOp34
 70
     1
102
RTVSPost2010Prop35
280
     0
102
RTVSPost2010PropOp35
 70
     1
102
RTVSPost2010Prop36
280
     0
102
RTVSPost2010PropOp36
 70
     1
102
RTVSPost2010Prop37
 90
       50
102
RTVSPost2010PropOp37
 70
     1
102
RTVSPost2010Prop38
140
0.0
102
RTVSPost2010PropOp38
 70
     1
102
RTVSPost2010Prop39
140
1.0
102
RTVSPost2010PropOp39
 70
     1
102
RTVSPost2010Prop40
 90
        0
102
RTVSPost2010PropOp40
 70
     1
102
RTVSPost2010Prop41ColorIndex
 90
       18
102
RTVSPost2010Prop41ColorRGB
 90
        0
102
RTVSPost2010PropOp41
 70
     1
102
RTVSPost2010Prop42
 90
       50
102
RTVSPost2010PropOp42
 70
     1
102
RTVSPost2010Prop43
 90
        3
102
RTVSPost2010PropOp43
 70
     1
102
RTVSPost2010Prop44ColorIndex
 90
        5
102
RTVSPost2010Prop44ColorRGB
 90
      255
102
RTVSPost2010PropOp44
 70
     1
102
RTVSPost2010Prop45
280
     0
102
RTVSPost2010PropOp45
 70
     1
102
RTVSPost2010Prop46
 90
       50
102
RTVSPost2010PropOp46
 70
     1
102
RTVSPost2010Prop47
 90
       50
102
RTVSPost2010PropOp47
 70
     1
102
RTVSPost2010Prop48
 90
       50
102
RTVSPost2010PropOp48
 70
     1
102
RTVSPost2010Prop49
280
     0
102
RTVSPost2010PropOp49
 70
     1
102
RTVSPost2010Prop50
 90
       50
102
RTVSPost2010PropOp50
 70
     1
102
RTVSPost2010Prop51ColorIndex
 90
      256
102
RTVSPost2010Prop51ColorRGB
 90
-16777216
102
RTVSPost2010PropOp51
 70
     0
102
RTVSPost2010Prop52
140
1.0
102
RTVSPost2010PropOp52
 70
     0
102
RTVSPost2010Prop53
 90
        2
102
RTVSPost2010PropOp53
 70
     1
102
RTVSPost2010Prop54
  1
strokes_ogs.tif
102
RTVSPost2010PropOp54
 70
     1
102
RTVSPost2010Prop55
280
     0
102
RTVSPost2010PropOp55
 70
     1
102
RTVSPost2010Prop56
140
1.0
102
RTVSPost2010PropOp56
 70
     1
102
RTVSPost2010Prop57
140
1.0
102
RTVSPost2010PropOp57
 70
     1
  0
XRECORD
  5
CA
102
{ACAD_REACTORS
330
C9
102
}
330
C9
100
AcDbXrecord
280
     1
102
RTVSPropertyOp0
 70
     1
102
RTVSPropertyOp1
 70
     1
102
RTVSPropertyOp2
 70
     1
102
RTVSPropertyOp3
 70
     1
102
RTVSPropertyOp4
 70
     1
102
RTVSPropertyOp5
 70
     1
102
RTVSPropertyOp6
 70
     1
102
RTVSPropertyOp7
 70
     1
102
RTVSPropertyOp8
 70
     1
102
RTVSPropertyOp9
 70
     1
102
RTVSPropertyOp10
 70
     1
102
RTVSPropertyOp11
 70
     1
102
RTVSPropertyOp12
 70
     1
102
RTVSPropertyOp13
 70
     1
102
RTVSPropertyOp14
 70
     1
102
RTVSPropertyOp15
 70
     1
102
RTVSPropertyOp16
 70
     1
102
RTVSPropertyOp17
 70
     1
102
RTVSPropertyOp18
 70
     1
102
RTVSPropertyOp19
 70
     1
102
RTVSPropertyOp20
 70
     1
102
RTVSPropertyOp21
 70
     1
102
RTVSPropertyOp22
 70
     1
102
RTVSPropertyOp23
 70
     1
102
RTVSPropertyOp24
 70
     1
102
RTVSPropertyOp25
 70
     1
102
RTVSPropertyOp26
 70
     1
102
RTVSPropertyOp27
 70
     1
102
RTVSPropertyOp28
 70
     1
102
RTVSPropertyOp29
 70
     1
102
RTVSPropertyOp30
 70
     1
102
RTVSPropertyOp31
 70
     1
102
RTVSPropertyOp32
 70
     1
102
RTVSPropertyOp33
 70
     1
102
RTVSPropertyOp34
 70
     1
102
RTVSPropertyOp35
 70
     1
102
RTVSPropertyOp36
 70
     1
102
RTVSPropertyOp37
 70
     1
102
RTVSPropertyOp38
 70
     1
102
RTVSPropertyOp39
 70
     1
102
RTVSPropertyOp40
 70
     1
102
RTVSPropertyOp41
 70
     1
102
RTVSPropertyOp42
 70
     1
102
RTVSPropertyOp43
 70
     1
102
RTVSPropertyOp44
 70
     1
102
RTVSPropertyOp45
 70
     1
102
RTVSPropertyOp46
 70
     1
102
RTVSPropertyOp47
 70
     1
102
RTVSPropertyOp48
 70
     1
102
RTVSPropertyOp49
 70
     1
102
RTVSPropertyOp50
 70
     1
102
RTVSPropertyOp51
 70
     0
102
RTVSPropertyOp52
 70
     0
102
RTVSPropertyOp53
 70
     1
102
RTVSPropertyOp54
 70
     1
102
RTVSPropertyOp55
 70
     1
102
RTVSPropertyOp56
 70
     1
102
RTVSPropertyOp57
 70
     1
102
RTVSPost2010Prop28
280
     0
102
RTVSPost2010PropOp28
 70
     1
102
RTVSPost2010Prop29
280
     1
102
RTVSPost2010PropOp29
 70
     1
102
RTVSPost2010Prop30
280
     1
102
RTVSPost2010PropOp30
 70
     1
102
RTVSPost2010Prop31
280
     0
102
RTVSPost2010PropOp31
 70
     1
102
RTVSPost2010Prop32
280
     0
102
RTVSPost2010PropOp32
 70
     1
102
RTVSPost2010Prop33
280
     0
102
RTVSPost2010PropOp33
 70
     1
102
RTVSPost2010Prop34
280
     0
102
RTVSPost2010PropOp34
 70
     1
102
RTVSPost2010Prop35
280
     0
102
RTVSPost2010PropOp35
 70
     1
102
RTVSPost2010Prop36
280
     0
102
RTVSPost2010PropOp36
 70
     1
102
RTVSPost2010Prop37
 90
       50
102
RTVSPost2010PropOp37
 70
     1
102
RTVSPost2010Prop38
140
0.0
102
RTVSPost2010PropOp38
 70
     1
102
RTVSPost2010Prop39
140
1.0
102
RTVSPost2010PropOp39
 70
     1
102
RTVSPost2010Prop40
 90
        0
102
RTVSPost2010PropOp40
 70
     1
102
RTVSPost2010Prop41ColorIndex
 90
       18
102
RTVSPost2010Prop41ColorRGB
 90
        0
102
RTVSPost2010PropOp41
 70
     1
102
RTVSPost2010Prop42
 90
       50
102
RTVSPost2010PropOp42
 70
     1
102
RTVSPost2010Prop43
 90
        3
102
RTVSPost2010PropOp43
 70
     1
102
RTVSPost2010Prop44ColorIndex
 90
        5
102
RTVSPost2010Prop44ColorRGB
 90
      255
102
RTVSPost2010PropOp44
 70
     1
102
RTVSPost2010Prop45
280
     0
102
RTVSPost2010PropOp45
 70
     1
102
RTVSPost2010Prop46
 90
       50
102
RTVSPost2010PropOp46
 70
     1
102
RTVSPost2010Prop47
 90
       50
102
RTVSPost2010PropOp47
 70
     1
102
RTVSPost2010Prop48
 90
       50
102
RTVSPost2010PropOp48
 70
     1
102
RTVSPost2010Prop49
280
     0
102
RTVSPost2010PropOp49
 70
     1
102
RTVSPost2010Prop50
 90
       50
102
RTVSPost2010PropOp50
 70
     1
102
RTVSPost2010Prop51ColorIndex
 90
      256
102
RTVSPost2010Prop51ColorRGB
 90
-16777216
102
RTVSPost2010PropOp51
 70
     0
102
RTVSPost2010Prop52
140
1.0
102
RTVSPost2010PropOp52
 70
     0
102
RTVSPost2010Prop53
 90
        2
102
RTVSPost2010PropOp53
 70
     1
102
RTVSPost2010Prop54
  1
strokes_ogs.tif
102
RTVSPost2010PropOp54
 70
     1
102
RTVSPost2010Prop55
280
     0
102
RTVSPost2010PropOp55
 70
     1
102
RTVSPost2010Prop56
140
1.0
102
RTVSPost2010PropOp56
 70
     1
102
RTVSPost2010Prop57
140
1.0
102
RTVSPost2010PropOp57
 70
     1
  0
XRECORD
  5
BC
102
{ACAD_REACTORS
330
BB
102
}
330
BB
100
AcDbXrecord
280
     1
102
RTVSPropertyOp0
 70
     1
102
RTVSPropertyOp1
 70
     1
102
RTVSPropertyOp2
 70
     1
102
RTVSPropertyOp3
 70
     1
102
RTVSPropertyOp4
 70
     1
102
RTVSPropertyOp5
 70
     1
102
RTVSPropertyOp6
 70
     1
102
RTVSPropertyOp7
 70
     1
102
RTVSPropertyOp8
 70
     1
102
RTVSPropertyOp9
 70
     1
102
RTVSPropertyOp10
 70
     1
102
RTVSPropertyOp11
 70
     1
102
RTVSPropertyOp12
 70
     1
102
RTVSPropertyOp13
 70
     1
102
RTVSPropertyOp14
 70
     1
102
RTVSPropertyOp15
 70
     1
102
RTVSPropertyOp16
 70
     1
102
RTVSPropertyOp17
 70
     1
102
RTVSPropertyOp18
 70
     1
102
RTVSPropertyOp19
 70
     1
102
RTVSPropertyOp20
 70
     1
102
RTVSPropertyOp21
 70
     1
102
RTVSPropertyOp22
 70
     1
102
RTVSPropertyOp23
 70
     1
102
RTVSPropertyOp24
 70
     1
102
RTVSPropertyOp25
 70
     1
102
RTVSPropertyOp26
 70
     1
102
RTVSPropertyOp27
 70
     1
102
RTVSPropertyOp28
 70
     1
102
RTVSPropertyOp29
 70
     1
102
RTVSPropertyOp30
 70
     1
102
RTVSPropertyOp31
 70
     1
102
RTVSPropertyOp32
 70
     1
102
RTVSPropertyOp33
 70
     1
102
RTVSPropertyOp34
 70
     1
102
RTVSPropertyOp35
 70
     1
102
RTVSPropertyOp36
 70
     1
102
RTVSPropertyOp37
 70
     1
102
RTVSPropertyOp38
 70
     1
102
RTVSPropertyOp39
 70
     1
102
RTVSPropertyOp40
 70
     1
102
RTVSPropertyOp41
 70
     1
102
RTVSPropertyOp42
 70
     1
102
RTVSPropertyOp43
 70
     1
102
RTVSPropertyOp44
 70
     1
102
RTVSPropertyOp45
 70
     1
102
RTVSPropertyOp46
 70
     1
102
RTVSPropertyOp47
 70
     1
102
RTVSPropertyOp48
 70
     1
102
RTVSPropertyOp49
 70
     1
102
RTVSPropertyOp50
 70
     1
102
RTVSPropertyOp51
 70
     0
102
RTVSPropertyOp52
 70
     0
102
RTVSPropertyOp53
 70
     1
102
RTVSPropertyOp54
 70
     1
102
RTVSPropertyOp55
 70
     1
102
RTVSPropertyOp56
 70
     1
102
RTVSPropertyOp57
 70
     1
102
RTVSPost2010Prop28
280
     0
102
RTVSPost2010PropOp28
 70
     1
102
RTVSPost2010Prop29
280
     1
102
RTVSPost2010PropOp29
 70
     1
102
RTVSPost2010Prop30
280
     1
102
RTVSPost2010PropOp30
 70
     1
102
RTVSPost2010Prop31
280
     0
102
RTVSPost2010PropOp31
 70
     1
102
RTVSPost2010Prop32
280
     0
102
RTVSPost2010PropOp32
 70
     1
102
RTVSPost2010Prop33
280
     0
102
RTVSPost2010PropOp33
 70
     1
102
RTVSPost2010Prop34
280
     0
102
RTVSPost2010PropOp34
 70
     1
102
RTVSPost2010Prop35
280
     0
102
RTVSPost2010PropOp35
 70
     1
102
RTVSPost2010Prop36
280
     0
102
RTVSPost2010PropOp36
 70
     1
102
RTVSPost2010Prop37
 90
       50
102
RTVSPost2010PropOp37
 70
     1
102
RTVSPost2010Prop38
140
0.0
102
RTVSPost2010PropOp38
 70
     1
102
RTVSPost2010Prop39
140
1.0
102
RTVSPost2010PropOp39
 70
     1
102
RTVSPost2010Prop40
 90
        0
102
RTVSPost2010PropOp40
 70
     1
102
RTVSPost2010Prop41ColorIndex
 90
       18
102
RTVSPost2010Prop41ColorRGB
 90
        0
102
RTVSPost2010PropOp41
 70
     1
102
RTVSPost2010Prop42
 90
       50
102
RTVSPost2010PropOp42
 70
     1
102
RTVSPost2010Prop43
 90
        3
102
RTVSPost2010PropOp43
 70
     1
102
RTVSPost2010Prop44ColorIndex
 90
        5
102
RTVSPost2010Prop44ColorRGB
 90
      255
102
RTVSPost2010PropOp44
 70
     1
102
RTVSPost2010Prop45
280
     0
102
RTVSPost2010PropOp45
 70
     1
102
RTVSPost2010Prop46
 90
       50
102
RTVSPost2010PropOp46
 70
     1
102
RTVSPost2010Prop47
 90
       50
102
RTVSPost2010PropOp47
 70
     1
102
RTVSPost2010Prop48
 90
       50
102
RTVSPost2010PropOp48
 70
     1
102
RTVSPost2010Prop49
280
     0
102
RTVSPost2010PropOp49
 70
     1
102
RTVSPost2010Prop50
 90
       50
102
RTVSPost2010PropOp50
 70
     1
102
RTVSPost2010Prop51ColorIndex
 90
      256
102
RTVSPost2010Prop51ColorRGB
 90
-16777216
102
RTVSPost2010PropOp51
 70
     0
102
RTVSPost2010Prop52
140
1.0
102
RTVSPost2010PropOp52
 70
     0
102
RTVSPost2010Prop53
 90
        2
102
RTVSPost2010PropOp53
 70
     1
102
RTVSPost2010Prop54
  1
strokes_ogs.tif
102
RTVSPost2010PropOp54
 70
     1
102
RTVSPost2010Prop55
280
     0
102
RTVSPost2010PropOp55
 70
     1
102
RTVSPost2010Prop56
140
1.0
102
RTVSPost2010PropOp56
 70
     1
102
RTVSPost2010Prop57
140
1.0
102
RTVSPost2010PropOp57
 70
     1
  0
XRECORD
  5
DC
102
{ACAD_REACTORS
330
DB
102
}
330
DB
100
AcDbXrecord
280
     1
102
RTVSPropertyOp0
 70
     1
102
RTVSPropertyOp1
 70
     1
102
RTVSPropertyOp2
 70
     1
102
RTVSPropertyOp3
 70
     1
102
RTVSPropertyOp4
 70
     1
102
RTVSPropertyOp5
 70
     1
102
RTVSPropertyOp6
 70
     1
102
RTVSPropertyOp7
 70
     1
102
RTVSPropertyOp8
 70
     1
102
RTVSPropertyOp9
 70
     1
102
RTVSPropertyOp10
 70
     1
102
RTVSPropertyOp11
 70
     1
102
RTVSPropertyOp12
 70
     1
102
RTVSPropertyOp13
 70
     1
102
RTVSPropertyOp14
 70
     1
102
RTVSPropertyOp15
 70
     1
102
RTVSPropertyOp16
 70
     1
102
RTVSPropertyOp17
 70
     1
102
RTVSPropertyOp18
 70
     1
102
RTVSPropertyOp19
 70
     1
102
RTVSPropertyOp20
 70
     1
102
RTVSPropertyOp21
 70
     1
102
RTVSPropertyOp22
 70
     1
102
RTVSPropertyOp23
 70
     1
102
RTVSPropertyOp24
 70
     1
102
RTVSPropertyOp25
 70
     1
102
RTVSPropertyOp26
 70
     1
102
RTVSPropertyOp27
 70
     1
102
RTVSPropertyOp28
 70
     1
102
RTVSPropertyOp29
 70
     1
102
RTVSPropertyOp30
 70
     1
102
RTVSPropertyOp31
 70
     1
102
RTVSPropertyOp32
 70
     1
102
RTVSPropertyOp33
 70
     1
102
RTVSPropertyOp34
 70
     1
102
RTVSPropertyOp35
 70
     1
102
RTVSPropertyOp36
 70
     1
102
RTVSPropertyOp37
 70
     1
102
RTVSPropertyOp38
 70
     1
102
RTVSPropertyOp39
 70
     1
102
RTVSPropertyOp40
 70
     1
102
RTVSPropertyOp41
 70
     1
102
RTVSPropertyOp42
 70
     1
102
RTVSPropertyOp43
 70
     1
102
RTVSPropertyOp44
 70
     1
102
RTVSPropertyOp45
 70
     1
102
RTVSPropertyOp46
 70
     1
102
RTVSPropertyOp47
 70
     1
102
RTVSPropertyOp48
 70
     1
102
RTVSPropertyOp49
 70
     1
102
RTVSPropertyOp50
 70
     1
102
RTVSPropertyOp51
 70
     0
102
RTVSPropertyOp52
 70
     0
102
RTVSPropertyOp53
 70
     1
102
RTVSPropertyOp54
 70
     1
102
RTVSPropertyOp55
 70
     1
102
RTVSPropertyOp56
 70
     1
102
RTVSPropertyOp57
 70
     1
102
RTVSPost2010Prop28
280
     0
102
RTVSPost2010PropOp28
 70
     1
102
RTVSPost2010Prop29
280
     1
102
RTVSPost2010PropOp29
 70
     1
102
RTVSPost2010Prop30
280
     1
102
RTVSPost2010PropOp30
 70
     1
102
RTVSPost2010Prop31
280
     0
102
RTVSPost2010PropOp31
 70
     1
102
RTVSPost2010Prop32
280
     0
102
RTVSPost2010PropOp32
 70
     1
102
RTVSPost2010Prop33
280
     0
102
RTVSPost2010PropOp33
 70
     1
102
RTVSPost2010Prop34
280
     0
102
RTVSPost2010PropOp34
 70
     1
102
RTVSPost2010Prop35
280
     0
102
RTVSPost2010PropOp35
 70
     1
102
RTVSPost2010Prop36
280
     0
102
RTVSPost2010PropOp36
 70
     1
102
RTVSPost2010Prop37
 90
       50
102
RTVSPost2010PropOp37
 70
     1
102
RTVSPost2010Prop38
140
0.0
102
RTVSPost2010PropOp38
 70
     1
102
RTVSPost2010Prop39
140
1.0
102
RTVSPost2010PropOp39
 70
     1
102
RTVSPost2010Prop40
 90
        0
102
RTVSPost2010PropOp40
 70
     1
102
RTVSPost2010Prop41ColorIndex
 90
       18
102
RTVSPost2010Prop41ColorRGB
 90
        0
102
RTVSPost2010PropOp41
 70
     1
102
RTVSPost2010Prop42
 90
       50
102
RTVSPost2010PropOp42
 70
     1
102
RTVSPost2010Prop43
 90
        3
102
RTVSPost2010PropOp43
 70
     1
102
RTVSPost2010Prop44ColorIndex
 90
        5
102
RTVSPost2010Prop44ColorRGB
 90
      255
102
RTVSPost2010PropOp44
 70
     1
102
RTVSPost2010Prop45
280
     0
102
RTVSPost2010PropOp45
 70
     1
102
RTVSPost2010Prop46
 90
       50
102
RTVSPost2010PropOp46
 70
     1
102
RTVSPost2010Prop47
 90
       50
102
RTVSPost2010PropOp47
 70
     1
102
RTVSPost2010Prop48
 90
       50
102
RTVSPost2010PropOp48
 70
     1
102
RTVSPost2010Prop49
280
     0
102
RTVSPost2010PropOp49
 70
     1
102
RTVSPost2010Prop50
 90
       50
102
RTVSPost2010PropOp50
 70
     1
102
RTVSPost2010Prop51ColorIndex
 90
      256
102
RTVSPost2010Prop51ColorRGB
 90
-16777216
102
RTVSPost2010PropOp51
 70
     0
102
RTVSPost2010Prop52
140
1.0
102
RTVSPost2010PropOp52
 70
     0
102
RTVSPost2010Prop53
 90
        2
102
RTVSPost2010PropOp53
 70
     1
102
RTVSPost2010Prop54
  1
strokes_ogs.tif
102
RTVSPost2010PropOp54
 70
     1
102
RTVSPost2010Prop55
280
     0
102
RTVSPost2010PropOp55
 70
     1
102
RTVSPost2010Prop56
140
1.0
102
RTVSPost2010PropOp56
 70
     1
102
RTVSPost2010Prop57
140
1.0
102
RTVSPost2010PropOp57
 70
     1
  0
ENDSEC
  0
EOF
