  0
SECTION
  2
HEADER
  9
$ACADVER
  1
AC1027
  9
$ACADMAINTVER
 70
   125
  9
$DWGCODEPAGE
  3
ANSI_1252
  9
$LASTSAVEDBY
  1
kaschu
  9
$REQUIREDVERSIONS
160
                 0
  9
$INSBASE
 10
0.0
 20
0.0
 30
0.0
  9
$EXTMIN
 10
45.335688
 20
27.65471232545932
 30
0.0
  9
$EXTMAX
 10
643.1900047868947
 20
336.445946
 30
0.000000000000005
  9
$LIMMIN
 10
-0.5
 20
-0.5
  9
$LIMMAX
 10
5.0
 20
5.0
  9
$ORTHOMODE
 70
     0
  9
$REGENMODE
 70
     1
  9
$FILLMODE
 70
     1
  9
$QTEXTMODE
 70
     0
  9
$MIRRTEXT
 70
     1
  9
$LTSCALE
 40
1.0
  9
$ATTMODE
 70
     1
  9
$TEXTSIZE
 40
0.2
  9
$TRACEWID
 40
0.05
  9
$TEXTSTYLE
  7
Standard
  9
$CLAYER
  8
0
  9
$CELTYPE
  6
ByLayer
  9
$CECOLOR
 62
   256
  9
$CELTSCALE
 40
1.0
  9
$DISPSILH
 70
     0
  9
$DIMSCALE
 40
1.0
  9
$DIMASZ
 40
0.18
  9
$DIMEXO
 40
0.0625
  9
$DIMDLI
 40
0.38
  9
$DIMRND
 40
0.0
  9
$DIMDLE
 40
0.0
  9
$DIMEXE
 40
0.18
  9
$DIMTP
 40
0.0
  9
$DIMTM
 40
0.0
  9
$DIMTXT
 40
0.18
  9
$DIMCEN
 40
0.09
  9
$DIMTSZ
 40
0.0
  9
$DIMTOL
 70
     0
  9
$DIMLIM
 70
     0
  9
$DIMTIH
 70
     1
  9
$DIMTOH
 70
     1
  9
$DIMSE1
 70
     0
  9
$DIMSE2
 70
     0
  9
$DIMTAD
 70
     0
  9
$DIMZIN
 70
     0
  9
$DIMBLK
  1

  9
$DIMASO
 70
     1
  9
$DIMSHO
 70
     1
  9
$DIMPOST
  1

  9
$DIMAPOST
  1

  9
$DIMALT
 70
     0
  9
$DIMALTD
 70
     2
  9
$DIMALTF
 40
25.4
  9
$DIMLFAC
 40
1.0
  9
$DIMTOFL
 70
     0
  9
$DIMTVP
 40
0.0
  9
$DIMTIX
 70
     0
  9
$DIMSOXD
 70
     0
  9
$DIMSAH
 70
     0
  9
$DIMBLK1
  1

  9
$DIMBLK2
  1

  9
$DIMSTYLE
  2
Standard
  9
$DIMCLRD
 70
     0
  9
$DIMCLRE
 70
     0
  9
$DIMCLRT
 70
     0
  9
$DIMTFAC
 40
1.0
  9
$DIMGAP
 40
0.09
  9
$DIMJUST
 70
     0
  9
$DIMSD1
 70
     0
  9
$DIMSD2
 70
     0
  9
$DIMTOLJ
 70
     1
  9
$DIMTZIN
 70
     0
  9
$DIMALTZ
 70
     0
  9
$DIMALTTZ
 70
     0
  9
$DIMUPT
 70
     0
  9
$DIMDEC
 70
     4
  9
$DIMTDEC
 70
     4
  9
$DIMALTU
 70
     2
  9
$DIMALTTD
 70
     2
  9
$DIMTXSTY
  7
Standard
  9
$DIMAUNIT
 70
     0
  9
$DIMADEC
 70
     0
  9
$DIMALTRND
 40
0.0
  9
$DIMAZIN
 70
     0
  9
$DIMDSEP
 70
    46
  9
$DIMATFIT
 70
     3
  9
$DIMFRAC
 70
     0
  9
$DIMLDRBLK
  1

  9
$DIMLUNIT
 70
     2
  9
$DIMLWD
 70
    -2
  9
$DIMLWE
 70
    -2
  9
$DIMTMOVE
 70
     0
  9
$DIMFXL
 40
1.0
  9
$DIMFXLON
 70
     0
  9
$DIMJOGANG
 40
0.7853981633974483
  9
$DIMTFILL
 70
     0
  9
$DIMTFILLCLR
 70
     0
  9
$DIMARCSYM
 70
     0
  9
$DIMLTYPE
  6

  9
$DIMLTEX1
  6

  9
$DIMLTEX2
  6

  9
$DIMTXTDIRECTION
 70
     0
  9
$LUNITS
 70
     2
  9
$LUPREC
 70
     4
  9
$SKETCHINC
 40
0.1
  9
$FILLETRAD
 40
0.5
  9
$AUNITS
 70
     0
  9
$AUPREC
 70
     0
  9
$MENU
  1
.
  9
$ELEVATION
 40
0.0
  9
$PELEVATION
 40
0.0
  9
$THICKNESS
 40
0.0
  9
$LIMCHECK
 70
     0
  9
$CHAMFERA
 40
0.0
  9
$CHAMFERB
 40
0.0
  9
$CHAMFERC
 40
0.0
  9
$CHAMFERD
 40
0.0
  9
$SKPOLY
 70
     0
  9
$TDCREATE
 40
2460031.609166667
  9
$TDUCREATE
 40
2460031.525842720
  9
$TDUPDATE
 40
2460235.459131944
  9
$TDUUPDATE
 40
2460235.375798611
  9
$TDINDWG
 40
0.0005324190
  9
$TDUSRTIMER
 40
0.0005324190
  9
$USRTIMER
 70
     1
  9
$ANGBASE
 50
0.0
  9
$ANGDIR
 70
     0
  9
$PDMODE
 70
     0
  9
$PDSIZE
 40
0.0
  9
$PLINEWID
 40
0.0
  9
$SPLFRAME
 70
     0
  9
$SPLINETYPE
 70
     6
  9
$SPLINESEGS
 70
     8
  9
$HANDSEED
  5
1D8
  9
$SURFTAB1
 70
     6
  9
$SURFTAB2
 70
     6
  9
$SURFTYPE
 70
     6
  9
$SURFU
 70
     6
  9
$SURFV
 70
     6
  9
$UCSBASE
  2

  9
$UCSNAME
  2

  9
$UCSORG
 10
0.0
 20
0.0
 30
0.0
  9
$UCSXDIR
 10
1.0
 20
0.0
 30
0.0
  9
$UCSYDIR
 10
0.0
 20
1.0
 30
0.0
  9
$UCSORTHOREF
  2

  9
$UCSORTHOVIEW
 70
     0
  9
$UCSORGTOP
 10
0.0
 20
0.0
 30
0.0
  9
$UCSORGBOTTOM
 10
0.0
 20
0.0
 30
0.0
  9
$UCSORGLEFT
 10
0.0
 20
0.0
 30
0.0
  9
$UCSORGRIGHT
 10
0.0
 20
0.0
 30
0.0
  9
$UCSORGFRONT
 10
0.0
 20
0.0
 30
0.0
  9
$UCSORGBACK
 10
0.0
 20
0.0
 30
0.0
  9
$PUCSBASE
  2

  9
$PUCSNAME
  2

  9
$PUCSORG
 10
0.0
 20
0.0
 30
0.0
  9
$PUCSXDIR
 10
1.0
 20
0.0
 30
0.0
  9
$PUCSYDIR
 10
0.0
 20
1.0
 30
0.0
  9
$PUCSORTHOREF
  2

  9
$PUCSORTHOVIEW
 70
     0
  9
$PUCSORGTOP
 10
0.0
 20
0.0
 30
0.0
  9
$PUCSORGBOTTOM
 10
0.0
 20
0.0
 30
0.0
  9
$PUCSORGLEFT
 10
0.0
 20
0.0
 30
0.0
  9
$PUCSORGRIGHT
 10
0.0
 20
0.0
 30
0.0
  9
$PUCSORGFRONT
 10
0.0
 20
0.0
 30
0.0
  9
$PUCSORGBACK
 10
0.0
 20
0.0
 30
0.0
  9
$USERI1
 70
     0
  9
$USERI2
 70
     0
  9
$USERI3
 70
     0
  9
$USERI4
 70
     0
  9
$USERI5
 70
     0
  9
$USERR1
 40
0.0
  9
$USERR2
 40
0.0
  9
$USERR3
 40
0.0
  9
$USERR4
 40
0.0
  9
$USERR5
 40
0.0
  9
$WORLDVIEW
 70
     1
  9
$SHADEDGE
 70
     3
  9
$SHADEDIF
 70
    70
  9
$TILEMODE
 70
     1
  9
$MAXACTVP
 70
    64
  9
$PINSBASE
 10
0.0
 20
0.0
 30
0.0
  9
$PLIMCHECK
 70
     0
  9
$PEXTMIN
 10
-0.5
 20
-0.5
 30
-0.5
  9
$PEXTMAX
 10
5.0
 20
5.0
 30
5.0
  9
$PLIMMIN
 10
-0.5
 20
-0.5
  9
$PLIMMAX
 10
5.0
 20
5.0
  9
$UNITMODE
 70
     0
  9
$VISRETAIN
 70
     1
  9
$PLINEGEN
 70
     0
  9
$PSLTSCALE
 70
     1
  9
$TREEDEPTH
 70
  3020
  9
$CMLSTYLE
  2
Standard
  9
$CMLJUST
 70
     0
  9
$CMLSCALE
 40
1.0
  9
$PROXYGRAPHICS
 70
     1
  9
$MEASUREMENT
 70
     1
  9
$CELWEIGHT
370
    18
  9
$ENDCAPS
280
     0
  9
$JOINSTYLE
280
     0
  9
$LWDISPLAY
290
     1
  9
$INSUNITS
 70
     4
  9
$HYPERLINKBASE
  1

  9
$STYLESHEET
  1

  9
$XEDIT
290
     1
  9
$CEPSNTYPE
380
     0
  9
$PSTYLEMODE
290
     1
  9
$FINGERPRINTGUID
  2
{B3F89235-C363-4A8F-8DBF-B2A70A012FBE}
  9
$VERSIONGUID
  2
{1FE5B813-FEA1-464E-86AA-1DF693082311}
  9
$EXTNAMES
290
     1
  9
$PSVPSCALE
 40
0.0
  9
$OLESTARTUP
290
     0
  9
$SORTENTS
280
   127
  9
$INDEXCTL
280
     0
  9
$HIDETEXT
280
     1
  9
$XCLIPFRAME
280
     2
  9
$HALOGAP
280
     0
  9
$OBSCOLOR
 70
   257
  9
$OBSLTYPE
280
     0
  9
$INTERSECTIONDISPLAY
280
     0
  9
$INTERSECTIONCOLOR
 70
   257
  9
$DIMASSOC
280
     2
  9
$PROJECTNAME
  1

  9
$CAMERADISPLAY
290
     0
  9
$LENSLENGTH
 40
50.0
  9
$CAMERAHEIGHT
 40
0.0
  9
$STEPSPERSEC
 40
2.0
  9
$STEPSIZE
 40
6.0
  9
$3DDWFPREC
 40
2.0
  9
$PSOLWIDTH
 40
0.25
  9
$PSOLHEIGHT
 40
4.0
  9
$LOFTANG1
 40
1.570796326794896
  9
$LOFTANG2
 40
1.570796326794896
  9
$LOFTMAG1
 40
0.0
  9
$LOFTMAG2
 40
0.0
  9
$LOFTPARAM
 70
     7
  9
$LOFTNORMALS
280
     1
  9
$LATITUDE
 40
37.795
  9
$LONGITUDE
 40
-122.394
  9
$NORTHDIRECTION
 40
0.0
  9
$TIMEZONE
 70
 -8000
  9
$LIGHTGLYPHDISPLAY
280
     1
  9
$TILEMODELIGHTSYNCH
280
     1
  9
$CMATERIAL
347
44
  9
$SOLIDHIST
280
     0
  9
$SHOWHIST
280
     1
  9
$DWFFRAME
280
     2
  9
$DGNFRAME
280
     0
  9
$REALWORLDSCALE
290
     1
  9
$INTERFERECOLOR
 62
     1
  9
$INTERFEREOBJVS
345
33
  9
$INTERFEREVPVS
346
30
  9
$CSHADOW
280
     0
  9
$SHADOWPLANELOCATION
 40
0.0
  0
ENDSEC
  0
SECTION
  2
CLASSES
  0
CLASS
  1
ACDBDICTIONARYWDFLT
  2
AcDbDictionaryWithDefault
  3
ObjectDBX Classes
 90
        0
 91
        1
280
     0
281
     0
  0
CLASS
  1
VISUALSTYLE
  2
AcDbVisualStyle
  3
ObjectDBX Classes
 90
     4095
 91
       24
280
     0
281
     0
  0
CLASS
  1
MATERIAL
  2
AcDbMaterial
  3
ObjectDBX Classes
 90
     1153
 91
        3
280
     0
281
     0
  0
CLASS
  1
SCALE
  2
AcDbScale
  3
ObjectDBX Classes
 90
     1153
 91
       33
280
     0
281
     0
  0
CLASS
  1
TABLESTYLE
  2
AcDbTableStyle
  3
ObjectDBX Classes
 90
     4095
 91
        1
280
     0
281
     0
  0
CLASS
  1
MLEADERSTYLE
  2
AcDbMLeaderStyle
  3
ACDB_MLEADERSTYLE_CLASS
 90
     4095
 91
        1
280
     0
281
     0
  0
CLASS
  1
SUN
  2
AcDbSun
  3
SCENEOE
 90
     1153
 91
        0
280
     0
281
     0
  0
CLASS
  1
DICTIONARYVAR
  2
AcDbDictionaryVar
  3
ObjectDBX Classes
 90
        0
 91
       10
280
     0
281
     0
  0
CLASS
  1
CELLSTYLEMAP
  2
AcDbCellStyleMap
  3
ObjectDBX Classes
 90
     1152
 91
        2
280
     0
281
     0
  0
CLASS
  1
ACDBSECTIONVIEWSTYLE
  2
AcDbSectionViewStyle
  3
ObjectDBX Classes
 90
     1025
 91
        1
280
     0
281
     0
  0
CLASS
  1
ACDBDETAILVIEWSTYLE
  2
AcDbDetailViewStyle
  3
ObjectDBX Classes
 90
     1025
 91
        1
280
     0
281
     0
  0
ENDSEC
  0
SECTION
  2
TABLES
  0
TABLE
  2
VPORT
  5
8
330
0
100
AcDbSymbolTable
 70
    16
1001
ACAD
1000
DbSaveVer
1071
      224
  0
VPORT
  5
29
330
8
100
AcDbSymbolTableRecord
100
AcDbViewportTableRecord
  2
*Active
 70
     0
 10
0.0
 20
0.0
 11
1.0
 21
1.0
 12
417.5339386237491
 22
184.1523248914218
 13
0.0
 23
0.0
 14
0.5
 24
0.5
 15
0.5
 25
0.5
 16
0.0
 26
0.0
 36
1.0
 17
0.0
 27
0.0
 37
0.0
 40
498.1920003063069
 41
2.209601873536299
 42
50.0
 43
954.2345789999998
 44
-954.2345789999998
 50
0.0
 51
0.0
 71
     0
 72
   100
 73
     1
 74
     3
 75
     0
 76
     0
 77
     0
 78
     0
281
     0
 65
     1
110
0.0
120
0.0
130
0.0
111
1.0
121
0.0
131
0.0
112
0.0
122
1.0
132
0.0
 79
     0
146
0.0
348
2F
 60
     3
 61
     5
292
     1
282
     1
141
0.0
142
0.0
 63
   250
421
  3355443
1001
ACAD_NAV_VCDISPLAY
1070
     3
  0
VPORT
  5
159
330
8
100
AcDbSymbolTableRecord
100
AcDbViewportTableRecord
  2
L1
 70
     0
 10
0.0
 20
0.0
 11
1.0
 21
1.0
 12
305.410733
 22
181.464067
 13
0.0
 23
0.0
 14
0.5
 24
0.5
 15
0.5
 25
0.5
 16
0.0
 26
0.0
 36
1.0
 17
0.0
 27
0.0
 37
0.0
 40
254.0
 41
0.069908
 42
50.0
 43
954.2345789999998
 44
-954.2345789999998
 50
0.0
 51
0.0
 71
     0
 72
   100
 73
     1
 74
     3
 75
     0
 76
     0
 77
     0
 78
     0
281
     0
 65
     1
110
0.0
120
0.0
130
0.0
111
1.0
121
0.0
131
0.0
112
0.0
122
1.0
132
0.0
 79
     0
146
0.0
348
2F
 60
     3
 61
     5
292
     1
282
     1
141
0.0
142
0.0
 63
   250
421
  3355443
  0
VPORT
  5
15A
330
8
100
AcDbSymbolTableRecord
100
AcDbViewportTableRecord
  2
L2
 70
     0
 10
0.0
 20
0.0
 11
0.5
 21
1.0
 12
0.0
 22
0.0
 13
0.0
 23
0.0
 14
0.5
 24
0.5
 15
0.5
 25
0.5
 16
0.0
 26
-1.0
 36
0.0
 17
0.0
 27
0.0
 37
0.0
 40
1319.822715
 41
0.013454
 42
50.0
 43
672.020833
 44
-672.020833
 50
0.0
 51
0.0
 71
     0
 72
   100
 73
     1
 74
     3
 75
     0
 76
     0
 77
     0
 78
     0
281
     0
 65
     1
110
0.0
120
0.0
130
0.0
111
1.0
121
0.0
131
0.0
112
0.0
122
1.0
132
0.0
 79
     0
146
0.0
348
2F
 60
     3
 61
     5
292
     1
282
     1
141
0.0
142
0.0
 63
   250
421
  3355443
  0
VPORT
  5
15B
330
8
100
AcDbSymbolTableRecord
100
AcDbViewportTableRecord
  2
L2
 70
     0
 10
0.5
 20
0.0
 11
1.0
 21
1.0
 12
0.0
 22
0.0
 13
0.0
 23
0.0
 14
0.5
 24
0.5
 15
0.5
 25
0.5
 16
1.0
 26
0.0
 36
0.0
 17
0.0
 27
0.0
 37
0.0
 40
1319.822715
 41
0.013454
 42
50.0
 43
672.020833
 44
-672.020833
 50
0.0
 51
0.0
 71
     0
 72
   100
 73
     1
 74
     3
 75
     0
 76
     0
 77
     0
 78
     0
281
     0
 65
     1
110
0.0
120
0.0
130
0.0
111
1.0
121
0.0
131
0.0
112
0.0
122
1.0
132
0.0
 79
     0
146
0.0
348
2F
 60
     3
 61
     5
292
     1
282
     1
141
0.0
142
0.0
 63
   250
421
  3355443
  0
VPORT
  5
15C
330
8
100
AcDbSymbolTableRecord
100
AcDbViewportTableRecord
  2
L3
 70
     0
 10
0.0
 20
0.5
 11
1.0
 21
1.0
 12
305.410733
 22
181.464067
 13
0.0
 23
0.0
 14
0.5
 24
0.5
 15
0.5
 25
0.5
 16
0.0
 26
0.0
 36
1.0
 17
0.0
 27
0.0
 37
0.0
 40
254.0
 41
0.069908
 42
50.0
 43
954.2345789999998
 44
-954.2345789999998
 50
0.0
 51
0.0
 71
     0
 72
   100
 73
     1
 74
     3
 75
     0
 76
     0
 77
     0
 78
     0
281
     0
 65
     1
110
0.0
120
0.0
130
0.0
111
1.0
121
0.0
131
0.0
112
0.0
122
1.0
132
0.0
 79
     0
146
0.0
348
2F
 60
     3
 61
     5
292
     1
282
     1
141
0.0
142
0.0
 63
   250
421
  3355443
  0
VPORT
  5
15D
330
8
100
AcDbSymbolTableRecord
100
AcDbViewportTableRecord
  2
L3
 70
     0
 10
0.0
 20
0.0
 11
1.0
 21
0.5
 12
0.0
 22
0.0
 13
0.0
 23
0.0
 14
0.5
 24
0.5
 15
0.5
 25
0.5
 16
0.0
 26
-1.0
 36
0.0
 17
0.0
 27
0.0
 37
0.0
 40
1319.822715
 41
0.013454
 42
50.0
 43
672.020833
 44
-672.020833
 50
0.0
 51
0.0
 71
     0
 72
   100
 73
     1
 74
     3
 75
     0
 76
     0
 77
     0
 78
     0
281
     0
 65
     1
110
0.0
120
0.0
130
0.0
111
1.0
121
0.0
131
0.0
112
0.0
122
1.0
132
0.0
 79
     0
146
0.0
348
2F
 60
     3
 61
     5
292
     1
282
     1
141
0.0
142
0.0
 63
   250
421
  3355443
  0
VPORT
  5
15E
330
8
100
AcDbSymbolTableRecord
100
AcDbViewportTableRecord
  2
L4
 70
     0
 10
0.0
 20
0.5
 11
0.5
 21
1.0
 12
305.410733
 22
181.464067
 13
0.0
 23
0.0
 14
0.5
 24
0.5
 15
0.5
 25
0.5
 16
0.0
 26
0.0
 36
1.0
 17
0.0
 27
0.0
 37
0.0
 40
254.0
 41
0.069908
 42
50.0
 43
954.2345789999998
 44
-954.2345789999998
 50
0.0
 51
0.0
 71
     0
 72
   100
 73
     1
 74
     3
 75
     0
 76
     0
 77
     0
 78
     0
281
     0
 65
     1
110
0.0
120
0.0
130
0.0
111
1.0
121
0.0
131
0.0
112
0.0
122
1.0
132
0.0
 79
     0
146
0.0
348
2F
 60
     3
 61
     5
292
     1
282
     1
141
0.0
142
0.0
 63
   250
421
  3355443
  0
VPORT
  5
15F
330
8
100
AcDbSymbolTableRecord
100
AcDbViewportTableRecord
  2
L4
 70
     0
 10
0.0
 20
0.0
 11
0.5
 21
0.5
 12
0.0
 22
0.0
 13
0.0
 23
0.0
 14
0.5
 24
0.5
 15
0.5
 25
0.5
 16
0.0
 26
-1.0
 36
0.0
 17
0.0
 27
0.0
 37
0.0
 40
1319.822715
 41
0.013454
 42
50.0
 43
672.020833
 44
-672.020833
 50
0.0
 51
0.0
 71
     0
 72
   100
 73
     1
 74
     3
 75
     0
 76
     0
 77
     0
 78
     0
281
     0
 65
     1
110
0.0
120
0.0
130
0.0
111
1.0
121
0.0
131
0.0
112
0.0
122
1.0
132
0.0
 79
     0
146
0.0
348
2F
 60
     3
 61
     5
292
     1
282
     1
141
0.0
142
0.0
 63
   250
421
  3355443
  0
VPORT
  5
160
330
8
100
AcDbSymbolTableRecord
100
AcDbViewportTableRecord
  2
L4
 70
     0
 10
0.5
 20
0.0
 11
1.0
 21
0.5
 12
0.0
 22
0.0
 13
0.0
 23
0.0
 14
0.5
 24
0.5
 15
0.5
 25
0.5
 16
1.0
 26
0.0
 36
0.0
 17
0.0
 27
0.0
 37
0.0
 40
1319.822715
 41
0.013454
 42
50.0
 43
672.020833
 44
-672.020833
 50
0.0
 51
0.0
 71
     0
 72
   100
 73
     1
 74
     3
 75
     0
 76
     0
 77
     0
 78
     0
281
     0
 65
     1
110
0.0
120
0.0
130
0.0
111
1.0
121
0.0
131
0.0
112
0.0
122
1.0
132
0.0
 79
     0
146
0.0
348
2F
 60
     3
 61
     5
292
     1
282
     1
141
0.0
142
0.0
 63
   250
421
  3355443
  0
VPORT
  5
161
330
8
100
AcDbSymbolTableRecord
100
AcDbViewportTableRecord
  2
L4
 70
     0
 10
0.5
 20
0.5
 11
1.0
 21
1.0
 12
0.0
 22
0.0
 13
0.0
 23
0.0
 14
0.5
 24
0.5
 15
0.5
 25
0.5
 16
0.5773502691896259
 26
-0.5773502691896259
 36
0.5773502691896259
 17
0.0
 27
0.0
 37
0.0
 40
1285.020866
 41
0.013818
 42
50.0
 43
667.141407
 44
-667.141407
 50
0.0
 51
0.0
 71
     0
 72
   100
 73
     1
 74
     3
 75
     0
 76
     0
 77
     0
 78
     0
281
     0
 65
     1
110
0.0
120
0.0
130
0.0
111
1.0
121
0.0
131
0.0
112
0.0
122
1.0
132
0.0
 79
     0
146
0.0
348
2F
 60
     3
 61
     5
292
     1
282
     1
141
0.0
142
0.0
 63
   250
421
  3355443
  0
VPORT
  5
162
330
8
100
AcDbSymbolTableRecord
100
AcDbViewportTableRecord
  2
L6
 70
     0
 10
0.0
 20
0.5
 11
0.333333
 21
1.0
 12
0.0
 22
0.0
 13
0.0
 23
0.0
 14
0.5
 24
0.5
 15
0.5
 25
0.5
 16
0.7188730927569434
 26
-0.5850486126764433
 36
0.3754192287502549
 17
0.0
 27
0.0
 37
0.0
 40
1357.434192
 41
0.013081
 42
50.0
 43
701.839477
 44
-701.839477
 50
0.0
 51
0.0
 71
     0
 72
   100
 73
     1
 74
     3
 75
     0
 76
     0
 77
     0
 78
     0
281
     0
 65
     1
110
0.0
120
0.0
130
0.0
111
1.0
121
0.0
131
0.0
112
0.0
122
1.0
132
0.0
 79
     0
146
0.0
348
2F
 60
     3
 61
     5
292
     1
282
     1
141
0.0
142
0.0
 63
   250
421
  3355443
  0
VPORT
  5
163
330
8
100
AcDbSymbolTableRecord
100
AcDbViewportTableRecord
  2
L6
 70
     0
 10
0.0
 20
0.0
 11
0.333333
 21
0.5
 12
0.0
 22
0.0
 13
0.0
 23
0.0
 14
0.5
 24
0.5
 15
0.5
 25
0.5
 16
-1.0
 26
0.0
 36
0.0
 17
0.0
 27
0.0
 37
0.0
 40
1319.822715
 41
0.013454
 42
50.0
 43
672.020833
 44
-672.020833
 50
0.0
 51
0.0
 71
     0
 72
   100
 73
     1
 74
     3
 75
     0
 76
     0
 77
     0
 78
     0
281
     0
 65
     1
110
0.0
120
0.0
130
0.0
111
1.0
121
0.0
131
0.0
112
0.0
122
1.0
132
0.0
 79
     0
146
0.0
348
2F
 60
     3
 61
     5
292
     1
282
     1
141
0.0
142
0.0
 63
   250
421
  3355443
  0
VPORT
  5
164
330
8
100
AcDbSymbolTableRecord
100
AcDbViewportTableRecord
  2
L6
 70
     0
 10
0.333333
 20
0.5
 11
0.666667
 21
1.0
 12
305.410733
 22
181.464067
 13
0.0
 23
0.0
 14
0.5
 24
0.5
 15
0.5
 25
0.5
 16
0.0
 26
0.0
 36
1.0
 17
0.0
 27
0.0
 37
0.0
 40
254.0
 41
0.069908
 42
50.0
 43
954.2345789999998
 44
-954.2345789999998
 50
0.0
 51
0.0
 71
     0
 72
   100
 73
     1
 74
     3
 75
     0
 76
     0
 77
     0
 78
     0
281
     0
 65
     1
110
0.0
120
0.0
130
0.0
111
1.0
121
0.0
131
0.0
112
0.0
122
1.0
132
0.0
 79
     0
146
0.0
348
2F
 60
     3
 61
     5
292
     1
282
     1
141
0.0
142
0.0
 63
   250
421
  3355443
  0
VPORT
  5
165
330
8
100
AcDbSymbolTableRecord
100
AcDbViewportTableRecord
  2
L6
 70
     0
 10
0.333333
 20
0.0
 11
0.666667
 21
0.5
 12
0.0
 22
0.0
 13
0.0
 23
0.0
 14
0.5
 24
0.5
 15
0.5
 25
0.5
 16
0.0
 26
-1.0
 36
0.0
 17
0.0
 27
0.0
 37
0.0
 40
1319.822715
 41
0.013454
 42
50.0
 43
672.020833
 44
-672.020833
 50
0.0
 51
0.0
 71
     0
 72
   100
 73
     1
 74
     3
 75
     0
 76
     0
 77
     0
 78
     0
281
     0
 65
     1
110
0.0
120
0.0
130
0.0
111
1.0
121
0.0
131
0.0
112
0.0
122
1.0
132
0.0
 79
     0
146
0.0
348
2F
 60
     3
 61
     5
292
     1
282
     1
141
0.0
142
0.0
 63
   250
421
  3355443
  0
VPORT
  5
166
330
8
100
AcDbSymbolTableRecord
100
AcDbViewportTableRecord
  2
L6
 70
     0
 10
0.666667
 20
0.5
 11
1.0
 21
1.0
 12
0.0
 22
0.0
 13
0.0
 23
0.0
 14
0.5
 24
0.5
 15
0.5
 25
0.5
 16
0.5773502691896259
 26
-0.5773502691896259
 36
0.5773502691896259
 17
0.0
 27
0.0
 37
0.0
 40
1285.020866
 41
0.013818
 42
50.0
 43
667.141407
 44
-667.141407
 50
0.0
 51
0.0
 71
     0
 72
   100
 73
     1
 74
     3
 75
     0
 76
     0
 77
     0
 78
     0
281
     0
 65
     1
110
0.0
120
0.0
130
0.0
111
1.0
121
0.0
131
0.0
112
0.0
122
1.0
132
0.0
 79
     0
146
0.0
348
2F
 60
     3
 61
     5
292
     1
282
     1
141
0.0
142
0.0
 63
   250
421
  3355443
  0
VPORT
  5
167
330
8
100
AcDbSymbolTableRecord
100
AcDbViewportTableRecord
  2
L6
 70
     0
 10
0.666667
 20
0.0
 11
1.0
 21
0.5
 12
0.0
 22
0.0
 13
0.0
 23
0.0
 14
0.5
 24
0.5
 15
0.5
 25
0.5
 16
1.0
 26
0.0
 36
0.0
 17
0.0
 27
0.0
 37
0.0
 40
1319.822715
 41
0.013454
 42
50.0
 43
672.020833
 44
-672.020833
 50
0.0
 51
0.0
 71
     0
 72
   100
 73
     1
 74
     3
 75
     0
 76
     0
 77
     0
 78
     0
281
     0
 65
     1
110
0.0
120
0.0
130
0.0
111
1.0
121
0.0
131
0.0
112
0.0
122
1.0
132
0.0
 79
     0
146
0.0
348
2F
 60
     3
 61
     5
292
     1
282
     1
141
0.0
142
0.0
 63
   250
421
  3355443
  0
ENDTAB
  0
TABLE
  2
LTYPE
  5
5
330
0
100
AcDbSymbolTable
 70
     6
  0
LTYPE
  5
14
330
5
100
AcDbSymbolTableRecord
100
AcDbLinetypeTableRecord
  2
ByBlock
 70
     0
  3

 72
    65
 73
     0
 40
0.0
  0
LTYPE
  5
15
330
5
100
AcDbSymbolTableRecord
100
AcDbLinetypeTableRecord
  2
ByLayer
 70
     0
  3

 72
    65
 73
     0
 40
0.0
  0
LTYPE
  5
16
330
5
100
AcDbSymbolTableRecord
100
AcDbLinetypeTableRecord
  2
Continuous
 70
     0
  3
Solid line
 72
    65
 73
     0
 40
0.0
  0
LTYPE
  5
6E
330
5
100
AcDbSymbolTableRecord
100
AcDbLinetypeTableRecord
  2
CENTER
 70
     0
  3
____ _ ____ _ ____ _ ____
 72
    65
 73
     4
 40
47.4
 49
22.0
 74
     4
 75
     0
340
0
 46
0.0
 50
0.0
 44
0.0
 45
0.0
 49
-8.5
 74
     4
 75
     0
340
0
 46
0.0
 50
0.0
 44
0.0
 45
0.0
 49
8.5
 74
     4
 75
     0
340
0
 46
0.0
 50
0.0
 44
0.0
 45
0.0
 49
-8.5
 74
     4
 75
     0
340
0
 46
0.0
 50
0.0
 44
0.0
 45
0.0
  0
LTYPE
  5
6F
330
5
100
AcDbSymbolTableRecord
100
AcDbLinetypeTableRecord
  2
DASHDOT
 70
     0
  3
_._._._._._._._._._._._._._._._.
 72
    65
 73
     4
 40
70.0
 49
31.0
 74
     4
 75
     0
340
0
 46
0.0
 50
0.0
 44
0.0
 45
0.0
 49
-13.0
 74
     4
 75
     0
340
0
 46
0.0
 50
0.0
 44
0.0
 45
0.0
 49
13.0
 74
     4
 75
     0
340
0
 46
0.0
 50
0.0
 44
0.0
 45
0.0
 49
-13.0
 74
     4
 75
     0
340
0
 46
0.0
 50
0.0
 44
0.0
 45
0.0
  0
LTYPE
  5
70
330
5
100
AcDbSymbolTableRecord
100
AcDbLinetypeTableRecord
  2
DASHED
 70
     0
  3
__ __ __ __ __ __ __ __ __
 72
    65
 73
     2
 40
25.72
 49
12.86
 74
     4
 75
     0
340
0
 46
0.0
 50
0.0
 44
0.0
 45
0.0
 49
-12.86
 74
     4
 75
     0
340
0
 46
0.0
 50
0.0
 44
0.0
 45
0.0
  0
LTYPE
  5
71
330
5
100
AcDbSymbolTableRecord
100
AcDbLinetypeTableRecord
  2
DOT
 70
     0
  3
.........................
 72
    65
 73
     2
 40
10.0
 49
0.0
 74
     4
 75
     0
340
0
 46
0.0
 50
0.0
 44
0.0
 45
0.0
 49
-10.0
 74
     4
 75
     0
340
0
 46
0.0
 50
0.0
 44
0.0
 45
0.0
  0
LTYPE
  5
72
330
5
100
AcDbSymbolTableRecord
100
AcDbLinetypeTableRecord
  2
PHANTOM
 70
     0
  3
____ _ _ ____ _ _ _____ _ _ ____
 72
    65
 73
     6
 40
50.5
 49
18.0
 74
     4
 75
     0
340
0
 46
0.0
 50
0.0
 44
0.0
 45
0.0
 49
-6.5
 74
     4
 75
     0
340
0
 46
0.0
 50
0.0
 44
0.0
 45
0.0
 49
6.5
 74
     4
 75
     0
340
0
 46
0.0
 50
0.0
 44
0.0
 45
0.0
 49
-6.5
 74
     4
 75
     0
340
0
 46
0.0
 50
0.0
 44
0.0
 45
0.0
 49
6.5
 74
     4
 75
     0
340
0
 46
0.0
 50
0.0
 44
0.0
 45
0.0
 49
-6.5
 74
     4
 75
     0
340
0
 46
0.0
 50
0.0
 44
0.0
 45
0.0
  0
ENDTAB
  0
TABLE
  2
LAYER
  5
2
102
{ACAD_XDICTIONARY
360
1BE
102
}
330
0
100
AcDbSymbolTable
 70
     3
  0
LAYER
  5
10
102
{ACAD_XDICTIONARY
360
1C8
102
}
330
2
100
AcDbSymbolTableRecord
100
AcDbLayerTableRecord
  2
0
 70
     0
 62
     7
  6
Continuous
370
    -3
390
F
347
46
348
0
  0
LAYER
  5
74
102
{ACAD_XDICTIONARY
360
1CA
102
}
330
2
100
AcDbSymbolTableRecord
100
AcDbLayerTableRecord
  2
1
 70
     0
 62
     7
420
 16777215
  6
Continuous
370
    -3
390
F
347
46
348
0
  0
LAYER
  5
1B8
102
{ACAD_XDICTIONARY
360
1B9
102
}
330
2
100
AcDbSymbolTableRecord
100
AcDbLayerTableRecord
  2
HEWI
 70
     0
 62
     7
  6
Continuous
370
    -3
390
F
347
46
348
0
1001
AcAecLayerStandard
1000

1000

1001
AcCmTransparency
1071
        0
  0
ENDTAB
  0
TABLE
  2
STYLE
  5
3
330
0
100
AcDbSymbolTable
 70
     3
  0
STYLE
  5
11
330
3
100
AcDbSymbolTableRecord
100
AcDbTextStyleTableRecord
  2
Standard
 70
     0
 40
0.0
 41
1.0
 50
0.0
 71
     0
 42
0.2
  3
txt
  4

  0
STYLE
  5
157
330
3
100
AcDbSymbolTableRecord
100
AcDbTextStyleTableRecord
  2
iso-1
 70
     0
 40
0.0
 41
1.0
 50
0.0
 71
     0
 42
0.2
  3
isocp.shx
  4

  0
STYLE
  5
158
330
3
100
AcDbSymbolTableRecord
100
AcDbTextStyleTableRecord
  2
DWGDirectTextStyle
 70
     0
 40
0.0
 41
1.0
 50
0.0
 71
     0
 42
0.2
  3
isocp
  4

  0
ENDTAB
  0
TABLE
  2
VIEW
  5
6
330
0
100
AcDbSymbolTable
 70
     0
  0
ENDTAB
  0
TABLE
  2
UCS
  5
7
330
0
100
AcDbSymbolTable
 70
     0
  0
ENDTAB
  0
TABLE
  2
APPID
  5
9
330
0
100
AcDbSymbolTable
 70
     6
  0
APPID
  5
12
330
9
100
AcDbSymbolTableRecord
100
AcDbRegAppTableRecord
  2
ACAD
 70
     0
  0
APPID
  5
1A7
330
9
100
AcDbSymbolTableRecord
100
AcDbRegAppTableRecord
  2
ACAD_MLEADERVER
 70
     0
  0
APPID
  5
1BA
330
9
100
AcDbSymbolTableRecord
100
AcDbRegAppTableRecord
  2
ACAD_DSTYLE_DIMBREAK
 70
     0
  0
APPID
  5
1BB
330
9
100
AcDbSymbolTableRecord
100
AcDbRegAppTableRecord
  2
ACAD_NAV_VCDISPLAY
 70
     0
  0
APPID
  5
1BC
330
9
100
AcDbSymbolTableRecord
100
AcDbRegAppTableRecord
  2
AcAecLayerStandard
 70
     0
  0
APPID
  5
1BD
330
9
100
AcDbSymbolTableRecord
100
AcDbRegAppTableRecord
  2
AcCmTransparency
 70
     0
  0
ENDTAB
  0
TABLE
  2
DIMSTYLE
  5
A
330
0
100
AcDbSymbolTable
 70
     1
100
AcDbDimStyleTable
 71
     0
  0
DIMSTYLE
105
27
330
A
100
AcDbSymbolTableRecord
100
AcDbDimStyleTableRecord
  2
Standard
 70
     0
340
11
  0
ENDTAB
  0
TABLE
  2
BLOCK_RECORD
  5
1
330
0
100
AcDbSymbolTable
 70
     2
  0
BLOCK_RECORD
  5
1F
330
1
100
AcDbSymbolTableRecord
100
AcDbBlockTableRecord
  2
*Model_Space
340
22
 70
     0
280
     1
281
     0
  0
BLOCK_RECORD
  5
1B
330
1
100
AcDbSymbolTableRecord
100
AcDbBlockTableRecord
  2
*Paper_Space
340
1E
 70
     0
280
     1
281
     0
  0
BLOCK_RECORD
  5
23
330
1
100
AcDbSymbolTableRecord
100
AcDbBlockTableRecord
  2
*Paper_Space0
340
26
 70
     0
280
     1
281
     0
  0
ENDTAB
  0
ENDSEC
  0
SECTION
  2
BLOCKS
  0
BLOCK
  5
20
330
1F
100
AcDbEntity
  8
0
100
AcDbBlockBegin
  2
*Model_Space
 70
     0
 10
0.0
 20
0.0
 30
0.0
  3
*Model_Space
  1

  0
ENDBLK
  5
21
330
1F
100
AcDbEntity
  8
0
100
AcDbBlockEnd
  0
BLOCK
  5
1C
330
1B
100
AcDbEntity
 67
     1
  8
0
100
AcDbBlockBegin
  2
*Paper_Space
 70
     0
 10
0.0
 20
0.0
 30
0.0
  3
*Paper_Space
  1

  0
ENDBLK
  5
1D
330
1B
100
AcDbEntity
 67
     1
  8
0
100
AcDbBlockEnd
  0
BLOCK
  5
24
330
23
100
AcDbEntity
 67
     1
  8
0
100
AcDbBlockBegin
  2
*Paper_Space0
 70
     0
 10
0.0
 20
0.0
 30
0.0
  3
*Paper_Space0
  1

  0
ENDBLK
  5
25
330
23
100
AcDbEntity
 67
     1
  8
0
100
AcDbBlockEnd
  0
ENDSEC
  0
SECTION
  2
ENTITIES
  0
LINE
  5
73
330
1F
100
AcDbEntity
  8
HEWI
100
AcDbLine
 10
286.9778379999999
 20
247.428494
 30
0.0
 11
288.182534
 21
316.445449
 31
0.0
  0
LINE
  5
75
330
1F
100
AcDbEntity
  8
HEWI
100
AcDbLine
 10
52.488842
 20
316.445449
 30
0.0
 11
53.693538
 21
247.428494
 31
0.0
  0
LINE
  5
76
330
1F
100
AcDbEntity
  8
HEWI
100
AcDbLine
 10
294.835688
 20
316.445946
 30
0.0
 11
248.335688
 21
316.445946
 31
0.0
  0
LINE
  5
77
330
1F
100
AcDbEntity
  8
HEWI
100
AcDbLine
 10
45.335688
 20
316.945946
 30
0.0
 11
45.335688
 21
335.945946
 31
0.0
  0
LINE
  5
78
330
1F
100
AcDbEntity
  8
HEWI
100
AcDbLine
 10
295.335688
 20
335.945946
 30
0.0
 11
295.335688
 21
316.945946
 31
0.0
  0
LINE
  5
79
330
1F
100
AcDbEntity
  8
HEWI
100
AcDbLine
 10
248.335688
 20
316.445946
 30
0.0
 11
92.335688
 21
316.445946
 31
0.0
  0
LINE
  5
7A
330
1F
100
AcDbEntity
  8
HEWI
100
AcDbLine
 10
92.335688
 20
316.445946
 30
0.0
 11
45.835688
 21
316.445946
 31
0.0
  0
LINE
  5
7B
330
1F
100
AcDbEntity
  8
HEWI
100
AcDbLine
 10
248.335688
 20
336.445946
 30
0.0
 11
294.835688
 21
336.445946
 31
0.0
  0
LINE
  5
7C
330
1F
100
AcDbEntity
  8
HEWI
100
AcDbLine
 10
92.335688
 20
336.445946
 30
0.0
 11
248.335688
 21
336.445946
 31
0.0
  0
LINE
  5
7D
330
1F
100
AcDbEntity
  8
HEWI
100
AcDbLine
 10
45.835688
 20
336.445946
 30
0.0
 11
92.335688
 21
336.445946
 31
0.0
  0
LINE
  5
7E
330
1F
100
AcDbEntity
  8
HEWI
100
AcDbLine
 10
285.977991
 20
246.445946
 30
0.0
 11
248.330688
 21
246.445946
 31
0.0
  0
LINE
  5
7F
330
1F
100
AcDbEntity
  8
HEWI
100
AcDbLine
 10
248.330688
 20
246.445946
 30
0.0
 11
92.34068800000001
 21
246.445946
 31
0.0
  0
LINE
  5
80
330
1F
100
AcDbEntity
  8
HEWI
100
AcDbLine
 10
92.34068800000001
 20
246.445946
 30
0.0
 11
54.693385
 21
246.445946
 31
0.0
  0
LINE
  5
81
330
1F
100
AcDbEntity
  8
HEWI
100
AcDbLine
 10
476.693182
 20
316.445946
 30
0.0
 11
430.193182
 21
316.445946
 31
0.0
  0
LINE
  5
82
330
1F
100
AcDbEntity
  8
HEWI
100
AcDbLine
 10
371.193182
 20
336.445946
 30
0.0
 11
371.193182
 21
335.945946
 31
0.0
  0
LINE
  5
83
330
1F
100
AcDbEntity
  8
HEWI
100
AcDbLine
 10
371.193182
 20
336.445946
 30
0.0
 11
430.193182
 21
336.445946
 31
0.0
  0
LINE
  5
84
330
1F
100
AcDbEntity
  8
HEWI
100
AcDbLine
 10
477.193182
 20
335.945946
 30
0.0
 11
477.193182
 21
316.945946
 31
0.0
  0
LINE
  5
85
330
1F
100
AcDbEntity
  8
HEWI
100
AcDbLine
 10
371.193182
 20
316.445946
 30
0.0
 11
371.193182
 21
316.945946
 31
0.0
  0
LINE
  5
86
330
1F
100
AcDbEntity
  8
HEWI
100
AcDbLine
 10
430.193182
 20
316.445946
 30
0.0
 11
371.193182
 21
316.445946
 31
0.0
  0
LINE
  5
87
330
1F
100
AcDbEntity
  8
HEWI
100
AcDbLine
 10
371.193182
 20
316.945946
 30
0.0
 11
371.193182
 21
335.945946
 31
0.0
  0
LINE
  5
88
330
1F
100
AcDbEntity
  8
HEWI
100
AcDbLine
 10
476.693182
 20
336.445946
 30
0.0
 11
430.193182
 21
336.445946
 31
0.0
  0
LINE
  5
89
330
1F
100
AcDbEntity
  8
HEWI
100
AcDbLine
 10
467.8404849999999
 20
246.445946
 30
0.0
 11
392.545879
 21
246.445946
 31
0.0
  0
LINE
  5
8A
330
1F
100
AcDbEntity
  8
HEWI
100
AcDbLine
 10
390.341336
 20
316.445449
 30
0.0
 11
391.546031
 21
247.428494
 31
0.0
  0
LINE
  5
8B
330
1F
100
AcDbEntity
  8
HEWI
100
AcDbLine
 10
470.045028
 20
316.445449
 30
0.0
 11
468.840332
 21
247.428494
 31
0.0
  0
LINE
  5
8C
330
1F
100
AcDbEntity
  8
HEWI
100
AcDbLine
 10
248.335688
 20
153.318919
 30
0.0
 11
92.335688
 21
153.318919
 31
0.0
  0
LINE
  5
8D
330
1F
100
AcDbEntity
  8
HEWI
100
AcDbLine
 10
92.335688
 20
153.418919
 30
0.0
 11
92.335688
 21
153.318919
 31
0.0
  0
LINE
  5
8E
330
1F
100
AcDbEntity
  8
HEWI
100
AcDbLine
 10
248.335688
 20
153.318919
 30
0.0
 11
248.335688
 21
153.418919
 31
0.0
  0
LINE
  5
8F
330
1F
100
AcDbEntity
  8
HEWI
100
AcDbLine
 10
248.335688
 20
68.518919
 30
0.0
 11
248.335688
 21
68.41891899999999
 31
0.0
  0
LINE
  5
90
330
1F
100
AcDbEntity
  8
HEWI
100
AcDbLine
 10
92.335688
 20
68.518919
 30
0.0
 11
248.335688
 21
68.518919
 31
0.0
  0
LINE
  5
91
330
1F
100
AcDbEntity
  8
HEWI
100
AcDbLine
 10
92.335688
 20
68.41891899999999
 30
0.0
 11
92.335688
 21
68.518919
 31
0.0
  0
LINE
  5
92
330
1F
100
AcDbEntity
  8
HEWI
100
AcDbLine
 10
248.335688
 20
153.418919
 30
0.0
 11
92.335688
 21
153.418919
 31
0.0
  0
LINE
  5
93
330
1F
100
AcDbEntity
  8
HEWI
100
AcDbLine
 10
45.335688
 20
169.918919
 30
0.0
 11
45.835688
 21
169.918919
 31
0.0
  0
LINE
  5
94
330
1F
100
AcDbEntity
  8
HEWI
100
AcDbLine
 10
45.335688
 20
110.918919
 30
0.0
 11
45.335688
 21
169.918919
 31
0.0
  0
LINE
  5
95
330
1F
100
AcDbEntity
  8
HEWI
100
AcDbLine
 10
294.835688
 20
169.918919
 30
0.0
 11
295.335688
 21
169.918919
 31
0.0
  0
LINE
  5
96
330
1F
100
AcDbEntity
  8
HEWI
100
AcDbLine
 10
295.335688
 20
169.918919
 30
0.0
 11
295.335688
 21
110.918919
 31
0.0
  0
LINE
  5
97
330
1F
100
AcDbEntity
  8
HEWI
100
AcDbLine
 10
248.335688
 20
153.918919
 30
0.0
 11
248.335688
 21
153.418919
 31
0.0
  0
LINE
  5
98
330
1F
100
AcDbEntity
  8
HEWI
100
AcDbLine
 10
45.835688
 20
110.918919
 30
0.0
 11
45.335688
 21
110.918919
 31
0.0
  0
LINE
  5
99
330
1F
100
AcDbEntity
  8
HEWI
100
AcDbLine
 10
92.335688
 20
64.41891899999999
 30
0.0
 11
92.335688
 21
63.918919
 31
0.0
  0
LINE
  5
9A
330
1F
100
AcDbEntity
  8
HEWI
100
AcDbLine
 10
248.335688
 20
63.918919
 30
0.0
 11
92.335688
 21
63.918919
 31
0.0
  0
LINE
  5
9B
330
1F
100
AcDbEntity
  8
HEWI
100
AcDbLine
 10
248.335688
 20
64.41891899999999
 30
0.0
 11
248.335688
 21
63.918919
 31
0.0
  0
LINE
  5
9C
330
1F
100
AcDbEntity
  8
HEWI
100
AcDbLine
 10
294.835688
 20
110.918919
 30
0.0
 11
295.335688
 21
110.918919
 31
0.0
  0
LINE
  5
9D
330
1F
100
AcDbEntity
  8
HEWI
100
AcDbLine
 10
92.335688
 20
153.418919
 30
0.0
 11
92.335688
 21
153.918919
 31
0.0
  0
LINE
  5
9E
330
1F
100
AcDbEntity
  8
HEWI
100
AcDbLine
 10
92.335688
 20
153.918919
 30
0.0
 11
248.335688
 21
153.918919
 31
0.0
  0
LINE
  5
9F
330
1F
100
AcDbEntity
  8
HEWI
100
AcDbLine
 10
294.835688
 20
110.918919
 30
0.0
 11
294.835688
 21
169.918919
 31
0.0
  0
LINE
  5
A0
330
1F
100
AcDbEntity
  8
HEWI
100
AcDbLine
 10
45.835688
 20
169.918919
 30
0.0
 11
294.835688
 21
169.918919
 31
0.0
  0
LINE
  5
A1
330
1F
100
AcDbEntity
  8
HEWI
100
AcDbLine
 10
45.835688
 20
169.918919
 30
0.0
 11
45.835688
 21
110.918919
 31
0.0
  0
LINE
  5
A2
330
1F
100
AcDbEntity
  8
HEWI
100
AcDbLine
 10
92.335688
 20
64.41891899999999
 30
0.0
 11
248.335688
 21
64.41891899999999
 31
0.0
  0
LINE
  5
A3
330
1F
100
AcDbEntity
  8
HEWI
100
AcDbLine
 10
92.335688
 20
68.41891899999999
 30
0.0
 11
92.335688
 21
67.91891899999999
 31
0.0
  0
LINE
  5
A4
330
1F
100
AcDbEntity
  8
HEWI
100
AcDbLine
 10
248.335688
 20
67.91891899999999
 30
0.0
 11
92.335688
 21
67.91891899999999
 31
0.0
  0
LINE
  5
A5
330
1F
100
AcDbEntity
  8
HEWI
100
AcDbLine
 10
248.335688
 20
67.91891899999999
 30
0.0
 11
248.335688
 21
68.41891899999999
 31
0.0
  0
LINE
  5
A6
330
1F
100
AcDbEntity
  8
HEWI
100
AcDbLine
 10
92.335688
 20
68.41891899999999
 30
0.0
 11
248.335688
 21
68.41891899999999
 31
0.0
  0
LINE
  5
A7
330
1F
100
AcDbEntity
  8
HEWI
100
AcDbLine
 10
92.34068800000001
 20
108.418919
 30
0.0
 11
160.3356879999999
 21
108.418919
 31
0.0
  0
LINE
  5
A8
330
1F
100
AcDbEntity
  8
HEWI
100
AcDbLine
 10
180.3356879999999
 20
108.418919
 30
0.0
 11
248.330688
 21
108.418919
 31
0.0
  0
LINE
  5
A9
330
1F
100
AcDbEntity
  8
HEWI
100
AcDbLine
 10
180.3356879999999
 20
108.418919
 30
0.0
 11
180.3356879999999
 21
107.927645
 31
0.0
  0
LINE
  5
AA
330
1F
100
AcDbEntity
  8
HEWI
100
AcDbLine
 10
160.3356879999999
 20
113.418919
 30
0.0
 11
92.34068800000001
 21
113.418919
 31
0.0
  0
LINE
  5
AB
330
1F
100
AcDbEntity
  8
HEWI
100
AcDbLine
 10
248.330688
 20
107.927645
 30
0.0
 11
248.330688
 21
108.418919
 31
0.0
  0
LINE
  5
AC
330
1F
100
AcDbEntity
  8
HEWI
100
AcDbLine
 10
180.3356879999999
 20
113.910193
 30
0.0
 11
180.3356879999999
 21
113.418919
 31
0.0
  0
LINE
  5
AD
330
1F
100
AcDbEntity
  8
HEWI
100
AcDbLine
 10
248.330688
 20
113.418919
 30
0.0
 11
180.3356879999999
 21
113.418919
 31
0.0
  0
LINE
  5
AE
330
1F
100
AcDbEntity
  8
HEWI
100
AcDbLine
 10
248.330688
 20
113.910193
 30
0.0
 11
248.330688
 21
113.418919
 31
0.0
  0
LINE
  5
AF
330
1F
100
AcDbEntity
  8
HEWI
100
AcDbLine
 10
160.3356879999999
 20
107.927645
 30
0.0
 11
160.3356879999999
 21
108.418919
 31
0.0
  0
LINE
  5
B0
330
1F
100
AcDbEntity
  8
HEWI
100
AcDbLine
 10
92.34068800000001
 20
113.418919
 30
0.0
 11
92.34068800000001
 21
113.910193
 31
0.0
  0
LINE
  5
B1
330
1F
100
AcDbEntity
  8
HEWI
100
AcDbLine
 10
92.34068800000001
 20
108.418919
 30
0.0
 11
92.34068800000001
 21
107.927645
 31
0.0
  0
LINE
  5
B2
330
1F
100
AcDbEntity
  8
HEWI
100
AcDbLine
 10
160.3356879999999
 20
113.910193
 30
0.0
 11
160.3356879999999
 21
113.418919
 31
0.0
  0
LINE
  5
B3
330
1F
100
AcDbEntity
  8
HEWI
100
AcDbLine
 10
180.3356879999999
 20
127.918919
 30
0.0
 11
248.330688
 21
127.918919
 31
0.0
  0
LINE
  5
B4
330
1F
100
AcDbEntity
  8
HEWI
100
AcDbLine
 10
160.3356879999999
 20
93.91891899999999
 30
0.0
 11
92.34068800000001
 21
93.91891899999999
 31
0.0
  0
LINE
  5
B5
330
1F
100
AcDbEntity
  8
HEWI
100
AcDbLine
 10
92.34068800000001
 20
127.918919
 30
0.0
 11
160.3356879999999
 21
127.918919
 31
0.0
  0
LINE
  5
B6
330
1F
100
AcDbEntity
  8
HEWI
100
AcDbLine
 10
248.330688
 20
93.91891899999999
 30
0.0
 11
180.3356879999999
 21
93.91891899999999
 31
0.0
  0
LINE
  5
B7
330
1F
100
AcDbEntity
  8
HEWI
100
AcDbLine
 10
160.3356879999999
 20
127.410193
 30
0.0
 11
160.3356879999999
 21
127.918919
 31
0.0
  0
LINE
  5
B8
330
1F
100
AcDbEntity
  8
HEWI
100
AcDbLine
 10
248.330688
 20
132.918919
 30
0.0
 11
180.3356879999999
 21
132.918919
 31
0.0
  0
LINE
  5
B9
330
1F
100
AcDbEntity
  8
HEWI
100
AcDbLine
 10
180.3356879999999
 20
88.91891899999999
 30
0.0
 11
248.330688
 21
88.91891899999999
 31
0.0
  0
LINE
  5
BA
330
1F
100
AcDbEntity
  8
HEWI
100
AcDbLine
 10
180.3356879999999
 20
88.42764499999999
 30
0.0
 11
180.3356879999999
 21
88.91891899999999
 31
0.0
  0
LINE
  5
BB
330
1F
100
AcDbEntity
  8
HEWI
100
AcDbLine
 10
180.3356879999999
 20
94.427645
 30
0.0
 11
180.3356879999999
 21
93.91891899999999
 31
0.0
  0
LINE
  5
BC
330
1F
100
AcDbEntity
  8
HEWI
100
AcDbLine
 10
180.3356879999999
 20
133.410193
 30
0.0
 11
180.3356879999999
 21
132.918919
 31
0.0
  0
LINE
  5
BD
330
1F
100
AcDbEntity
  8
HEWI
100
AcDbLine
 10
180.3356879999999
 20
127.918919
 30
0.0
 11
180.3356879999999
 21
127.410193
 31
0.0
  0
LINE
  5
BE
330
1F
100
AcDbEntity
  8
HEWI
100
AcDbLine
 10
92.34068800000001
 20
88.91891899999999
 30
0.0
 11
160.3356879999999
 21
88.91891899999999
 31
0.0
  0
LINE
  5
BF
330
1F
100
AcDbEntity
  8
HEWI
100
AcDbLine
 10
160.3356879999999
 20
132.918919
 30
0.0
 11
160.3356879999999
 21
133.410193
 31
0.0
  0
LINE
  5
C0
330
1F
100
AcDbEntity
  8
HEWI
100
AcDbLine
 10
160.3356879999999
 20
132.918919
 30
0.0
 11
92.34068800000001
 21
132.918919
 31
0.0
  0
LINE
  5
C1
330
1F
100
AcDbEntity
  8
HEWI
100
AcDbLine
 10
160.3356879999999
 20
88.91891899999999
 30
0.0
 11
160.3356879999999
 21
88.42764499999999
 31
0.0
  0
LINE
  5
C2
330
1F
100
AcDbEntity
  8
HEWI
100
AcDbLine
 10
160.3356879999999
 20
93.91891899999999
 30
0.0
 11
160.3356879999999
 21
94.427645
 31
0.0
  0
LINE
  5
C3
330
1F
100
AcDbEntity
  8
HEWI
100
AcDbLine
 10
248.330688
 20
88.91891899999999
 30
0.0
 11
248.330688
 21
88.42764499999999
 31
0.0
  0
LINE
  5
C4
330
1F
100
AcDbEntity
  8
HEWI
100
AcDbLine
 10
248.330688
 20
93.91891899999999
 30
0.0
 11
248.330688
 21
94.427645
 31
0.0
  0
LINE
  5
C5
330
1F
100
AcDbEntity
  8
HEWI
100
AcDbLine
 10
92.34068800000001
 20
132.918919
 30
0.0
 11
92.34068800000001
 21
133.410193
 31
0.0
  0
LINE
  5
C6
330
1F
100
AcDbEntity
  8
HEWI
100
AcDbLine
 10
92.34068800000001
 20
127.410193
 30
0.0
 11
92.34068800000001
 21
127.918919
 31
0.0
  0
LINE
  5
C7
330
1F
100
AcDbEntity
  8
HEWI
100
AcDbLine
 10
248.330688
 20
127.918919
 30
0.0
 11
248.330688
 21
127.410193
 31
0.0
  0
LINE
  5
C8
330
1F
100
AcDbEntity
  8
HEWI
100
AcDbLine
 10
248.330688
 20
133.410193
 30
0.0
 11
248.330688
 21
132.918919
 31
0.0
  0
LINE
  5
C9
330
1F
100
AcDbEntity
  8
HEWI
100
AcDbLine
 10
92.34068800000001
 20
88.42764499999999
 30
0.0
 11
92.34068800000001
 21
88.91891899999999
 31
0.0
  0
LINE
  5
CA
330
1F
100
AcDbEntity
  8
HEWI
100
AcDbLine
 10
92.34068800000001
 20
94.427645
 30
0.0
 11
92.34068800000001
 21
93.91891899999999
 31
0.0
  0
LINE
  5
CC
330
1F
100
AcDbEntity
  8
HEWI
100
AcDbLine
 10
92.34068800000001
 20
94.427645
 30
0.0
 11
160.3356879999999
 21
94.427645
 31
0.0
  0
LINE
  5
CD
330
1F
100
AcDbEntity
  8
HEWI
100
AcDbLine
 10
160.3356879999999
 20
88.42764499999999
 30
0.0
 11
92.34068800000001
 21
88.42764499999999
 31
0.0
  0
LINE
  5
CF
330
1F
100
AcDbEntity
  8
HEWI
100
AcDbLine
 10
248.330688
 20
88.42764499999999
 30
0.0
 11
180.3356879999999
 21
88.42764499999999
 31
0.0
  0
LINE
  5
D0
330
1F
100
AcDbEntity
  8
HEWI
100
AcDbLine
 10
180.3356879999999
 20
94.427645
 30
0.0
 11
248.330688
 21
94.427645
 31
0.0
  0
LINE
  5
D1
330
1F
100
AcDbEntity
  8
HEWI
100
AcDbLine
 10
248.330688
 20
107.927645
 30
0.0
 11
180.3356879999999
 21
107.927645
 31
0.0
  0
LINE
  5
D2
330
1F
100
AcDbEntity
  8
HEWI
100
AcDbLine
 10
160.3356879999999
 20
107.927645
 30
0.0
 11
92.34068800000001
 21
107.927645
 31
0.0
  0
LINE
  5
D5
330
1F
100
AcDbEntity
  8
HEWI
100
AcDbLine
 10
160.3356879999999
 20
127.410193
 30
0.0
 11
92.34068800000001
 21
127.410193
 31
0.0
  0
LINE
  5
D7
330
1F
100
AcDbEntity
  8
HEWI
100
AcDbLine
 10
92.34068800000001
 20
113.910193
 30
0.0
 11
160.3356879999999
 21
113.910193
 31
0.0
  0
LINE
  5
D9
330
1F
100
AcDbEntity
  8
HEWI
100
AcDbLine
 10
180.3356879999999
 20
113.910193
 30
0.0
 11
248.330688
 21
113.910193
 31
0.0
  0
LINE
  5
DB
330
1F
100
AcDbEntity
  8
HEWI
100
AcDbLine
 10
248.330688
 20
127.410193
 30
0.0
 11
180.3356879999999
 21
127.410193
 31
0.0
  0
LINE
  5
DC
330
1F
100
AcDbEntity
  8
HEWI
100
AcDbLine
 10
180.3356879999999
 20
133.410193
 30
0.0
 11
248.330688
 21
133.410193
 31
0.0
  0
LINE
  5
DF
330
1F
100
AcDbEntity
  8
HEWI
100
AcDbLine
 10
92.34068800000001
 20
133.410193
 30
0.0
 11
160.3356879999999
 21
133.410193
 31
0.0
  0
LINE
  5
E0
330
1F
100
AcDbEntity
  8
HEWI
100
AcDbLine
 10
248.330688
 20
145.01594
 30
0.0
 11
248.330688
 21
146.489533
 31
0.0
  0
LINE
  5
E1
330
1F
100
AcDbEntity
  8
HEWI
100
AcDbLine
 10
92.34068800000001
 20
146.489533
 30
0.0
 11
92.34068800000001
 21
145.01594
 31
0.0
  0
LINE
  5
E2
330
1F
100
AcDbEntity
  8
HEWI
100
AcDbLine
 10
248.330688
 20
145.01594
 30
0.0
 11
92.34068800000001
 21
145.01594
 31
0.0
  0
LINE
  5
E3
330
1F
100
AcDbEntity
  8
HEWI
100
AcDbLine
 10
92.34068800000001
 20
75.34830500000001
 30
0.0
 11
92.34068800000001
 21
76.821898
 31
0.0
  0
LINE
  5
E4
330
1F
100
AcDbEntity
  8
HEWI
100
AcDbLine
 10
248.330688
 20
76.821898
 30
0.0
 11
248.330688
 21
75.34830500000001
 31
0.0
  0
LINE
  5
E5
330
1F
100
AcDbEntity
  8
HEWI
100
AcDbLine
 10
92.34068800000001
 20
76.821898
 30
0.0
 11
248.330688
 21
76.821898
 31
0.0
  0
LINE
  5
E6
330
1F
100
AcDbEntity
  8
HEWI
100
AcDbLine
 10
92.34068800000001
 20
146.489533
 30
0.0
 11
248.330688
 21
146.489533
 31
0.0
  0
LINE
  5
E7
330
1F
100
AcDbEntity
  8
HEWI
100
AcDbLine
 10
248.330688
 20
75.34830500000001
 30
0.0
 11
92.34068800000001
 21
75.34830500000001
 31
0.0
  0
LINE
  5
E8
330
1F
100
AcDbEntity
  8
HEWI
100
AcDbLine
 10
92.34068800000001
 20
147.745402
 30
0.0
 11
92.34068800000001
 21
146.489533
 31
0.0
  0
LINE
  5
E9
330
1F
100
AcDbEntity
  8
HEWI
100
AcDbLine
 10
92.34068800000001
 20
74.09243599999999
 30
0.0
 11
92.34068800000001
 21
75.34830500000001
 31
0.0
  0
LINE
  5
EA
330
1F
100
AcDbEntity
  8
HEWI
100
AcDbLine
 10
248.330688
 20
74.09243599999999
 30
0.0
 11
248.330688
 21
75.34830500000001
 31
0.0
  0
LINE
  5
EB
330
1F
100
AcDbEntity
  8
HEWI
100
AcDbLine
 10
248.330688
 20
147.745402
 30
0.0
 11
248.330688
 21
146.489533
 31
0.0
  0
LINE
  5
EC
330
1F
100
AcDbEntity
  8
HEWI
100
AcDbLine
 10
248.330688
 20
147.745402
 30
0.0
 11
92.34068800000001
 21
147.745402
 31
0.0
  0
LINE
  5
ED
330
1F
100
AcDbEntity
  8
HEWI
100
AcDbLine
 10
248.330688
 20
148.74525
 30
0.0
 11
248.330688
 21
147.745402
 31
0.0
  0
LINE
  5
EE
330
1F
100
AcDbEntity
  8
HEWI
100
AcDbLine
 10
92.34068800000001
 20
148.74525
 30
0.0
 11
248.330688
 21
148.74525
 31
0.0
  0
LINE
  5
EF
330
1F
100
AcDbEntity
  8
HEWI
100
AcDbLine
 10
92.34068800000001
 20
148.74525
 30
0.0
 11
92.34068800000001
 21
147.745402
 31
0.0
  0
LINE
  5
F0
330
1F
100
AcDbEntity
  8
HEWI
100
AcDbLine
 10
92.34068800000001
 20
74.09243599999999
 30
0.0
 11
92.34068800000001
 21
73.09258800000001
 31
0.0
  0
LINE
  5
F1
330
1F
100
AcDbEntity
  8
HEWI
100
AcDbLine
 10
248.330688
 20
73.09258800000001
 30
0.0
 11
92.34068800000001
 21
73.09258800000001
 31
0.0
  0
LINE
  5
F2
330
1F
100
AcDbEntity
  8
HEWI
100
AcDbLine
 10
248.330688
 20
74.09243599999999
 30
0.0
 11
248.330688
 21
73.09258800000001
 31
0.0
  0
LINE
  5
F3
330
1F
100
AcDbEntity
  8
HEWI
100
AcDbLine
 10
92.34068800000001
 20
74.09243599999999
 30
0.0
 11
248.330688
 21
74.09243599999999
 31
0.0
  0
LINE
  5
F4
330
1F
100
AcDbEntity
  8
HEWI
100
AcDbLine
 10
248.330688
 20
148.779855
 30
0.0
 11
92.34068800000001
 21
148.779855
 31
0.0
  0
LINE
  5
F5
330
1F
100
AcDbEntity
  8
HEWI
100
AcDbLine
 10
92.34068800000001
 20
73.05798299999999
 30
0.0
 11
248.330688
 21
73.05798299999999
 31
0.0
  0
LINE
  5
F6
330
1F
100
AcDbEntity
  8
HEWI
100
AcDbLine
 10
248.330688
 20
148.779855
 30
0.0
 11
248.330688
 21
149.779703
 31
0.0
  0
LINE
  5
F7
330
1F
100
AcDbEntity
  8
HEWI
100
AcDbLine
 10
248.330688
 20
72.05813499999999
 30
0.0
 11
248.330688
 21
73.05798299999999
 31
0.0
  0
LINE
  5
F8
330
1F
100
AcDbEntity
  8
HEWI
100
AcDbLine
 10
92.34068800000001
 20
72.05813499999999
 30
0.0
 11
92.34068800000001
 21
73.05798299999999
 31
0.0
  0
LINE
  5
F9
330
1F
100
AcDbEntity
  8
HEWI
100
AcDbLine
 10
92.34068800000001
 20
148.779855
 30
0.0
 11
92.34068800000001
 21
149.779703
 31
0.0
  0
LINE
  5
FA
330
1F
100
AcDbEntity
  8
HEWI
100
AcDbLine
 10
92.34068800000001
 20
149.779703
 30
0.0
 11
248.330688
 21
149.779703
 31
0.0
  0
LINE
  5
FB
330
1F
100
AcDbEntity
  8
HEWI
100
AcDbLine
 10
92.34068800000001
 20
149.96082
 30
0.0
 11
92.34068800000001
 21
149.779703
 31
0.0
  0
LINE
  5
FC
330
1F
100
AcDbEntity
  8
HEWI
100
AcDbLine
 10
248.330688
 20
72.05813499999999
 30
0.0
 11
92.34068800000001
 21
72.05813499999999
 31
0.0
  0
LINE
  5
FD
330
1F
100
AcDbEntity
  8
HEWI
100
AcDbLine
 10
92.34068800000001
 20
71.87701800000001
 30
0.0
 11
92.34068800000001
 21
72.05813499999999
 31
0.0
  0
LINE
  5
FE
330
1F
100
AcDbEntity
  8
HEWI
100
AcDbLine
 10
248.330688
 20
149.96082
 30
0.0
 11
248.330688
 21
149.779703
 31
0.0
  0
LINE
  5
FF
330
1F
100
AcDbEntity
  8
HEWI
100
AcDbLine
 10
248.330688
 20
71.87701800000001
 30
0.0
 11
248.330688
 21
72.05813499999999
 31
0.0
  0
LINE
  5
100
330
1F
100
AcDbEntity
  8
HEWI
100
AcDbLine
 10
92.34068800000001
 20
153.110995
 30
0.0
 11
248.330688
 21
153.110995
 31
0.0
  0
LINE
  5
101
330
1F
100
AcDbEntity
  8
HEWI
100
AcDbLine
 10
248.330688
 20
149.96082
 30
0.0
 11
92.34068800000001
 21
149.96082
 31
0.0
  0
LINE
  5
102
330
1F
100
AcDbEntity
  8
HEWI
100
AcDbLine
 10
248.330688
 20
68.726843
 30
0.0
 11
92.34068800000001
 21
68.726843
 31
0.0
  0
LINE
  5
103
330
1F
100
AcDbEntity
  8
HEWI
100
AcDbLine
 10
248.330688
 20
153.111071
 30
0.0
 11
248.330688
 21
152.611071
 31
0.0
  0
LINE
  5
104
330
1F
100
AcDbEntity
  8
HEWI
100
AcDbLine
 10
248.330688
 20
69.22676700000001
 30
0.0
 11
248.330688
 21
68.72676700000001
 31
0.0
  0
LINE
  5
105
330
1F
100
AcDbEntity
  8
HEWI
100
AcDbLine
 10
92.34068800000001
 20
69.22676700000001
 30
0.0
 11
248.330688
 21
69.22676700000001
 31
0.0
  0
LINE
  5
106
330
1F
100
AcDbEntity
  8
HEWI
100
AcDbLine
 10
248.330688
 20
152.611071
 30
0.0
 11
92.34068800000001
 21
152.611071
 31
0.0
  0
LINE
  5
107
330
1F
100
AcDbEntity
  8
HEWI
100
AcDbLine
 10
92.34068800000001
 20
150.460744
 30
0.0
 11
248.330688
 21
150.460744
 31
0.0
  0
LINE
  5
108
330
1F
100
AcDbEntity
  8
HEWI
100
AcDbLine
 10
92.34068800000001
 20
149.96082
 30
0.0
 11
92.34068800000001
 21
150.460744
 31
0.0
  0
LINE
  5
109
330
1F
100
AcDbEntity
  8
HEWI
100
AcDbLine
 10
92.34068800000001
 20
69.22676700000001
 30
0.0
 11
92.34068800000001
 21
68.72676700000001
 31
0.0
  0
LINE
  5
10A
330
1F
100
AcDbEntity
  8
HEWI
100
AcDbLine
 10
92.34068800000001
 20
153.111071
 30
0.0
 11
92.34068800000001
 21
152.611071
 31
0.0
  0
LINE
  5
10B
330
1F
100
AcDbEntity
  8
HEWI
100
AcDbLine
 10
92.34068800000001
 20
71.87701800000001
 30
0.0
 11
248.330688
 21
71.87701800000001
 31
0.0
  0
LINE
  5
10C
330
1F
100
AcDbEntity
  8
HEWI
100
AcDbLine
 10
92.34068800000001
 20
71.377094
 30
0.0
 11
92.34068800000001
 21
71.87701800000001
 31
0.0
  0
LINE
  5
10D
330
1F
100
AcDbEntity
  8
HEWI
100
AcDbLine
 10
248.330688
 20
71.377094
 30
0.0
 11
92.34068800000001
 21
71.377094
 31
0.0
  0
LINE
  5
10E
330
1F
100
AcDbEntity
  8
HEWI
100
AcDbLine
 10
248.330688
 20
149.96082
 30
0.0
 11
248.330688
 21
150.460744
 31
0.0
  0
LINE
  5
10F
330
1F
100
AcDbEntity
  8
HEWI
100
AcDbLine
 10
248.330688
 20
71.377094
 30
0.0
 11
248.330688
 21
71.87701800000001
 31
0.0
  0
ARC
  5
110
330
1F
100
AcDbEntity
  8
HEWI
100
AcDbCircle
 10
285.977991
 20
247.445946
 30
0.0
 40
1.0
100
AcDbArc
 50
270.0
 51
359.0
  0
ARC
  5
111
330
1F
100
AcDbEntity
  8
HEWI
100
AcDbCircle
 10
54.693385
 20
247.445946
 30
0.0
 40
1.0
100
AcDbArc
 50
181.0
 51
270.0
  0
ARC
  5
112
330
1F
100
AcDbEntity
  8
HEWI
100
AcDbCircle
 10
294.835688
 20
316.945946
 30
0.0
 40
0.5
100
AcDbArc
 50
270.0
 51
0.0
  0
ARC
  5
113
330
1F
100
AcDbEntity
  8
HEWI
100
AcDbCircle
 10
45.835688
 20
316.945946
 30
0.0
 40
0.5
100
AcDbArc
 50
180.0
 51
270.0
  0
ARC
  5
114
330
1F
100
AcDbEntity
  8
HEWI
100
AcDbCircle
 10
294.835688
 20
335.945946
 30
0.0
 40
0.5
100
AcDbArc
 50
0.0
 51
90.0
  0
ARC
  5
115
330
1F
100
AcDbEntity
  8
HEWI
100
AcDbCircle
 10
45.835688
 20
335.945946
 30
0.0
 40
0.5
100
AcDbArc
 50
90.0
 51
180.0
  0
ARC
  5
116
330
1F
100
AcDbEntity
  8
HEWI
100
AcDbCircle
 10
476.693182
 20
316.945946
 30
0.0
 40
0.5
100
AcDbArc
 50
270.0
 51
0.0
  0
ARC
  5
117
330
1F
100
AcDbEntity
  8
HEWI
100
AcDbCircle
 10
476.693182
 20
335.945946
 30
0.0
 40
0.5
100
AcDbArc
 50
0.0
 51
90.0
  0
ARC
  5
118
330
1F
100
AcDbEntity
  8
HEWI
100
AcDbCircle
 10
392.545879
 20
247.445946
 30
0.0
 40
1.0
100
AcDbArc
 50
181.0
 51
270.0
  0
ARC
  5
119
330
1F
100
AcDbEntity
  8
HEWI
100
AcDbCircle
 10
467.8404849999999
 20
247.445946
 30
0.0
 40
1.0
100
AcDbArc
 50
270.0
 51
359.0
  0
ARC
  5
11A
330
1F
100
AcDbEntity
  8
HEWI
100
AcDbCircle
 10
92.335688
 20
110.918919
 30
0.0
 40
42.4
100
AcDbArc
 50
90.0
 51
270.0
  0
ARC
  5
11B
330
1F
100
AcDbEntity
  8
HEWI
100
AcDbCircle
 10
248.335688
 20
110.918919
 30
0.0
 40
42.4
100
AcDbArc
 50
270.0
 51
90.0
  0
ARC
  5
11C
330
1F
100
AcDbEntity
  8
HEWI
100
AcDbCircle
 10
248.335688
 20
110.918919
 30
0.0
 40
42.5
100
AcDbArc
 50
270.0
 51
90.0
  0
ARC
  5
11D
330
1F
100
AcDbEntity
  8
HEWI
100
AcDbCircle
 10
92.335688
 20
110.918919
 30
0.0
 40
47.0
100
AcDbArc
 50
180.0
 51
270.0
  0
ARC
  5
11E
330
1F
100
AcDbEntity
  8
HEWI
100
AcDbCircle
 10
248.335688
 20
110.918919
 30
0.0
 40
47.0
100
AcDbArc
 50
270.0
 51
0.0
  0
ARC
  5
11F
330
1F
100
AcDbEntity
  8
HEWI
100
AcDbCircle
 10
92.335688
 20
110.918919
 30
0.0
 40
42.5
100
AcDbArc
 50
90.0
 51
270.0
  0
ARC
  5
120
330
1F
100
AcDbEntity
  8
HEWI
100
AcDbCircle
 10
248.335688
 20
110.918919
 30
0.0
 40
43.0
100
AcDbArc
 50
270.0
 51
90.0
  0
ARC
  5
121
330
1F
100
AcDbEntity
  8
HEWI
100
AcDbCircle
 10
92.335688
 20
110.918919
 30
0.0
 40
43.0
100
AcDbArc
 50
90.0
 51
270.0
  0
ARC
  5
122
330
1F
100
AcDbEntity
  8
HEWI
100
AcDbCircle
 10
248.335688
 20
110.918919
 30
0.0
 40
46.5
100
AcDbArc
 50
270.0
 51
0.0
  0
ARC
  5
123
330
1F
100
AcDbEntity
  8
HEWI
100
AcDbCircle
 10
92.335688
 20
110.918919
 30
0.0
 40
46.5
100
AcDbArc
 50
180.0
 51
270.0
  0
ARC
  5
124
330
1F
100
AcDbEntity
  8
HEWI
100
AcDbCircle
 10
180.3356879999999
 20
110.918919
 30
0.0
 40
2.499999999999674
100
AcDbArc
 50
90.0
 51
180.0
  0
ARC
  5
125
330
1F
100
AcDbEntity
  8
HEWI
100
AcDbCircle
 10
180.3356879999999
 20
110.918919
 30
0.0
 40
2.499999999999674
100
AcDbArc
 50
180.0
 51
270.0
  0
ARC
  5
126
330
1F
100
AcDbEntity
  8
HEWI
100
AcDbCircle
 10
248.330688
 20
110.918919
 30
0.0
 40
2.5
100
AcDbArc
 50
270.0
 51
90.0
  0
ARC
  5
127
330
1F
100
AcDbEntity
  8
HEWI
100
AcDbCircle
 10
160.3356879999999
 20
110.918919
 30
0.0
 40
2.500000000000153
100
AcDbArc
 50
270.0
 51
0.0
  0
ARC
  5
128
330
1F
100
AcDbEntity
  8
HEWI
100
AcDbCircle
 10
92.34068800000001
 20
110.918919
 30
0.0
 40
2.5
100
AcDbArc
 50
90.0
 51
270.0
  0
ARC
  5
129
330
1F
100
AcDbEntity
  8
HEWI
100
AcDbCircle
 10
160.3356879999999
 20
110.918919
 30
0.0
 40
2.500000000000153
100
AcDbArc
 50
0.0
 51
90.0
  0
ARC
  5
12A
330
1F
100
AcDbEntity
  8
HEWI
100
AcDbCircle
 10
160.3356879999999
 20
130.418919
 30
0.0
 40
2.499999999999996
100
AcDbArc
 50
270.0
 51
90.0
  0
ARC
  5
12B
330
1F
100
AcDbEntity
  8
HEWI
100
AcDbCircle
 10
180.3356879999999
 20
91.41891899999999
 30
0.0
 40
2.500000000000048
100
AcDbArc
 50
90.0
 51
270.0
  0
ARC
  5
12C
330
1F
100
AcDbEntity
  8
HEWI
100
AcDbCircle
 10
180.3356879999999
 20
130.418919
 30
0.0
 40
2.499999999999996
100
AcDbArc
 50
90.0
 51
270.0
  0
ARC
  5
12D
330
1F
100
AcDbEntity
  8
HEWI
100
AcDbCircle
 10
160.3356879999999
 20
91.41891899999999
 30
0.0
 40
2.5
100
AcDbArc
 50
270.0
 51
90.0
  0
ARC
  5
12E
330
1F
100
AcDbEntity
  8
HEWI
100
AcDbCircle
 10
92.34068800000001
 20
110.918919
 30
0.0
 40
2.991273796781332
100
AcDbArc
 50
90.0
 51
270.0
  0
ARC
  5
12F
330
1F
100
AcDbEntity
  8
HEWI
100
AcDbCircle
 10
160.3356879999999
 20
91.427645
 30
0.0
 40
2.999999999999991
100
AcDbArc
 50
270.0
 51
90.0
  0
ARC
  5
130
330
1F
100
AcDbEntity
  8
HEWI
100
AcDbCircle
 10
180.3356879999999
 20
91.427645
 30
0.0
 40
3.000000000000036
100
AcDbArc
 50
90.0
 51
270.0
  0
ARC
  5
131
330
1F
100
AcDbEntity
  8
HEWI
100
AcDbCircle
 10
180.3356879999999
 20
110.927645
 30
0.0
 40
3.000000000000278
100
AcDbArc
 50
180.166658
 51
270.0
  0
ARC
  5
132
330
1F
100
AcDbEntity
  8
HEWI
100
AcDbCircle
 10
160.3356879999999
 20
110.927645
 30
0.0
 40
2.999999999999917
100
AcDbArc
 50
270.0
 51
359.833342
  0
ARC
  5
133
330
1F
100
AcDbEntity
  8
HEWI
100
AcDbCircle
 10
248.330688
 20
110.918919
 30
0.0
 40
2.991273796781367
100
AcDbArc
 50
270.0
 51
90.0
  0
ARC
  5
134
330
1F
100
AcDbEntity
  8
HEWI
100
AcDbCircle
 10
160.3356879999999
 20
130.410193
 30
0.0
 40
3.000000000000003
100
AcDbArc
 50
270.0
 51
90.0
  0
ARC
  5
135
330
1F
100
AcDbEntity
  8
HEWI
100
AcDbCircle
 10
160.3356879999999
 20
110.910193
 30
0.0
 40
3.000000000000263
100
AcDbArc
 50
0.166658
 51
90.0
  0
ARC
  5
136
330
1F
100
AcDbEntity
  8
HEWI
100
AcDbCircle
 10
180.3356879999999
 20
110.910193
 30
0.0
 40
3.00000000000024
100
AcDbArc
 50
90.0
 51
179.833342
  0
ARC
  5
137
330
1F
100
AcDbEntity
  8
HEWI
100
AcDbCircle
 10
180.3356879999999
 20
130.410193
 30
0.0
 40
3.000000000000048
100
AcDbArc
 50
90.0
 51
270.0
  0
ARC
  5
138
330
1F
100
AcDbEntity
  8
HEWI
100
AcDbCircle
 10
248.330688
 20
110.918919
 30
0.0
 40
34.09702100463858
100
AcDbArc
 50
270.0
 51
90.0
  0
ARC
  5
139
330
1F
100
AcDbEntity
  8
HEWI
100
AcDbCircle
 10
92.34068800000001
 20
110.918919
 30
0.0
 40
34.09702100463857
100
AcDbArc
 50
90.0
 51
270.0
  0
ARC
  5
13A
330
1F
100
AcDbEntity
  8
HEWI
100
AcDbCircle
 10
92.34068800000001
 20
110.918919
 30
0.0
 40
35.57061393771725
100
AcDbArc
 50
90.0
 51
270.0
  0
ARC
  5
13B
330
1F
100
AcDbEntity
  8
HEWI
100
AcDbCircle
 10
248.330688
 20
110.918919
 30
0.0
 40
35.57061393771725
100
AcDbArc
 50
270.0
 51
90.0
  0
ARC
  5
13C
330
1F
100
AcDbEntity
  8
HEWI
100
AcDbCircle
 10
248.330688
 20
110.918919
 30
0.0
 40
36.8264830587612
100
AcDbArc
 50
270.0
 51
90.0
  0
ARC
  5
13D
330
1F
100
AcDbEntity
  8
HEWI
100
AcDbCircle
 10
248.330688
 20
110.918919
 30
0.0
 40
37.82633075391758
100
AcDbArc
 50
270.0
 51
90.0
  0
ARC
  5
13E
330
1F
100
AcDbEntity
  8
HEWI
100
AcDbCircle
 10
92.34068800000001
 20
110.918919
 30
0.0
 40
36.8264830587612
100
AcDbArc
 50
90.0
 51
270.0
  0
ARC
  5
13F
330
1F
100
AcDbEntity
  8
HEWI
100
AcDbCircle
 10
92.34068800000001
 20
110.918919
 30
0.0
 40
37.82633075391758
100
AcDbArc
 50
90.0
 51
270.0
  0
ARC
  5
140
330
1F
100
AcDbEntity
  8
HEWI
100
AcDbCircle
 10
248.330688
 20
110.918919
 30
0.0
 40
37.86093622768621
100
AcDbArc
 50
270.0
 51
90.0
  0
ARC
  5
141
330
1F
100
AcDbEntity
  8
HEWI
100
AcDbCircle
 10
92.34068800000001
 20
110.918919
 30
0.0
 40
37.8609362276862
100
AcDbArc
 50
90.0
 51
270.0
  0
ARC
  5
142
330
1F
100
AcDbEntity
  8
HEWI
100
AcDbCircle
 10
92.34068800000001
 20
110.918919
 30
0.0
 40
38.8607839228426
100
AcDbArc
 50
90.0
 51
270.0
  0
ARC
  5
143
330
1F
100
AcDbEntity
  8
HEWI
100
AcDbCircle
 10
248.330688
 20
110.918919
 30
0.0
 40
38.86078392284261
100
AcDbArc
 50
270.0
 51
90.0
  0
ARC
  5
144
330
1F
100
AcDbEntity
  8
HEWI
100
AcDbCircle
 10
248.330688
 20
110.918919
 30
0.0
 40
42.1920759946317
100
AcDbArc
 50
270.0
 51
90.0
  0
ARC
  5
145
330
1F
100
AcDbEntity
  8
HEWI
100
AcDbCircle
 10
248.330688
 20
110.918919
 30
0.0
 40
41.69215214705353
100
AcDbArc
 50
270.0
 51
90.0
  0
ARC
  5
146
330
1F
100
AcDbEntity
  8
HEWI
100
AcDbCircle
 10
92.34068800000001
 20
110.918919
 30
0.0
 40
39.04190079418093
100
AcDbArc
 50
90.0
 51
270.0
  0
ARC
  5
147
330
1F
100
AcDbEntity
  8
HEWI
100
AcDbCircle
 10
92.34068800000001
 20
110.918919
 30
0.0
 40
39.54182464175911
100
AcDbArc
 50
90.0
 51
270.0
  0
ARC
  5
148
330
1F
100
AcDbEntity
  8
HEWI
100
AcDbCircle
 10
92.34068800000001
 20
110.918919
 30
0.0
 40
41.69215214705352
100
AcDbArc
 50
90.0
 51
270.0
  0
ARC
  5
149
330
1F
100
AcDbEntity
  8
HEWI
100
AcDbCircle
 10
248.330688
 20
110.918919
 30
0.0
 40
39.04190079418093
100
AcDbArc
 50
270.0
 51
90.0
  0
ARC
  5
14A
330
1F
100
AcDbEntity
  8
HEWI
100
AcDbCircle
 10
248.330688
 20
110.918919
 30
0.0
 40
39.54182464175911
100
AcDbArc
 50
270.0
 51
90.0
  0
ARC
  5
14B
330
1F
100
AcDbEntity
  8
HEWI
100
AcDbCircle
 10
92.34068800000001
 20
110.918919
 30
0.0
 40
42.1920759946317
100
AcDbArc
 50
90.0
 51
270.0
  0
SPLINE
  5
14C
330
1F
100
AcDbEntity
  8
HEWI
100
AcDbSpline
210
0.0
220
0.0
230
1.0
 70
    24
 71
     3
 72
    33
 73
    29
 74
     0
 42
0.000000001
 43
0.0000000001
 40
0.0
 40
0.0
 40
0.0
 40
0.0
 40
0.0289691186444434
 40
0.0289691186444434
 40
0.0602926954623733
 40
0.0602926954623733
 40
0.122939849098228
 40
0.122939849098228
 40
0.1855870027340827
 40
0.1855870027340827
 40
0.2482341563699375
 40
0.3108813100057922
 40
0.3108813100057922
 40
0.3735284636416469
 40
0.3735284636416469
 40
0.4988227709133576
 40
0.4988227709133576
 40
0.5614699245491948
 40
0.5614699245491948
 40
0.624117078185032
 40
0.624117078185032
 40
0.7494113854567054
 40
0.7494113854567054
 40
0.8120585390925418
 40
0.8120585390925418
 40
0.8747056927283786
 40
0.8747056927283786
 40
1.0
 40
1.0
 40
1.0
 40
1.0
 10
177.8356876518152
 20
110.918918918919
 30
0.0000000000000036
 10
177.8356532901096
 20
110.918918918919
 30
0.0000000000000036
 10
177.8354633270979
 20
110.918918918919
 30
0.0000000000000036
 10
177.8346872474733
 20
110.918918918919
 30
0.0000000000000036
 10
177.8340810903795
 20
110.918918918919
 30
0.0000000000000036
 10
177.8316590314022
 20
110.918918918919
 30
0.0000000000000036
 10
177.8292410038308
 20
110.9189189189189
 30
0.0000000000000036
 10
177.8227910877687
 20
110.9189189189189
 30
0.0000000000000036
 10
177.818759852906
 20
110.918918918919
 30
0.0000000000000036
 10
177.809235446474
 20
110.918918918919
 30
0.0000000000000036
 10
177.7982252753321
 20
110.918918918919
 30
0.0000000000000036
 10
177.7842830220624
 20
110.918918918919
 30
0.0000000000000036
 10
177.768852025918
 20
110.918918918919
 30
0.0000000000000036
 10
177.7603385532565
 20
110.918918918919
 30
0.0000000000000036
 10
177.7329232716874
 20
110.918918918919
 30
0.0000000000000036
 10
177.7122274511365
 20
110.9189189189189
 30
0.0000000000000036
 10
177.6776389117479
 20
110.918918918919
 30
0.0000000000000036
 10
177.6655143786863
 20
110.918918918919
 30
0.0000000000000036
 10
177.6400368015371
 20
110.918918918919
 30
0.0000000000000036
 10
177.6267979134699
 20
110.918918918919
 30
0.0000000000000036
 10
177.5860465362921
 20
110.918918918919
 30
0.0000000000000036
 10
177.5573371038007
 20
110.918918918919
 30
0.0000000000000036
 10
177.5119389664829
 20
110.918918918919
 30
0.0000000000000036
 10
177.4963324770441
 20
110.918918918919
 30
0.0000000000000036
 10
177.4649327143578
 20
110.918918918919
 30
0.0000000000000036
 10
177.4490965389825
 20
110.918918918919
 30
0.0000000000000036
 10
177.4011882396413
 20
110.918918918919
 30
0.0000000000000036
 10
177.3687202739483
 20
110.918918918919
 30
0.0000000000000036
 10
177.3357006518187
 20
110.918918918919
 30
0.0000000000000036
  0
SPLINE
  5
14D
330
1F
100
AcDbEntity
  8
HEWI
100
AcDbSpline
210
0.0
220
0.0
230
1.0
 70
    24
 71
     3
 72
    33
 73
    29
 74
     0
 42
0.000000001
 43
0.0000000001
 40
0.0
 40
0.0
 40
0.0
 40
0.0
 40
0.1252361534327881
 40
0.1252361534327881
 40
0.1878542301492083
 40
0.1878542301492083
 40
0.2504723068656286
 40
0.2504723068656286
 40
0.375708460298469
 40
0.375708460298469
 40
0.4383265370148893
 40
0.4383265370148893
 40
0.5009446137313094
 40
0.5009446137313094
 40
0.6261807671641111
 40
0.6261807671641111
 40
0.6887988438804971
 40
0.6887988438804971
 40
0.7514169205968831
 40
0.8140349973132693
 40
0.8140349973132693
 40
0.8766530740296552
 40
0.8766530740296552
 40
0.9392711507460411
 40
0.9392711507460411
 40
0.9705801891042376
 40
0.9705801891042376
 40
1.0
 40
1.0
 40
1.0
 40
1.0
 10
163.3356752695574
 20
110.918918918919
 30
0.0000000000000036
 10
163.3026556474277
 20
110.9189189189189
 30
0.0000000000000036
 10
163.2701876817347
 20
110.918918918919
 30
0.0000000000000036
 10
163.2222793823936
 20
110.918918918919
 30
0.0000000000000036
 10
163.2064432070182
 20
110.918918918919
 30
0.0000000000000036
 10
163.175043444332
 20
110.918918918919
 30
0.0000000000000036
 10
163.1594369548931
 20
110.9189189189189
 30
0.0000000000000036
 10
163.1140388175754
 20
110.918918918919
 30
0.0000000000000036
 10
163.0853293850839
 20
110.918918918919
 30
0.0000000000000036
 10
163.0445780079061
 20
110.918918918919
 30
0.0000000000000036
 10
163.0313391198389
 20
110.918918918919
 30
0.0000000000000036
 10
163.0058615426897
 20
110.918918918919
 30
0.0000000000000036
 10
162.9937370096281
 20
110.918918918919
 30
0.0000000000000036
 10
162.9591484702395
 20
110.918918918919
 30
0.0000000000000036
 10
162.9384526496887
 20
110.918918918919
 30
0.0000000000000036
 10
162.9110373681195
 20
110.918918918919
 30
0.0000000000000036
 10
162.902523895458
 20
110.918918918919
 30
0.0000000000000036
 10
162.8870928993136
 20
110.918918918919
 30
0.0000000000000036
 10
162.8731506460439
 20
110.918918918919
 30
0.0000000000000036
 10
162.862140474902
 20
110.918918918919
 30
0.0000000000000036
 10
162.85261606847
 20
110.918918918919
 30
0.0000000000000036
 10
162.8485848336073
 20
110.918918918919
 30
0.0000000000000036
 10
162.8421349175453
 20
110.918918918919
 30
0.0000000000000036
 10
162.8397168899737
 20
110.9189189189189
 30
0.0000000000000036
 10
162.8372948309965
 20
110.918918918919
 30
0.0000000000000036
 10
162.8366886739027
 20
110.918918918919
 30
0.0000000000000036
 10
162.8359066171818
 20
110.918918918919
 30
0.0000000000000036
 10
162.8357024595856
 20
110.918918918919
 30
0.0000000000000036
 10
162.835692269555
 20
110.918918918919
 30
0.0000000000000036
  0
SPLINE
  5
14E
330
1F
100
AcDbEntity
  8
HEWI
100
AcDbSpline
210
0.0
220
0.0000000000000001
230
1.0
 70
     8
 71
     3
 72
    80
 73
    76
 74
     0
 42
0.000000001
 43
0.0000000001
 40
0.0
 40
0.0
 40
0.0
 40
0.0
 40
0.0312499999999963
 40
0.0624999999999926
 40
0.0937499999999889
 40
0.0937499999999889
 40
0.1015624999999869
 40
0.1015624999999869
 40
0.1093749999999849
 40
0.1093749999999849
 40
0.1249999999999843
 40
0.1249999999999843
 40
0.156249999999983
 40
0.1874999999999818
 40
0.1874999999999818
 40
0.2031249999999804
 40
0.2109374999999797
 40
0.2109374999999797
 40
0.218749999999979
 40
0.218749999999979
 40
0.2499999999999739
 40
0.2812499999999687
 40
0.3124999999999636
 40
0.3124999999999636
 40
0.3281249999999607
 40
0.3281249999999607
 40
0.3437499999999578
 40
0.3437499999999578
 40
0.3749999999999483
 40
0.4062499999999388
 40
0.4062499999999388
 40
0.4218749999999341
 40
0.4218749999999341
 40
0.4374999999999293
 40
0.4374999999999293
 40
0.4687499999999221
 40
0.4999999999999146
 40
0.5312499999999072
 40
0.5312499999999072
 40
0.539062499999906
 40
0.539062499999906
 40
0.5468749999999049
 40
0.5624999999999057
 40
0.5624999999999057
 40
0.5937499999999045
 40
0.6249999999999033
 40
0.6249999999999033
 40
0.6406249999999023
 40
0.6406249999999023
 40
0.6484374999999029
 40
0.6484374999999029
 40
0.6562499999999036
 40
0.6874999999999157
 40
0.7187499999999277
 40
0.7499999999999397
 40
0.7499999999999397
 40
0.7656249999999439
 40
0.7656249999999439
 40
0.7812499999999481
 40
0.7812499999999481
 40
0.8124999999999559
 40
0.8437499999999639
 40
0.8437499999999639
 40
0.8593749999999678
 40
0.8593749999999678
 40
0.8749999999999719
 40
0.8749999999999719
 40
0.906249999999979
 40
0.9374999999999859
 40
0.9374999999999859
 40
0.9531249999999895
 40
0.9531249999999895
 40
0.9687499999999927
 40
0.9687499999999927
 40
1.0
 40
1.0
 40
1.0
 40
1.0
 10
248.330687960688
 20
88.91891891891894
 30
0.000000000000005
 10
248.4132688109598
 20
88.91891891891894
 30
0.000000000000005
 10
248.5770529822604
 20
88.92708045898023
 30
0.000000000000005
 10
248.8187379011543
 20
88.96297050457269
 30
0.000000000000005
 10
248.9772158214411
 20
89.00257030304908
 30
0.000000000000005
 10
249.075418617838
 20
89.0323319353669
 30
0.000000000000005
 10
249.0950167840883
 20
89.03853542939781
 30
0.000000000000005
 10
249.1341274454835
 20
89.05144999584164
 30
0.000000000000005
 10
249.1536665531508
 20
89.05817091794235
 30
0.000000000000005
 10
249.2118887201758
 20
89.07900764441599
 30
0.000000000000005
 10
249.2502058450189
 20
89.09380304314934
 30
0.0000000000000049
 10
249.3636939063916
 20
89.14084810843437
 30
0.0000000000000049
 10
249.5111161538746
 20
89.21065245953903
 30
0.0000000000000049
 10
249.6508867414969
 20
89.29435995599478
 30
0.0000000000000049
 10
249.7528142019586
 20
89.36241074829641
 30
0.0000000000000049
 10
249.803051529858
 20
89.3977560167478
 30
0.0000000000000049
 10
249.8521812797404
 20
89.43511374647266
 30
0.0000000000000049
 10
249.8846854207332
 20
89.46047137652245
 30
0.0000000000000049
 10
249.9008169618181
 20
89.47338070861611
 30
0.0000000000000049
 10
249.9804018823199
 20
89.53869869144993
 30
0.0000000000000049
 10
250.1016171953483
 20
89.64868831152541
 30
0.0000000000000049
 10
250.265631888208
 20
89.82961956001421
 30
0.0000000000000049
 10
250.3631248228081
 20
89.96085179901848
 30
0.0000000000000049
 10
250.4316786771631
 20
90.06336447868223
 30
0.0000000000000049
 10
250.4538181830796
 20
90.09830895721346
 30
0.0000000000000049
 10
250.4961221235483
 20
90.16888392000671
 30
0.0000000000000049
 10
250.516326284984
 20
90.20456421818204
 30
0.0000000000000049
 10
250.5741465596481
 20
90.31276232508364
 30
0.0000000000000049
 10
250.6438075387375
 20
90.46010690794004
 30
0.0000000000000049
 10
250.6988155116289
 20
90.61352421502229
 30
0.0000000000000049
 10
250.7344971307755
 20
90.73089736732985
 30
0.0000000000000048
 10
250.7454602974214
 20
90.77040746241641
 30
0.0000000000000048
 10
250.7654911064286
 20
90.85021320507463
 30
0.0000000000000048
 10
250.7745654079339
 20
90.89057006328287
 30
0.0000000000000048
 10
250.7986373535383
 20
91.01150787836408
 30
0.0000000000000048
 10
250.8225760775293
 20
91.17321154953579
 30
0.0000000000000048
 10
250.8346638773824
 20
91.41709050025058
 30
0.0000000000000048
 10
250.8268158375666
 20
91.58056017174075
 30
0.0000000000000048
 10
250.8167848924355
 20
91.68301348148505
 30
0.0000000000000048
 10
250.8145180096228
 20
91.70354678726836
 30
0.0000000000000048
 10
250.8094880191143
 20
91.744456944007
 30
0.0000000000000048
 10
250.8011991206193
 20
91.8056068330177
 30
0.0000000000000048
 10
250.7907044486706
 20
91.86611819960468
 30
0.0000000000000048
 10
250.7668218105424
 20
91.9863033888874
 30
0.0000000000000048
 10
250.7272763251481
 20
92.14432075973036
 30
0.0000000000000048
 10
250.6724928183692
 20
92.29792709290066
 30
0.0000000000000048
 10
250.6255872848977
 20
92.41144772559843
 30
0.0000000000000047
 10
250.6089807309219
 20
92.44900675092971
 30
0.0000000000000047
 10
250.5825843363319
 20
92.50491497577231
 30
0.0000000000000047
 10
250.5735334506554
 20
92.5234858231196
 30
0.0000000000000047
 10
250.5550362373866
 20
92.56027718067128
 30
0.0000000000000047
 10
250.5077433983126
 20
92.65150758078371
 30
0.0000000000000047
 10
250.4133046916469
 20
92.80908774457955
 30
0.0000000000000047
 10
250.2679815228212
 20
93.00536875954028
 30
0.0000000000000047
 10
250.158094705226
 20
93.12695716497488
 30
0.0000000000000047
 10
250.0706317120635
 20
93.21455202650041
 30
0.0000000000000047
 10
250.0408161816597
 20
93.24296471011349
 30
0.0000000000000047
 10
249.9800732627834
 20
93.29807024485573
 30
0.0000000000000047
 10
249.9491161975025
 20
93.32479286271691
 30
0.0000000000000047
 10
249.8545133970238
 20
93.40250603045248
 30
0.0000000000000047
 10
249.7237667032859
 20
93.49958907924706
 30
0.0000000000000047
 10
249.5838673949395
 20
93.58369780337099
 30
0.0000000000000047
 10
249.4754356254709
 20
93.6418076615744
 30
0.0000000000000047
 10
249.4386732088364
 20
93.66036304623778
 30
0.0000000000000047
 10
249.36408893192
 20
93.69571173309049
 30
0.0000000000000047
 10
249.3265137778768
 20
93.71239015887828
 30
0.0000000000000047
 10
249.2129569251922
 20
93.75949983422051
 30
0.0000000000000047
 10
249.0593347543083
 20
93.81452523274635
 30
0.0000000000000047
 10
248.9013731756248
 20
93.85428075819541
 30
0.0000000000000047
 10
248.7812600527362
 20
93.87831966209914
 30
0.0000000000000047
 10
248.740948204998
 20
93.88536797136881
 30
0.0000000000000047
 10
248.6597677355486
 20
93.8975053907149
 30
0.0000000000000047
 10
248.6188383679048
 20
93.90260020037635
 30
0.0000000000000047
 10
248.4956290257332
 20
93.91483716782586
 30
0.0000000000000047
 10
248.4132689166689
 20
93.91891891891894
 30
0.0000000000000047
 10
248.330687960688
 20
93.91891891891894
 30
0.0000000000000047
  0
SPLINE
  5
14F
330
1F
100
AcDbEntity
  8
HEWI
100
AcDbSpline
210
0.0
220
0.0000000000000001
230
1.0
 70
     8
 71
     3
 72
    80
 73
    76
 74
     0
 42
0.000000001
 43
0.0000000001
 40
0.0
 40
0.0
 40
0.0
 40
0.0
 40
0.0312499999999998
 40
0.0624999999999997
 40
0.0937499999999995
 40
0.0937499999999995
 40
0.1015624999999946
 40
0.1015624999999946
 40
0.1093749999999897
 40
0.1093749999999897
 40
0.1249999999999898
 40
0.1249999999999898
 40
0.1562499999999998
 40
0.1875000000000097
 40
0.1875000000000097
 40
0.2031250000000147
 40
0.2109375000000172
 40
0.2109375000000172
 40
0.2187500000000197
 40
0.2187500000000197
 40
0.2500000000000271
 40
0.2812500000000344
 40
0.312500000000042
 40
0.312500000000042
 40
0.328125000000048
 40
0.328125000000048
 40
0.3437500000000542
 40
0.3437500000000542
 40
0.3750000000000615
 40
0.4062500000000688
 40
0.4062500000000688
 40
0.4218750000000701
 40
0.4218750000000701
 40
0.4375000000000715
 40
0.4375000000000715
 40
0.4687500000000778
 40
0.500000000000084
 40
0.5312500000000901
 40
0.5312500000000901
 40
0.5390625000000907
 40
0.5390625000000907
 40
0.5468750000000914
 40
0.5625000000000925
 40
0.5625000000000925
 40
0.5937500000000934
 40
0.6250000000000944
 40
0.6250000000000944
 40
0.6406250000000949
 40
0.6406250000000949
 40
0.6484375000000935
 40
0.6484375000000935
 40
0.6562500000000921
 40
0.6875000000000953
 40
0.7187500000000984
 40
0.7500000000001016
 40
0.7500000000001016
 40
0.7656250000001
 40
0.7656250000001
 40
0.7812500000000983
 40
0.7812500000000983
 40
0.8125000000000868
 40
0.8437500000000753
 40
0.8437500000000753
 40
0.8593750000000699
 40
0.8593750000000699
 40
0.8750000000000644
 40
0.8750000000000644
 40
0.9062500000000536
 40
0.9375000000000426
 40
0.9375000000000426
 40
0.9531250000000321
 40
0.9531250000000321
 40
0.9687500000000211
 40
0.9687500000000211
 40
1.0
 40
1.0
 40
1.0
 40
1.0
 10
92.34068796068804
 20
132.918918918919
 30
0.0000000000000023
 10
92.25810711041621
 20
132.918918918919
 30
0.0000000000000023
 10
92.0943229391157
 20
132.9107573788577
 30
0.0000000000000023
 10
91.85263802022159
 20
132.8748673332652
 30
0.0000000000000023
 10
91.69416009993495
 20
132.8352675347888
 30
0.0000000000000023
 10
91.59595730353807
 20
132.805505902471
 30
0.0000000000000023
 10
91.57635913728771
 20
132.7993024084401
 30
0.0000000000000023
 10
91.53724847589243
 20
132.7863878419963
 30
0.0000000000000023
 10
91.51770936822515
 20
132.7796669198956
 30
0.0000000000000023
 10
91.45948720120015
 20
132.758830193422
 30
0.0000000000000023
 10
91.42117007635716
 20
132.7440347946886
 30
0.0000000000000023
 10
91.30768201498439
 20
132.6969897294036
 30
0.0000000000000023
 10
91.16025976750144
 20
132.6271853782989
 30
0.0000000000000023
 10
91.02048917987906
 20
132.5434778818431
 30
0.0000000000000023
 10
90.91856171941737
 20
132.4754270895414
 30
0.0000000000000023
 10
90.86832439151811
 20
132.4400818210901
 30
0.0000000000000023
 10
90.81919464163558
 20
132.4027240913653
 30
0.0000000000000023
 10
90.78669050064277
 20
132.3773664613155
 30
0.0000000000000023
 10
90.77055895955799
 20
132.3644571292218
 30
0.0000000000000023
 10
90.69097403905614
 20
132.299139146388
 30
0.0000000000000023
 10
90.56975919669923
 20
132.1891491047303
 30
0.0000000000000023
 10
90.40574366975388
 20
132.0082186031321
 30
0.0000000000000023
 10
90.30825109856797
 20
131.8769860388194
 30
0.0000000000000023
 10
90.23969724421295
 20
131.7744733591557
 30
0.0000000000000023
 10
90.21755773829644
 20
131.7395288806244
 30
0.0000000000000023
 10
90.17525379782767
 20
131.6689539178312
 30
0.0000000000000023
 10
90.15504963639202
 20
131.6332736196559
 30
0.0000000000000023
 10
90.09722936172797
 20
131.5250755127543
 30
0.0000000000000024
 10
90.02756838321085
 20
131.3777309295687
 30
0.0000000000000024
 10
89.97256040974709
 20
131.2243136228156
 30
0.0000000000000024
 10
89.93687879060059
 20
131.1069404705081
 30
0.0000000000000024
 10
89.92591562395469
 20
131.0674303754216
 30
0.0000000000000024
 10
89.9058848149473
 20
130.9876246327633
 30
0.0000000000000024
 10
89.89681051344206
 20
130.9472677745551
 30
0.0000000000000024
 10
89.87273856783764
 20
130.8263299594738
 30
0.0000000000000024
 10
89.84879984384667
 20
130.6646262883021
 30
0.0000000000000024
 10
89.83671141473044
 20
130.4207473725636
 30
0.0000000000000024
 10
89.84456008380945
 20
130.2572776660972
 30
0.0000000000000024
 10
89.85459102894044
 20
130.1548243563529
 30
0.0000000000000024
 10
89.85685791175326
 20
130.1342910505696
 30
0.0000000000000024
 10
89.86188790226172
 20
130.0933808938309
 30
0.0000000000000024
 10
89.87017680075666
 20
130.0322310048202
 30
0.0000000000000024
 10
89.88067147270546
 20
129.9717196382333
 30
0.0000000000000024
 10
89.9045541108337
 20
129.8515344489505
 30
0.0000000000000025
 10
89.94409946396595
 20
129.6935170399091
 30
0.0000000000000025
 10
89.99888310300676
 20
129.5399107449373
 30
0.0000000000000025
 10
90.04578863647829
 20
129.4263901122395
 30
0.0000000000000025
 10
90.06239519045404
 20
129.3888310869082
 30
0.0000000000000025
 10
90.08879158504408
 20
129.3329228620656
 30
0.0000000000000025
 10
90.09784247072069
 20
129.3143520147183
 30
0.0000000000000025
 10
90.11633968398941
 20
129.2775606571666
 30
0.0000000000000025
 10
90.16363252306353
 20
129.1863302570542
 30
0.0000000000000025
 10
90.2580715117169
 20
129.0287502943017
 30
0.0000000000000025
 10
90.40339376394744
 20
128.832468626335
 30
0.0000000000000025
 10
90.51328121614991
 20
128.7108806728631
 30
0.0000000000000025
 10
90.60074420931256
 20
128.6232858113375
 30
0.0000000000000025
 10
90.63055973971637
 20
128.5948731277244
 30
0.0000000000000025
 10
90.69130265859259
 20
128.5397675929822
 30
0.0000000000000025
 10
90.72225972387345
 20
128.513044975121
 30
0.0000000000000025
 10
90.81686252435229
 20
128.4353318073854
 30
0.0000000000000025
 10
90.94760921809015
 20
128.3382487585909
 30
0.0000000000000025
 10
91.08750852643657
 20
128.2541400344669
 30
0.0000000000000026
 10
91.19594029590521
 20
128.1960301762635
 30
0.0000000000000026
 10
91.23270271253964
 20
128.1774747916002
 30
0.0000000000000026
 10
91.30728698945608
 20
128.1421261047474
 30
0.0000000000000026
 10
91.34486214349925
 20
128.1254476789597
 30
0.0000000000000026
 10
91.45841899618375
 20
128.0783380036174
 30
0.0000000000000026
 10
91.61204116706771
 20
128.0233126050916
 30
0.0000000000000026
 10
91.77000274575128
 20
127.9835570796425
 30
0.0000000000000026
 10
91.89011586863987
 20
127.9595181757388
 30
0.0000000000000026
 10
91.93042771637797
 20
127.9524698664691
 30
0.0000000000000026
 10
92.01160818582737
 20
127.940332447123
 30
0.0000000000000026
 10
92.05253755347118
 20
127.9352376374615
 30
0.0000000000000026
 10
92.17574689564278
 20
127.9230006700121
 30
0.0000000000000026
 10
92.25810700470708
 20
127.918918918919
 30
0.0000000000000026
 10
92.34068796068804
 20
127.918918918919
 30
0.0000000000000026
  0
SPLINE
  5
150
330
1F
100
AcDbEntity
  8
HEWI
100
AcDbSpline
210
0.0
220
0.0000000000000001
230
1.0
 70
     8
 71
     3
 72
    79
 73
    75
 74
     0
 42
0.000000001
 43
0.0000000001
 40
0.0
 40
0.0
 40
0.0
 40
0.0
 40
0.0312500000000086
 40
0.0312500000000086
 40
0.0625000000000172
 40
0.0937500000000258
 40
0.0937500000000258
 40
0.1093750000000302
 40
0.1093750000000302
 40
0.1250000000000347
 40
0.1250000000000347
 40
0.1562500000000437
 40
0.1875000000000527
 40
0.1875000000000527
 40
0.2031250000000557
 40
0.2109375000000568
 40
0.2109375000000568
 40
0.2187500000000579
 40
0.2187500000000579
 40
0.2500000000000603
 40
0.2812500000000628
 40
0.3125000000000652
 40
0.3125000000000652
 40
0.3203125000000639
 40
0.3203125000000639
 40
0.3281250000000626
 40
0.3281250000000626
 40
0.3437500000000588
 40
0.3437500000000588
 40
0.3750000000000537
 40
0.4062500000000486
 40
0.4062500000000486
 40
0.421875000000046
 40
0.421875000000046
 40
0.4375000000000436
 40
0.4375000000000436
 40
0.4687500000000391
 40
0.5000000000000348
 40
0.5312500000000304
 40
0.5312500000000304
 40
0.546875000000029
 40
0.546875000000029
 40
0.5625000000000276
 40
0.5625000000000276
 40
0.5937500000000245
 40
0.6250000000000214
 40
0.6250000000000214
 40
0.6406250000000201
 40
0.6406250000000201
 40
0.6484375000000192
 40
0.6484375000000192
 40
0.6562500000000186
 40
0.6875000000000119
 40
0.7187500000000053
 40
0.7499999999999986
 40
0.7499999999999986
 40
0.7578124999999982
 40
0.7578124999999982
 40
0.7656249999999976
 40
0.7812499999999975
 40
0.7812499999999975
 40
0.8124999999999971
 40
0.8437499999999968
 40
0.8437499999999968
 40
0.8593749999999962
 40
0.8593749999999962
 40
0.8749999999999959
 40
0.8749999999999959
 40
0.9062499999999968
 40
0.937499999999998
 40
0.937499999999998
 40
0.9687499999999989
 40
0.9687499999999989
 40
1.0
 40
1.0
 40
1.0
 40
1.0
 10
248.330687960688
 20
127.918918918919
 30
0.0000000000000026
 10
248.4132707493015
 20
127.918918918919
 30
0.0000000000000026
 10
248.4952204735836
 20
127.9230038584555
 30
0.0000000000000026
 10
248.6576833470403
 20
127.9390526011203
 30
0.0000000000000026
 10
248.8187819171855
 20
127.9629820588652
 30
0.0000000000000026
 10
248.9771713521445
 20
128.0025605596538
 30
0.0000000000000026
 10
249.0949251857549
 20
128.03824179092
 30
0.0000000000000026
 10
249.1340459448269
 20
128.0511523083779
 30
0.0000000000000026
 10
249.2117511139936
 20
128.0789551387377
 30
0.0000000000000026
 10
249.2500994274304
 20
128.0937604917644
 30
0.0000000000000026
 10
249.3636629264162
 20
128.1408321456904
 30
0.0000000000000026
 10
249.5111375521825
 20
128.2106631425009
 30
0.0000000000000026
 10
249.6508789956753
 20
128.2943566551748
 30
0.0000000000000025
 10
249.7527586784497
 20
128.3623727441318
 30
0.0000000000000025
 10
249.8029656267571
 20
128.3976945953732
 30
0.0000000000000025
 10
249.8520560800133
 20
128.4350179267084
 30
0.0000000000000025
 10
249.8845321324212
 20
128.4603499537395
 30
0.0000000000000025
 10
249.900666037539
 20
128.4732587253236
 30
0.0000000000000025
 10
249.9803252405565
 20
128.5386282880285
 30
0.0000000000000025
 10
250.1016116947569
 20
128.6486804152271
 30
0.0000000000000025
 10
250.2656282699738
 20
128.8296175663675
 30
0.0000000000000025
 10
250.3630704810902
 20
128.9607798478072
 30
0.0000000000000025
 10
250.4201572876088
 20
129.0461335394429
 30
0.0000000000000025
 10
250.4313834660632
 20
129.0633735430559
 30
0.0000000000000025
 10
250.4534492261079
 20
129.0981958281994
 30
0.0000000000000025
 10
250.4642892308075
 20
129.1157806009796
 30
0.0000000000000025
 10
250.4960474208857
 20
129.1687533977651
 30
0.0000000000000025
 10
250.516267169479
 20
129.2044570784798
 30
0.0000000000000025
 10
250.574123167603
 20
129.312711600419
 30
0.0000000000000025
 10
250.6438024787057
 20
129.4600948154249
 30
0.0000000000000025
 10
250.6987951519699
 20
129.6134689968554
 30
0.0000000000000025
 10
250.7344617168072
 20
129.7307750088384
 30
0.0000000000000025
 10
250.745419269681
 20
129.7702569132084
 30
0.0000000000000025
 10
250.7654392595367
 20
129.8499937876074
 30
0.0000000000000025
 10
250.7745184728646
 20
129.8903503570965
 30
0.0000000000000025
 10
250.7986196268222
 20
130.0113867380284
 30
0.0000000000000024
 10
250.8225748848422
 20
130.1731775554213
 30
0.0000000000000024
 10
250.8346617360956
 20
130.4170560664377
 30
0.0000000000000024
 10
250.826821568683
 20
130.5804366009728
 30
0.0000000000000024
 10
250.8148039350076
 20
130.7032788383433
 30
0.0000000000000024
 10
250.8097592416517
 20
130.7443339796565
 30
0.0000000000000024
 10
250.797722128305
 20
130.8256519931386
 30
0.0000000000000024
 10
250.7907224783406
 20
130.8660210670552
 30
0.0000000000000024
 10
250.7668303334604
 20
130.9862732836893
 30
0.0000000000000024
 10
250.727272509646
 20
131.1443335653731
 30
0.0000000000000024
 10
250.6725021301192
 20
131.2978980969943
 30
0.0000000000000024
 10
250.6256257704612
 20
131.4113578083139
 30
0.0000000000000024
 10
250.6090321719687
 20
131.448891590302
 30
0.0000000000000024
 10
250.58266143507
 20
131.5047547642002
 30
0.0000000000000024
 10
250.5736113546685
 20
131.5233279976709
 30
0.0000000000000024
 10
250.5550984104298
 20
131.5601563681705
 30
0.0000000000000023
 10
250.5077674968774
 20
131.6514712290893
 30
0.0000000000000023
 10
250.4132757191166
 20
131.8091349257997
 30
0.0000000000000023
 10
250.2679466924898
 20
132.0054077558797
 30
0.0000000000000023
 10
250.1581208692728
 20
132.1269257222123
 30
0.0000000000000023
 10
250.0853014041262
 20
132.1998615222398
 30
0.0000000000000023
 10
250.0705236737705
 20
132.2143006874077
 30
0.0000000000000023
 10
250.0407141852876
 20
132.2427155946262
 30
0.0000000000000023
 10
249.9955583814166
 20
132.2847043286002
 30
0.0000000000000023
 10
249.9490926057787
 20
132.3248133314767
 30
0.0000000000000023
 10
249.8544410754973
 20
132.4025632603744
 30
0.0000000000000023
 10
249.7236603947657
 20
132.4996597305603
 30
0.0000000000000023
 10
249.5838038079924
 20
132.5837326681078
 30
0.0000000000000023
 10
249.4754394155233
 20
132.6418052364155
 30
0.0000000000000023
 10
249.43873825954
 20
132.6603309209584
 30
0.0000000000000023
 10
249.3641518821509
 20
132.695683191018
 30
0.0000000000000023
 10
249.3265112987765
 20
132.7123917611911
 30
0.0000000000000023
 10
249.2128723109565
 20
132.7595337885264
 30
0.0000000000000023
 10
249.0591805443999
 20
132.8145734417638
 30
0.0000000000000023
 10
248.9012347977524
 20
132.8543120879059
 30
0.0000000000000023
 10
248.7411464819039
 20
132.88634417274
 30
0.0000000000000023
 10
248.6599726033088
 20
132.8985134838881
 30
0.0000000000000023
 10
248.495644052033
 20
132.9148370005913
 30
0.0000000000000023
 10
248.4132706318463
 20
132.918918918919
 30
0.0000000000000023
 10
248.330687960688
 20
132.918918918919
 30
0.0000000000000023
  0
SPLINE
  5
151
330
1F
100
AcDbEntity
  8
HEWI
100
AcDbSpline
210
0.0
220
0.0000000000000001
230
1.0
 70
     8
 71
     3
 72
    79
 73
    75
 74
     0
 42
0.000000001
 43
0.0000000001
 40
0.0
 40
0.0
 40
0.0
 40
0.0
 40
0.0312500000000014
 40
0.0312500000000014
 40
0.0625000000000027
 40
0.0937500000000041
 40
0.0937500000000041
 40
0.1093750000000098
 40
0.1093750000000098
 40
0.1250000000000156
 40
0.1250000000000156
 40
0.156250000000026
 40
0.1875000000000365
 40
0.1875000000000365
 40
0.2031250000000417
 40
0.2109375000000486
 40
0.2109375000000486
 40
0.2187500000000555
 40
0.2187500000000555
 40
0.2500000000000748
 40
0.2812500000000941
 40
0.3125000000001135
 40
0.3125000000001135
 40
0.3203125000001159
 40
0.3203125000001159
 40
0.3281250000001183
 40
0.3281250000001183
 40
0.3437500000001265
 40
0.3437500000001265
 40
0.3750000000001425
 40
0.4062500000001587
 40
0.4062500000001587
 40
0.4218750000001654
 40
0.4218750000001654
 40
0.4375000000001722
 40
0.4375000000001722
 40
0.4687500000001811
 40
0.50000000000019
 40
0.5312500000001989
 40
0.5312500000001989
 40
0.5468750000002039
 40
0.5468750000002039
 40
0.5625000000002089
 40
0.5625000000002089
 40
0.5937500000002216
 40
0.6250000000002341
 40
0.6250000000002341
 40
0.6406250000002395
 40
0.6406250000002395
 40
0.6484375000002409
 40
0.6484375000002409
 40
0.6562500000002426
 40
0.6875000000002343
 40
0.7187500000002258
 40
0.7500000000002175
 40
0.7500000000002175
 40
0.7578125000002097
 40
0.7578125000002097
 40
0.7656250000002021
 40
0.7812500000001884
 40
0.7812500000001884
 40
0.812500000000163
 40
0.8437500000001374
 40
0.8437500000001374
 40
0.8593750000001193
 40
0.8593750000001193
 40
0.8750000000001012
 40
0.8750000000001012
 40
0.906250000000076
 40
0.9375000000000508
 40
0.9375000000000508
 40
0.9687500000000254
 40
0.9687500000000254
 40
1.0
 40
1.0
 40
1.0
 40
1.0
 10
92.34068796068804
 20
93.918918918919
 30
0.0000000000000047
 10
92.25810517207458
 20
93.918918918919
 30
0.0000000000000047
 10
92.17615544779238
 20
93.91483397938246
 30
0.0000000000000047
 10
92.01369257433572
 20
93.89878523671768
 30
0.0000000000000047
 10
91.85259400419059
 20
93.87485577897276
 30
0.0000000000000047
 10
91.69420456923154
 20
93.83527727818417
 30
0.0000000000000047
 10
91.57645073562115
 20
93.79959604691789
 30
0.0000000000000047
 10
91.53732997654906
 20
93.78668552946001
 30
0.0000000000000047
 10
91.45962480738241
 20
93.75888269910019
 30
0.0000000000000047
 10
91.4212764939457
 20
93.7440773460735
 30
0.0000000000000047
 10
91.30771299495977
 20
93.69700569214755
 30
0.0000000000000047
 10
91.16023836919351
 20
93.62717469533695
 30
0.0000000000000047
 10
91.02049692570084
 20
93.54348118266312
 30
0.0000000000000047
 10
90.91861724292639
 20
93.47546509370607
 30
0.0000000000000047
 10
90.86841029461901
 20
93.44014324246478
 30
0.0000000000000047
 10
90.81931984136275
 20
93.40281991112956
 30
0.0000000000000047
 10
90.78684378895486
 20
93.37748788409848
 30
0.0000000000000047
 10
90.77070988383708
 20
93.3645791125143
 30
0.0000000000000047
 10
90.69105068081958
 20
93.29920954980947
 30
0.0000000000000047
 10
90.56976370256363
 20
93.18915788640131
 30
0.0000000000000047
 10
90.40574765140227
 20
93.00822027147049
 30
0.0000000000000047
 10
90.30830544028594
 20
92.8770579900307
 30
0.0000000000000047
 10
90.25121863376723
 20
92.79170429839501
 30
0.0000000000000047
 10
90.2399924553128
 20
92.77446429478207
 30
0.0000000000000047
 10
90.21792669526808
 20
92.73964200963856
 30
0.0000000000000047
 10
90.20708669056856
 20
92.72205723685836
 30
0.0000000000000047
 10
90.17532850049031
 20
92.66908444007283
 30
0.0000000000000047
 10
90.15510875189704
 20
92.63338075935811
 30
0.0000000000000047
 10
90.09725275377286
 20
92.52512623741891
 30
0.0000000000000047
 10
90.02757344267038
 20
92.377743022413
 30
0.0000000000000047
 10
89.97258076940605
 20
92.22436884098256
 30
0.0000000000000048
 10
89.93691420456874
 20
92.10706282899952
 30
0.0000000000000048
 10
89.92595665169506
 20
92.06758092462948
 30
0.0000000000000048
 10
89.90593666183924
 20
91.98784405023047
 30
0.0000000000000048
 10
89.89685744851142
 20
91.9474874807414
 30
0.0000000000000048
 10
89.8727562945538
 20
91.82645109980947
 30
0.0000000000000048
 10
89.8488015901114
 20
91.66466025478507
 30
0.0000000000000048
 10
89.83671362194778
 20
91.42078179953724
 30
0.0000000000000048
 10
89.84455435269291
 20
91.25740123686513
 30
0.0000000000000048
 10
89.8565719863685
 20
91.13455899949464
 30
0.0000000000000048
 10
89.86161667972435
 20
91.09350385818146
 30
0.0000000000000048
 10
89.87365379307105
 20
91.01218584469931
 30
0.0000000000000048
 10
89.88065344303533
 20
90.97181677078268
 30
0.0000000000000048
 10
89.90454558791558
 20
90.85156455414862
 30
0.0000000000000048
 10
89.94410341173011
 20
90.69350427246485
 30
0.0000000000000049
 10
89.99887379125679
 20
90.53993974084356
 30
0.0000000000000049
 10
90.04575015091488
 20
90.42648002952404
 30
0.0000000000000049
 10
90.06234374940735
 20
90.38894624753588
 30
0.0000000000000049
 10
90.08871448630596
 20
90.33308307363764
 30
0.0000000000000049
 10
90.09776456670756
 20
90.314509840167
 30
0.0000000000000049
 10
90.11627751094621
 20
90.27768146966746
 30
0.0000000000000049
 10
90.16360842449868
 20
90.18636660874866
 30
0.0000000000000049
 10
90.25810053619897
 20
90.02870315272096
 30
0.0000000000000049
 10
90.4034286527195
 20
89.83242966638352
 30
0.0000000000000049
 10
90.5132550521032
 20
89.71091211562558
 30
0.0000000000000049
 10
90.58607451724986
 20
89.63797631559812
 30
0.0000000000000049
 10
90.60085224760552
 20
89.62353715043022
 30
0.0000000000000049
 10
90.63066173608852
 20
89.59512224321171
 30
0.0000000000000049
 10
90.67581753995943
 20
89.55313350923772
 30
0.0000000000000049
 10
90.7222833155974
 20
89.51302450636122
 30
0.0000000000000049
 10
90.81693484587864
 20
89.43527457746357
 30
0.0000000000000049
 10
90.94771552661034
 20
89.33817810727763
 30
0.0000000000000049
 10
91.08757211338366
 20
89.25410516973016
 30
0.0000000000000049
 10
91.19593650585271
 20
89.19603260142251
 30
0.0000000000000049
 10
91.23263766183599
 20
89.17750691687947
 30
0.0000000000000049
 10
91.30722403922511
 20
89.14215464681982
 30
0.0000000000000049
 10
91.3448646225996
 20
89.12544607664681
 30
0.0000000000000049
 10
91.45850361041949
 20
89.07830404931148
 30
0.000000000000005
 10
91.6121953769762
 20
89.02326439607408
 30
0.000000000000005
 10
91.77014112362355
 20
88.983525749932
 30
0.000000000000005
 10
91.93022943947212
 20
88.95149366509794
 30
0.000000000000005
 10
92.01140331806715
 20
88.93932435394981
 30
0.000000000000005
 10
92.175731869343
 20
88.92300083724668
 30
0.000000000000005
 10
92.25810528952974
 20
88.91891891891894
 30
0.000000000000005
 10
92.34068796068804
 20
88.918918918919
 30
0.000000000000005
  0
SPLINE
  5
152
330
1F
100
AcDbEntity
  8
HEWI
100
AcDbSpline
210
0.0
220
0.0000000000000001
230
1.0
 70
     8
 71
     3
 72
    81
 73
    77
 74
     0
 42
0.000000001
 43
0.0000000001
 40
0.0
 40
0.0
 40
0.0
 40
0.0
 40
0.0312499999999763
 40
0.0312499999999763
 40
0.0468749999999645
 40
0.0468749999999645
 40
0.0624999999999528
 40
0.0624999999999528
 40
0.0937499999999379
 40
0.124999999999923
 40
0.124999999999923
 40
0.1406249999999196
 40
0.1406249999999196
 40
0.1562499999999163
 40
0.1562499999999163
 40
0.1874999999999095
 40
0.2187499999999028
 40
0.2187499999999028
 40
0.234374999999896
 40
0.234374999999896
 40
0.2499999999998892
 40
0.2499999999998892
 40
0.2812499999998748
 40
0.3124999999998605
 40
0.3437499999998461
 40
0.3437499999998461
 40
0.3515624999998449
 40
0.3515624999998449
 40
0.3593749999998436
 40
0.3593749999998436
 40
0.3749999999998421
 40
0.3749999999998421
 40
0.4062499999998413
 40
0.4374999999998407
 40
0.4374999999998407
 40
0.4531249999998407
 40
0.4609374999998413
 40
0.4609374999998413
 40
0.4687499999998421
 40
0.4687499999998421
 40
0.4999999999998466
 40
0.5312499999998509
 40
0.5624999999998553
 40
0.5624999999998553
 40
0.5781249999998579
 40
0.5781249999998579
 40
0.5937499999998608
 40
0.5937499999998608
 40
0.6249999999998689
 40
0.6562499999998771
 40
0.6562499999998771
 40
0.6718749999998806
 40
0.6718749999998806
 40
0.6874999999998841
 40
0.6874999999998841
 40
0.7187499999998855
 40
0.7499999999998868
 40
0.7812499999998881
 40
0.7812499999998881
 40
0.7890624999998887
 40
0.7890624999998887
 40
0.7968749999998894
 40
0.8124999999998983
 40
0.8124999999998983
 40
0.8437499999999165
 40
0.8749999999999346
 40
0.8749999999999346
 40
0.8906249999999394
 40
0.8906249999999394
 40
0.898437499999942
 40
0.898437499999942
 40
0.9062499999999447
 40
0.9374999999999632
 40
0.9687499999999815
 40
0.9687499999999815
 40
1.0
 40
1.0
 40
1.0
 40
1.0
 10
92.340687960688
 20
127.4101927157003
 30
0.0000000000000026
 10
92.24161564548555
 20
127.4101927157003
 30
0.0000000000000026
 10
92.14280863557428
 20
127.4150940169853
 30
0.0000000000000026
 10
91.99499553058563
 20
127.4297878057316
 30
0.0000000000000026
 10
91.94589364258723
 20
127.435905422504
 30
0.0000000000000026
 10
91.84850427271895
 20
127.4504792825322
 30
0.0000000000000026
 10
91.80014397234881
 20
127.4589423665
 30
0.0000000000000026
 10
91.65605087083715
 20
127.4878060822289
 30
0.0000000000000026
 10
91.46655628796748
 20
127.5355401634293
 30
0.0000000000000026
 10
91.28227306255878
 20
127.6016046676825
 30
0.0000000000000026
 10
91.1460538415813
 20
127.6581639761493
 30
0.0000000000000026
 10
91.10098022729699
 20
127.6781876534173
 30
0.0000000000000026
 10
91.01151268716472
 20
127.7206257743307
 30
0.0000000000000026
 10
90.96741769902836
 20
127.7429007948633
 30
0.0000000000000026
 10
90.83735608328018
 20
127.8126598862393
 30
0.0000000000000026
 10
90.66955376923003
 20
127.9136259185658
 30
0.0000000000000026
 10
90.51273678623946
 20
128.030158435031
 30
0.0000000000000026
 10
90.39927272137537
 20
128.1234366646077
 30
0.0000000000000026
 10
90.36214403417693
 20
128.1555109469656
 30
0.0000000000000026
 10
90.28929208049872
 20
128.2216510634849
 30
0.0000000000000026
 10
90.25353207425943
 20
128.2557537839825
 30
0.0000000000000026
 10
90.14863985001536
 20
128.3608807931302
 30
0.0000000000000025
 10
90.01685618676614
 20
128.5067999573905
 30
0.0000000000000025
 10
89.84257991703524
 20
128.7423452880728
 30
0.0000000000000025
 10
89.74191068740578
 20
128.9104264951885
 30
0.0000000000000025
 10
89.68395502846851
 20
129.0190120534363
 30
0.0000000000000025
 10
89.67261261189795
 20
129.0409063217518
 30
0.0000000000000025
 10
89.65043044754844
 20
129.0850529037255
 30
0.0000000000000025
 10
89.63957654841179
 20
129.107336098228
 30
0.0000000000000025
 10
89.60792243497197
 20
129.174418510597
 30
0.0000000000000025
 10
89.58800794364696
 20
129.2194840280512
 30
0.0000000000000025
 10
89.53175851494748
 20
129.3556918507272
 30
0.0000000000000025
 10
89.4660600239888
 20
129.5399941673983
 30
0.0000000000000025
 10
89.41863251659293
 20
129.7295846518568
 30
0.0000000000000025
 10
89.38998790240532
 20
129.8737821206224
 30
0.0000000000000025
 10
89.37740015946838
 20
129.946382891875
 30
0.0000000000000024
 10
89.36745718728801
 20
130.0197491424591
 30
0.0000000000000024
 10
89.36142318299872
 20
130.0688320846304
 30
0.0000000000000024
 10
89.35870369721355
 20
130.0934671156866
 30
0.0000000000000024
 10
89.34666911102018
 20
130.2163866234542
 30
0.0000000000000024
 10
89.3372465300208
 20
130.4125121797779
 30
0.0000000000000024
 10
89.35172444144859
 20
130.7051127009483
 30
0.0000000000000024
 10
89.3804185997512
 20
130.8991229179041
 30
0.0000000000000024
 10
89.40927581351612
 20
131.0442233918916
 30
0.0000000000000024
 10
89.42015442627718
 20
131.0926435001767
 30
0.0000000000000024
 10
89.44416925504132
 20
131.1883957611865
 30
0.0000000000000024
 10
89.45731336802566
 20
131.2358009819835
 30
0.0000000000000024
 10
89.50009457999936
 20
131.3766292708737
 30
0.0000000000000024
 10
89.56605073445887
 20
131.5607072016245
 30
0.0000000000000023
 10
89.64958305891972
 20
131.7375035765583
 30
0.0000000000000023
 10
89.71891934081702
 20
131.8673304771243
 30
0.0000000000000023
 10
89.74314791604866
 20
131.9101435623467
 30
0.0000000000000023
 10
89.79387905347168
 20
131.9948276337357
 30
0.0000000000000023
 10
89.82042962861896
 20
132.0367590010398
 30
0.0000000000000023
 10
89.90264410944702
 20
132.1597701644175
 30
0.0000000000000023
 10
90.01956772670252
 20
132.3172462124187
 30
0.0000000000000023
 10
90.21628233462756
 20
132.5343662004469
 30
0.0000000000000023
 10
90.3616707342042
 20
132.6663602134296
 30
0.0000000000000023
 10
90.45712940894656
 20
132.744746572679
 30
0.0000000000000023
 10
90.4764786580171
 20
132.7602388265997
 30
0.0000000000000023
 10
90.51546726887593
 20
132.7906707385935
 30
0.0000000000000023
 10
90.5743985185625
 20
132.8355041918204
 30
0.0000000000000023
 10
90.6346591306514
 20
132.8779228043929
 30
0.0000000000000023
 10
90.75692409987622
 20
132.9595924385239
 30
0.0000000000000023
 10
90.9245859167272
 20
133.0600531408102
 30
0.0000000000000023
 10
91.10143187160458
 20
133.1438303723449
 30
0.0000000000000023
 10
91.23757307404694
 20
133.2002931012973
 30
0.0000000000000022
 10
91.28353897163997
 20
133.2180504213219
 30
0.0000000000000022
 10
91.35338387826379
 20
133.2430586522386
 30
0.0000000000000022
 10
91.37682390389702
 20
133.2511252264864
 30
0.0000000000000022
 10
91.42374300451859
 20
133.2666255438941
 30
0.0000000000000022
 10
91.54129834464193
 20
133.3038505553587
 30
0.0000000000000022
 10
91.75518297363639
 20
133.3573206586416
 30
0.0000000000000022
 10
91.94847848004128
 20
133.3860380656708
 30
0.0000000000000022
 10
92.14337125844835
 20
133.4052942685543
 30
0.0000000000000022
 10
92.24161612364595
 20
133.4101927157003
 30
0.0000000000000022
 10
92.340687960688
 20
133.4101927157003
 30
0.0000000000000022
  0
SPLINE
  5
153
330
1F
100
AcDbEntity
  8
HEWI
100
AcDbSpline
210
0.0
220
0.0000000000000001
230
1.0
 70
     8
 71
     3
 72
    81
 73
    77
 74
     0
 42
0.000000001
 43
0.0000000001
 40
0.0
 40
0.0
 40
0.0
 40
0.0
 40
0.0312500000000104
 40
0.0312500000000104
 40
0.0468750000000112
 40
0.0468750000000112
 40
0.062500000000012
 40
0.062500000000012
 40
0.0937500000000132
 40
0.1250000000000144
 40
0.1250000000000144
 40
0.1406250000000195
 40
0.1406250000000195
 40
0.1562500000000246
 40
0.1562500000000246
 40
0.1875000000000281
 40
0.2187500000000316
 40
0.2187500000000316
 40
0.234375000000034
 40
0.242187500000032
 40
0.242187500000032
 40
0.2500000000000299
 40
0.2500000000000299
 40
0.2812500000000435
 40
0.312500000000057
 40
0.3437500000000705
 40
0.3437500000000705
 40
0.3515625000000708
 40
0.3515625000000708
 40
0.359375000000071
 40
0.359375000000071
 40
0.3750000000000696
 40
0.3750000000000696
 40
0.4062500000000667
 40
0.4375000000000638
 40
0.4375000000000638
 40
0.4531250000000635
 40
0.4531250000000635
 40
0.468750000000063
 40
0.468750000000063
 40
0.5000000000000645
 40
0.5312500000000661
 40
0.5625000000000675
 40
0.5625000000000675
 40
0.5781250000000681
 40
0.5781250000000681
 40
0.5937500000000685
 40
0.5937500000000685
 40
0.6250000000000675
 40
0.6562500000000665
 40
0.6562500000000665
 40
0.6718750000000668
 40
0.6718750000000668
 40
0.6796875000000704
 40
0.6796875000000704
 40
0.6875000000000738
 40
0.7187500000000761
 40
0.7500000000000783
 40
0.7812500000000807
 40
0.7812500000000807
 40
0.7890625000000812
 40
0.7890625000000812
 40
0.7968750000000818
 40
0.8125000000000829
 40
0.8125000000000829
 40
0.8437500000000778
 40
0.8750000000000728
 40
0.8750000000000728
 40
0.8906250000000666
 40
0.8906250000000666
 40
0.9062500000000603
 40
0.9062500000000603
 40
0.9375000000000405
 40
0.9687500000000202
 40
0.9687500000000202
 40
1.0
 40
1.0
 40
1.0
 40
1.0
 10
92.340687960688
 20
88.42764512213761
 30
0.000000000000005
 10
92.24161149469342
 20
88.42764512213761
 30
0.000000000000005
 10
92.14278625537277
 20
88.43254471671844
 30
0.000000000000005
 10
91.99492504338708
 20
88.44723973327118
 30
0.000000000000005
 10
91.94590193208073
 20
88.45334625824332
 30
0.000000000000005
 10
91.84857564357484
 20
88.46790316799356
 30
0.000000000000005
 10
91.80023931058299
 20
88.47635684043419
 30
0.000000000000005
 10
91.65619660236137
 20
88.50519264952929
 30
0.000000000000005
 10
91.46671197300817
 20
88.55289046710709
 30
0.000000000000005
 10
91.28233410941476
 20
88.61895223359814
 30
0.000000000000005
 10
91.14600739408741
 20
88.67553477692222
 30
0.000000000000005
 10
91.10085139529221
 20
88.69558969361476
 30
0.000000000000005
 10
91.01137691967549
 20
88.73802039475517
 30
0.000000000000005
 10
90.96735032772397
 20
88.76025523332113
 30
0.000000000000005
 10
90.83735799577718
 20
88.82995437647698
 30
0.000000000000005
 10
90.66959133359635
 20
88.93085779442527
 30
0.000000000000005
 10
90.51271845666056
 20
89.0473892625838
 30
0.000000000000005
 10
90.39918522225978
 20
89.14070036082597
 30
0.0000000000000049
 10
90.34345078213435
 20
89.18883664690518
 30
0.0000000000000049
 10
90.28928856942112
 20
89.23922840716871
 30
0.0000000000000049
 10
90.25353374019388
 20
89.27332976578652
 30
0.0000000000000049
 10
90.2358088345179
 20
89.29065843310775
 30
0.0000000000000049
 10
90.14846966454127
 20
89.37818707632208
 30
0.0000000000000049
 10
90.01674843048135
 20
89.52401526894368
 30
0.0000000000000049
 10
89.84245836623829
 20
89.75954761760794
 30
0.0000000000000049
 10
89.74173372901287
 20
89.92771984244646
 30
0.0000000000000049
 10
89.6837374893802
 20
90.03640046516933
 30
0.0000000000000049
 10
89.67238665075122
 20
90.05831565429254
 30
0.0000000000000049
 10
89.65018724649178
 20
90.10250809270292
 30
0.0000000000000049
 10
89.63933542810464
 20
90.12479453787868
 30
0.0000000000000049
 10
89.60771510135272
 20
90.19182554757973
 30
0.0000000000000049
 10
89.58781867471186
 20
90.23686259602694
 30
0.0000000000000049
 10
89.53161322473677
 20
90.37300290487122
 30
0.0000000000000049
 10
89.46594628802225
 20
90.55726286324068
 30
0.0000000000000049
 10
89.41852582725948
 20
90.74691295112115
 30
0.0000000000000048
 10
89.3898881150935
 20
90.89119695601041
 30
0.0000000000000048
 10
89.38149885865929
 20
90.93963330074469
 30
0.0000000000000048
 10
89.36707359872384
 20
91.03720114231709
 30
0.0000000000000048
 10
89.3610289850798
 20
91.08645973057516
 30
0.0000000000000048
 10
89.34663237268583
 20
91.23384611293207
 30
0.0000000000000048
 10
89.33724930161009
 20
91.42987040807225
 30
0.0000000000000048
 10
89.35177278141093
 20
91.72247611432888
 30
0.0000000000000048
 10
89.38051587306459
 20
91.91659296546829
 30
0.0000000000000048
 10
89.40942940533517
 20
92.06181256816455
 30
0.0000000000000048
 10
89.4203208256488
 20
92.11023241397816
 30
0.0000000000000048
 10
89.44433585495184
 20
92.20590183746113
 30
0.0000000000000048
 10
89.45747956559666
 20
92.25327316948
 30
0.0000000000000048
 10
89.50026086935904
 20
92.39402085365783
 30
0.0000000000000047
 10
89.56622069133732
 20
92.57804733962
 30
0.0000000000000047
 10
89.64979164758734
 20
92.75489147054443
 30
0.0000000000000047
 10
89.71918108399867
 20
92.88478756195214
 30
0.0000000000000047
 10
89.74343141842581
 20
92.92762928156372
 30
0.0000000000000047
 10
89.78152003715498
 20
92.99119321332351
 30
0.0000000000000047
 10
89.7945207600171
 20
93.01229389583582
 30
0.0000000000000047
 10
89.82098533155747
 20
93.05407959991258
 30
0.0000000000000047
 10
89.88830813145375
 20
93.15751597076999
 30
0.0000000000000047
 10
90.01978502503375
 20
93.33458895575263
 30
0.0000000000000047
 10
90.216504058346
 20
93.551731517959
 30
0.0000000000000047
 10
90.36197725576609
 20
93.68381307722506
 30
0.0000000000000047
 10
90.45752372122215
 20
93.76227015661388
 30
0.0000000000000047
 10
90.47687578053931
 20
93.77776374842364
 30
0.0000000000000047
 10
90.51583004371128
 20
93.80816854627742
 30
0.0000000000000047
 10
90.57471317466001
 20
93.85296626104695
 30
0.0000000000000047
 10
90.63493640374577
 20
93.89536261364893
 30
0.0000000000000047
 10
90.75714233024852
 20
93.97700249276724
 30
0.0000000000000047
 10
90.92476732125
 20
94.07746275093163
 30
0.0000000000000046
 10
91.10167603360338
 20
94.16128751296069
 30
0.0000000000000046
 10
91.2379088466327
 20
94.21779261568087
 30
0.0000000000000046
 10
91.28391272104128
 20
94.23556517781804
 30
0.0000000000000046
 10
91.37713156062721
 20
94.26894018157623
 30
0.0000000000000046
 10
91.4240622825692
 20
94.28443784814135
 30
0.0000000000000046
 10
91.56531886411199
 20
94.32726729925269
 30
0.0000000000000046
 10
91.75531092128107
 20
94.37477032775513
 30
0.0000000000000046
 10
91.94853095254835
 20
94.40348625880956
 30
0.0000000000000046
 10
92.14337606787195
 20
94.4227440920555
 30
0.0000000000000046
 10
92.24161096785683
 20
94.42764512213761
 30
0.0000000000000046
 10
92.340687960688
 20
94.42764512213761
 30
0.0000000000000046
  0
SPLINE
  5
154
330
1F
100
AcDbEntity
  8
HEWI
100
AcDbSpline
210
0.0
220
0.0000000000000001
230
1.0
 70
     8
 71
     3
 72
    81
 73
    77
 74
     0
 42
0.000000001
 43
0.0000000001
 40
0.0
 40
0.0
 40
0.0
 40
0.0
 40
0.0312500000000012
 40
0.0312500000000012
 40
0.046875000000003
 40
0.046875000000003
 40
0.0625000000000048
 40
0.0625000000000048
 40
0.0937500000000083
 40
0.1250000000000118
 40
0.1250000000000118
 40
0.1406250000000138
 40
0.1406250000000138
 40
0.1562500000000158
 40
0.1562500000000158
 40
0.1875000000000222
 40
0.2187500000000286
 40
0.2187500000000286
 40
0.2343750000000323
 40
0.2421875000000338
 40
0.2421875000000338
 40
0.2500000000000352
 40
0.2500000000000352
 40
0.281250000000042
 40
0.3125000000000487
 40
0.3437500000000553
 40
0.3437500000000553
 40
0.351562500000057
 40
0.351562500000057
 40
0.3593750000000587
 40
0.3593750000000587
 40
0.3750000000000601
 40
0.3750000000000601
 40
0.4062500000000621
 40
0.4375000000000643
 40
0.4375000000000643
 40
0.4531250000000656
 40
0.4531250000000656
 40
0.4687500000000668
 40
0.4687500000000668
 40
0.5000000000000684
 40
0.53125000000007
 40
0.5625000000000715
 40
0.5625000000000715
 40
0.5781250000000721
 40
0.5781250000000721
 40
0.5937500000000725
 40
0.5937500000000725
 40
0.6250000000000747
 40
0.6562500000000769
 40
0.6562500000000769
 40
0.6718750000000778
 40
0.6718750000000778
 40
0.6796875000000778
 40
0.6796875000000778
 40
0.6875000000000778
 40
0.7187500000000736
 40
0.7500000000000692
 40
0.7812500000000649
 40
0.7812500000000649
 40
0.7890625000000631
 40
0.7890625000000631
 40
0.7968750000000611
 40
0.8125000000000577
 40
0.8125000000000577
 40
0.8437500000000506
 40
0.8750000000000436
 40
0.8750000000000436
 40
0.890625000000039
 40
0.890625000000039
 40
0.9062500000000346
 40
0.9062500000000346
 40
0.9375000000000232
 40
0.9687500000000115
 40
0.9687500000000115
 40
1.0
 40
1.0
 40
1.0
 40
1.0
 10
248.330687960688
 20
133.4101927157003
 30
0.0000000000000022
 10
248.4297644266827
 20
133.4101927157003
 30
0.0000000000000022
 10
248.5285896660032
 20
133.4052931211195
 30
0.0000000000000022
 10
248.6764508779889
 20
133.3905981045668
 30
0.0000000000000022
 10
248.7254739892952
 20
133.3844915795946
 30
0.0000000000000022
 10
248.8228002778012
 20
133.3699346698444
 30
0.0000000000000022
 10
248.871136610793
 20
133.3614809974038
 30
0.0000000000000022
 10
249.0151793190146
 20
133.3326451883087
 30
0.0000000000000022
 10
249.2046639483679
 20
133.2849473707308
 30
0.0000000000000022
 10
249.3890418119612
 20
133.2188856042398
 30
0.0000000000000022
 10
249.5253685272886
 20
133.1623030609157
 30
0.0000000000000023
 10
249.5705245260837
 20
133.1422481442232
 30
0.0000000000000023
 10
249.6599990017005
 20
133.0998174430828
 30
0.0000000000000023
 10
249.704025593652
 20
133.0775826045168
 30
0.0000000000000023
 10
249.8340179255988
 20
133.007883461361
 30
0.0000000000000023
 10
250.0017845877796
 20
132.9069800434127
 30
0.0000000000000023
 10
250.1586574647155
 20
132.7904485752541
 30
0.0000000000000023
 10
250.2721906991163
 20
132.6971374770119
 30
0.0000000000000023
 10
250.3279251392417
 20
132.6490011909328
 30
0.0000000000000023
 10
250.3820873519549
 20
132.5986094306692
 30
0.0000000000000023
 10
250.417842181182
 20
132.5645080720514
 30
0.0000000000000023
 10
250.4355670868582
 20
132.5471794047302
 30
0.0000000000000023
 10
250.5229062568347
 20
132.4596507615158
 30
0.0000000000000023
 10
250.6546267971505
 20
132.3138220687081
 30
0.0000000000000023
 10
250.8289179532525
 20
132.0782905071197
 30
0.0000000000000023
 10
250.9296421923631
 20
131.9101179953915
 30
0.0000000000000023
 10
250.9876384319958
 20
131.8014373726686
 30
0.0000000000000023
 10
250.9989892706249
 20
131.7795221835454
 30
0.0000000000000023
 10
251.0211886748842
 20
131.735329745135
 30
0.0000000000000023
 10
251.0320404932713
 20
131.7130432999593
 30
0.0000000000000023
 10
251.0636608200233
 20
131.6460122902582
 30
0.0000000000000023
 10
251.0835572466641
 20
131.600975241811
 30
0.0000000000000023
 10
251.1397626966394
 20
131.4648349329667
 30
0.0000000000000024
 10
251.2054296333538
 20
131.2805749745972
 30
0.0000000000000024
 10
251.2528500941166
 20
131.0909248867168
 30
0.0000000000000024
 10
251.2814878062825
 20
130.9466408818275
 30
0.0000000000000024
 10
251.2898770627167
 20
130.8982045370932
 30
0.0000000000000024
 10
251.3043023226522
 20
130.8006366955208
 30
0.0000000000000024
 10
251.3103469362962
 20
130.7513781072628
 30
0.0000000000000024
 10
251.3247435486902
 20
130.6039917249059
 30
0.0000000000000024
 10
251.3341266197659
 20
130.4079674297657
 30
0.0000000000000024
 10
251.3196031399652
 20
130.1153617235091
 30
0.0000000000000024
 10
251.2908600483115
 20
129.9212448723696
 30
0.0000000000000024
 10
251.2619465160408
 20
129.7760252696733
 30
0.0000000000000025
 10
251.2510550957272
 20
129.7276054238598
 30
0.0000000000000025
 10
251.2270400664242
 20
129.6319360003768
 30
0.0000000000000025
 10
251.2138963557794
 20
129.5845646683579
 30
0.0000000000000025
 10
251.171115052017
 20
129.4438169841801
 30
0.0000000000000025
 10
251.1051553033561
 20
129.2597904684088
 30
0.0000000000000025
 10
251.0215842737887
 20
129.0829463672935
 30
0.0000000000000025
 10
250.9521948373773
 20
128.9530502758858
 30
0.0000000000000025
 10
250.9279445029502
 20
128.9102085562742
 30
0.0000000000000025
 10
250.8898558842211
 20
128.8466446245144
 30
0.0000000000000025
 10
250.8768551613589
 20
128.8255439420021
 30
0.0000000000000025
 10
250.8503905898186
 20
128.7837582379253
 30
0.0000000000000025
 10
250.7830677899224
 20
128.6803218670679
 30
0.0000000000000025
 10
250.6515908963423
 20
128.5032488820853
 30
0.0000000000000025
 10
250.4548718630301
 20
128.2861063198789
 30
0.0000000000000025
 10
250.3093986656099
 20
128.1540247606129
 30
0.0000000000000026
 10
250.2138522001539
 20
128.075567681224
 30
0.0000000000000026
 10
250.1945001408367
 20
128.0600740894143
 30
0.0000000000000026
 10
250.1555458776647
 20
128.0296692915605
 30
0.0000000000000026
 10
250.0966627467159
 20
127.984871576791
 30
0.0000000000000026
 10
250.0364395176303
 20
127.942475224189
 30
0.0000000000000026
 10
249.9142335911274
 20
127.8608353450707
 30
0.0000000000000026
 10
249.746608600126
 20
127.7603750869063
 30
0.0000000000000026
 10
249.5696998877726
 20
127.6765503248772
 30
0.0000000000000026
 10
249.4334670747432
 20
127.620045222157
 30
0.0000000000000026
 10
249.3874632003347
 20
127.6022726600199
 30
0.0000000000000026
 10
249.2942443607488
 20
127.5688976562617
 30
0.0000000000000026
 10
249.2473136388068
 20
127.5533999896966
 30
0.0000000000000026
 10
249.106057057264
 20
127.5105705385852
 30
0.0000000000000026
 10
248.9160650000949
 20
127.4630675100828
 30
0.0000000000000026
 10
248.7228449688276
 20
127.4343515790284
 30
0.0000000000000026
 10
248.5279998535041
 20
127.4150937457825
 30
0.0000000000000026
 10
248.4297649535192
 20
127.4101927157003
 30
0.0000000000000026
 10
248.330687960688
 20
127.4101927157003
 30
0.0000000000000026
  0
SPLINE
  5
155
330
1F
100
AcDbEntity
  8
HEWI
100
AcDbSpline
210
0.0
220
0.0000000000000001
230
1.0
 70
     8
 71
     3
 72
    81
 73
    77
 74
     0
 42
0.000000001
 43
0.0000000001
 40
0.0
 40
0.0
 40
0.0
 40
0.0
 40
0.0312500000000052
 40
0.0312500000000052
 40
0.0468750000000067
 40
0.0468750000000067
 40
0.0625000000000082
 40
0.0625000000000082
 40
0.0937500000000107
 40
0.1250000000000133
 40
0.1250000000000133
 40
0.1406250000000146
 40
0.1406250000000146
 40
0.1562500000000158
 40
0.1562500000000158
 40
0.1875000000000195
 40
0.2187500000000231
 40
0.2187500000000231
 40
0.2343750000000247
 40
0.2343750000000247
 40
0.2500000000000264
 40
0.2500000000000264
 40
0.2812500000000296
 40
0.3125000000000329
 40
0.3437500000000362
 40
0.3437500000000362
 40
0.3515625000000363
 40
0.3515625000000363
 40
0.3593750000000364
 40
0.3593750000000364
 40
0.3750000000000346
 40
0.3750000000000346
 40
0.4062500000000339
 40
0.437500000000033
 40
0.437500000000033
 40
0.4531250000000327
 40
0.4609375000000317
 40
0.4609375000000317
 40
0.4687500000000305
 40
0.4687500000000305
 40
0.5000000000000307
 40
0.5312500000000308
 40
0.5625000000000308
 40
0.5625000000000308
 40
0.5781250000000299
 40
0.5781250000000299
 40
0.5937500000000289
 40
0.5937500000000289
 40
0.6250000000000275
 40
0.6562500000000262
 40
0.6562500000000262
 40
0.6718750000000239
 40
0.6718750000000239
 40
0.6875000000000218
 40
0.6875000000000218
 40
0.7187500000000204
 40
0.7500000000000191
 40
0.7812500000000177
 40
0.7812500000000177
 40
0.7890625000000169
 40
0.7890625000000169
 40
0.7968750000000162
 40
0.8125000000000117
 40
0.8125000000000117
 40
0.8437500000000035
 40
0.8749999999999952
 40
0.8749999999999952
 40
0.8906249999999921
 40
0.8906249999999921
 40
0.8984374999999921
 40
0.8984374999999921
 40
0.906249999999992
 40
0.9374999999999948
 40
0.9687499999999971
 40
0.9687499999999971
 40
1.0
 40
1.0
 40
1.0
 40
1.0
 10
248.3306879606881
 20
94.42764512213759
 30
0.0000000000000046
 10
248.4297602758904
 20
94.42764512213759
 30
0.0000000000000046
 10
248.5285672858017
 20
94.42274382085258
 30
0.0000000000000046
 10
248.6763803907904
 20
94.40805003210639
 30
0.0000000000000046
 10
248.7254822787888
 20
94.40193241533387
 30
0.0000000000000046
 10
248.8228716486571
 20
94.38735855530572
 30
0.0000000000000046
 10
248.8712319490272
 20
94.37889547133792
 30
0.0000000000000046
 10
249.0153250505389
 20
94.35003175560906
 30
0.0000000000000046
 10
249.2048196334087
 20
94.30229767440859
 30
0.0000000000000046
 10
249.3891028588174
 20
94.23623317015543
 30
0.0000000000000046
 10
249.5253220797948
 20
94.17967386168855
 30
0.0000000000000046
 10
249.570395694079
 20
94.15965018442069
 30
0.0000000000000046
 10
249.6598632342114
 20
94.11721206350719
 30
0.0000000000000046
 10
249.7039582223476
 20
94.09493704297462
 30
0.0000000000000046
 10
249.8340198380959
 20
94.02517795159859
 30
0.0000000000000046
 10
250.001822152146
 20
93.92421191927208
 30
0.0000000000000047
 10
250.1586391351366
 20
93.80767940280687
 30
0.0000000000000047
 10
250.2721032000006
 20
93.71440117323022
 30
0.0000000000000047
 10
250.3092318871991
 20
93.6823268908723
 30
0.0000000000000047
 10
250.3820838408773
 20
93.61618677435307
 30
0.0000000000000047
 10
250.4178438471166
 20
93.58208405385539
 30
0.0000000000000047
 10
250.5227360713607
 20
93.47695704470771
 30
0.0000000000000047
 10
250.6545197346099
 20
93.3310378804475
 30
0.0000000000000047
 10
250.8287956692466
 20
93.09549231097697
 30
0.0000000000000047
 10
250.9294652339702
 20
92.92741134264943
 30
0.0000000000000047
 10
250.9874208929075
 20
92.81882578440164
 30
0.0000000000000047
 10
250.9987633094781
 20
92.79693151608617
 30
0.0000000000000047
 10
251.0209454738275
 20
92.75278493411239
 30
0.0000000000000047
 10
251.0317993729642
 20
92.73050173960994
 30
0.0000000000000047
 10
251.0634534864041
 20
92.66341932724087
 30
0.0000000000000047
 10
251.083367977729
 20
92.61835380978673
 30
0.0000000000000047
 10
251.1396174064285
 20
92.4821459871107
 30
0.0000000000000047
 10
251.2053158973872
 20
92.2978436704396
 30
0.0000000000000048
 10
251.2527434047831
 20
92.10825318598113
 30
0.0000000000000048
 10
251.2813880189707
 20
91.96405571721561
 30
0.0000000000000048
 10
251.2939757619077
 20
91.89145494596294
 30
0.0000000000000048
 10
251.303918734088
 20
91.81808869537881
 30
0.0000000000000048
 10
251.3099527383774
 20
91.76900575320756
 30
0.0000000000000048
 10
251.3126722241626
 20
91.74437072215136
 30
0.0000000000000048
 10
251.3247068103559
 20
91.62145121438369
 30
0.0000000000000048
 10
251.3341293913553
 20
91.42532565806
 30
0.0000000000000048
 10
251.3196508931759
 20
91.13272516949441
 30
0.0000000000000048
 10
251.2909573216248
 20
90.93871491993386
 30
0.0000000000000048
 10
251.2621001078599
 20
90.79361444594635
 30
0.0000000000000048
 10
251.2512214950989
 20
90.7451943376612
 30
0.0000000000000048
 10
251.2272066663347
 20
90.64944207665144
 30
0.0000000000000049
 10
251.2140625533504
 20
90.60203685585442
 30
0.0000000000000049
 10
251.1712813413768
 20
90.4612085669642
 30
0.0000000000000049
 10
251.1053251831459
 20
90.27713063785252
 30
0.0000000000000049
 10
251.0217928624563
 20
90.10033426127968
 30
0.0000000000000049
 10
250.952456580559
 20
89.9705073607137
 30
0.0000000000000049
 10
250.9282280053274
 20
89.92769427549127
 30
0.0000000000000049
 10
250.8774968679043
 20
89.84301020410228
 30
0.0000000000000049
 10
250.8509462927571
 20
89.80107883679814
 30
0.0000000000000049
 10
250.7687318119291
 20
89.67806767342043
 30
0.0000000000000049
 10
250.6518081946736
 20
89.52059162541926
 30
0.0000000000000049
 10
250.4550935867485
 20
89.30347163739103
 30
0.0000000000000049
 10
250.3097051871718
 20
89.17147762440833
 30
0.0000000000000049
 10
250.2142465124295
 20
89.09309126515891
 30
0.0000000000000049
 10
250.1948972633589
 20
89.07759901123821
 30
0.000000000000005
 10
250.1559086525001
 20
89.04716709924445
 30
0.000000000000005
 10
250.0969774028136
 20
89.00233364601758
 30
0.000000000000005
 10
250.0367167907246
 20
88.95991503344502
 30
0.000000000000005
 10
249.9144518214998
 20
88.87824539931404
 30
0.000000000000005
 10
249.7467900046489
 20
88.77778469702779
 30
0.000000000000005
 10
249.5699440497714
 20
88.69400746549308
 30
0.000000000000005
 10
249.433802847329
 20
88.63754473654061
 30
0.000000000000005
 10
249.387836949736
 20
88.61978741651597
 30
0.000000000000005
 10
249.3179920431122
 20
88.59477918559937
 30
0.000000000000005
 10
249.294552017479
 20
88.58671261135153
 30
0.000000000000005
 10
249.2476329168574
 20
88.57121229394389
 30
0.000000000000005
 10
249.1300775767342
 20
88.53398728247929
 30
0.000000000000005
 10
248.9161929477397
 20
88.48051717919641
 30
0.000000000000005
 10
248.7228974413347
 20
88.45179977216714
 30
0.000000000000005
 10
248.5280046629277
 20
88.4325435692836
 30
0.000000000000005
 10
248.4297597977301
 20
88.4276451221376
 30
0.000000000000005
 10
248.3306879606881
 20
88.4276451221376
 30
0.000000000000005
  0
MTEXT
  5
156
330
1F
100
AcDbEntity
  8
1
  6
Continuous
 62
    18
370
    18
100
AcDbMText
 10
492.4173829999999
 20
23.825316
 30
0.0
 40
10.0
 41
0.0
 46
0.0
 71
     7
 72
     5
  1
\W0.7262;800.03.30041
  7
iso-1
 73
     2
 44
0.9638549999999998
  0
ENDSEC
  0
SECTION
  2
OBJECTS
  0
DICTIONARY
  5
C
330
0
100
AcDbDictionary
281
     1
  3
ACAD_CIP_PREVIOUS_PRODUCT_INFO
350
1B7
  3
ACAD_COLOR
350
1B1
  3
ACAD_DETAILVIEWSTYLE
350
1AD
  3
ACAD_GROUP
350
D
  3
ACAD_LAYOUT
350
1A
  3
ACAD_MATERIAL
350
43
  3
ACAD_MLEADERSTYLE
350
6B
  3
ACAD_MLINESTYLE
350
17
  3
ACAD_PLOTSETTINGS
350
19
  3
ACAD_PLOTSTYLENAME
350
E
  3
ACAD_SCALELIST
350
47
  3
ACAD_SECTIONVIEWSTYLE
350
1AE
  3
ACAD_TABLESTYLE
350
69
  3
ACAD_VISUALSTYLE
350
2A
  3
ACDB_RECOMPOSE_DATA
350
1D3
  3
AcDbVariableDictionary
350
16A
  0
DICTIONARY
  5
1BE
330
2
100
AcDbDictionary
280
     1
281
     1
  3
ACAD_LAYERSTATES
360
1BF
  0
DICTIONARY
  5
1C8
330
10
100
AcDbDictionary
280
     1
281
     1
  3
ADSK_XREC_LAYER_RECONCILED
360
1C9
  0
DICTIONARY
  5
1CA
330
74
100
AcDbDictionary
280
     1
281
     1
  3
ADSK_XREC_LAYER_RECONCILED
360
1CB
  0
DICTIONARY
  5
1B9
330
1B8
100
AcDbDictionary
280
     1
281
     1
  3
ADSK_XREC_LAYER_RECONCILED
360
1CC
  0
XRECORD
  5
1B7
102
{ACAD_REACTORS
330
C
102
}
330
C
100
AcDbXrecord
280
     1
300
ACDLT
300
2021
300
ACDLT_F_S
  0
DICTIONARY
  5
1B1
102
{ACAD_REACTORS
330
C
102
}
330
C
100
AcDbDictionary
281
     1
  0
DICTIONARY
  5
1AD
102
{ACAD_REACTORS
330
C
102
}
330
C
100
AcDbDictionary
281
     1
  3
Metric50
350
1B3
  0
DICTIONARY
  5
D
102
{ACAD_REACTORS
330
C
102
}
330
C
100
AcDbDictionary
281
     1
  0
DICTIONARY
  5
1A
102
{ACAD_REACTORS
330
C
102
}
330
C
100
AcDbDictionary
281
     1
  3
Layout1
350
1E
  3
Layout2
350
26
  3
Model
350
22
  0
DICTIONARY
  5
43
102
{ACAD_REACTORS
330
C
102
}
330
C
100
AcDbDictionary
281
     1
  3
ByBlock
350
45
  3
ByLayer
350
44
  3
Global
350
46
  0
DICTIONARY
  5
6B
102
{ACAD_REACTORS
330
C
102
}
330
C
100
AcDbDictionary
281
     1
  3
Standard
350
6C
  0
DICTIONARY
  5
17
102
{ACAD_REACTORS
330
C
102
}
330
C
100
AcDbDictionary
281
     1
  3
Standard
350
18
  0
DICTIONARY
  5
19
102
{ACAD_REACTORS
330
C
102
}
330
C
100
AcDbDictionary
281
     1
  0
ACDBDICTIONARYWDFLT
  5
E
102
{ACAD_REACTORS
330
C
102
}
330
C
100
AcDbDictionary
281
     1
  3
Normal
350
F
100
AcDbDictionaryWithDefault
340
F
  0
DICTIONARY
  5
47
102
{ACAD_REACTORS
330
C
102
}
330
C
100
AcDbDictionary
281
     1
  3
A0
350
48
  3
A1
350
49
  3
A2
350
4A
  3
A3
350
4B
  3
A4
350
4C
  3
A5
350
4D
  3
A6
350
4E
  3
A7
350
4F
  3
A8
350
50
  3
A9
350
51
  3
B0
350
52
  3
B1
350
53
  3
B2
350
54
  3
B3
350
55
  3
B4
350
56
  3
B5
350
57
  3
B6
350
58
  3
B7
350
59
  3
B8
350
5A
  3
B9
350
5B
  3
C0
350
5C
  3
C1
350
5D
  3
C2
350
5E
  3
C3
350
5F
  3
C4
350
60
  3
C5
350
61
  3
C6
350
62
  3
C7
350
63
  3
C8
350
64
  3
C9
350
65
  3
D0
350
66
  3
D1
350
67
  3
D2
350
68
  0
DICTIONARY
  5
1AE
102
{ACAD_REACTORS
330
C
102
}
330
C
100
AcDbDictionary
281
     1
  3
Metric50
350
1B2
  0
DICTIONARY
  5
69
102
{ACAD_REACTORS
330
C
102
}
330
C
100
AcDbDictionary
281
     1
  3
Standard
350
6A
  0
DICTIONARY
  5
2A
102
{ACAD_REACTORS
330
C
102
}
330
C
100
AcDbDictionary
281
     1
  3
2dWireframe
350
2F
  3
Basic
350
32
  3
Brighten
350
36
  3
ColorChange
350
3A
  3
Conceptual
350
34
  3
Dim
350
35
  3
EdgeColorOff
350
3D
  3
Facepattern
350
39
  3
Flat
350
2B
  3
FlatWithEdges
350
2C
  3
Gouraud
350
2D
  3
GouraudWithEdges
350
2E
  3
Hidden
350
31
  3
JitterOff
350
3B
  3
Linepattern
350
38
  3
OverhangOff
350
3C
  3
Realistic
350
33
  3
Shaded
350
42
  3
Shaded with edges
350
41
  3
Shades of Gray
350
3E
  3
Sketchy
350
3F
  3
Thicken
350
37
  3
Wireframe
350
30
  3
X-Ray
350
40
  0
XRECORD
  5
1D3
102
{ACAD_REACTORS
330
C
102
}
330
C
100
AcDbXrecord
280
     1
 90
        1
330
6A
  0
DICTIONARY
  5
16A
102
{ACAD_REACTORS
330
C
102
}
330
C
100
AcDbDictionary
281
     1
  3
CANNOSCALE
350
16B
  3
CMLEADERSTYLE
350
1AC
  3
CTABLESTYLE
350
1AB
  3
CVIEWDETAILSTYLE
350
1CD
  3
CVIEWSECTIONSTYLE
350
1CE
  3
LAYEREVAL
350
1D0
  3
LAYERNOTIFY
350
1D1
  3
LIGHTINGUNITS
350
1CF
  3
MSLTSCALE
350
16C
  0
DICTIONARY
  5
1BF
102
{ACAD_REACTORS
330
1BE
102
}
330
1BE
100
AcDbDictionary
281
     1
  0
XRECORD
  5
1C9
102
{ACAD_REACTORS
330
1C8
102
}
330
1C8
100
AcDbXrecord
280
     1
290
     1
  0
XRECORD
  5
1CB
102
{ACAD_REACTORS
330
1CA
102
}
330
1CA
100
AcDbXrecord
280
     1
290
     1
  0
XRECORD
  5
1CC
102
{ACAD_REACTORS
330
1B9
102
}
330
1B9
100
AcDbXrecord
280
     1
290
     1
  0
ACDBDETAILVIEWSTYLE
  5
1B3
102
{ACAD_XDICTIONARY
360
1D6
102
}
102
{ACAD_REACTORS
330
1AD
102
}
330
1AD
100
AcDbModelDocViewStyle
 70
     0
  3
Metric50
290
     0
100
AcDbDetailViewStyle
 70
     0
 71
     0
 90
        3
 71
     1
340
11
 62
   256
 40
5.0
340
0
 62
   256
 40
5.0
300

 40
0.0
280
     1
 71
     2
340
16
 90
       25
 62
   256
 71
     3
340
11
 62
   256
 40
5.0
 90
        0
 40
15.0
 90
        1
300
%<\AcVar ViewDetailId>% (%<\AcVar ViewScale \f "%sn">%)
 71
     4
340
16
 90
       25
 62
   256
340
16
 90
       25
 62
   256
280
     0
  0
LAYOUT
  5
1E
102
{ACAD_REACTORS
330
1A
102
}
330
1A
100
AcDbPlotSettings
  1

  2
none_device
  4

  6

 40
0.0
 41
0.0
 42
0.0
 43
0.0
 44
0.0
 45
0.0
 46
0.0
 47
0.0
 48
0.0
 49
0.0
140
0.0
141
0.0
142
1.0
143
1.0
 70
   688
 72
     0
 73
     0
 74
     5
  7

 75
    16
147
1.0
 76
     0
 77
     2
 78
   300
148
0.0
149
0.0
100
AcDbLayout
  1
Layout1
 70
     1
 71
     1
 10
-0.5
 20
-0.5
 11
5.0
 21
5.0
 12
0.0
 22
0.0
 32
0.0
 14
-0.5
 24
-0.5
 34
-0.5
 15
5.0
 25
5.0
 35
5.0
146
0.0
 13
0.0
 23
0.0
 33
0.0
 16
1.0
 26
0.0
 36
0.0
 17
0.0
 27
1.0
 37
0.0
 76
     0
330
1B
  0
LAYOUT
  5
26
102
{ACAD_REACTORS
330
1A
102
}
330
1A
100
AcDbPlotSettings
  1

  2
none_device
  4

  6

 40
0.0
 41
0.0
 42
0.0
 43
0.0
 44
0.0
 45
0.0
 46
0.0
 47
0.0
 48
0.0
 49
0.0
140
0.0
141
0.0
142
1.0
143
1.0
 70
   688
 72
     0
 73
     0
 74
     5
  7

 75
    16
147
1.0
 76
     0
 77
     2
 78
   300
148
0.0
149
0.0
100
AcDbLayout
  1
Layout2
 70
     1
 71
     2
 10
0.0
 20
0.0
 11
0.0
 21
0.0
 12
0.0
 22
0.0
 32
0.0
 14
0.0
 24
0.0
 34
0.0
 15
0.0
 25
0.0
 35
0.0
146
0.0
 13
0.0
 23
0.0
 33
0.0
 16
1.0
 26
0.0
 36
0.0
 17
0.0
 27
1.0
 37
0.0
 76
     0
330
23
  0
LAYOUT
  5
22
102
{ACAD_REACTORS
330
1A
102
}
330
1A
100
AcDbPlotSettings
  1

  2
none_device
  4
Letter_(8.50_x_11.00_Inches)
  6

 40
6.349999999999999
 41
6.349999999999999
 42
6.350005
 43
6.350005
 44
215.9
 45
279.4
 46
0.0
 47
0.0
 48
0.0
 49
0.0
140
0.0
141
0.0
142
1.0
143
1.0
 70
  1712
 72
     0
 73
     0
 74
     0
  7

 75
     0
147
1.0
 76
     0
 77
     2
 78
   300
148
0.0
149
0.0
100
AcDbLayout
  1
Model
 70
     1
 71
     0
 10
-0.5
 20
-0.5
 11
5.0
 21
5.0
 12
0.0
 22
0.0
 32
0.0
 14
-0.5
 24
-0.5
 34
-0.5
 15
5.0
 25
5.0
 35
5.0
146
0.0
 13
0.0
 23
0.0
 33
0.0
 16
1.0
 26
0.0
 36
0.0
 17
0.0
 27
1.0
 37
0.0
 76
     0
330
1F
331
29
  0
MATERIAL
  5
45
102
{ACAD_XDICTIONARY
360
1A0
102
}
102
{ACAD_REACTORS
330
43
102
}
330
43
100
AcDbMaterial
  1
ByBlock
  0
MATERIAL
  5
44
102
{ACAD_XDICTIONARY
360
19E
102
}
102
{ACAD_REACTORS
330
43
102
}
330
43
100
AcDbMaterial
  1
ByLayer
  0
MATERIAL
  5
46
102
{ACAD_XDICTIONARY
360
1A2
102
}
102
{ACAD_REACTORS
330
43
102
}
330
43
100
AcDbMaterial
  1
Global
  0
MLEADERSTYLE
  5
6C
102
{ACAD_REACTORS
330
6B
102
}
330
6B
100
AcDbMLeaderStyle
179
     2
170
     2
171
     1
172
     0
 90
        2
 40
0.0
 41
0.0
173
     1
 91
-1056964608
340
14
 92
       -2
290
     1
 42
0.09
291
     1
 43
0.36
  3
Standard
 44
0.18
300

342
11
174
     1
178
     6
175
     1
176
     0
 93
-1056964608
 45
0.18
292
     0
297
     0
 46
0.18
 94
-1056964608
 47
1.0
 49
1.0
140
1.0
293
     1
141
0.0
294
     1
177
     0
142
1.0
295
     0
296
     0
143
0.125
271
     0
272
     9
273
     9
298
     0
1001
ACAD_MLEADERVER
1070
     2
  0
MLINESTYLE
  5
18
102
{ACAD_REACTORS
330
17
102
}
330
17
100
AcDbMlineStyle
  2
STANDARD
 70
     0
  3

 62
   256
 51
90.0
 52
90.0
 71
     2
 49
0.5
 62
   256
  6
BYLAYER
 49
-0.5
 62
   256
  6
BYLAYER
  0
ACDBPLACEHOLDER
  5
F
102
{ACAD_REACTORS
330
E
102
}
330
E
  0
SCALE
  5
48
102
{ACAD_REACTORS
330
47
102
}
330
47
100
AcDbScale
 70
     0
300
1:1
140
1.0
141
1.0
290
     1
  0
SCALE
  5
49
102
{ACAD_REACTORS
330
47
102
}
330
47
100
AcDbScale
 70
     0
300
1:2
140
1.0
141
2.0
290
     0
  0
SCALE
  5
4A
102
{ACAD_REACTORS
330
47
102
}
330
47
100
AcDbScale
 70
     0
300
1:4
140
1.0
141
4.0
290
     0
  0
SCALE
  5
4B
102
{ACAD_REACTORS
330
47
102
}
330
47
100
AcDbScale
 70
     0
300
1:5
140
1.0
141
5.0
290
     0
  0
SCALE
  5
4C
102
{ACAD_REACTORS
330
47
102
}
330
47
100
AcDbScale
 70
     0
300
1:8
140
1.0
141
8.0
290
     0
  0
SCALE
  5
4D
102
{ACAD_REACTORS
330
47
102
}
330
47
100
AcDbScale
 70
     0
300
1:10
140
1.0
141
10.0
290
     0
  0
SCALE
  5
4E
102
{ACAD_REACTORS
330
47
102
}
330
47
100
AcDbScale
 70
     0
300
1:16
140
1.0
141
16.0
290
     0
  0
SCALE
  5
4F
102
{ACAD_REACTORS
330
47
102
}
330
47
100
AcDbScale
 70
     0
300
1:20
140
1.0
141
20.0
290
     0
  0
SCALE
  5
50
102
{ACAD_REACTORS
330
47
102
}
330
47
100
AcDbScale
 70
     0
300
1:30
140
1.0
141
30.0
290
     0
  0
SCALE
  5
51
102
{ACAD_REACTORS
330
47
102
}
330
47
100
AcDbScale
 70
     0
300
1:40
140
1.0
141
40.0
290
     0
  0
SCALE
  5
52
102
{ACAD_REACTORS
330
47
102
}
330
47
100
AcDbScale
 70
     0
300
1:50
140
1.0
141
50.0
290
     0
  0
SCALE
  5
53
102
{ACAD_REACTORS
330
47
102
}
330
47
100
AcDbScale
 70
     0
300
1:100
140
1.0
141
100.0
290
     0
  0
SCALE
  5
54
102
{ACAD_REACTORS
330
47
102
}
330
47
100
AcDbScale
 70
     0
300
2:1
140
2.0
141
1.0
290
     0
  0
SCALE
  5
55
102
{ACAD_REACTORS
330
47
102
}
330
47
100
AcDbScale
 70
     0
300
4:1
140
4.0
141
1.0
290
     0
  0
SCALE
  5
56
102
{ACAD_REACTORS
330
47
102
}
330
47
100
AcDbScale
 70
     0
300
8:1
140
8.0
141
1.0
290
     0
  0
SCALE
  5
57
102
{ACAD_REACTORS
330
47
102
}
330
47
100
AcDbScale
 70
     0
300
10:1
140
10.0
141
1.0
290
     0
  0
SCALE
  5
58
102
{ACAD_REACTORS
330
47
102
}
330
47
100
AcDbScale
 70
     0
300
100:1
140
100.0
141
1.0
290
     0
  0
SCALE
  5
59
102
{ACAD_REACTORS
330
47
102
}
330
47
100
AcDbScale
 70
     0
300
1/128" = 1'-0"
140
0.007812
141
12.0
290
     0
  0
SCALE
  5
5A
102
{ACAD_REACTORS
330
47
102
}
330
47
100
AcDbScale
 70
     0
300
1/64" = 1'-0"
140
0.015625
141
12.0
290
     0
  0
SCALE
  5
5B
102
{ACAD_REACTORS
330
47
102
}
330
47
100
AcDbScale
 70
     0
300
1/32" = 1'-0"
140
0.03125
141
12.0
290
     0
  0
SCALE
  5
5C
102
{ACAD_REACTORS
330
47
102
}
330
47
100
AcDbScale
 70
     0
300
1/16" = 1'-0"
140
0.0625
141
12.0
290
     0
  0
SCALE
  5
5D
102
{ACAD_REACTORS
330
47
102
}
330
47
100
AcDbScale
 70
     0
300
3/32" = 1'-0"
140
0.09375
141
12.0
290
     0
  0
SCALE
  5
5E
102
{ACAD_REACTORS
330
47
102
}
330
47
100
AcDbScale
 70
     0
300
1/8" = 1'-0"
140
0.125
141
12.0
290
     0
  0
SCALE
  5
5F
102
{ACAD_REACTORS
330
47
102
}
330
47
100
AcDbScale
 70
     0
300
3/16" = 1'-0"
140
0.1875
141
12.0
290
     0
  0
SCALE
  5
60
102
{ACAD_REACTORS
330
47
102
}
330
47
100
AcDbScale
 70
     0
300
1/4" = 1'-0"
140
0.25
141
12.0
290
     0
  0
SCALE
  5
61
102
{ACAD_REACTORS
330
47
102
}
330
47
100
AcDbScale
 70
     0
300
3/8" = 1'-0"
140
0.375
141
12.0
290
     0
  0
SCALE
  5
62
102
{ACAD_REACTORS
330
47
102
}
330
47
100
AcDbScale
 70
     0
300
1/2" = 1'-0"
140
0.5
141
12.0
290
     0
  0
SCALE
  5
63
102
{ACAD_REACTORS
330
47
102
}
330
47
100
AcDbScale
 70
     0
300
3/4" = 1'-0"
140
0.75
141
12.0
290
     0
  0
SCALE
  5
64
102
{ACAD_REACTORS
330
47
102
}
330
47
100
AcDbScale
 70
     0
300
1" = 1'-0"
140
1.0
141
12.0
290
     0
  0
SCALE
  5
65
102
{ACAD_REACTORS
330
47
102
}
330
47
100
AcDbScale
 70
     0
300
1-1/2" = 1'-0"
140
1.5
141
12.0
290
     0
  0
SCALE
  5
66
102
{ACAD_REACTORS
330
47
102
}
330
47
100
AcDbScale
 70
     0
300
3" = 1'-0"
140
3.0
141
12.0
290
     0
  0
SCALE
  5
67
102
{ACAD_REACTORS
330
47
102
}
330
47
100
AcDbScale
 70
     0
300
6" = 1'-0"
140
6.0
141
12.0
290
     0
  0
SCALE
  5
68
102
{ACAD_REACTORS
330
47
102
}
330
47
100
AcDbScale
 70
     0
300
1'-0" = 1'-0"
140
12.0
141
12.0
290
     0
  0
ACDBSECTIONVIEWSTYLE
  5
1B2
102
{ACAD_XDICTIONARY
360
1D4
102
}
102
{ACAD_REACTORS
330
1AE
102
}
330
1AE
100
AcDbModelDocViewStyle
 70
     0
  3
Metric50
290
     0
100
AcDbSectionViewStyle
 70
     0
 71
     0
 90
      102
 71
     1
340
11
 62
   256
 40
5.0
340
0
340
0
 62
   256
 40
5.0
300
I, O, Q, S, X, Z
 40
10.0
 90
        0
 40
2.5
 90
        0
 71
     2
340
16
 90
       25
 62
   256
340
16
 90
       50
 62
   256
 40
5.0
 40
2.5
 40
5.0
 71
     3
340
11
 62
   256
 40
5.0
 90
        0
 40
15.0
 90
        1
300
%<\AcVar ViewSectionStartId>%-%<\AcVar ViewSectionEndId>% (%<\AcVar ViewScale \f "%sn">%)
 71
     4
 62
   256
 62
   257
300
ANSI31
 40
1.0
 90
        0
290
     0
290
     0
 90
        6
 40
0.0
 40
1.570796326794896
 40
0.2617993877991494
 40
1.308996938995747
 40
-0.2617993877991494
 40
1.832595714594046
  0
TABLESTYLE
  5
6A
102
{ACAD_XDICTIONARY
360
1A4
102
}
102
{ACAD_REACTORS
330
69
102
}
330
69
100
AcDbTableStyle
280
     0
  3
Standard
 70
     0
 71
     0
 40
0.06
 41
0.06
280
     0
281
     0
  7
Standard
140
0.18
170
     2
 62
     0
 63
     7
283
     0
 90
        4
 91
        0
  1

274
    -2
284
     1
 64
     0
275
    -2
285
     1
 65
     0
276
    -2
286
     1
 66
     0
277
    -2
287
     1
 67
     0
278
    -2
288
     1
 68
     0
279
    -2
289
     1
 69
     0
  7
Standard
140
0.25
170
     5
 62
     0
 63
     7
283
     0
 90
        4
 91
        0
  1

274
    -2
284
     1
 64
     0
275
    -2
285
     1
 65
     0
276
    -2
286
     1
 66
     0
277
    -2
287
     1
 67
     0
278
    -2
288
     1
 68
     0
279
    -2
289
     1
 69
     0
  7
Standard
140
0.18
170
     5
 62
     0
 63
     7
283
     0
 90
        4
 91
        0
  1

274
    -2
284
     1
 64
     0
275
    -2
285
     1
 65
     0
276
    -2
286
     1
 66
     0
277
    -2
287
     1
 67
     0
278
    -2
288
     1
 68
     0
279
    -2
289
     1
 69
     0
  0
VISUALSTYLE
  5
2F
102
{ACAD_REACTORS
330
2A
102
}
330
2A
100
AcDbVisualStyle
  2

 70
     4
177
     3
291
     0
 70
    58
 90
        0
176
     1
 90
        2
176
     1
 90
        0
176
     1
 90
        0
176
     1
 40
0.6
176
     1
 40
30.0
176
     1
 62
     7
420
 16777215
176
     1
 90
        1
176
     1
 90
        4
176
     1
 62
     7
176
     1
 62
   257
176
     1
 90
        1
176
     1
 90
        1
176
     1
 40
1.0
176
     1
 90
        0
176
     1
 62
   257
176
     1
 40
1.0
176
     1
 90
        1
176
     1
 90
        6
176
     1
 90
        2
176
     1
 62
     7
176
     1
 90
        5
176
     1
 90
        0
176
     1
 90
        0
176
     1
290
     0
176
     1
 90
        1
176
     1
 40
0.0
176
     1
 90
        0
176
     1
290
     1
176
     1
290
     1
176
     1
290
     0
176
     1
290
     0
176
     1
290
     0
176
     1
290
     0
176
     1
290
     0
176
     1
290
     0
176
     1
290
     0
176
     1
 90
       50
176
     1
 40
0.0
176
     1
 40
1.0
176
     1
 90
        0
176
     1
 62
    18
420
        0
176
     1
 90
       50
176
     1
 90
        3
176
     1
 62
     5
420
      255
176
     1
290
     0
176
     1
 90
       50
176
     1
 90
       50
176
     1
 90
       50
176
     1
290
     0
176
     1
 90
       50
176
     1
 62
   256
176
     0
 40
1.0
176
     0
 90
        2
176
     1
  1
strokes_ogs.tif
176
     1
290
     0
176
     1
 40
1.0
176
     1
 40
1.0
176
     1
1001
ACAD
1000
AcDbSavedByObjectVersion
1070
     0
  0
VISUALSTYLE
  5
32
102
{ACAD_REACTORS
330
2A
102
}
330
2A
100
AcDbVisualStyle
  2

 70
     7
177
     3
291
     1
 70
    58
 90
        1
176
     1
 90
        0
176
     1
 90
        1
176
     1
 90
        0
176
     1
 40
0.6
176
     1
 40
30.0
176
     1
 62
     7
420
 16777215
176
     1
 90
        0
176
     1
 90
        4
176
     1
 62
     7
176
     1
 62
   257
176
     1
 90
        1
176
     1
 90
        1
176
     1
 40
1.0
176
     1
 90
        8
176
     1
 62
     7
176
     1
 40
1.0
176
     1
 90
        1
176
     1
 90
        6
176
     1
 90
        2
176
     1
 62
     7
176
     1
 90
        5
176
     1
 90
        0
176
     1
 90
        0
176
     1
290
     0
176
     1
 90
        1
176
     1
 40
0.0
176
     1
 90
        0
176
     1
290
     0
176
     1
290
     1
176
     1
290
     1
176
     1
290
     0
176
     1
290
     0
176
     1
290
     0
176
     1
290
     0
176
     1
290
     0
176
     1
290
     0
176
     1
 90
       50
176
     1
 40
0.0
176
     1
 40
1.0
176
     1
 90
        0
176
     1
 62
    18
420
        0
176
     1
 90
       50
176
     1
 90
        3
176
     1
 62
     5
420
      255
176
     1
290
     0
176
     1
 90
       50
176
     1
 90
       50
176
     1
 90
       50
176
     1
290
     0
176
     1
 90
       50
176
     1
 62
   256
176
     0
 40
1.0
176
     0
 90
        2
176
     1
  1
strokes_ogs.tif
176
     1
290
     0
176
     1
 40
1.0
176
     1
 40
1.0
176
     1
1001
ACAD
1000
AcDbSavedByObjectVersion
1070
     0
  0
VISUALSTYLE
  5
36
102
{ACAD_REACTORS
330
2A
102
}
330
2A
100
AcDbVisualStyle
  2

 70
    12
177
     3
291
     1
 70
    58
 90
        2
176
     1
 90
        2
176
     1
 90
        0
176
     1
 90
        0
176
     1
 40
0.6
176
     1
 40
30.0
176
     1
 62
     7
420
 16777215
176
     1
 90
        1
176
     1
 90
        4
176
     1
 62
     7
176
     1
 62
   257
176
     1
 90
        1
176
     1
 90
        1
176
     1
 40
1.0
176
     1
 90
        8
176
     1
 62
     7
176
     1
 40
1.0
176
     1
 90
        1
176
     1
 90
        6
176
     1
 90
        2
176
     1
 62
     7
176
     1
 90
        5
176
     1
 90
        0
176
     1
 90
        0
176
     1
290
     0
176
     1
 90
        1
176
     1
 40
50.0
176
     1
 90
        0
176
     1
290
     0
176
     1
290
     1
176
     1
290
     1
176
     1
290
     0
176
     1
290
     0
176
     1
290
     0
176
     1
290
     0
176
     1
290
     0
176
     1
290
     0
176
     1
 90
       50
176
     1
 40
0.0
176
     1
 40
1.0
176
     1
 90
        0
176
     1
 62
    18
420
        0
176
     1
 90
       50
176
     1
 90
        3
176
     1
 62
     5
420
      255
176
     1
290
     0
176
     1
 90
       50
176
     1
 90
       50
176
     1
 90
       50
176
     1
290
     0
176
     1
 90
       50
176
     1
 62
   256
176
     0
 40
1.0
176
     0
 90
        2
176
     1
  1
strokes_ogs.tif
176
     1
290
     0
176
     1
 40
1.0
176
     1
 40
1.0
176
     1
1001
ACAD
1000
AcDbSavedByObjectVersion
1070
     0
  0
VISUALSTYLE
  5
3A
102
{ACAD_REACTORS
330
2A
102
}
330
2A
100
AcDbVisualStyle
  2

 70
    16
177
     3
291
     1
 70
    58
 90
        2
176
     1
 90
        2
176
     1
 90
        3
176
     1
 90
        0
176
     1
 40
0.6
176
     1
 40
30.0
176
     1
 62
     8
420
  8421504
176
     1
 90
        1
176
     1
 90
        4
176
     1
 62
     7
176
     1
 62
   257
176
     1
 90
        1
176
     1
 90
        1
176
     1
 40
1.0
176
     1
 90
        8
176
     1
 62
     8
420
  8421504
176
     1
 40
1.0
176
     1
 90
        1
176
     1
 90
        6
176
     1
 90
        2
176
     1
 62
     7
176
     1
 90
        5
176
     1
 90
        0
176
     1
 90
        0
176
     1
290
     0
176
     1
 90
        1
176
     1
 40
0.0
176
     1
 90
        0
176
     1
290
     0
176
     1
290
     1
176
     1
290
     1
176
     1
290
     0
176
     1
290
     0
176
     1
290
     0
176
     1
290
     0
176
     1
290
     0
176
     1
290
     0
176
     1
 90
       50
176
     1
 40
0.0
176
     1
 40
1.0
176
     1
 90
        0
176
     1
 62
    18
420
        0
176
     1
 90
       50
176
     1
 90
        3
176
     1
 62
     5
420
      255
176
     1
290
     0
176
     1
 90
       50
176
     1
 90
       50
176
     1
 90
       50
176
     1
290
     0
176
     1
 90
       50
176
     1
 62
   256
176
     0
 40
1.0
176
     0
 90
        2
176
     1
  1
strokes_ogs.tif
176
     1
290
     0
176
     1
 40
1.0
176
     1
 40
1.0
176
     1
1001
ACAD
1000
AcDbSavedByObjectVersion
1070
     0
  0
VISUALSTYLE
  5
34
102
{ACAD_REACTORS
330
2A
102
}
330
2A
100
AcDbVisualStyle
  2

 70
     9
177
     3
291
     0
 70
    58
 90
        3
176
     1
 90
        2
176
     1
 90
        0
176
     1
 90
        0
176
     1
 40
0.6
176
     1
 40
30.0
176
     1
 62
     7
420
 16777215
176
     1
 90
        2
176
     1
 90
        2
176
     1
 62
     7
176
     1
 62
   257
176
     1
 90
        1
176
     1
 90
        1
176
     1
 40
179.0
176
     1
 90
        8
176
     1
 62
     7
176
     1
 40
1.0
176
     1
 90
        1
176
     1
 90
        6
176
     1
 90
        2
176
     1
 62
     7
176
     1
 90
        3
176
     1
 90
        0
176
     1
 90
        0
176
     1
290
     0
176
     1
 90
        1
176
     1
 40
0.0
176
     1
 90
        0
176
     1
290
     0
176
     1
290
     1
176
     1
290
     1
176
     1
290
     0
176
     1
290
     0
176
     1
290
     0
176
     1
290
     0
176
     1
290
     0
176
     1
290
     0
176
     1
 90
       50
176
     1
 40
0.0
176
     1
 40
1.0
176
     1
 90
        0
176
     1
 62
    18
420
        0
176
     1
 90
       50
176
     1
 90
        3
176
     1
 62
     5
420
      255
176
     1
290
     0
176
     1
 90
       50
176
     1
 90
       50
176
     1
 90
       50
176
     1
290
     0
176
     1
 90
       50
176
     1
 62
   256
176
     0
 40
1.0
176
     0
 90
        2
176
     1
  1
strokes_ogs.tif
176
     1
290
     0
176
     1
 40
1.0
176
     1
 40
1.0
176
     1
1001
ACAD
1000
AcDbSavedByObjectVersion
1070
     0
  0
VISUALSTYLE
  5
35
102
{ACAD_REACTORS
330
2A
102
}
330
2A
100
AcDbVisualStyle
  2

 70
    11
177
     3
291
     1
 70
    58
 90
        2
176
     1
 90
        2
176
     1
 90
        0
176
     1
 90
        0
176
     1
 40
0.6
176
     1
 40
30.0
176
     1
 62
     7
420
 16777215
176
     1
 90
        1
176
     1
 90
        4
176
     1
 62
     7
176
     1
 62
   257
176
     1
 90
        1
176
     1
 90
        1
176
     1
 40
1.0
176
     1
 90
        8
176
     1
 62
     7
176
     1
 40
1.0
176
     1
 90
        1
176
     1
 90
        6
176
     1
 90
        2
176
     1
 62
     7
176
     1
 90
        5
176
     1
 90
        0
176
     1
 90
        0
176
     1
290
     0
176
     1
 90
        1
176
     1
 40
-50.0
176
     1
 90
        0
176
     1
290
     0
176
     1
290
     1
176
     1
290
     1
176
     1
290
     0
176
     1
290
     0
176
     1
290
     0
176
     1
290
     0
176
     1
290
     0
176
     1
290
     0
176
     1
 90
       50
176
     1
 40
0.0
176
     1
 40
1.0
176
     1
 90
        0
176
     1
 62
    18
420
        0
176
     1
 90
       50
176
     1
 90
        3
176
     1
 62
     5
420
      255
176
     1
290
     0
176
     1
 90
       50
176
     1
 90
       50
176
     1
 90
       50
176
     1
290
     0
176
     1
 90
       50
176
     1
 62
   256
176
     0
 40
1.0
176
     0
 90
        2
176
     1
  1
strokes_ogs.tif
176
     1
290
     0
176
     1
 40
1.0
176
     1
 40
1.0
176
     1
1001
ACAD
1000
AcDbSavedByObjectVersion
1070
     0
  0
VISUALSTYLE
  5
3D
102
{ACAD_REACTORS
330
2A
102
}
330
2A
100
AcDbVisualStyle
  2

 70
    22
177
     3
291
     1
 70
    58
 90
        2
176
     0
 90
        2
176
     0
 90
        0
176
     0
 90
        0
176
     0
 40
0.6
176
     0
 40
30.0
176
     0
 62
     7
420
 16777215
176
     0
 90
        1
176
     0
 90
        4
176
     0
 62
     7
176
     0
 62
   257
176
     0
 90
        1
176
     0
 90
        1
176
     0
 40
1.0
176
     0
 90
        8
176
     2
 62
     7
176
     0
 40
1.0
176
     0
 90
        1
176
     0
 90
        6
176
     0
 90
        2
176
     0
 62
     7
176
     0
 90
        5
176
     0
 90
        0
176
     0
 90
        0
176
     0
290
     0
176
     0
 90
        1
176
     0
 40
0.0
176
     0
 90
        0
176
     0
290
     0
176
     0
290
     1
176
     0
290
     1
176
     0
290
     0
176
     0
290
     0
176
     0
290
     0
176
     0
290
     0
176
     0
290
     0
176
     0
290
     0
176
     0
 90
       50
176
     0
 40
0.0
176
     0
 40
1.0
176
     0
 90
        0
176
     0
 62
    18
420
        0
176
     0
 90
       50
176
     0
 90
        3
176
     0
 62
     5
420
      255
176
     0
290
     0
176
     0
 90
       50
176
     0
 90
       50
176
     0
 90
       50
176
     0
290
     0
176
     0
 90
       50
176
     0
 62
   256
176
     0
 40
1.0
176
     0
 90
        2
176
     0
  1
strokes_ogs.tif
176
     0
290
     0
176
     0
 40
1.0
176
     0
 40
1.0
176
     0
1001
ACAD
1000
AcDbSavedByObjectVersion
1070
     0
  0
VISUALSTYLE
  5
39
102
{ACAD_REACTORS
330
2A
102
}
330
2A
100
AcDbVisualStyle
  2

 70
    15
177
     3
291
     1
 70
    58
 90
        2
176
     1
 90
        2
176
     1
 90
        0
176
     1
 90
        0
176
     1
 40
0.6
176
     1
 40
30.0
176
     1
 62
     7
420
 16777215
176
     1
 90
        1
176
     1
 90
        4
176
     1
 62
     7
176
     1
 62
   257
176
     1
 90
        1
176
     1
 90
        1
176
     1
 40
1.0
176
     1
 90
        8
176
     1
 62
     7
176
     1
 40
1.0
176
     1
 90
        1
176
     1
 90
        6
176
     1
 90
        2
176
     1
 62
     7
176
     1
 90
        5
176
     1
 90
        0
176
     1
 90
        0
176
     1
290
     0
176
     1
 90
        1
176
     1
 40
0.0
176
     1
 90
        0
176
     1
290
     0
176
     1
290
     1
176
     1
290
     1
176
     1
290
     0
176
     1
290
     0
176
     1
290
     0
176
     1
290
     0
176
     1
290
     0
176
     1
290
     0
176
     1
 90
       50
176
     1
 40
0.0
176
     1
 40
1.0
176
     1
 90
        0
176
     1
 62
    18
420
        0
176
     1
 90
       50
176
     1
 90
        3
176
     1
 62
     5
420
      255
176
     1
290
     0
176
     1
 90
       50
176
     1
 90
       50
176
     1
 90
       50
176
     1
290
     0
176
     1
 90
       50
176
     1
 62
   256
176
     0
 40
1.0
176
     0
 90
        2
176
     1
  1
strokes_ogs.tif
176
     1
290
     0
176
     1
 40
1.0
176
     1
 40
1.0
176
     1
1001
ACAD
1000
AcDbSavedByObjectVersion
1070
     0
  0
VISUALSTYLE
  5
2B
102
{ACAD_REACTORS
330
2A
102
}
330
2A
100
AcDbVisualStyle
  2

 70
     0
177
     3
291
     1
 70
    58
 90
        2
176
     1
 90
        1
176
     1
 90
        1
176
     1
 90
        2
176
     1
 40
0.6
176
     1
 40
30.0
176
     1
 62
     7
420
 16777215
176
     1
 90
        0
176
     1
 90
        0
176
     1
 62
     7
176
     1
 62
   257
176
     1
 90
        1
176
     1
 90
        1
176
     1
 40
1.0
176
     1
 90
        8
176
     1
 62
     7
176
     1
 40
1.0
176
     1
 90
        1
176
     1
 90
        6
176
     1
 90
        2
176
     1
 62
     7
176
     1
 90
        5
176
     1
 90
        0
176
     1
 90
        0
176
     1
290
     0
176
     1
 90
       13
176
     1
 40
0.0
176
     1
 90
        0
176
     1
290
     0
176
     1
290
     1
176
     1
290
     1
176
     1
290
     0
176
     1
290
     0
176
     1
290
     0
176
     1
290
     0
176
     1
290
     0
176
     1
290
     0
176
     1
 90
       50
176
     1
 40
0.0
176
     1
 40
1.0
176
     1
 90
        0
176
     1
 62
    18
420
        0
176
     1
 90
       50
176
     1
 90
        3
176
     1
 62
     5
420
      255
176
     1
290
     0
176
     1
 90
       50
176
     1
 90
       50
176
     1
 90
       50
176
     1
290
     0
176
     1
 90
       50
176
     1
 62
   256
176
     0
 40
1.0
176
     0
 90
        2
176
     1
  1
strokes_ogs.tif
176
     1
290
     0
176
     1
 40
1.0
176
     1
 40
1.0
176
     1
1001
ACAD
1000
AcDbSavedByObjectVersion
1070
     0
  0
VISUALSTYLE
  5
2C
102
{ACAD_REACTORS
330
2A
102
}
330
2A
100
AcDbVisualStyle
  2

 70
     1
177
     3
291
     1
 70
    58
 90
        2
176
     1
 90
        1
176
     1
 90
        1
176
     1
 90
        2
176
     1
 40
0.6
176
     1
 40
30.0
176
     1
 62
     7
420
 16777215
176
     1
 90
        1
176
     1
 90
        0
176
     1
 62
     7
176
     1
 62
   257
176
     1
 90
        1
176
     1
 90
        1
176
     1
 40
1.0
176
     1
 90
        0
176
     1
 62
   257
176
     1
 40
1.0
176
     1
 90
        1
176
     1
 90
        6
176
     1
 90
        2
176
     1
 62
     7
176
     1
 90
        5
176
     1
 90
        0
176
     1
 90
        0
176
     1
290
     0
176
     1
 90
       13
176
     1
 40
0.0
176
     1
 90
        0
176
     1
290
     0
176
     1
290
     1
176
     1
290
     1
176
     1
290
     0
176
     1
290
     0
176
     1
290
     0
176
     1
290
     0
176
     1
290
     0
176
     1
290
     0
176
     1
 90
       50
176
     1
 40
0.0
176
     1
 40
1.0
176
     1
 90
        0
176
     1
 62
    18
420
        0
176
     1
 90
       50
176
     1
 90
        3
176
     1
 62
     5
420
      255
176
     1
290
     0
176
     1
 90
       50
176
     1
 90
       50
176
     1
 90
       50
176
     1
290
     0
176
     1
 90
       50
176
     1
 62
   256
176
     0
 40
1.0
176
     0
 90
        2
176
     1
  1
strokes_ogs.tif
176
     1
290
     0
176
     1
 40
1.0
176
     1
 40
1.0
176
     1
1001
ACAD
1000
AcDbSavedByObjectVersion
1070
     0
  0
VISUALSTYLE
  5
2D
102
{ACAD_REACTORS
330
2A
102
}
330
2A
100
AcDbVisualStyle
  2

 70
     2
177
     3
291
     1
 70
    58
 90
        2
176
     1
 90
        2
176
     1
 90
        1
176
     1
 90
        2
176
     1
 40
0.6
176
     1
 40
30.0
176
     1
 62
     7
420
 16777215
176
     1
 90
        0
176
     1
 90
        0
176
     1
 62
     7
176
     1
 62
   257
176
     1
 90
        1
176
     1
 90
        1
176
     1
 40
1.0
176
     1
 90
        0
176
     1
 62
     7
176
     1
 40
1.0
176
     1
 90
        1
176
     1
 90
        6
176
     1
 90
        2
176
     1
 62
     7
176
     1
 90
        5
176
     1
 90
        0
176
     1
 90
        0
176
     1
290
     0
176
     1
 90
       13
176
     1
 40
0.0
176
     1
 90
        0
176
     1
290
     0
176
     1
290
     1
176
     1
290
     1
176
     1
290
     0
176
     1
290
     0
176
     1
290
     0
176
     1
290
     0
176
     1
290
     0
176
     1
290
     0
176
     1
 90
       50
176
     1
 40
0.0
176
     1
 40
1.0
176
     1
 90
        0
176
     1
 62
    18
420
        0
176
     1
 90
       50
176
     1
 90
        3
176
     1
 62
     5
420
      255
176
     1
290
     0
176
     1
 90
       50
176
     1
 90
       50
176
     1
 90
       50
176
     1
290
     0
176
     1
 90
       50
176
     1
 62
   256
176
     0
 40
1.0
176
     0
 90
        2
176
     1
  1
strokes_ogs.tif
176
     1
290
     0
176
     1
 40
1.0
176
     1
 40
1.0
176
     1
1001
ACAD
1000
AcDbSavedByObjectVersion
1070
     0
  0
VISUALSTYLE
  5
2E
102
{ACAD_REACTORS
330
2A
102
}
330
2A
100
AcDbVisualStyle
  2

 70
     3
177
     3
291
     1
 70
    58
 90
        2
176
     1
 90
        2
176
     1
 90
        1
176
     1
 90
        2
176
     1
 40
0.6
176
     1
 40
30.0
176
     1
 62
     7
420
 16777215
176
     1
 90
        1
176
     1
 90
        0
176
     1
 62
     7
176
     1
 62
   257
176
     1
 90
        1
176
     1
 90
        1
176
     1
 40
1.0
176
     1
 90
        0
176
     1
 62
   257
176
     1
 40
1.0
176
     1
 90
        1
176
     1
 90
        6
176
     1
 90
        2
176
     1
 62
     7
176
     1
 90
        5
176
     1
 90
        0
176
     1
 90
        0
176
     1
290
     0
176
     1
 90
       13
176
     1
 40
0.0
176
     1
 90
        0
176
     1
290
     0
176
     1
290
     1
176
     1
290
     1
176
     1
290
     0
176
     1
290
     0
176
     1
290
     0
176
     1
290
     0
176
     1
290
     0
176
     1
290
     0
176
     1
 90
       50
176
     1
 40
0.0
176
     1
 40
1.0
176
     1
 90
        0
176
     1
 62
    18
420
        0
176
     1
 90
       50
176
     1
 90
        3
176
     1
 62
     5
420
      255
176
     1
290
     0
176
     1
 90
       50
176
     1
 90
       50
176
     1
 90
       50
176
     1
290
     0
176
     1
 90
       50
176
     1
 62
   256
176
     0
 40
1.0
176
     0
 90
        2
176
     1
  1
strokes_ogs.tif
176
     1
290
     0
176
     1
 40
1.0
176
     1
 40
1.0
176
     1
1001
ACAD
1000
AcDbSavedByObjectVersion
1070
     0
  0
VISUALSTYLE
  5
31
102
{ACAD_REACTORS
330
2A
102
}
330
2A
100
AcDbVisualStyle
  2

 70
     6
177
     3
291
     0
 70
    58
 90
        1
176
     1
 90
        2
176
     1
 90
        2
176
     1
 90
        0
176
     1
 40
0.6
176
     1
 40
30.0
176
     1
 62
     7
420
 16777215
176
     1
 90
        2
176
     1
 90
        2
176
     1
 62
     7
176
     1
 62
   257
176
     1
 90
        2
176
     1
 90
        1
176
     1
 40
40.0
176
     1
 90
        0
176
     1
 62
   257
176
     1
 40
1.0
176
     1
 90
        1
176
     1
 90
        6
176
     1
 90
        2
176
     1
 62
     7
176
     1
 90
        3
176
     1
 90
        0
176
     1
 90
        0
176
     1
290
     0
176
     1
 90
        1
176
     1
 40
0.0
176
     1
 90
        0
176
     1
290
     0
176
     1
290
     1
176
     1
290
     1
176
     1
290
     0
176
     1
290
     0
176
     1
290
     0
176
     1
290
     0
176
     1
290
     0
176
     1
290
     0
176
     1
 90
       50
176
     1
 40
0.0
176
     1
 40
1.0
176
     1
 90
        0
176
     1
 62
    18
420
        0
176
     1
 90
       50
176
     1
 90
        3
176
     1
 62
     5
420
      255
176
     1
290
     0
176
     1
 90
       50
176
     1
 90
       50
176
     1
 90
       50
176
     1
290
     0
176
     1
 90
       50
176
     1
 62
   256
176
     0
 40
1.0
176
     0
 90
        2
176
     1
  1
strokes_ogs.tif
176
     1
290
     0
176
     1
 40
1.0
176
     1
 40
1.0
176
     1
1001
ACAD
1000
AcDbSavedByObjectVersion
1070
     0
  0
VISUALSTYLE
  5
3B
102
{ACAD_REACTORS
330
2A
102
}
330
2A
100
AcDbVisualStyle
  2

 70
    20
177
     3
291
     1
 70
    58
 90
        2
176
     0
 90
        2
176
     0
 90
        0
176
     0
 90
        0
176
     0
 40
0.6
176
     0
 40
30.0
176
     0
 62
     7
420
 16777215
176
     0
 90
        1
176
     0
 90
        4
176
     0
 62
     7
176
     0
 62
   257
176
     0
 90
        1
176
     0
 90
        1
176
     0
 40
1.0
176
     0
 90
       10
176
     2
 62
     7
176
     0
 40
1.0
176
     0
 90
        1
176
     0
 90
        6
176
     0
 90
        2
176
     0
 62
     7
176
     0
 90
        5
176
     0
 90
        0
176
     0
 90
        0
176
     0
290
     0
176
     0
 90
        1
176
     0
 40
0.0
176
     0
 90
        0
176
     0
290
     0
176
     0
290
     1
176
     0
290
     1
176
     0
290
     0
176
     0
290
     0
176
     0
290
     0
176
     0
290
     0
176
     0
290
     0
176
     0
290
     0
176
     0
 90
       50
176
     0
 40
0.0
176
     0
 40
1.0
176
     0
 90
        0
176
     0
 62
    18
420
        0
176
     0
 90
       50
176
     0
 90
        3
176
     0
 62
     5
420
      255
176
     0
290
     0
176
     0
 90
       50
176
     0
 90
       50
176
     0
 90
       50
176
     0
290
     0
176
     0
 90
       50
176
     0
 62
   256
176
     0
 40
1.0
176
     0
 90
        2
176
     0
  1
strokes_ogs.tif
176
     0
290
     0
176
     0
 40
1.0
176
     0
 40
1.0
176
     0
1001
ACAD
1000
AcDbSavedByObjectVersion
1070
     0
  0
VISUALSTYLE
  5
38
102
{ACAD_REACTORS
330
2A
102
}
330
2A
100
AcDbVisualStyle
  2

 70
    14
177
     3
291
     1
 70
    58
 90
        2
176
     1
 90
        2
176
     1
 90
        0
176
     1
 90
        0
176
     1
 40
0.6
176
     1
 40
30.0
176
     1
 62
     7
420
 16777215
176
     1
 90
        1
176
     1
 90
        4
176
     1
 62
     7
176
     1
 62
   257
176
     1
 90
        7
176
     1
 90
        7
176
     1
 40
1.0
176
     1
 90
        8
176
     1
 62
     7
176
     1
 40
1.0
176
     1
 90
        1
176
     1
 90
        6
176
     1
 90
        2
176
     1
 62
     7
176
     1
 90
        5
176
     1
 90
        0
176
     1
 90
        0
176
     1
290
     0
176
     1
 90
        1
176
     1
 40
0.0
176
     1
 90
        0
176
     1
290
     0
176
     1
290
     1
176
     1
290
     1
176
     1
290
     0
176
     1
290
     0
176
     1
290
     0
176
     1
290
     0
176
     1
290
     0
176
     1
290
     0
176
     1
 90
       50
176
     1
 40
0.0
176
     1
 40
1.0
176
     1
 90
        0
176
     1
 62
    18
420
        0
176
     1
 90
       50
176
     1
 90
        3
176
     1
 62
     5
420
      255
176
     1
290
     0
176
     1
 90
       50
176
     1
 90
       50
176
     1
 90
       50
176
     1
290
     0
176
     1
 90
       50
176
     1
 62
   256
176
     0
 40
1.0
176
     0
 90
        2
176
     1
  1
strokes_ogs.tif
176
     1
290
     0
176
     1
 40
1.0
176
     1
 40
1.0
176
     1
1001
ACAD
1000
AcDbSavedByObjectVersion
1070
     0
  0
VISUALSTYLE
  5
3C
102
{ACAD_REACTORS
330
2A
102
}
330
2A
100
AcDbVisualStyle
  2

 70
    21
177
     3
291
     1
 70
    58
 90
        2
176
     0
 90
        2
176
     0
 90
        0
176
     0
 90
        0
176
     0
 40
0.6
176
     0
 40
30.0
176
     0
 62
     7
420
 16777215
176
     0
 90
        1
176
     0
 90
        4
176
     0
 62
     7
176
     0
 62
   257
176
     0
 90
        1
176
     0
 90
        1
176
     0
 40
1.0
176
     0
 90
        9
176
     2
 62
     7
176
     0
 40
1.0
176
     0
 90
        1
176
     0
 90
        6
176
     0
 90
        2
176
     0
 62
     7
176
     0
 90
        5
176
     0
 90
        0
176
     0
 90
        0
176
     0
290
     0
176
     0
 90
        1
176
     0
 40
0.0
176
     0
 90
        0
176
     0
290
     0
176
     0
290
     1
176
     0
290
     1
176
     0
290
     0
176
     0
290
     0
176
     0
290
     0
176
     0
290
     0
176
     0
290
     0
176
     0
290
     0
176
     0
 90
       50
176
     0
 40
0.0
176
     0
 40
1.0
176
     0
 90
        0
176
     0
 62
    18
420
        0
176
     0
 90
       50
176
     0
 90
        3
176
     0
 62
     5
420
      255
176
     0
290
     0
176
     0
 90
       50
176
     0
 90
       50
176
     0
 90
       50
176
     0
290
     0
176
     0
 90
       50
176
     0
 62
   256
176
     0
 40
1.0
176
     0
 90
        2
176
     0
  1
strokes_ogs.tif
176
     0
290
     0
176
     0
 40
1.0
176
     0
 40
1.0
176
     0
1001
ACAD
1000
AcDbSavedByObjectVersion
1070
     0
  0
VISUALSTYLE
  5
33
102
{ACAD_REACTORS
330
2A
102
}
330
2A
100
AcDbVisualStyle
  2

 70
     8
177
     3
291
     0
 70
    58
 90
        2
176
     1
 90
        3
176
     1
 90
        0
176
     1
 90
        2
176
     1
 40
0.6
176
     1
 40
30.0
176
     1
 62
     7
420
 16777215
176
     1
 90
        0
176
     1
 90
        0
176
     1
 62
     7
176
     1
 62
   257
176
     1
 90
        1
176
     1
 90
        1
176
     1
 40
1.0
176
     1
 90
        8
176
     1
 62
   257
176
     1
 40
1.0
176
     1
 90
        1
176
     1
 90
        6
176
     1
 90
        2
176
     1
 62
     7
176
     1
 90
        3
176
     1
 90
        0
176
     1
 90
        0
176
     1
290
     0
176
     1
 90
       13
176
     1
 40
0.0
176
     1
 90
        0
176
     1
290
     0
176
     1
290
     1
176
     1
290
     1
176
     1
290
     0
176
     1
290
     0
176
     1
290
     0
176
     1
290
     0
176
     1
290
     0
176
     1
290
     0
176
     1
 90
       50
176
     1
 40
0.0
176
     1
 40
1.0
176
     1
 90
        0
176
     1
 62
    18
420
        0
176
     1
 90
       50
176
     1
 90
        3
176
     1
 62
     5
420
      255
176
     1
290
     0
176
     1
 90
       50
176
     1
 90
       50
176
     1
 90
       50
176
     1
290
     0
176
     1
 90
       50
176
     1
 62
   256
176
     0
 40
1.0
176
     0
 90
        2
176
     1
  1
strokes_ogs.tif
176
     1
290
     0
176
     1
 40
1.0
176
     1
 40
1.0
176
     1
1001
ACAD
1000
AcDbSavedByObjectVersion
1070
     0
  0
VISUALSTYLE
  5
42
102
{ACAD_REACTORS
330
2A
102
}
330
2A
100
AcDbVisualStyle
  2

 70
    27
177
     3
291
     0
 70
    58
 90
        2
176
     1
 90
        2
176
     1
 90
        1
176
     1
 90
        2
176
     1
 40
0.6
176
     1
 40
30.0
176
     1
 62
     7
420
 16777215
176
     1
 90
        0
176
     1
 90
        4
176
     1
 62
     7
176
     1
 62
   257
176
     1
 90
        1
176
     1
 90
        1
176
     1
 40
1.0
176
     1
 90
        8
176
     1
 62
   257
176
     1
 40
1.0
176
     1
 90
        1
176
     1
 90
        6
176
     1
 90
        2
176
     1
 62
     8
420
  7895160
176
     1
 90
        3
176
     1
 90
        0
176
     1
 90
        0
176
     1
290
     0
176
     1
 90
        5
176
     1
 40
0.0
176
     1
 90
        0
176
     1
290
     0
176
     1
290
     1
176
     1
290
     1
176
     1
290
     0
176
     1
290
     0
176
     1
290
     0
176
     1
290
     0
176
     1
290
     0
176
     1
290
     0
176
     1
 90
       50
176
     1
 40
0.0
176
     1
 40
1.0
176
     1
 90
        0
176
     1
 62
    18
420
        0
176
     1
 90
       50
176
     1
 90
        3
176
     1
 62
     5
420
      255
176
     1
290
     0
176
     1
 90
       50
176
     1
 90
       50
176
     1
 90
       50
176
     1
290
     0
176
     1
 90
       50
176
     1
 62
   256
176
     0
 40
1.0
176
     0
 90
        2
176
     1
  1
strokes_ogs.tif
176
     1
290
     0
176
     1
 40
1.0
176
     1
 40
1.0
176
     1
1001
ACAD
1000
AcDbSavedByObjectVersion
1070
     0
  0
VISUALSTYLE
  5
41
102
{ACAD_REACTORS
330
2A
102
}
330
2A
100
AcDbVisualStyle
  2

 70
    26
177
     3
291
     0
 70
    58
 90
        2
176
     1
 90
        2
176
     1
 90
        1
176
     1
 90
        2
176
     1
 40
0.6
176
     1
 40
30.0
176
     1
 62
     7
420
 16777215
176
     1
 90
        1
176
     1
 90
       10
176
     1
 62
     7
176
     1
 62
   257
176
     1
 90
        2
176
     1
 90
        1
176
     1
 40
1.0
176
     1
 90
        8
176
     1
 62
   257
176
     1
 40
1.0
176
     1
 90
        1
176
     1
 90
        6
176
     1
 90
        2
176
     1
 62
     7
176
     1
 90
        3
176
     1
 90
        0
176
     1
 90
        0
176
     1
290
     0
176
     1
 90
        5
176
     1
 40
0.0
176
     1
 90
        0
176
     1
290
     0
176
     1
290
     1
176
     1
290
     1
176
     1
290
     0
176
     1
290
     0
176
     1
290
     0
176
     1
290
     0
176
     1
290
     0
176
     1
290
     0
176
     1
 90
       50
176
     1
 40
0.0
176
     1
 40
1.0
176
     1
 90
        0
176
     1
 62
    18
420
        0
176
     1
 90
       50
176
     1
 90
        3
176
     1
 62
     5
420
      255
176
     1
290
     0
176
     1
 90
       50
176
     1
 90
       50
176
     1
 90
       50
176
     1
290
     0
176
     1
 90
       50
176
     1
 62
   256
176
     0
 40
1.0
176
     0
 90
        2
176
     1
  1
strokes_ogs.tif
176
     1
290
     0
176
     1
 40
1.0
176
     1
 40
1.0
176
     1
1001
ACAD
1000
AcDbSavedByObjectVersion
1070
     0
  0
VISUALSTYLE
  5
3E
102
{ACAD_REACTORS
330
2A
102
}
330
2A
100
AcDbVisualStyle
  2

 70
    23
177
     3
291
     0
 70
    58
 90
        2
176
     1
 90
        2
176
     1
 90
        3
176
     1
 90
        0
176
     1
 40
0.6
176
     1
 40
30.0
176
     1
 62
     7
420
 16777215
176
     1
 90
        2
176
     1
 90
        2
176
     1
 62
     7
176
     1
 62
     7
176
     1
 90
        1
176
     1
 90
        1
176
     1
 40
40.0
176
     1
 90
        8
176
     1
 62
     7
176
     1
 40
1.0
176
     1
 90
        1
176
     1
 90
        6
176
     1
 90
        2
176
     1
 62
     7
176
     1
 90
        3
176
     1
 90
        0
176
     1
 90
        0
176
     1
290
     0
176
     1
 90
        1
176
     1
 40
0.0
176
     1
 90
        0
176
     1
290
     0
176
     1
290
     1
176
     1
290
     1
176
     1
290
     0
176
     1
290
     0
176
     1
290
     0
176
     1
290
     0
176
     1
290
     0
176
     1
290
     0
176
     1
 90
       50
176
     1
 40
0.0
176
     1
 40
1.0
176
     1
 90
        0
176
     1
 62
    18
420
        0
176
     1
 90
       50
176
     1
 90
        3
176
     1
 62
     5
420
      255
176
     1
290
     0
176
     1
 90
       50
176
     1
 90
       50
176
     1
 90
       50
176
     1
290
     0
176
     1
 90
       50
176
     1
 62
   256
176
     0
 40
1.0
176
     0
 90
        2
176
     1
  1
strokes_ogs.tif
176
     1
290
     0
176
     1
 40
1.0
176
     1
 40
1.0
176
     1
1001
ACAD
1000
AcDbSavedByObjectVersion
1070
     0
  0
VISUALSTYLE
  5
3F
102
{ACAD_REACTORS
330
2A
102
}
330
2A
100
AcDbVisualStyle
  2

 70
    24
177
     3
291
     0
 70
    58
 90
        1
176
     1
 90
        2
176
     1
 90
        2
176
     1
 90
        0
176
     1
 40
0.6
176
     1
 40
30.0
176
     1
 62
     7
420
 16777215
176
     1
 90
        2
176
     1
 90
        2
176
     1
 62
     7
176
     1
 62
     7
176
     1
 90
        1
176
     1
 90
        1
176
     1
 40
40.0
176
     1
 90
       11
176
     1
 62
     7
176
     1
 40
1.0
176
     1
 90
        1
176
     1
 90
        6
176
     1
 90
        2
176
     1
 62
     7
176
     1
 90
        6
176
     1
 90
        0
176
     1
 90
        0
176
     1
290
     0
176
     1
 90
        1
176
     1
 40
0.0
176
     1
 90
        0
176
     1
290
     0
176
     1
290
     1
176
     1
290
     1
176
     1
290
     0
176
     1
290
     0
176
     1
290
     0
176
     1
290
     0
176
     1
290
     0
176
     1
290
     0
176
     1
 90
       50
176
     1
 40
0.0
176
     1
 40
1.0
176
     1
 90
        0
176
     1
 62
    18
420
        0
176
     1
 90
       50
176
     1
 90
        3
176
     1
 62
     5
420
      255
176
     1
290
     0
176
     1
 90
       50
176
     1
 90
       50
176
     1
 90
       50
176
     1
290
     0
176
     1
 90
       50
176
     1
 62
   256
176
     0
 40
1.0
176
     0
 90
        2
176
     1
  1
strokes_ogs.tif
176
     1
290
     0
176
     1
 40
1.0
176
     1
 40
1.0
176
     1
1001
ACAD
1000
AcDbSavedByObjectVersion
1070
     0
  0
VISUALSTYLE
  5
37
102
{ACAD_REACTORS
330
2A
102
}
330
2A
100
AcDbVisualStyle
  2

 70
    13
177
     3
291
     1
 70
    58
 90
        2
176
     1
 90
        2
176
     1
 90
        0
176
     1
 90
        0
176
     1
 40
0.6
176
     1
 40
30.0
176
     1
 62
     7
420
 16777215
176
     1
 90
        1
176
     1
 90
        4
176
     1
 62
     7
176
     1
 62
   257
176
     1
 90
        1
176
     1
 90
        1
176
     1
 40
1.0
176
     1
 90
       12
176
     1
 62
     7
176
     1
 40
1.0
176
     1
 90
        1
176
     1
 90
        6
176
     1
 90
        2
176
     1
 62
     7
176
     1
 90
        5
176
     1
 90
        0
176
     1
 90
        0
176
     1
290
     0
176
     1
 90
        1
176
     1
 40
0.0
176
     1
 90
        0
176
     1
290
     0
176
     1
290
     1
176
     1
290
     1
176
     1
290
     0
176
     1
290
     0
176
     1
290
     0
176
     1
290
     0
176
     1
290
     0
176
     1
290
     0
176
     1
 90
       50
176
     1
 40
0.0
176
     1
 40
1.0
176
     1
 90
        0
176
     1
 62
    18
420
        0
176
     1
 90
       50
176
     1
 90
        3
176
     1
 62
     5
420
      255
176
     1
290
     0
176
     1
 90
       50
176
     1
 90
       50
176
     1
 90
       50
176
     1
290
     0
176
     1
 90
       50
176
     1
 62
   256
176
     0
 40
1.0
176
     0
 90
        2
176
     1
  1
strokes_ogs.tif
176
     1
290
     0
176
     1
 40
1.0
176
     1
 40
1.0
176
     1
1001
ACAD
1000
AcDbSavedByObjectVersion
1070
     0
  0
VISUALSTYLE
  5
30
102
{ACAD_REACTORS
330
2A
102
}
330
2A
100
AcDbVisualStyle
  2

 70
     5
177
     3
291
     0
 70
    58
 90
        0
176
     1
 90
        2
176
     1
 90
        0
176
     1
 90
        0
176
     1
 40
0.6
176
     1
 40
30.0
176
     1
 62
     7
420
 16777215
176
     1
 90
        1
176
     1
 90
        4
176
     1
 62
     7
176
     1
 62
   257
176
     1
 90
        1
176
     1
 90
        1
176
     1
 40
1.0
176
     1
 90
        0
176
     1
 62
   257
176
     1
 40
1.0
176
     1
 90
        1
176
     1
 90
        6
176
     1
 90
        2
176
     1
 62
     7
176
     1
 90
        3
176
     1
 90
        0
176
     1
 90
        0
176
     1
290
     0
176
     1
 90
        1
176
     1
 40
0.0
176
     1
 90
        0
176
     1
290
     0
176
     1
290
     1
176
     1
290
     1
176
     1
290
     0
176
     1
290
     0
176
     1
290
     0
176
     1
290
     0
176
     1
290
     0
176
     1
290
     0
176
     1
 90
       50
176
     1
 40
0.0
176
     1
 40
1.0
176
     1
 90
        0
176
     1
 62
    18
420
        0
176
     1
 90
       50
176
     1
 90
        3
176
     1
 62
     5
420
      255
176
     1
290
     0
176
     1
 90
       50
176
     1
 90
       50
176
     1
 90
       50
176
     1
290
     0
176
     1
 90
       50
176
     1
 62
   256
176
     0
 40
1.0
176
     0
 90
        2
176
     1
  1
strokes_ogs.tif
176
     1
290
     0
176
     1
 40
1.0
176
     1
 40
1.0
176
     1
1001
ACAD
1000
AcDbSavedByObjectVersion
1070
     0
  0
VISUALSTYLE
  5
40
102
{ACAD_REACTORS
330
2A
102
}
330
2A
100
AcDbVisualStyle
  2

 70
    25
177
     3
291
     0
 70
    58
 90
        2
176
     1
 90
        2
176
     1
 90
        1
176
     1
 90
        1
176
     1
 40
0.5
176
     1
 40
30.0
176
     1
 62
     7
420
 16777215
176
     1
 90
        1
176
     1
 90
        0
176
     1
 62
     7
176
     1
 62
   257
176
     1
 90
        1
176
     1
 90
        1
176
     1
 40
1.0
176
     1
 90
        8
176
     1
 62
     7
176
     1
 40
1.0
176
     1
 90
        1
176
     1
 90
        6
176
     1
 90
        2
176
     1
 62
     7
176
     1
 90
        3
176
     1
 90
        0
176
     1
 90
        0
176
     1
290
     0
176
     1
 90
       13
176
     1
 40
0.0
176
     1
 90
        0
176
     1
290
     0
176
     1
290
     1
176
     1
290
     1
176
     1
290
     0
176
     1
290
     0
176
     1
290
     0
176
     1
290
     0
176
     1
290
     0
176
     1
290
     0
176
     1
 90
       50
176
     1
 40
0.0
176
     1
 40
1.0
176
     1
 90
        0
176
     1
 62
    18
420
        0
176
     1
 90
       50
176
     1
 90
        3
176
     1
 62
     5
420
      255
176
     1
290
     0
176
     1
 90
       50
176
     1
 90
       50
176
     1
 90
       50
176
     1
290
     0
176
     1
 90
       50
176
     1
 62
   256
176
     0
 40
1.0
176
     0
 90
        2
176
     1
  1
strokes_ogs.tif
176
     1
290
     0
176
     1
 40
1.0
176
     1
 40
1.0
176
     1
1001
ACAD
1000
AcDbSavedByObjectVersion
1070
     0
  0
DICTIONARYVAR
  5
16B
102
{ACAD_REACTORS
330
16A
102
}
330
16A
100
DictionaryVariables
280
     0
  1
1:1
  0
DICTIONARYVAR
  5
1AC
102
{ACAD_REACTORS
330
16A
102
}
330
16A
100
DictionaryVariables
280
     0
  1
STANDARD
  0
DICTIONARYVAR
  5
1AB
102
{ACAD_REACTORS
330
16A
102
}
330
16A
100
DictionaryVariables
280
     0
  1
STANDARD
  0
DICTIONARYVAR
  5
1CD
102
{ACAD_REACTORS
330
16A
102
}
330
16A
100
DictionaryVariables
280
     0
  1
Metric50
  0
DICTIONARYVAR
  5
1CE
102
{ACAD_REACTORS
330
16A
102
}
330
16A
100
DictionaryVariables
280
     0
  1
Metric50
  0
DICTIONARYVAR
  5
1D0
102
{ACAD_REACTORS
330
16A
102
}
330
16A
100
DictionaryVariables
280
     0
  1
1
  0
DICTIONARYVAR
  5
1D1
102
{ACAD_REACTORS
330
16A
102
}
330
16A
100
DictionaryVariables
280
     0
  1
15
  0
DICTIONARYVAR
  5
1CF
102
{ACAD_REACTORS
330
16A
102
}
330
16A
100
DictionaryVariables
280
     0
  1
0
  0
DICTIONARYVAR
  5
16C
102
{ACAD_REACTORS
330
16A
102
}
330
16A
100
DictionaryVariables
280
     0
  1
1
  0
DICTIONARY
  5
1D6
330
1B3
100
AcDbDictionary
280
     1
281
     1
  3
ACAD_XREC_ROUNDTRIP
360
1D7
  0
DICTIONARY
  5
1A0
330
45
100
AcDbDictionary
280
     1
281
     1
  3
ACAD_XREC_ROUNDTRIP
360
1A1
  0
DICTIONARY
  5
19E
330
44
100
AcDbDictionary
280
     1
281
     1
  3
ACAD_XREC_ROUNDTRIP
360
19F
  0
DICTIONARY
  5
1A2
330
46
100
AcDbDictionary
280
     1
281
     1
  3
ACAD_XREC_ROUNDTRIP
360
1A3
  0
DICTIONARY
  5
1D4
330
1B2
100
AcDbDictionary
280
     1
281
     1
  3
ACAD_XREC_ROUNDTRIP
360
1D5
  0
DICTIONARY
  5
1A4
330
6A
100
AcDbDictionary
280
     1
281
     1
  3
ACAD_ROUNDTRIP_2008_TABLESTYLE_CELLSTYLEMAP
360
1D2
  0
XRECORD
  5
1D7
102
{ACAD_REACTORS
330
1D6
102
}
330
1D6
100
AcDbXrecord
280
     1
102
DISPLAYNAME
  1
Metric50
102
FLAGS
 90
        0
  0
XRECORD
  5
1A1
102
{ACAD_REACTORS
330
1A0
102
}
330
1A0
100
AcDbXrecord
280
     1
102
MATERIAL
148
0.0
149
0.0
149
0.0
 93
        0
 94
      127
282
     0
 72
     1
 77
     1
171
     1
175
     1
179
     1
273
     0
  0
XRECORD
  5
19F
102
{ACAD_REACTORS
330
19E
102
}
330
19E
100
AcDbXrecord
280
     1
102
MATERIAL
148
0.0
149
0.0
149
0.0
 93
        0
 94
      127
282
     0
 72
     1
 77
     1
171
     1
175
     1
179
     1
273
     0
  0
XRECORD
  5
1A3
102
{ACAD_REACTORS
330
1A2
102
}
330
1A2
100
AcDbXrecord
280
     1
102
MATERIAL
148
0.0
149
0.0
149
0.0
 93
        0
 94
      127
282
     0
 72
     1
 77
     1
171
     1
175
     1
179
     1
273
     0
  0
XRECORD
  5
1D5
102
{ACAD_REACTORS
330
1D4
102
}
330
1D4
100
AcDbXrecord
280
     1
102
DISPLAYNAME
  1
Metric50
102
FLAGS
 90
        0
  0
CELLSTYLEMAP
  5
1D2
102
{ACAD_REACTORS
330
1A4
102
}
330
1A4
100
AcDbCellStyleMap
 90
        3
300
CELLSTYLE
  1
TABLEFORMAT_BEGIN
 90
        5
170
     1
 91
        0
 92
    32768
 62
   257
 93
        1
300
CONTENTFORMAT
  1
CONTENTFORMAT_BEGIN
 90
        0
 91
        0
 92
        4
 93
        0
300

 40
0.0
140
1.0
 94
        5
 62
     0
340
11
144
0.25
309
CONTENTFORMAT_END
171
     1
301
MARGIN
  1
CELLMARGIN_BEGIN
 40
0.06
 40
0.06
 40
0.06
 40
0.06
 40
0.18
 40
0.18
309
CELLMARGIN_END
 94
        6
 95
        1
302
GRIDFORMAT
  1
GRIDFORMAT_BEGIN
 90
        0
 91
        1
 62
     0
 92
       -2
340
14
 93
        0
 40
0.045
309
GRIDFORMAT_END
 95
        2
302
GRIDFORMAT
  1
GRIDFORMAT_BEGIN
 90
        0
 91
        1
 62
     0
 92
       -2
340
14
 93
        0
 40
0.045
309
GRIDFORMAT_END
 95
        4
302
GRIDFORMAT
  1
GRIDFORMAT_BEGIN
 90
        0
 91
        1
 62
     0
 92
       -2
340
14
 93
        0
 40
0.045
309
GRIDFORMAT_END
 95
        8
302
GRIDFORMAT
  1
GRIDFORMAT_BEGIN
 90
        0
 91
        1
 62
     0
 92
       -2
340
14
 93
        0
 40
0.045
309
GRIDFORMAT_END
 95
       16
302
GRIDFORMAT
  1
GRIDFORMAT_BEGIN
 90
        0
 91
        1
 62
     0
 92
       -2
340
14
 93
        0
 40
0.045
309
GRIDFORMAT_END
 95
       32
302
GRIDFORMAT
  1
GRIDFORMAT_BEGIN
 90
        0
 91
        1
 62
     0
 92
       -2
340
14
 93
        0
 40
0.045
309
GRIDFORMAT_END
309
TABLEFORMAT_END
  1
CELLSTYLE_BEGIN
 90
        1
 91
        1
300
_TITLE
309
CELLSTYLE_END
300
CELLSTYLE
  1
TABLEFORMAT_BEGIN
 90
        5
170
     1
 91
        0
 92
        0
 62
   257
 93
        1
300
CONTENTFORMAT
  1
CONTENTFORMAT_BEGIN
 90
        0
 91
        0
 92
        4
 93
        0
300

 40
0.0
140
1.0
 94
        5
 62
     0
340
11
144
0.18
309
CONTENTFORMAT_END
171
     1
301
MARGIN
  1
CELLMARGIN_BEGIN
 40
0.06
 40
0.06
 40
0.06
 40
0.06
 40
0.18
 40
0.18
309
CELLMARGIN_END
 94
        6
 95
        1
302
GRIDFORMAT
  1
GRIDFORMAT_BEGIN
 90
        0
 91
        1
 62
     0
 92
       -2
340
14
 93
        0
 40
0.045
309
GRIDFORMAT_END
 95
        2
302
GRIDFORMAT
  1
GRIDFORMAT_BEGIN
 90
        0
 91
        1
 62
     0
 92
       -2
340
14
 93
        0
 40
0.045
309
GRIDFORMAT_END
 95
        4
302
GRIDFORMAT
  1
GRIDFORMAT_BEGIN
 90
        0
 91
        1
 62
     0
 92
       -2
340
14
 93
        0
 40
0.045
309
GRIDFORMAT_END
 95
        8
302
GRIDFORMAT
  1
GRIDFORMAT_BEGIN
 90
        0
 91
        1
 62
     0
 92
       -2
340
14
 93
        0
 40
0.045
309
GRIDFORMAT_END
 95
       16
302
GRIDFORMAT
  1
GRIDFORMAT_BEGIN
 90
        0
 91
        1
 62
     0
 92
       -2
340
14
 93
        0
 40
0.045
309
GRIDFORMAT_END
 95
       32
302
GRIDFORMAT
  1
GRIDFORMAT_BEGIN
 90
        0
 91
        1
 62
     0
 92
       -2
340
14
 93
        0
 40
0.045
309
GRIDFORMAT_END
309
TABLEFORMAT_END
  1
CELLSTYLE_BEGIN
 90
        2
 91
        1
300
_HEADER
309
CELLSTYLE_END
300
CELLSTYLE
  1
TABLEFORMAT_BEGIN
 90
        5
170
     1
 91
        0
 92
        0
 62
   257
 93
        1
300
CONTENTFORMAT
  1
CONTENTFORMAT_BEGIN
 90
        0
 91
        0
 92
        4
 93
        0
300

 40
0.0
140
1.0
 94
        2
 62
     0
340
11
144
0.18
309
CONTENTFORMAT_END
171
     1
301
MARGIN
  1
CELLMARGIN_BEGIN
 40
0.06
 40
0.06
 40
0.06
 40
0.06
 40
0.18
 40
0.18
309
CELLMARGIN_END
 94
        6
 95
        1
302
GRIDFORMAT
  1
GRIDFORMAT_BEGIN
 90
        0
 91
        1
 62
     0
 92
       -2
340
14
 93
        0
 40
0.045
309
GRIDFORMAT_END
 95
        2
302
GRIDFORMAT
  1
GRIDFORMAT_BEGIN
 90
        0
 91
        1
 62
     0
 92
       -2
340
14
 93
        0
 40
0.045
309
GRIDFORMAT_END
 95
        4
302
GRIDFORMAT
  1
GRIDFORMAT_BEGIN
 90
        0
 91
        1
 62
     0
 92
       -2
340
14
 93
        0
 40
0.045
309
GRIDFORMAT_END
 95
        8
302
GRIDFORMAT
  1
GRIDFORMAT_BEGIN
 90
        0
 91
        1
 62
     0
 92
       -2
340
14
 93
        0
 40
0.045
309
GRIDFORMAT_END
 95
       16
302
GRIDFORMAT
  1
GRIDFORMAT_BEGIN
 90
        0
 91
        1
 62
     0
 92
       -2
340
14
 93
        0
 40
0.045
309
GRIDFORMAT_END
 95
       32
302
GRIDFORMAT
  1
GRIDFORMAT_BEGIN
 90
        0
 91
        1
 62
     0
 92
       -2
340
14
 93
        0
 40
0.045
309
GRIDFORMAT_END
309
TABLEFORMAT_END
  1
CELLSTYLE_BEGIN
 90
        3
 91
        2
300
_DATA
309
CELLSTYLE_END
  0
ENDSEC
  0
EOF
