  0
SECTION
  2
HEADER
  9
$ACADVER
  1
AC1015
  9
$ACADMAINTVER
 70
    20
  9
$DWGCODEPAGE
  3
ANSI_1252
  9
$INSBASE
 10
0.0
 20
0.0
 30
0.0
  9
$EXTMIN
 10
63.07611318917579
 20
61.00263951223977
 30
0.0
  9
$EXTMAX
 10
350.4908977390309
 20
271.0324569495416
 30
0.0
  9
$LIMMIN
 10
0.0
 20
0.0
  9
$LIMMAX
 10
12.0
 20
9.0
  9
$ORTHOMODE
 70
     1
  9
$REGENMODE
 70
     1
  9
$FILLMODE
 70
     1
  9
$QTEXTMODE
 70
     0
  9
$MIRRTEXT
 70
     1
  9
$LTSCALE
 40
1.0
  9
$ATTMODE
 70
     1
  9
$TEXTSIZE
 40
0.2
  9
$TRACEWID
 40
0.05
  9
$TEXTSTYLE
  7
Standard
  9
$CLAYER
  8
0
  9
$CELTYPE
  6
ByLayer
  9
$CECOLOR
 62
   256
  9
$CELTSCALE
 40
1.0
  9
$DISPSILH
 70
     0
  9
$DIMSCALE
 40
1.0
  9
$DIMASZ
 40
0.18
  9
$DIMEXO
 40
0.0625
  9
$DIMDLI
 40
0.38
  9
$DIMRND
 40
0.0
  9
$DIMDLE
 40
0.0
  9
$DIMEXE
 40
0.18
  9
$DIMTP
 40
0.0
  9
$DIMTM
 40
0.0
  9
$DIMTXT
 40
0.18
  9
$DIMCEN
 40
0.09
  9
$DIMTSZ
 40
0.0
  9
$DIMTOL
 70
     0
  9
$DIMLIM
 70
     0
  9
$DIMTIH
 70
     1
  9
$DIMTOH
 70
     1
  9
$DIMSE1
 70
     0
  9
$DIMSE2
 70
     0
  9
$DIMTAD
 70
     0
  9
$DIMZIN
 70
     0
  9
$DIMBLK
  1

  9
$DIMASO
 70
     1
  9
$DIMSHO
 70
     1
  9
$DIMPOST
  1

  9
$DIMAPOST
  1

  9
$DIMALT
 70
     0
  9
$DIMALTD
 70
     2
  9
$DIMALTF
 40
25.4
  9
$DIMLFAC
 40
1.0
  9
$DIMTOFL
 70
     0
  9
$DIMTVP
 40
0.0
  9
$DIMTIX
 70
     0
  9
$DIMSOXD
 70
     0
  9
$DIMSAH
 70
     0
  9
$DIMBLK1
  1

  9
$DIMBLK2
  1

  9
$DIMSTYLE
  2
Standard
  9
$DIMCLRD
 70
     0
  9
$DIMCLRE
 70
     0
  9
$DIMCLRT
 70
     0
  9
$DIMTFAC
 40
1.0
  9
$DIMGAP
 40
0.09
  9
$DIMJUST
 70
     0
  9
$DIMSD1
 70
     0
  9
$DIMSD2
 70
     0
  9
$DIMTOLJ
 70
     1
  9
$DIMTZIN
 70
     0
  9
$DIMALTZ
 70
     0
  9
$DIMALTTZ
 70
     0
  9
$DIMUPT
 70
     0
  9
$DIMDEC
 70
     4
  9
$DIMTDEC
 70
     4
  9
$DIMALTU
 70
     2
  9
$DIMALTTD
 70
     2
  9
$DIMTXSTY
  7
Standard
  9
$DIMAUNIT
 70
     0
  9
$DIMADEC
 70
     0
  9
$DIMALTRND
 40
0.0
  9
$DIMAZIN
 70
     0
  9
$DIMDSEP
 70
    46
  9
$DIMATFIT
 70
     3
  9
$DIMFRAC
 70
     0
  9
$DIMLDRBLK
  1

  9
$DIMLUNIT
 70
     2
  9
$DIMLWD
 70
    -2
  9
$DIMLWE
 70
    -2
  9
$DIMTMOVE
 70
     2
  9
$LUNITS
 70
     2
  9
$LUPREC
 70
     4
  9
$SKETCHINC
 40
0.1
  9
$FILLETRAD
 40
0.5
  9
$AUNITS
 70
     0
  9
$AUPREC
 70
     0
  9
$MENU
  1
.
  9
$ELEVATION
 40
0.0
  9
$PELEVATION
 40
0.0
  9
$THICKNESS
 40
0.0
  9
$LIMCHECK
 70
     0
  9
$CHAMFERA
 40
0.5
  9
$CHAMFERB
 40
0.5
  9
$CHAMFERC
 40
1.0
  9
$CHAMFERD
 40
0.0
  9
$SKPOLY
 70
     0
  9
$TDCREATE
 40
2454858.748596007
  9
$TDUCREATE
 40
2454858.665262674
  9
$TDUPDATE
 40
2455310.387808183
  9
$TDUUPDATE
 40
2455310.304474850
  9
$TDINDWG
 40
0.0140889352
  9
$TDUSRTIMER
 40
0.0140878588
  9
$USRTIMER
 70
     1
  9
$ANGBASE
 50
0.0
  9
$ANGDIR
 70
     0
  9
$PDMODE
 70
     0
  9
$PDSIZE
 40
0.0
  9
$PLINEWID
 40
0.0
  9
$SPLFRAME
 70
     0
  9
$SPLINETYPE
 70
     6
  9
$SPLINESEGS
 70
     8
  9
$HANDSEED
  5
287
  9
$SURFTAB1
 70
     6
  9
$SURFTAB2
 70
     6
  9
$SURFTYPE
 70
     6
  9
$SURFU
 70
     6
  9
$SURFV
 70
     6
  9
$UCSBASE
  2

  9
$UCSNAME
  2

  9
$UCSORG
 10
0.0
 20
0.0
 30
0.0
  9
$UCSXDIR
 10
1.0
 20
0.0
 30
0.0
  9
$UCSYDIR
 10
0.0
 20
1.0
 30
0.0
  9
$UCSORTHOREF
  2

  9
$UCSORTHOVIEW
 70
     0
  9
$UCSORGTOP
 10
0.0
 20
0.0
 30
0.0
  9
$UCSORGBOTTOM
 10
0.0
 20
0.0
 30
0.0
  9
$UCSORGLEFT
 10
0.0
 20
0.0
 30
0.0
  9
$UCSORGRIGHT
 10
0.0
 20
0.0
 30
0.0
  9
$UCSORGFRONT
 10
0.0
 20
0.0
 30
0.0
  9
$UCSORGBACK
 10
0.0
 20
0.0
 30
0.0
  9
$PUCSBASE
  2

  9
$PUCSNAME
  2

  9
$PUCSORG
 10
0.0
 20
0.0
 30
0.0
  9
$PUCSXDIR
 10
1.0
 20
0.0
 30
0.0
  9
$PUCSYDIR
 10
0.0
 20
1.0
 30
0.0
  9
$PUCSORTHOREF
  2

  9
$PUCSORTHOVIEW
 70
     0
  9
$PUCSORGTOP
 10
0.0
 20
0.0
 30
0.0
  9
$PUCSORGBOTTOM
 10
0.0
 20
0.0
 30
0.0
  9
$PUCSORGLEFT
 10
0.0
 20
0.0
 30
0.0
  9
$PUCSORGRIGHT
 10
0.0
 20
0.0
 30
0.0
  9
$PUCSORGFRONT
 10
0.0
 20
0.0
 30
0.0
  9
$PUCSORGBACK
 10
0.0
 20
0.0
 30
0.0
  9
$USERI1
 70
     0
  9
$USERI2
 70
     0
  9
$USERI3
 70
     0
  9
$USERI4
 70
     0
  9
$USERI5
 70
     0
  9
$USERR1
 40
0.0
  9
$USERR2
 40
0.0
  9
$USERR3
 40
0.0
  9
$USERR4
 40
0.0
  9
$USERR5
 40
0.0
  9
$WORLDVIEW
 70
     1
  9
$SHADEDGE
 70
     3
  9
$SHADEDIF
 70
    70
  9
$TILEMODE
 70
     1
  9
$MAXACTVP
 70
    64
  9
$PINSBASE
 10
0.0
 20
0.0
 30
0.0
  9
$PLIMCHECK
 70
     0
  9
$PEXTMIN
 10
1.000000000000000E+20
 20
1.000000000000000E+20
 30
1.000000000000000E+20
  9
$PEXTMAX
 10
-1.000000000000000E+20
 20
-1.000000000000000E+20
 30
-1.000000000000000E+20
  9
$PLIMMIN
 10
0.0
 20
0.0
  9
$PLIMMAX
 10
12.0
 20
9.0
  9
$UNITMODE
 70
     0
  9
$VISRETAIN
 70
     1
  9
$PLINEGEN
 70
     0
  9
$PSLTSCALE
 70
     1
  9
$TREEDEPTH
 70
  3020
  9
$CMLSTYLE
  2
Standard
  9
$CMLJUST
 70
     0
  9
$CMLSCALE
 40
1.0
  9
$PROXYGRAPHICS
 70
     1
  9
$MEASUREMENT
 70
     0
  9
$CELWEIGHT
370
    -1
  9
$ENDCAPS
280
     0
  9
$JOINSTYLE
280
     0
  9
$LWDISPLAY
290
     0
  9
$INSUNITS
 70
     4
  9
$HYPERLINKBASE
  1

  9
$STYLESHEET
  1

  9
$XEDIT
290
     1
  9
$CEPSNTYPE
380
     0
  9
$PSTYLEMODE
290
     1
  9
$FINGERPRINTGUID
  2
{A399F8C1-49E7-4CEF-876C-4EAD1AC5AD0E}
  9
$VERSIONGUID
  2
{755B3611-25A0-4384-AF05-FBDECA734AF5}
  9
$EXTNAMES
290
     1
  9
$PSVPSCALE
 40
0.0
  9
$OLESTARTUP
290
     0
  0
ENDSEC
  0
SECTION
  2
CLASSES
  0
CLASS
  1
ACDBDICTIONARYWDFLT
  2
AcDbDictionaryWithDefault
  3
ObjectDBX Classes
 90
        0
280
     0
281
     0
  0
CLASS
  1
VISUALSTYLE
  2
AcDbVisualStyle
  3
ObjectDBX Classes
 90
     4095
280
     0
281
     0
  0
CLASS
  1
SCALE
  2
AcDbScale
  3
ObjectDBX Classes
 90
     1153
280
     0
281
     0
  0
CLASS
  1
DICTIONARYVAR
  2
AcDbDictionaryVar
  3
ObjectDBX Classes
 90
        0
280
     0
281
     0
  0
CLASS
  1
MATERIAL
  2
AcDbMaterial
  3
ObjectDBX Classes
 90
     1024
280
     0
281
     0
  0
CLASS
  1
TABLESTYLE
  2
AcDbTableStyle
  3
ObjectDBX Classes
 90
     4095
280
     0
281
     0
  0
CLASS
  1
ACDBPLACEHOLDER
  2
AcDbPlaceHolder
  3
ObjectDBX Classes
 90
        0
280
     0
281
     0
  0
CLASS
  1
LAYOUT
  2
AcDbLayout
  3
ObjectDBX Classes
 90
        0
280
     0
281
     0
  0
CLASS
  1
SORTENTSTABLE
  2
AcDbSortentsTable
  3
ObjectDBX Classes
 90
        0
280
     0
281
     0
  0
CLASS
  1
DIMASSOC
  2
AcDbDimAssoc
  3
"AcDbDimAssoc|Product Desc:     AcDim ARX App For Dimension|Company:          Autodesk, Inc.|WEB Address:      www.autodesk.com"
 90
        0
280
     0
281
     0
  0
ENDSEC
  0
SECTION
  2
TABLES
  0
TABLE
  2
VPORT
  5
8
330
0
100
AcDbSymbolTable
 70
     1
  0
VPORT
  5
29
330
8
100
AcDbSymbolTableRecord
100
AcDbViewportTableRecord
  2
*Active
 70
     0
 10
0.0
 20
0.0
 11
1.0
 21
1.0
 12
176.0199003533727
 22
14.43483937673122
 13
0.0
 23
0.0
 14
0.5
 24
0.5
 15
0.5
 25
0.5
 16
0.0
 26
0.0
 36
1.0
 17
210.23810056779
 27
148.1255018097771
 37
0.0
 40
473.5125839775212
 41
1.79191616766467
 42
50.0
 43
0.0
 44
0.0
 50
0.0
 51
0.0
 71
     0
 72
   100
 73
     1
 74
     3
 75
     0
 76
     0
 77
     0
 78
     0
281
     0
 65
     1
110
0.0
120
0.0
130
0.0
111
1.0
121
0.0
131
0.0
112
0.0
122
1.0
132
0.0
 79
     0
146
0.0
  0
ENDTAB
  0
TABLE
  2
LTYPE
  5
5
330
0
100
AcDbSymbolTable
 70
     1
  0
LTYPE
  5
14
330
5
100
AcDbSymbolTableRecord
100
AcDbLinetypeTableRecord
  2
ByBlock
 70
     0
  3

 72
    65
 73
     0
 40
0.0
  0
LTYPE
  5
15
330
5
100
AcDbSymbolTableRecord
100
AcDbLinetypeTableRecord
  2
ByLayer
 70
     0
  3

 72
    65
 73
     0
 40
0.0
  0
LTYPE
  5
16
330
5
100
AcDbSymbolTableRecord
100
AcDbLinetypeTableRecord
  2
Continuous
 70
     0
  3
Solid line
 72
    65
 73
     0
 40
0.0
  0
ENDTAB
  0
TABLE
  2
LAYER
  5
2
102
{ACAD_XDICTIONARY
360
D0
102
}
330
0
100
AcDbSymbolTable
 70
     4
  0
LAYER
  5
10
330
2
100
AcDbSymbolTableRecord
100
AcDbLayerTableRecord
  2
0
 70
     0
 62
     7
  6
Continuous
370
    -3
390
F
  0
LAYER
  5
3C
330
2
100
AcDbSymbolTableRecord
100
AcDbLayerTableRecord
  2
EBENE_1
 70
     0
 62
     7
  6
Continuous
370
    -3
390
F
  0
LAYER
  5
D6
330
2
100
AcDbSymbolTableRecord
100
AcDbLayerTableRecord
  2
Hewi
 70
     0
 62
     7
  6
Continuous
370
    -3
390
F
1001
AcAecLayerStandard
1000

1000

  0
LAYER
  5
100
330
2
100
AcDbSymbolTableRecord
100
AcDbLayerTableRecord
  2
Defpoints
 70
     0
 62
     7
  6
Continuous
290
     0
370
    -3
390
F
  0
ENDTAB
  0
TABLE
  2
STYLE
  5
3
330
0
100
AcDbSymbolTable
 70
     1
  0
STYLE
  5
11
330
3
100
AcDbSymbolTableRecord
100
AcDbTextStyleTableRecord
  2
Standard
 70
     0
 40
0.0
 41
1.0
 50
0.0
 71
     0
 42
0.2
  3
txt
  4

  0
ENDTAB
  0
TABLE
  2
VIEW
  5
6
330
0
100
AcDbSymbolTable
 70
     0
  0
ENDTAB
  0
TABLE
  2
UCS
  5
7
330
0
100
AcDbSymbolTable
 70
     0
  0
ENDTAB
  0
TABLE
  2
APPID
  5
9
330
0
100
AcDbSymbolTable
 70
     3
  0
APPID
  5
12
330
9
100
AcDbSymbolTableRecord
100
AcDbRegAppTableRecord
  2
ACAD
 70
     0
  0
APPID
  5
D7
330
9
100
AcDbSymbolTableRecord
100
AcDbRegAppTableRecord
  2
AcAecLayerStandard
 70
     0
  0
APPID
  5
1A0
330
9
100
AcDbSymbolTableRecord
100
AcDbRegAppTableRecord
  2
ACAD_EXEMPT_FROM_CAD_STANDARDS
 70
     0
  0
ENDTAB
  0
TABLE
  2
DIMSTYLE
  5
A
330
0
100
AcDbSymbolTable
 70
     1
100
AcDbDimStyleTable
 71
     1
340
27
  0
DIMSTYLE
105
27
330
A
100
AcDbSymbolTableRecord
100
AcDbDimStyleTableRecord
  2
Standard
 70
     0
340
11
  0
ENDTAB
  0
TABLE
  2
BLOCK_RECORD
  5
1
330
0
100
AcDbSymbolTable
 70
    11
  0
BLOCK_RECORD
  5
1F
102
{ACAD_XDICTIONARY
360
F8
102
}
330
1
100
AcDbSymbolTableRecord
100
AcDbBlockTableRecord
  2
*Model_Space
340
22
  0
BLOCK_RECORD
  5
96
330
1
100
AcDbSymbolTableRecord
100
AcDbBlockTableRecord
  2
*Paper_Space
340
97
  0
BLOCK_RECORD
  5
23
330
1
100
AcDbSymbolTableRecord
100
AcDbBlockTableRecord
  2
*Paper_Space0
340
0
  0
BLOCK_RECORD
  5
3B
330
1
100
AcDbSymbolTableRecord
100
AcDbBlockTableRecord
  2
BLOCK_3
340
0
102
{BLKREFS
331
43
102
}
  0
BLOCK_RECORD
  5
42
330
1
100
AcDbSymbolTableRecord
100
AcDbBlockTableRecord
  2
BLOCK_2
340
0
  0
BLOCK_RECORD
  5
48
330
1
100
AcDbSymbolTableRecord
100
AcDbBlockTableRecord
  2
BLOCK_5
340
0
102
{BLKREFS
331
87
102
}
  0
BLOCK_RECORD
  5
86
330
1
100
AcDbSymbolTableRecord
100
AcDbBlockTableRecord
  2
BLOCK_4
340
0
  0
BLOCK_RECORD
  5
1B
330
1
100
AcDbSymbolTableRecord
100
AcDbBlockTableRecord
  2
*Paper_Space5
340
0
  0
BLOCK_RECORD
  5
1FE
330
1
100
AcDbSymbolTableRecord
100
AcDbBlockTableRecord
  2
*D6
340
0
  0
BLOCK_RECORD
  5
218
330
1
100
AcDbSymbolTableRecord
100
AcDbBlockTableRecord
  2
*D7
340
0
  0
BLOCK_RECORD
  5
232
330
1
100
AcDbSymbolTableRecord
100
AcDbBlockTableRecord
  2
*D8
340
0
  0
BLOCK_RECORD
  5
24C
330
1
100
AcDbSymbolTableRecord
100
AcDbBlockTableRecord
  2
*D9
340
0
  0
BLOCK_RECORD
  5
266
330
1
100
AcDbSymbolTableRecord
100
AcDbBlockTableRecord
  2
*D10
340
0
  0
ENDTAB
  0
ENDSEC
  0
SECTION
  2
BLOCKS
  0
BLOCK
  5
20
330
1F
100
AcDbEntity
  8
0
100
AcDbBlockBegin
  2
*Model_Space
 70
     0
 10
0.0
 20
0.0
 30
0.0
  3
*Model_Space
  1

  0
ENDBLK
  5
21
330
1F
100
AcDbEntity
  8
0
100
AcDbBlockEnd
  0
BLOCK
  5
98
330
96
100
AcDbEntity
 67
     1
  8
0
100
AcDbBlockBegin
  2
*Paper_Space
 70
     0
 10
0.0
 20
0.0
 30
0.0
  3
*Paper_Space
  1

  0
ENDBLK
  5
99
330
96
100
AcDbEntity
 67
     1
  8
0
100
AcDbBlockEnd
  0
BLOCK
  5
24
330
23
100
AcDbEntity
  8
0
100
AcDbBlockBegin
  2
*Paper_Space0
 70
     0
 10
0.0
 20
0.0
 30
0.0
  3
*Paper_Space0
  1

  0
ENDBLK
  5
25
330
23
100
AcDbEntity
  8
0
100
AcDbBlockEnd
  0
BLOCK
  5
40
330
3B
100
AcDbEntity
  8
0
100
AcDbBlockBegin
  2
BLOCK_3
 70
     0
 10
0.0
 20
0.0
 30
0.0
  3
BLOCK_3
  1

  0
SPLINE
  5
3D
330
3B
100
AcDbEntity
  8
EBENE_1
 62
   255
100
AcDbSpline
210
0.0
220
0.0
230
1.0
 70
    11
 71
     3
 72
    29
 73
    25
 74
     0
 42
0.0000000001
 43
0.0000000001
 40
0.0
 40
0.0
 40
0.0
 40
0.0
 40
1.0
 40
1.0
 40
1.0
 40
2.0
 40
2.0
 40
2.0
 40
3.0
 40
3.0
 40
3.0
 40
4.0
 40
4.0
 40
4.0
 40
5.0
 40
5.0
 40
5.0
 40
6.0
 40
6.0
 40
6.0
 40
7.0
 40
7.0
 40
7.0
 40
8.0
 40
8.0
 40
8.0
 40
8.0
 10
314.2628510105926
 20
139.8664903461592
 30
0.0
 10
314.2628510105926
 20
113.4084840747892
 30
0.0
 10
314.2628510105926
 20
86.94875525454028
 30
0.0
 10
314.2628510105926
 20
60.48833741473973
 30
0.0
 10
314.2628510105926
 20
60.13487038477286
 30
0.0
 10
314.1171233754308
 20
59.98569765185312
 30
0.0
 10
313.7598667379302
 20
59.98569765185312
 30
0.0
 10
307.0636302257801
 20
59.98569765185312
 30
0.0
 10
300.3636041060962
 20
59.98569765185312
 30
0.0
 10
293.6632334766365
 20
59.98569765185312
 30
0.0
 10
293.3097664466696
 20
59.98569765185312
 30
0.0
 10
293.1605937137499
 20
60.13487038477286
 30
0.0
 10
293.1605937137499
 20
60.48833741473973
 30
0.0
 10
293.1605937137499
 20
86.94875525454028
 30
0.0
 10
293.1605937137499
 20
113.4084840747892
 30
0.0
 10
293.1605937137499
 20
139.8664903461592
 30
0.0
 10
293.1605937137499
 20
140.2240914934356
 30
0.0
 10
293.3097664466696
 20
140.3698191285974
 30
0.0
 10
293.6632334766365
 20
140.3698191285974
 30
0.0
 10
300.3636041060962
 20
140.3698191285974
 30
0.0
 10
307.0636302257801
 20
140.3698191285974
 30
0.0
 10
313.7598667379302
 20
140.3698191285974
 30
0.0
 10
314.1171233754308
 20
140.3698191285974
 30
0.0
 10
314.2628510105926
 20
140.2240914934356
 30
0.0
 10
314.2628510105926
 20
139.8664903461592
 30
0.0
  0
SPLINE
  5
3E
330
3B
100
AcDbEntity
  8
EBENE_1
 62
   255
100
AcDbSpline
210
0.0
220
0.0
230
1.0
 70
     8
 71
     3
 72
    32
 73
    28
 74
     0
 42
0.0000000001
 43
0.0000000001
 40
0.0
 40
0.0
 40
0.0
 40
0.0
 40
1.0
 40
1.0
 40
1.0
 40
2.0
 40
2.0
 40
2.0
 40
3.0
 40
3.0
 40
3.0
 40
4.0
 40
4.0
 40
4.0
 40
5.0
 40
5.0
 40
5.0
 40
6.0
 40
6.0
 40
6.0
 40
7.0
 40
7.0
 40
7.0
 40
8.0
 40
8.0
 40
8.0
 40
9.0
 40
9.0
 40
9.0
 40
9.0
 10
314.2628510105926
 20
77.06649233582719
 30
0.0
 10
314.2628510105926
 20
78.23782557353415
 30
0.0
 10
313.8807896692347
 20
78.94648218234689
 30
0.0
 10
312.9003148473188
 20
79.58830389465513
 30
0.0
 10
312.4390162575277
 20
79.89147249735577
 30
0.0
 10
311.9780621775124
 20
80.04546836713666
 30
0.0
 10
311.4299471242207
 20
80.0764742469583
 30
0.0
 10
311.3672463450258
 20
80.08060836426786
 30
0.0
 10
311.309368702692
 20
80.08267542292262
 30
0.0
 10
311.2508020408067
 20
80.08267542292262
 30
0.0
 10
306.2247489217164
 20
80.08267542292262
 30
0.0
 10
301.2021409003842
 20
80.08267542292262
 30
0.0
 10
296.1764322910695
 20
80.08267542292262
 30
0.0
 10
296.1140760216504
 20
80.08267542292262
 30
0.0
 10
296.0517197522313
 20
80.07854130561304
 30
0.0
 10
295.9855738752785
 20
80.0764742469583
 30
0.0
 10
295.9814397579689
 20
80.07440718830352
 30
0.0
 10
295.9766166211078
 20
80.07440718830352
 30
0.0
 10
295.9683483864886
 20
80.07440718830352
 30
0.0
 10
295.9683483864886
 20
80.07440718830352
 30
0.0
 10
295.9642142691791
 20
80.07440718830352
 30
0.0
 10
295.9600801518695
 20
80.07440718830352
 30
0.0
 10
295.4198888234212
 20
80.03478856408696
 30
0.0
 10
294.9675474878008
 20
79.88113720408188
 30
0.0
 10
294.5148616424047
 20
79.58416977734557
 30
0.0
 10
293.5595360341218
 20
78.95302786808699
 30
0.0
 10
293.1809197905218
 20
78.25470655254815
 30
0.0
 10
293.1647278310595
 20
77.11265664578386
 30
0.0
  0
SPLINE
  5
3F
330
3B
100
AcDbEntity
  8
EBENE_1
 62
   255
100
AcDbSpline
210
0.0
220
0.0
230
1.0
 70
     8
 71
     3
 72
    14
 73
    10
 74
     0
 42
0.0000000001
 43
0.0000000001
 40
0.0
 40
0.0
 40
0.0
 40
0.0
 40
1.0
 40
1.0
 40
1.0
 40
2.0
 40
2.0
 40
2.0
 40
3.0
 40
3.0
 40
3.0
 40
3.0
 10
314.2628510105926
 20
130.8237977510614
 30
0.0
 10
314.2628510105926
 20
130.4703307210945
 30
0.0
 10
314.1171233754308
 20
130.3208134783989
 30
0.0
 10
313.7598667379302
 20
130.3208134783989
 30
0.0
 10
307.0636302257801
 20
130.3208134783989
 30
0.0
 10
300.3636041060962
 20
130.3208134783989
 30
0.0
 10
293.6632334766365
 20
130.3208134783989
 30
0.0
 10
293.3097664466696
 20
130.3208134783989
 30
0.0
 10
293.1605937137499
 20
130.4703307210945
 30
0.0
 10
293.1605937137499
 20
130.8237977510614
 30
0.0
  0
ENDBLK
  5
41
330
3B
100
AcDbEntity
  8
0
100
AcDbBlockEnd
  0
BLOCK
  5
46
330
42
100
AcDbEntity
  8
0
100
AcDbBlockBegin
  2
BLOCK_2
 70
     0
 10
0.0
 20
0.0
 30
0.0
  3
BLOCK_2
  1

  0
INSERT
  5
43
330
42
100
AcDbEntity
  8
EBENE_1
100
AcDbBlockReference
  2
BLOCK_3
 10
0.0
 20
0.0
 30
0.0
  0
SPLINE
  5
44
330
42
100
AcDbEntity
  8
EBENE_1
 62
   255
100
AcDbSpline
210
0.0
220
0.0
230
1.0
 70
    11
 71
     3
 72
    95
 73
    91
 74
     0
 42
0.0000000001
 43
0.0000000001
 40
0.0
 40
0.0
 40
0.0
 40
0.0
 40
1.0
 40
1.0
 40
1.0
 40
2.0
 40
2.0
 40
2.0
 40
3.0
 40
3.0
 40
3.0
 40
4.0
 40
4.0
 40
4.0
 40
5.0
 40
5.0
 40
5.0
 40
6.0
 40
6.0
 40
6.0
 40
7.0
 40
7.0
 40
7.0
 40
8.0
 40
8.0
 40
8.0
 40
9.0
 40
9.0
 40
9.0
 40
10.0
 40
10.0
 40
10.0
 40
11.0
 40
11.0
 40
11.0
 40
12.0
 40
12.0
 40
12.0
 40
13.0
 40
13.0
 40
13.0
 40
14.0
 40
14.0
 40
14.0
 40
15.0
 40
15.0
 40
15.0
 40
16.0
 40
16.0
 40
16.0
 40
17.0
 40
17.0
 40
17.0
 40
18.0
 40
18.0
 40
18.0
 40
19.0
 40
19.0
 40
19.0
 40
20.0
 40
20.0
 40
20.0
 40
21.0
 40
21.0
 40
21.0
 40
22.0
 40
22.0
 40
22.0
 40
23.0
 40
23.0
 40
23.0
 40
24.0
 40
24.0
 40
24.0
 40
25.0
 40
25.0
 40
25.0
 40
26.0
 40
26.0
 40
26.0
 40
27.0
 40
27.0
 40
27.0
 40
28.0
 40
28.0
 40
28.0
 40
29.0
 40
29.0
 40
29.0
 40
30.0
 40
30.0
 40
30.0
 40
30.0
 10
106.5175995393143
 20
236.4398152071171
 30
0.0
 10
106.1624099604684
 20
236.4398152071171
 30
0.0
 10
106.0149597764276
 20
236.2921927681884
 30
0.0
 10
106.0149597764276
 20
235.9371754442304
 30
0.0
 10
106.0149597764276
 20
229.2376660892103
 30
0.0
 10
106.0149597764276
 20
222.5393625184053
 30
0.0
 10
106.0149597764276
 20
215.8412312024883
 30
0.0
 10
106.0149597764276
 20
215.4860416236425
 30
0.0
 10
106.1624099604684
 20
215.3382469298259
 30
0.0
 10
106.5175995393143
 20
215.3382469298259
 30
0.0
 10
105.73039470162
 20
215.3382469298259
 30
0.0
 10
107.3046321221206
 20
215.3382469298259
 30
0.0
 10
107.6992680702951
 20
215.3382469298259
 30
0.0
 10
108.8563041523065
 20
215.3382469298259
 30
0.0
 10
110.0131679794301
 20
215.3382469298259
 30
0.0
 10
111.1681370027868
 20
215.3382469298259
 30
0.0
 10
112.7173974645421
 20
215.3382469298259
 30
0.0
 10
114.2649353774185
 20
215.3382469298259
 30
0.0
 10
115.8121287805191
 20
215.3382469298259
 30
0.0
 10
118.9092716649267
 20
215.3382469298259
 30
0.0
 10
122.0060700395584
 20
215.3382469298259
 30
0.0
 10
125.1025239044144
 20
215.3382469298259
 30
0.0
 10
131.3002547709875
 20
215.3382469298259
 30
0.0
 10
137.4983301473363
 20
215.3382469298259
 30
0.0
 10
143.6953719943578
 20
215.3382469298259
 30
0.0
 10
168.8166803356387
 20
215.3382469298259
 30
0.0
 10
193.9383331866953
 20
215.3382469298259
 30
0.0
 10
219.0568854497698
 20
215.3382469298259
 30
0.0
 10
225.5126541384142
 20
215.3382469298259
 30
0.0
 10
231.9635996901974
 20
215.3382469298259
 30
0.0
 10
238.4190238690661
 20
215.3382469298259
 30
0.0
 10
238.48999288288
 20
215.3382469298259
 30
0.0
 10
238.5647515042279
 20
215.3527163404094
 30
0.0
 10
238.6308973811807
 20
215.380277122473
 30
0.0
 10
238.6973877679093
 20
215.4071488849851
 30
0.0
 10
238.7597440373285
 20
215.4478010385291
 30
0.0
 10
238.8138320721284
 20
215.4984439755711
 30
0.0
 10
238.8679201069284
 20
215.5504649517165
 30
0.0
 10
238.9096057897998
 20
215.6124767113596
 30
0.0
 10
238.9468128455858
 20
215.6789670980883
 30
0.0
 10
238.9884985284571
 20
215.7557927780909
 30
0.0
 10
239.0133032323144
 20
215.8401976731609
 30
0.0
 10
239.0339738188622
 20
215.92632511711
 30
0.0
 10
239.0591230324953
 20
216.0348456964858
 30
0.0
 10
239.0753149919578
 20
216.144399805189
 30
0.0
 10
239.0873728341106
 20
216.2556764627711
 30
0.0
 10
239.1049428326762
 20
216.409672332552
 30
0.0
 10
239.1170006748291
 20
216.5640127121087
 30
0.0
 10
239.1211347921386
 20
216.7197311307685
 30
0.0
 10
239.1335371440673
 20
216.9398728775023
 30
0.0
 10
239.1376712613769
 20
217.1620816828908
 30
0.0
 10
239.1418053786864
 20
217.383256958952
 30
0.0
 10
239.1459394959959
 20
217.7064071286488
 30
0.0
 10
239.1459394959959
 20
218.030590827673
 30
0.0
 10
239.1459394959959
 20
218.353396487594
 30
0.0
 10
239.1459394959959
 20
223.3766935284779
 30
0.0
 10
239.1459394959959
 20
228.4006795889134
 30
0.0
 10
239.1459394959959
 20
233.4251824140127
 30
0.0
 10
239.1459394959959
 20
233.7500551325885
 30
0.0
 10
239.1459394959959
 20
234.07527236094
 30
0.0
 10
239.1418053786864
 20
234.3989392953006
 30
0.0
 10
239.1376712613769
 20
234.6204590811375
 30
0.0
 10
239.1335371440673
 20
234.8406008278712
 30
0.0
 10
239.1211347921386
 20
235.0605703197171
 30
0.0
 10
239.1170006748291
 20
235.2154274639375
 30
0.0
 10
239.1049428326762
 20
235.3701123532699
 30
0.0
 10
239.0873728341106
 20
235.5239359681629
 30
0.0
 10
239.0753149919578
 20
235.6338345866419
 30
0.0
 10
239.0591230324953
 20
235.7439054600088
 30
0.0
 10
239.0339738188622
 20
235.8529428040483
 30
0.0
 10
239.0133032323144
 20
235.9382089735578
 30
0.0
 10
238.9884985284571
 20
236.0212358295247
 30
0.0
 10
238.9468128455858
 20
236.100128568182
 30
0.0
 10
238.9096057897998
 20
236.1657576804712
 30
0.0
 10
238.8679201069284
 20
236.2279416950024
 30
0.0
 10
238.8138320721284
 20
236.2789291418202
 30
0.0
 10
238.7597440373285
 20
236.3297443337502
 30
0.0
 10
238.6973877679093
 20
236.3712577617336
 30
0.0
 10
238.6308973811807
 20
236.3984740340215
 30
0.0
 10
238.5606173869183
 20
236.4251735416457
 30
0.0
 10
238.48999288288
 20
236.4398152071171
 30
0.0
 10
238.4190238690661
 20
236.4398152071171
 30
0.0
 10
231.9635996901974
 20
236.4398152071171
 30
0.0
 10
225.5126541384142
 20
236.4398152071171
 30
0.0
 10
219.0568854497698
 20
236.4398152071171
 30
0.0
 10
193.9383331866953
 20
236.4398152071171
 30
0.0
 10
168.8166803356387
 20
236.4398152071171
 30
0.0
 10
143.6953719943578
 20
236.4398152071171
 30
0.0
 10
131.3023218296422
 20
236.4398152071171
 30
0.0
 10
118.9113387235814
 20
236.4398152071171
 30
0.0
 10
106.5175995393143
 20
236.4398152071171
 30
0.0
  0
SPLINE
  5
45
330
42
100
AcDbEntity
  8
EBENE_1
 62
   255
100
AcDbSpline
210
0.0
220
0.0
230
1.0
 70
    11
 71
     3
 72
   284
 73
   280
 74
     0
 42
0.0000000001
 43
0.0000000001
 40
0.0
 40
0.0
 40
0.0
 40
0.0
 40
1.0
 40
1.0
 40
1.0
 40
2.0
 40
2.0
 40
2.0
 40
3.0
 40
3.0
 40
3.0
 40
4.0
 40
4.0
 40
4.0
 40
5.0
 40
5.0
 40
5.0
 40
6.0
 40
6.0
 40
6.0
 40
7.0
 40
7.0
 40
7.0
 40
8.0
 40
8.0
 40
8.0
 40
9.0
 40
9.0
 40
9.0
 40
10.0
 40
10.0
 40
10.0
 40
11.0
 40
11.0
 40
11.0
 40
12.0
 40
12.0
 40
12.0
 40
13.0
 40
13.0
 40
13.0
 40
14.0
 40
14.0
 40
14.0
 40
15.0
 40
15.0
 40
15.0
 40
16.0
 40
16.0
 40
16.0
 40
17.0
 40
17.0
 40
17.0
 40
18.0
 40
18.0
 40
18.0
 40
19.0
 40
19.0
 40
19.0
 40
20.0
 40
20.0
 40
20.0
 40
21.0
 40
21.0
 40
21.0
 40
22.0
 40
22.0
 40
22.0
 40
23.0
 40
23.0
 40
23.0
 40
24.0
 40
24.0
 40
24.0
 40
25.0
 40
25.0
 40
25.0
 40
26.0
 40
26.0
 40
26.0
 40
27.0
 40
27.0
 40
27.0
 40
28.0
 40
28.0
 40
28.0
 40
29.0
 40
29.0
 40
29.0
 40
30.0
 40
30.0
 40
30.0
 40
31.0
 40
31.0
 40
31.0
 40
32.0
 40
32.0
 40
32.0
 40
33.0
 40
33.0
 40
33.0
 40
34.0
 40
34.0
 40
34.0
 40
35.0
 40
35.0
 40
35.0
 40
36.0
 40
36.0
 40
36.0
 40
37.0
 40
37.0
 40
37.0
 40
38.0
 40
38.0
 40
38.0
 40
39.0
 40
39.0
 40
39.0
 40
40.0
 40
40.0
 40
40.0
 40
41.0
 40
41.0
 40
41.0
 40
42.0
 40
42.0
 40
42.0
 40
43.0
 40
43.0
 40
43.0
 40
44.0
 40
44.0
 40
44.0
 40
45.0
 40
45.0
 40
45.0
 40
46.0
 40
46.0
 40
46.0
 40
47.0
 40
47.0
 40
47.0
 40
48.0
 40
48.0
 40
48.0
 40
49.0
 40
49.0
 40
49.0
 40
50.0
 40
50.0
 40
50.0
 40
51.0
 40
51.0
 40
51.0
 40
52.0
 40
52.0
 40
52.0
 40
53.0
 40
53.0
 40
53.0
 40
54.0
 40
54.0
 40
54.0
 40
55.0
 40
55.0
 40
55.0
 40
56.0
 40
56.0
 40
56.0
 40
57.0
 40
57.0
 40
57.0
 40
58.0
 40
58.0
 40
58.0
 40
59.0
 40
59.0
 40
59.0
 40
60.0
 40
60.0
 40
60.0
 40
61.0
 40
61.0
 40
61.0
 40
62.0
 40
62.0
 40
62.0
 40
63.0
 40
63.0
 40
63.0
 40
64.0
 40
64.0
 40
64.0
 40
65.0
 40
65.0
 40
65.0
 40
66.0
 40
66.0
 40
66.0
 40
67.0
 40
67.0
 40
67.0
 40
68.0
 40
68.0
 40
68.0
 40
69.0
 40
69.0
 40
69.0
 40
70.0
 40
70.0
 40
70.0
 40
71.0
 40
71.0
 40
71.0
 40
72.0
 40
72.0
 40
72.0
 40
73.0
 40
73.0
 40
73.0
 40
74.0
 40
74.0
 40
74.0
 40
75.0
 40
75.0
 40
75.0
 40
76.0
 40
76.0
 40
76.0
 40
77.0
 40
77.0
 40
77.0
 40
78.0
 40
78.0
 40
78.0
 40
79.0
 40
79.0
 40
79.0
 40
80.0
 40
80.0
 40
80.0
 40
81.0
 40
81.0
 40
81.0
 40
82.0
 40
82.0
 40
82.0
 40
83.0
 40
83.0
 40
83.0
 40
84.0
 40
84.0
 40
84.0
 40
85.0
 40
85.0
 40
85.0
 40
86.0
 40
86.0
 40
86.0
 40
87.0
 40
87.0
 40
87.0
 40
88.0
 40
88.0
 40
88.0
 40
89.0
 40
89.0
 40
89.0
 40
90.0
 40
90.0
 40
90.0
 40
91.0
 40
91.0
 40
91.0
 40
92.0
 40
92.0
 40
92.0
 40
93.0
 40
93.0
 40
93.0
 40
93.0
 10
234.1112736325107
 20
79.47220410021181
 30
0.0
 10
234.1112736325107
 20
79.4635913558169
 30
0.0
 10
234.1112736325107
 20
79.45532312119782
 30
0.0
 10
234.1112736325107
 20
79.4470548865787
 30
0.0
 10
234.1112736325107
 20
79.44292076926915
 30
0.0
 10
234.1071395152012
 20
79.43465253465006
 30
0.0
 10
234.1071395152012
 20
79.4301739075647
 30
0.0
 10
234.1071395152012
 20
79.4281068489099
 30
0.0
 10
234.1071395152012
 20
79.42603979025513
 30
0.0
 10
234.1071395152012
 20
79.42603979025513
 30
0.0
 10
234.1030053978915
 20
79.28306823329973
 30
0.0
 10
234.0947371632725
 20
79.13975216656851
 30
0.0
 10
234.0823348113439
 20
78.9981586487163
 30
0.0
 10
234.0823348113439
 20
78.99609159006151
 30
0.0
 10
234.0823348113439
 20
78.99402453140673
 30
0.0
 10
234.0823348113439
 20
78.98989041409719
 30
0.0
 10
234.0823348113439
 20
78.98989041409719
 30
0.0
 10
234.0823348113439
 20
78.98782335544241
 30
0.0
 10
234.0823348113439
 20
78.98575629678763
 30
0.0
 10
234.0782006940343
 20
78.92960120333284
 30
0.0
 10
234.0740665767248
 20
78.87344610987806
 30
0.0
 10
234.070276969191
 20
78.8179800359749
 30
0.0
 10
234.070276969191
 20
78.81522395776852
 30
0.0
 10
234.070276969191
 20
78.81522395776852
 30
0.0
 10
234.070276969191
 20
78.81315689911374
 30
0.0
 10
234.070276969191
 20
78.79868748853029
 30
0.0
 10
234.0661428518814
 20
78.78628513660166
 30
0.0
 10
234.0661428518814
 20
78.77043768691503
 30
0.0
 10
234.0661428518814
 20
78.77043768691503
 30
0.0
 10
234.0661428518814
 20
78.76837062826023
 30
0.0
 10
234.0661428518814
 20
78.76630356960546
 30
0.0
 10
234.0620087345719
 20
78.7184167107698
 30
0.0
 10
234.0571855977107
 20
78.67018534215834
 30
0.0
 10
234.0530514804012
 20
78.62057593444368
 30
0.0
 10
234.0327254036292
 20
78.41662614717238
 30
0.0
 10
234.0079206997719
 20
78.21749949676217
 30
0.0
 10
233.982426976363
 20
78.01389421926664
 30
0.0
 10
233.9741587417439
 20
77.98047677101441
 30
0.0
 10
233.9700246244343
 20
77.94705932276219
 30
0.0
 10
233.9658905071248
 20
77.91639795271631
 30
0.0
 10
233.9658905071248
 20
77.91433089406154
 30
0.0
 10
233.9658905071248
 20
77.91433089406154
 30
0.0
 10
233.9658905071248
 20
77.91433089406154
 30
0.0
 10
233.9658905071248
 20
77.91019677675198
 30
0.0
 10
233.9658905071248
 20
77.9081297180972
 30
0.0
 10
233.9658905071248
 20
77.90606265944244
 30
0.0
 10
233.962100899591
 20
77.88918168042842
 30
0.0
 10
233.962100899591
 20
77.8726452111902
 30
0.0
 10
233.9579667822815
 20
77.85610874195199
 30
0.0
 10
233.9579667822815
 20
77.85369717352144
 30
0.0
 10
233.9579667822815
 20
77.85163011486663
 30
0.0
 10
233.9579667822815
 20
77.84749599755709
 30
0.0
 10
233.9538326649719
 20
77.83061501854304
 30
0.0
 10
233.9538326649719
 20
77.81649011773542
 30
0.0
 10
233.9496985476623
 20
77.79995364849722
 30
0.0
 10
233.9496985476623
 20
77.79788658984243
 30
0.0
 10
233.9496985476623
 20
77.79409698230868
 30
0.0
 10
233.9496985476623
 20
77.78996286499912
 30
0.0
 10
233.9414303130432
 20
77.75620090697109
 30
0.0
 10
233.9376407055095
 20
77.72106090983989
 30
0.0
 10
233.9328175686483
 20
77.68592091270868
 30
0.0
 10
233.928338941563
 20
77.66938444347049
 30
0.0
 10
233.9242048242534
 20
77.6483693471469
 30
0.0
 10
233.9242048242534
 20
77.63183287790869
 30
0.0
 10
233.8956105128623
 20
77.47439191036983
 30
0.0
 10
233.8704612992292
 20
77.32005153081316
 30
0.0
 10
233.8377328705286
 20
77.16674468058386
 30
0.0
 10
232.4500474936216
 20
70.10498329631399
 30
0.0
 10
226.2437038826536
 20
65.00830567318548
 30
0.0
 10
219.0489617249264
 20
65.01243979049502
 30
0.0
 10
193.9300649520762
 20
65.01243979049502
 30
0.0
 10
168.8084121010195
 20
65.01243979049502
 30
0.0
 10
143.6891708183935
 20
65.01243979049502
 30
0.0
 10
139.4051917563681
 20
65.00830567318548
 30
0.0
 10
135.1201791650154
 20
65.86372344648736
 30
0.0
 10
131.1648624290996
 20
67.50806860636247
 30
0.0
 10
127.1644149125545
 20
69.16963925502739
 30
0.0
 10
123.5012424665138
 20
71.63357317152159
 30
0.0
 10
120.4581876169062
 20
74.71590213556992
 30
0.0
 10
118.9461342109368
 20
76.24449201077751
 30
0.0
 10
117.5879044198605
 20
77.92501069711123
 30
0.0
 10
116.4062358888795
 20
79.72094015833666
 30
0.0
 10
115.2262899067777
 20
81.51721412933786
 30
0.0
 10
114.2210103810045
 20
83.42889887523082
 30
0.0
 10
113.4153742703052
 20
85.42050988910849
 30
0.0
 10
111.8452709671141
 20
89.30037898412495
 30
0.0
 10
111.030849857132
 20
93.48307217206622
 30
0.0
 10
111.030849857132
 20
97.66610986978331
 30
0.0
 10
111.0330891706746
 20
99.69527244922272
 30
0.0
 10
111.2239475864657
 20
101.724779538438
 30
0.0
 10
111.5999800067472
 20
103.7188021207462
 30
0.0
 10
112.0197651685549
 20
105.9371005670977
 30
0.0
 10
112.6655487432848
 20
108.1095792132684
 30
0.0
 10
113.5295792609816
 20
110.190762768853
 30
0.0
 10
114.3624316439688
 20
112.1951206444351
 30
0.0
 10
115.3969945006847
 20
114.1164516640504
 30
0.0
 10
116.6096689114872
 20
115.9144481839306
 30
0.0
 10
117.8163144012133
 20
117.7058990180706
 30
0.0
 10
119.1996934059228
 20
119.3795275088884
 30
0.0
 10
120.7365515157495
 20
120.8981266005979
 30
0.0
 10
123.7961428345953
 20
123.9194773343303
 30
0.0
 10
127.4600043001876
 20
126.3289787062487
 30
0.0
 10
131.4456378963735
 20
127.940939947199
 30
0.0
 10
135.3234399327351
 20
129.511215505278
 30
0.0
 10
139.5061331206764
 20
130.3249475957085
 30
0.0
 10
143.6891708183935
 20
130.3208134783989
 30
0.0
 10
145.3638328385387
 20
130.3208134783989
 30
0.0
 10
147.039872897787
 20
130.3208134783989
 30
0.0
 10
148.7138458983806
 20
130.3208134783989
 30
0.0
 10
176.1788542444028
 20
130.3208134783989
 30
0.0
 10
203.6459296490797
 20
130.3208134783989
 30
0.0
 10
231.1081819168955
 20
130.3208134783989
 30
0.0
 10
235.5492574366839
 20
130.3187464197442
 30
0.0
 10
239.1500736133055
 20
133.9223186745721
 30
0.0
 10
239.1459394959959
 20
138.3609826259299
 30
0.0
 10
239.1459394959959
 20
138.8639668985923
 30
0.0
 10
239.1459394959959
 20
139.3641950930484
 30
0.0
 10
239.1459394959959
 20
139.8664903461592
 30
0.0
 10
239.1459394959959
 20
140.2240914934356
 30
0.0
 10
239.0009008803858
 20
140.3698191285974
 30
0.0
 10
238.6429552233336
 20
140.3698191285974
 30
0.0
 10
208.6685376704121
 20
140.3698191285974
 30
0.0
 10
178.6920530588358
 20
140.3698191285974
 30
0.0
 10
148.7138458983806
 20
140.3698191285974
 30
0.0
 10
125.1355968428908
 20
140.3904897151452
 30
0.0
 10
106.0004903658442
 20
121.2364352004298
 30
0.0
 10
106.0087586004633
 20
97.66610986978331
 30
0.0
 10
105.9918776214493
 20
76.86357607788323
 30
0.0
 10
122.890771143803
 20
59.98156353454357
 30
0.0
 10
143.6891708183935
 20
59.98569765185312
 30
0.0
 10
168.8084121010195
 20
59.98569765185312
 30
0.0
 10
193.9300649520762
 20
59.98569765185312
 30
0.0
 10
219.0489617249264
 20
59.98569765185312
 30
0.0
 10
228.9436269955682
 20
59.98156353454357
 30
0.0
 10
237.3930737567451
 20
67.20972314052298
 30
0.0
 10
238.9096057897998
 20
76.9920782242552
 30
0.0
 10
238.9096057897998
 20
77.01274881080299
 30
0.0
 10
238.9133953973335
 20
77.03341939735072
 30
0.0
 10
238.9178740244189
 20
77.05443449367432
 30
0.0
 10
238.9178740244189
 20
77.05443449367432
 30
0.0
 10
238.9178740244189
 20
77.05856861098388
 30
0.0
 10
238.9178740244189
 20
77.06270272829342
 30
0.0
 10
238.9220081417284
 20
77.08750743215073
 30
0.0
 10
238.926142259038
 20
77.10852252847431
 30
0.0
 10
238.9302763763476
 20
77.13332723233164
 30
0.0
 10
238.9302763763476
 20
77.13332723233164
 30
0.0
 10
238.9302763763476
 20
77.13332723233164
 30
0.0
 10
238.9302763763476
 20
77.13332723233164
 30
0.0
 10
238.9344104936571
 20
77.15847644596475
 30
0.0
 10
238.9385446109667
 20
77.17914703251252
 30
0.0
 10
238.9385446109667
 20
77.20395173636984
 30
0.0
 10
238.9426787282762
 20
77.2160095785227
 30
0.0
 10
238.9426787282762
 20
77.22910095000296
 30
0.0
 10
238.9468128455858
 20
77.23736918462205
 30
0.0
 10
238.9468128455858
 20
77.24977153655072
 30
0.0
 10
238.9468128455858
 20
77.26148486892781
 30
0.0
 10
238.9509469628953
 20
77.27423173063226
 30
0.0
 10
238.9509469628953
 20
77.28318898480295
 30
0.0
 10
238.9509469628953
 20
77.29145721942206
 30
0.0
 10
238.9550810802049
 20
77.29972545404118
 30
0.0
 10
238.9550810802049
 20
77.31591741350358
 30
0.0
 10
238.9592151975144
 20
77.32831976543227
 30
0.0
 10
238.9592151975144
 20
77.34588976399788
 30
0.0
 10
238.9592151975144
 20
77.35002388130742
 30
0.0
 10
238.9630048050482
 20
77.35760309637495
 30
0.0
 10
238.9630048050482
 20
77.36173721368448
 30
0.0
 10
238.9630048050482
 20
77.37792917314691
 30
0.0
 10
238.9671389223577
 20
77.39859975969469
 30
0.0
 10
238.9671389223577
 20
77.4158252484845
 30
0.0
 10
238.9712730396673
 20
77.4158252484845
 30
0.0
 10
238.9712730396673
 20
77.41995936579404
 30
0.0
 10
238.9712730396673
 20
77.42409348310359
 30
0.0
 10
238.9764406863041
 20
77.46577916597494
 30
0.0
 10
238.9843644111475
 20
77.51090994660422
 30
0.0
 10
238.9884985284571
 20
77.55294013925136
 30
0.0
 10
238.9884985284571
 20
77.55707425656092
 30
0.0
 10
238.9884985284571
 20
77.56120837387047
 30
0.0
 10
238.9884985284571
 20
77.56120837387047
 30
0.0
 10
239.0091691150049
 20
77.73794188885389
 30
0.0
 10
239.0294951917768
 20
77.91433089406154
 30
0.0
 10
239.0508547978762
 20
78.09071989926919
 30
0.0
 10
239.0508547978762
 20
78.10518930985264
 30
0.0
 10
239.0508547978762
 20
78.12207028886664
 30
0.0
 10
239.0549889151858
 20
78.13447264079529
 30
0.0
 10
239.0549889151858
 20
78.1430853851902
 30
0.0
 10
239.0549889151858
 20
78.15135361980932
 30
0.0
 10
239.0549889151858
 20
78.15962185442842
 30
0.0
 10
239.0549889151858
 20
78.1696126379265
 30
0.0
 10
239.0591230324953
 20
78.18029244097619
 30
0.0
 10
239.0591230324953
 20
78.19235028312906
 30
0.0
 10
239.0591230324953
 20
78.2054416546093
 30
0.0
 10
239.0591230324953
 20
78.21749949676217
 30
0.0
 10
239.0629126400291
 20
78.22783479003605
 30
0.0
 10
239.0629126400291
 20
78.23403596600039
 30
0.0
 10
239.0629126400291
 20
78.2423042006195
 30
0.0
 10
239.0629126400291
 20
78.24850537658385
 30
0.0
 10
239.0670467573386
 20
78.27193204133799
 30
0.0
 10
239.0670467573386
 20
78.29191360833414
 30
0.0
 10
239.0711808746482
 20
78.31706282196726
 30
0.0
 10
239.0711808746482
 20
78.33015419344753
 30
0.0
 10
239.0711808746482
 20
78.34427909425517
 30
0.0
 10
239.0711808746482
 20
78.3584039950628
 30
0.0
 10
239.0753149919578
 20
78.36873928833671
 30
0.0
 10
239.0753149919578
 20
78.37941909138638
 30
0.0
 10
239.0753149919578
 20
78.39009889443605
 30
0.0
 10
239.0753149919578
 20
78.39423301174561
 30
0.0
 10
239.0753149919578
 20
78.39802261927937
 30
0.0
 10
239.0753149919578
 20
78.40422379524368
 30
0.0
 10
239.0963300882813
 20
78.62608809085644
 30
0.0
 10
239.1132110672953
 20
78.84898591579655
 30
0.0
 10
239.1211347921386
 20
79.07326177983984
 30
0.0
 10
239.1211347921386
 20
79.08118550468319
 30
0.0
 10
239.1211347921386
 20
79.09186530773284
 30
0.0
 10
239.1252689094482
 20
79.10013354235196
 30
0.0
 10
239.1252689094482
 20
79.10220060100674
 30
0.0
 10
239.1252689094482
 20
79.1063347183163
 30
0.0
 10
239.1252689094482
 20
79.10840177697107
 30
0.0
 10
239.1252689094482
 20
79.11839256046916
 30
0.0
 10
239.1252689094482
 20
79.12734981463987
 30
0.0
 10
239.1252689094482
 20
79.13768510791374
 30
0.0
 10
239.1252689094482
 20
79.14388628387808
 30
0.0
 10
239.1252689094482
 20
79.14836491096342
 30
0.0
 10
239.1252689094482
 20
79.15456608692777
 30
0.0
 10
239.1252689094482
 20
79.16076726289208
 30
0.0
 10
239.1252689094482
 20
79.16662392908063
 30
0.0
 10
239.1252689094482
 20
79.17282510504495
 30
0.0
 10
239.1252689094482
 20
79.17695922235451
 30
0.0
 10
239.1252689094482
 20
79.18591647652521
 30
0.0
 10
239.1294030267577
 20
79.19005059383477
 30
0.0
 10
239.1294030267577
 20
79.1959072600233
 30
0.0
 10
239.1294030267577
 20
79.20210843598763
 30
0.0
 10
239.1294030267577
 20
79.20624255329717
 30
0.0
 10
239.1294030267577
 20
79.21623333679526
 30
0.0
 10
239.1294030267577
 20
79.22656863006917
 30
0.0
 10
239.1294030267577
 20
79.23690392334305
 30
0.0
 10
239.1294030267577
 20
79.24792823616852
 30
0.0
 10
239.1294030267577
 20
79.25998607832138
 30
0.0
 10
239.1294030267577
 20
79.27032137159527
 30
0.0
 10
239.1294030267577
 20
79.27686705733541
 30
0.0
 10
239.1294030267577
 20
79.28100117464494
 30
0.0
 10
239.1335371440673
 20
79.28926940926405
 30
0.0
 10
239.1335371440673
 20
79.29133646791884
 30
0.0
 10
239.1335371440673
 20
79.29547058522839
 30
0.0
 10
239.1335371440673
 20
79.29960470253796
 30
0.0
 10
239.1335371440673
 20
79.30580587850227
 30
0.0
 10
239.1335371440673
 20
79.31407411312138
 30
0.0
 10
239.1335371440673
 20
79.32234234774049
 30
0.0
 10
239.1335371440673
 20
79.32647646505005
 30
0.0
 10
239.1335371440673
 20
79.3306105823596
 30
0.0
 10
239.1335371440673
 20
79.33474469966914
 30
0.0
 10
239.1376712613769
 20
79.4012350863978
 30
0.0
 10
239.1376712613769
 20
79.46772547312649
 30
0.0
 10
239.1418053786864
 20
79.53628291850989
 30
0.0
 10
239.1418053786864
 20
79.54455115312902
 30
0.0
 10
239.1418053786864
 20
79.55281938774813
 30
0.0
 10
239.1418053786864
 20
79.56349919079781
 30
0.0
 10
239.1418053786864
 20
79.56349919079781
 30
0.0
 10
239.1418053786864
 20
79.56556624945259
 30
0.0
 10
239.1418053786864
 20
79.56763330810736
 30
0.0
 10
239.1418053786864
 20
79.65617232048696
 30
0.0
 10
239.1252689094482
 20
79.73368702004112
 30
0.0
 10
239.0835832265768
 20
79.81257975869843
 30
0.0
 10
238.9805748036138
 20
80.00791680157488
 30
0.0
 10
238.8596518723093
 20
80.08267542292262
 30
0.0
 10
238.638821106024
 20
80.08267542292262
 30
0.0
 10
237.2976445488495
 20
80.08267542292262
 30
0.0
 10
235.9557789721234
 20
80.08267542292262
 30
0.0
 10
234.6183920224827
 20
80.08267542292262
 30
0.0
 10
234.269748129377
 20
80.08267542292262
 30
0.0
 10
234.1240204942152
 20
79.94142641484621
 30
0.0
 10
234.1154077498203
 20
79.59450507061943
 30
0.0
 10
234.1154077498203
 20
79.57796860138123
 30
0.0
 10
234.1154077498203
 20
79.55936507348825
 30
0.0
 10
234.1154077498203
 20
79.54248409447425
 30
0.0
 10
234.1112736325107
 20
79.53834997716469
 30
0.0
 10
234.1112736325107
 20
79.53456036963094
 30
0.0
 10
234.1112736325107
 20
79.53008174254556
 30
0.0
 10
234.1112736325107
 20
79.53008174254556
 30
0.0
 10
234.1112736325107
 20
79.47220410021181
 30
0.0
 10
234.1112736325107
 20
79.47220410021181
 30
0.0
  0
ENDBLK
  5
47
330
42
100
AcDbEntity
  8
0
100
AcDbBlockEnd
  0
BLOCK
  5
84
330
48
100
AcDbEntity
  8
0
100
AcDbBlockBegin
  2
BLOCK_5
 70
     0
 10
0.0
 20
0.0
 30
0.0
  3
BLOCK_5
  1

  0
POLYLINE
  5
49
330
48
100
AcDbEntity
  8
EBENE_1
100
AcDb2dPolyline
 66
     1
 10
0.0
 20
0.0
 30
0.0
  0
VERTEX
  5
4A
330
49
100
AcDbEntity
  8
EBENE_1
100
AcDbVertex
100
AcDb2dVertex
 10
217.0993809036959
 20
62.20020649067089
 30
0.0
  0
VERTEX
  5
4B
330
49
100
AcDbEntity
  8
EBENE_1
100
AcDbVertex
100
AcDb2dVertex
 10
217.5665361596755
 20
63.84420714077021
 30
0.0
  0
VERTEX
  5
4C
330
49
100
AcDbEntity
  8
EBENE_1
100
AcDbVertex
100
AcDb2dVertex
 10
218.0640082759252
 20
63.84420714077021
 30
0.0
  0
VERTEX
  5
4D
330
49
100
AcDbEntity
  8
EBENE_1
100
AcDbVertex
100
AcDb2dVertex
 10
217.3543181377851
 20
61.34444420759321
 30
0.0
  0
VERTEX
  5
4E
330
49
100
AcDbEntity
  8
EBENE_1
100
AcDbVertex
100
AcDb2dVertex
 10
216.8565015117596
 20
61.34444420759321
 30
0.0
  0
VERTEX
  5
4F
330
49
100
AcDbEntity
  8
EBENE_1
100
AcDbVertex
100
AcDb2dVertex
 10
216.4506689958718
 20
62.98775583814093
 30
0.0
  0
VERTEX
  5
50
330
49
100
AcDbEntity
  8
EBENE_1
100
AcDbVertex
100
AcDb2dVertex
 10
216.0455254995354
 20
61.34444420759321
 30
0.0
  0
VERTEX
  5
51
330
49
100
AcDbEntity
  8
EBENE_1
100
AcDbVertex
100
AcDb2dVertex
 10
215.5473643637342
 20
61.34444420759321
 30
0.0
  0
VERTEX
  5
52
330
49
100
AcDbEntity
  8
EBENE_1
100
AcDbVertex
100
AcDb2dVertex
 10
214.8373297158183
 20
63.84420714077021
 30
0.0
  0
VERTEX
  5
53
330
49
100
AcDbEntity
  8
EBENE_1
100
AcDbVertex
100
AcDb2dVertex
 10
215.3351463418437
 20
63.84420714077021
 30
0.0
  0
VERTEX
  5
54
330
49
100
AcDbEntity
  8
EBENE_1
100
AcDbVertex
100
AcDb2dVertex
 10
215.8023015978233
 20
62.20020649067089
 30
0.0
  0
VERTEX
  5
55
330
49
100
AcDbEntity
  8
EBENE_1
100
AcDbVertex
100
AcDb2dVertex
 10
216.2077896039355
 20
63.84420714077021
 30
0.0
  0
VERTEX
  5
56
330
49
100
AcDbEntity
  8
EBENE_1
100
AcDbVertex
100
AcDb2dVertex
 10
216.6938928975838
 20
63.84420714077021
 30
0.0
  0
VERTEX
  5
57
330
49
100
AcDbEntity
  8
EBENE_1
100
AcDbVertex
100
AcDb2dVertex
 10
217.0993809036959
 20
62.20020649067089
 30
0.0
  0
SEQEND
  5
58
330
49
100
AcDbEntity
  8
EBENE_1
  0
HATCH
  5
59
330
48
100
AcDbEntity
  8
EBENE_1
 62
   255
100
AcDbHatch
 10
0.0
 20
0.0
 30
0.0
210
0.0
220
0.0
230
1.0
  2
SOLID
 70
     1
 71
     0
 91
        1
 92
        2
 72
     0
 73
     1
 93
       13
 10
217.0993809036959
 20
62.20020649067089
 10
217.5665361596755
 20
63.84420714077021
 10
218.0640082759252
 20
63.84420714077021
 10
217.3543181377851
 20
61.34444420759321
 10
216.8565015117596
 20
61.34444420759321
 10
216.4506689958718
 20
62.98775583814093
 10
216.0455254995354
 20
61.34444420759321
 10
215.5473643637342
 20
61.34444420759321
 10
214.8373297158183
 20
63.84420714077021
 10
215.3351463418437
 20
63.84420714077021
 10
215.8023015978233
 20
62.20020649067089
 10
216.2077896039355
 20
63.84420714077021
 10
216.6938928975838
 20
63.84420714077021
 97
        0
 75
     0
 76
     1
 98
        0
  0
POLYLINE
  5
5A
330
48
100
AcDbEntity
  8
EBENE_1
100
AcDb2dPolyline
 66
     1
 10
0.0
 20
0.0
 30
0.0
  0
VERTEX
  5
5B
330
5A
100
AcDbEntity
  8
EBENE_1
100
AcDbVertex
100
AcDb2dVertex
 10
213.7032035338973
 20
62.42827196224796
 30
0.0
  0
VERTEX
  5
5C
330
5A
100
AcDbEntity
  8
EBENE_1
100
AcDbVertex
100
AcDb2dVertex
 10
214.6750656114183
 20
62.42827196224796
 30
0.0
  0
VERTEX
  5
5D
330
5A
100
AcDbEntity
  8
EBENE_1
100
AcDbVertex
100
AcDb2dVertex
 10
214.6750656114183
 20
62.82135761643139
 30
0.0
  0
VERTEX
  5
5E
330
5A
100
AcDbEntity
  8
EBENE_1
100
AcDbVertex
100
AcDb2dVertex
 10
213.7032035338973
 20
62.82135761643139
 30
0.0
  0
VERTEX
  5
5F
330
5A
100
AcDbEntity
  8
EBENE_1
100
AcDbVertex
100
AcDb2dVertex
 10
213.7032035338973
 20
63.39289933447724
 30
0.0
  0
VERTEX
  5
60
330
5A
100
AcDbEntity
  8
EBENE_1
100
AcDbVertex
100
AcDb2dVertex
 10
214.7777295246055
 20
63.39289933447724
 30
0.0
  0
VERTEX
  5
61
330
5A
100
AcDbEntity
  8
EBENE_1
100
AcDbVertex
100
AcDb2dVertex
 10
214.7777295246055
 20
63.84420714077021
 30
0.0
  0
VERTEX
  5
62
330
5A
100
AcDbEntity
  8
EBENE_1
100
AcDbVertex
100
AcDb2dVertex
 10
213.7032035338973
 20
63.84420714077021
 30
0.0
  0
VERTEX
  5
63
330
5A
100
AcDbEntity
  8
EBENE_1
100
AcDbVertex
100
AcDb2dVertex
 10
213.1974631830285
 20
63.84420714077021
 30
0.0
  0
VERTEX
  5
64
330
5A
100
AcDbEntity
  8
EBENE_1
100
AcDbVertex
100
AcDb2dVertex
 10
213.1974631830285
 20
61.34444420759321
 30
0.0
  0
VERTEX
  5
65
330
5A
100
AcDbEntity
  8
EBENE_1
100
AcDbVertex
100
AcDb2dVertex
 10
213.7032035338973
 20
61.34444420759321
 30
0.0
  0
VERTEX
  5
66
330
5A
100
AcDbEntity
  8
EBENE_1
100
AcDbVertex
100
AcDb2dVertex
 10
214.7777295246055
 20
61.34444420759321
 30
0.0
  0
VERTEX
  5
67
330
5A
100
AcDbEntity
  8
EBENE_1
100
AcDbVertex
100
AcDb2dVertex
 10
214.7777295246055
 20
61.7950629943346
 30
0.0
  0
VERTEX
  5
68
330
5A
100
AcDbEntity
  8
EBENE_1
100
AcDbVertex
100
AcDb2dVertex
 10
213.7032035338973
 20
61.7950629943346
 30
0.0
  0
VERTEX
  5
69
330
5A
100
AcDbEntity
  8
EBENE_1
100
AcDbVertex
100
AcDb2dVertex
 10
213.7032035338973
 20
62.42827196224796
 30
0.0
  0
SEQEND
  5
6A
330
5A
100
AcDbEntity
  8
EBENE_1
  0
HATCH
  5
6B
330
48
100
AcDbEntity
  8
EBENE_1
 62
   255
100
AcDbHatch
 10
0.0
 20
0.0
 30
0.0
210
0.0
220
0.0
230
1.0
  2
SOLID
 70
     1
 71
     0
 91
        1
 92
        2
 72
     0
 73
     1
 93
       14
 10
213.7032035338973
 20
62.42827196224796
 10
214.6750656114183
 20
62.42827196224796
 10
214.6750656114183
 20
62.82135761643139
 10
213.7032035338973
 20
62.82135761643139
 10
213.7032035338973
 20
63.39289933447724
 10
214.7777295246055
 20
63.39289933447724
 10
214.7777295246055
 20
63.84420714077021
 10
213.7032035338973
 20
63.84420714077021
 10
213.1974631830285
 20
63.84420714077021
 10
213.1974631830285
 20
61.34444420759321
 10
213.7032035338973
 20
61.34444420759321
 10
214.7777295246055
 20
61.34444420759321
 10
214.7777295246055
 20
61.7950629943346
 10
213.7032035338973
 20
61.7950629943346
 97
        0
 75
     0
 76
     1
 98
        0
  0
POLYLINE
  5
6C
330
48
100
AcDbEntity
  8
EBENE_1
100
AcDb2dPolyline
 66
     1
 10
0.0
 20
0.0
 30
0.0
  0
VERTEX
  5
6D
330
6C
100
AcDbEntity
  8
EBENE_1
100
AcDbVertex
100
AcDb2dVertex
 10
211.356058431398
 20
62.4516986270021
 30
0.0
  0
VERTEX
  5
6E
330
6C
100
AcDbEntity
  8
EBENE_1
100
AcDbVertex
100
AcDb2dVertex
 10
212.3596154082922
 20
62.4516986270021
 30
0.0
  0
VERTEX
  5
6F
330
6C
100
AcDbEntity
  8
EBENE_1
100
AcDbVertex
100
AcDb2dVertex
 10
212.3596154082922
 20
61.34444420759321
 30
0.0
  0
VERTEX
  5
70
330
6C
100
AcDbEntity
  8
EBENE_1
100
AcDbVertex
100
AcDb2dVertex
 10
212.8657002689368
 20
61.34444420759321
 30
0.0
  0
VERTEX
  5
71
330
6C
100
AcDbEntity
  8
EBENE_1
100
AcDbVertex
100
AcDb2dVertex
 10
212.8657002689368
 20
63.84420714077021
 30
0.0
  0
VERTEX
  5
72
330
6C
100
AcDbEntity
  8
EBENE_1
100
AcDbVertex
100
AcDb2dVertex
 10
212.3596154082922
 20
63.84420714077021
 30
0.0
  0
VERTEX
  5
73
330
6C
100
AcDbEntity
  8
EBENE_1
100
AcDbVertex
100
AcDb2dVertex
 10
212.3596154082922
 20
62.83479349768743
 30
0.0
  0
VERTEX
  5
74
330
6C
100
AcDbEntity
  8
EBENE_1
100
AcDbVertex
100
AcDb2dVertex
 10
211.356058431398
 20
62.83479349768743
 30
0.0
  0
VERTEX
  5
75
330
6C
100
AcDbEntity
  8
EBENE_1
100
AcDbVertex
100
AcDb2dVertex
 10
211.356058431398
 20
63.84420714077021
 30
0.0
  0
VERTEX
  5
76
330
6C
100
AcDbEntity
  8
EBENE_1
100
AcDbVertex
100
AcDb2dVertex
 10
210.8499735707534
 20
63.84420714077021
 30
0.0
  0
VERTEX
  5
77
330
6C
100
AcDbEntity
  8
EBENE_1
100
AcDbVertex
100
AcDb2dVertex
 10
210.8499735707534
 20
61.34444420759321
 30
0.0
  0
VERTEX
  5
78
330
6C
100
AcDbEntity
  8
EBENE_1
100
AcDbVertex
100
AcDb2dVertex
 10
211.356058431398
 20
61.34444420759321
 30
0.0
  0
VERTEX
  5
79
330
6C
100
AcDbEntity
  8
EBENE_1
100
AcDbVertex
100
AcDb2dVertex
 10
211.356058431398
 20
62.4516986270021
 30
0.0
  0
SEQEND
  5
7A
330
6C
100
AcDbEntity
  8
EBENE_1
  0
HATCH
  5
7B
330
48
100
AcDbEntity
  8
EBENE_1
 62
   255
100
AcDbHatch
 10
0.0
 20
0.0
 30
0.0
210
0.0
220
0.0
230
1.0
  2
SOLID
 70
     1
 71
     0
 91
        1
 92
        2
 72
     0
 73
     1
 93
       12
 10
211.356058431398
 20
62.4516986270021
 10
212.3596154082922
 20
62.4516986270021
 10
212.3596154082922
 20
61.34444420759321
 10
212.8657002689368
 20
61.34444420759321
 10
212.8657002689368
 20
63.84420714077021
 10
212.3596154082922
 20
63.84420714077021
 10
212.3596154082922
 20
62.83479349768743
 10
211.356058431398
 20
62.83479349768743
 10
211.356058431398
 20
63.84420714077021
 10
210.8499735707534
 20
63.84420714077021
 10
210.8499735707534
 20
61.34444420759321
 10
211.356058431398
 20
61.34444420759321
 97
        0
 75
     0
 76
     1
 98
        0
  0
POLYLINE
  5
7C
330
48
100
AcDbEntity
  8
EBENE_1
100
AcDb2dPolyline
 66
     1
 10
0.0
 20
0.0
 30
0.0
  0
VERTEX
  5
7D
330
7C
100
AcDbEntity
  8
EBENE_1
100
AcDbVertex
100
AcDb2dVertex
 10
218.2190376750335
 20
63.84420714077021
 30
0.0
  0
VERTEX
  5
7E
330
7C
100
AcDbEntity
  8
EBENE_1
100
AcDbVertex
100
AcDb2dVertex
 10
218.7251225356781
 20
63.84420714077021
 30
0.0
  0
VERTEX
  5
7F
330
7C
100
AcDbEntity
  8
EBENE_1
100
AcDbVertex
100
AcDb2dVertex
 10
218.7251225356781
 20
61.34444420759321
 30
0.0
  0
VERTEX
  5
80
330
7C
100
AcDbEntity
  8
EBENE_1
100
AcDbVertex
100
AcDb2dVertex
 10
218.2190376750335
 20
61.34444420759321
 30
0.0
  0
VERTEX
  5
81
330
7C
100
AcDbEntity
  8
EBENE_1
100
AcDbVertex
100
AcDb2dVertex
 10
218.2190376750335
 20
63.84420714077021
 30
0.0
  0
SEQEND
  5
82
330
7C
100
AcDbEntity
  8
EBENE_1
  0
HATCH
  5
83
330
48
100
AcDbEntity
  8
EBENE_1
 62
   255
100
AcDbHatch
 10
0.0
 20
0.0
 30
0.0
210
0.0
220
0.0
230
1.0
  2
SOLID
 70
     1
 71
     0
 91
        1
 92
        2
 72
     0
 73
     1
 93
        4
 10
218.2190376750335
 20
63.84420714077021
 10
218.7251225356781
 20
63.84420714077021
 10
218.7251225356781
 20
61.34444420759321
 10
218.2190376750335
 20
61.34444420759321
 97
        0
 75
     0
 76
     1
 98
        0
  0
ENDBLK
  5
85
330
48
100
AcDbEntity
  8
0
100
AcDbBlockEnd
  0
BLOCK
  5
93
330
86
100
AcDbEntity
  8
0
100
AcDbBlockBegin
  2
BLOCK_4
 70
     0
 10
0.0
 20
0.0
 30
0.0
  3
BLOCK_4
  1

  0
INSERT
  5
87
330
86
100
AcDbEntity
  8
EBENE_1
100
AcDbBlockReference
  2
BLOCK_5
 10
0.0
 20
0.0
 30
0.0
  0
POLYLINE
  5
88
330
86
100
AcDbEntity
  8
EBENE_1
100
AcDb2dPolyline
 66
     1
 10
0.0
 20
0.0
 30
0.0
  0
VERTEX
  5
89
330
88
100
AcDbEntity
  8
EBENE_1
100
AcDbVertex
100
AcDb2dVertex
 10
226.7249840394409
 20
55.66416702426598
 30
0.0
  0
VERTEX
  5
8A
330
88
100
AcDbEntity
  8
EBENE_1
100
AcDbVertex
100
AcDb2dVertex
 10
218.7251225356781
 20
55.66416702426598
 30
0.0
  0
VERTEX
  5
8B
330
88
100
AcDbEntity
  8
EBENE_1
100
AcDbVertex
100
AcDb2dVertex
 10
218.7251225356781
 20
76.66410491769724
 30
0.0
  0
VERTEX
  5
8C
330
88
100
AcDbEntity
  8
EBENE_1
100
AcDbVertex
100
AcDb2dVertex
 10
226.7249840394409
 20
76.66410491769724
 30
0.0
  0
VERTEX
  5
8D
330
88
100
AcDbEntity
  8
EBENE_1
100
AcDbVertex
100
AcDb2dVertex
 10
226.7249840394409
 20
55.66416702426598
 30
0.0
  0
SEQEND
  5
8E
330
88
100
AcDbEntity
  8
EBENE_1
  0
POLYLINE
  5
8F
330
86
100
AcDbEntity
  8
EBENE_1
100
AcDb2dPolyline
 66
     1
 10
0.0
 20
0.0
 30
0.0
  0
VERTEX
  5
90
330
8F
100
AcDbEntity
  8
EBENE_1
100
AcDbVertex
100
AcDb2dVertex
 10
187.8639368198571
 20
62.59432567418171
 30
0.0
  0
VERTEX
  5
91
330
8F
100
AcDbEntity
  8
EBENE_1
100
AcDbVertex
100
AcDb2dVertex
 10
240.2945350885004
 20
62.59432567418171
 30
0.0
  0
SEQEND
  5
92
330
8F
100
AcDbEntity
  8
EBENE_1
  0
ENDBLK
  5
94
330
86
100
AcDbEntity
  8
0
100
AcDbBlockEnd
  0
BLOCK
  5
1C
330
1B
100
AcDbEntity
  8
0
100
AcDbBlockBegin
  2
*Paper_Space5
 70
     0
 10
0.0
 20
0.0
 30
0.0
  3
*Paper_Space5
  1

  0
ENDBLK
  5
1D
330
1B
100
AcDbEntity
  8
0
100
AcDbBlockEnd
  0
BLOCK
  5
209
330
1FE
100
AcDbEntity
  8
0
100
AcDbBlockBegin
  2
*D6
 70
     1
 10
0.0
 20
0.0
 30
0.0
  3
*D6
  1

  0
LINE
  5
20C
330
1FE
100
AcDbEntity
  8
0
 62
     0
370
    -2
100
AcDbLine
 10
145.5814013872136
 20
61.00263951223983
 30
0.0
 11
289.0523231968314
 21
61.00263951223979
 31
0.0
  0
LINE
  5
20D
330
1FE
100
AcDbEntity
  8
0
 62
     0
370
    -2
100
AcDbLine
 10
145.5773179901896
 20
70.00263951223982
 30
0.0
 11
289.0523231968314
 21
70.00263951223977
 31
0.0
  0
LINE
  5
20E
330
1FE
100
AcDbEntity
  8
0
 62
     0
370
    -2
100
AcDbLine
 10
288.8723231968314
 20
61.1826395122398
 30
0.0
 11
288.8723231968314
 21
65.32263951223978
 31
0.0
  0
LINE
  5
20F
330
1FE
100
AcDbEntity
  8
0
 62
     0
370
    -2
100
AcDbLine
 10
288.8723231968314
 20
69.82263951223976
 30
0.0
 11
288.8723231968314
 21
65.68263951223979
 31
0.0
  0
SOLID
  5
210
330
1FE
100
AcDbEntity
  8
0
 62
     0
100
AcDbTrace
 10
288.8423231968314
 20
61.1826395122398
 30
0.0
 11
288.9023231968314
 21
61.1826395122398
 31
0.0
 12
288.8723231968314
 22
61.00263951223979
 32
0.0
 13
288.8723231968314
 23
61.00263951223979
 33
0.0
  0
SOLID
  5
211
330
1FE
100
AcDbEntity
  8
0
 62
     0
100
AcDbTrace
 10
288.8423231968314
 20
69.82263951223976
 30
0.0
 11
288.9023231968314
 21
69.82263951223976
 31
0.0
 12
288.8723231968314
 22
70.00263951223977
 32
0.0
 13
288.8723231968314
 23
70.00263951223977
 33
0.0
  0
MTEXT
  5
212
330
1FE
100
AcDbEntity
  8
0
 62
     0
100
AcDbMText
 10
288.8723231968314
 20
65.50263951223984
 30
0.0
 40
0.18
 41
0.0
 71
     5
 72
     1
  1
\A1;9.0000
 73
     1
 44
1.0
1001
ACAD
1000
MTEXTBEGIN
1070
    73
1070
     1
1070
    44
1040
1.0
1070
    74
1070
     0
1000
MTEXTEND
  0
POINT
  5
213
330
1FE
100
AcDbEntity
  8
Defpoints
 62
     0
100
AcDbPoint
 10
145.5189013872136
 20
61.00263951223983
 30
0.0
  0
POINT
  5
214
330
1FE
100
AcDbEntity
  8
Defpoints
 62
     0
100
AcDbPoint
 10
145.5148179901897
 20
70.00263951223982
 30
0.0
  0
POINT
  5
215
330
1FE
100
AcDbEntity
  8
Defpoints
 62
     0
100
AcDbPoint
 10
288.8723231968314
 20
70.00263951223977
 30
0.0
  0
ENDBLK
  5
20A
330
1FE
100
AcDbEntity
  8
0
100
AcDbBlockEnd
  0
BLOCK
  5
223
330
218
100
AcDbEntity
  8
0
100
AcDbBlockBegin
  2
*D7
 70
     1
 10
0.0
 20
0.0
 30
0.0
  3
*D7
  1

  0
LINE
  5
226
330
218
100
AcDbEntity
  8
0
 62
     0
370
    -2
100
AcDbLine
 10
150.1159638590283
 20
130.0026395122398
 30
0.0
 11
301.0927327020373
 21
130.0026395122397
 31
0.0
  0
LINE
  5
227
330
218
100
AcDbEntity
  8
0
 62
     0
370
    -2
100
AcDbLine
 10
150.1159638590283
 20
151.0026395122398
 30
0.0
 11
301.0927327020373
 21
151.0026395122398
 31
0.0
  0
LINE
  5
228
330
218
100
AcDbEntity
  8
0
 62
     0
370
    -2
100
AcDbLine
 10
300.9127327020373
 20
130.1826395122398
 30
0.0
 11
300.9127327020373
 21
140.3226395122398
 31
0.0
  0
LINE
  5
229
330
218
100
AcDbEntity
  8
0
 62
     0
370
    -2
100
AcDbLine
 10
300.9127327020373
 20
150.8226395122398
 30
0.0
 11
300.9127327020373
 21
140.6826395122398
 31
0.0
  0
SOLID
  5
22A
330
218
100
AcDbEntity
  8
0
 62
     0
100
AcDbTrace
 10
300.8827327020373
 20
130.1826395122398
 30
0.0
 11
300.9427327020372
 21
130.1826395122398
 31
0.0
 12
300.9127327020373
 22
130.0026395122397
 32
0.0
 13
300.9127327020373
 23
130.0026395122397
 33
0.0
  0
SOLID
  5
22B
330
218
100
AcDbEntity
  8
0
 62
     0
100
AcDbTrace
 10
300.8827327020373
 20
150.8226395122398
 30
0.0
 11
300.9427327020372
 21
150.8226395122398
 31
0.0
 12
300.9127327020373
 22
151.0026395122398
 32
0.0
 13
300.9127327020373
 23
151.0026395122398
 33
0.0
  0
MTEXT
  5
22C
330
218
100
AcDbEntity
  8
0
 62
     0
100
AcDbMText
 10
300.9127327020372
 20
140.5026395122398
 30
0.0
 40
0.18
 41
0.0
 71
     5
 72
     1
  1
\A1;21.0000
 73
     1
 44
1.0
1001
ACAD
1000
MTEXTBEGIN
1070
    73
1070
     1
1070
    44
1040
1.0
1070
    74
1070
     0
1000
MTEXTEND
  0
POINT
  5
22D
330
218
100
AcDbEntity
  8
Defpoints
 62
     0
100
AcDbPoint
 10
150.0534638590283
 20
130.0026395122398
 30
0.0
  0
POINT
  5
22E
330
218
100
AcDbEntity
  8
Defpoints
 62
     0
100
AcDbPoint
 10
150.0534638590283
 20
151.0026395122398
 30
0.0
  0
POINT
  5
22F
330
218
100
AcDbEntity
  8
Defpoints
 62
     0
100
AcDbPoint
 10
300.9127327020373
 20
151.0026395122398
 30
0.0
  0
ENDBLK
  5
224
330
218
100
AcDbEntity
  8
0
100
AcDbBlockEnd
  0
BLOCK
  5
23D
330
232
100
AcDbEntity
  8
0
100
AcDbBlockBegin
  2
*D8
 70
     1
 10
0.0
 20
0.0
 30
0.0
  3
*D8
  1

  0
LINE
  5
240
330
232
100
AcDbEntity
  8
0
 62
     0
370
    -2
100
AcDbLine
 10
266.7078466716926
 20
216.5862084999227
 30
0.0
 11
266.7078466716926
 21
271.0324569495416
 31
0.0
  0
LINE
  5
241
330
232
100
AcDbEntity
  8
0
 62
     0
370
    -2
100
AcDbLine
 10
245.7078466716926
 20
216.5862084999227
 30
0.0
 11
245.7078466716926
 21
271.0324569495416
 31
0.0
  0
LINE
  5
242
330
232
100
AcDbEntity
  8
0
 62
     0
370
    -2
100
AcDbLine
 10
266.5278466716926
 20
270.8524569495415
 30
0.0
 11
256.7478466716926
 21
270.8524569495415
 31
0.0
  0
LINE
  5
243
330
232
100
AcDbEntity
  8
0
 62
     0
370
    -2
100
AcDbLine
 10
245.8878466716926
 20
270.8524569495415
 30
0.0
 11
255.6678466716926
 21
270.8524569495415
 31
0.0
  0
SOLID
  5
244
330
232
100
AcDbEntity
  8
0
 62
     0
100
AcDbTrace
 10
266.5278466716926
 20
270.8824569495415
 30
0.0
 11
266.5278466716926
 21
270.8224569495416
 31
0.0
 12
266.7078466716926
 22
270.8524569495415
 32
0.0
 13
266.7078466716926
 23
270.8524569495415
 33
0.0
  0
SOLID
  5
245
330
232
100
AcDbEntity
  8
0
 62
     0
100
AcDbTrace
 10
245.8878466716926
 20
270.8824569495415
 30
0.0
 11
245.8878466716926
 21
270.8224569495416
 31
0.0
 12
245.7078466716926
 22
270.8524569495415
 32
0.0
 13
245.7078466716926
 23
270.8524569495415
 33
0.0
  0
MTEXT
  5
246
330
232
100
AcDbEntity
  8
0
 62
     0
100
AcDbMText
 10
256.2078466716926
 20
270.8524569495415
 30
0.0
 40
0.18
 41
0.0
 71
     5
 72
     1
  1
\A1;21.0000
 73
     1
 44
1.0
1001
ACAD
1000
MTEXTBEGIN
1070
    73
1070
     1
1070
    44
1040
1.0
1070
    74
1070
     0
1000
MTEXTEND
  0
POINT
  5
247
330
232
100
AcDbEntity
  8
Defpoints
 62
     0
100
AcDbPoint
 10
266.7078466716926
 20
216.5237084999227
 30
0.0
  0
POINT
  5
248
330
232
100
AcDbEntity
  8
Defpoints
 62
     0
100
AcDbPoint
 10
245.7078466716926
 20
216.5237084999227
 30
0.0
  0
POINT
  5
249
330
232
100
AcDbEntity
  8
Defpoints
 62
     0
100
AcDbPoint
 10
245.7078466716926
 20
270.8524569495415
 30
0.0
  0
ENDBLK
  5
23E
330
232
100
AcDbEntity
  8
0
100
AcDbBlockEnd
  0
BLOCK
  5
257
330
24C
100
AcDbEntity
  8
0
100
AcDbBlockBegin
  2
*D9
 70
     1
 10
0.0
 20
0.0
 30
0.0
  3
*D9
  1

  0
LINE
  5
25A
330
24C
100
AcDbEntity
  8
0
 62
     0
370
    -2
100
AcDbLine
 10
202.3474050358991
 20
80.0799509225011
 30
0.0
 11
345.713081827998
 21
80.07995092250105
 31
0.0
  0
LINE
  5
25B
330
24C
100
AcDbEntity
  8
0
 62
     0
370
    -2
100
AcDbLine
 10
202.3474050358991
 20
61.00263951223982
 30
0.0
 11
345.713081827998
 21
61.00263951223977
 31
0.0
  0
LINE
  5
25C
330
24C
100
AcDbEntity
  8
0
 62
     0
370
    -2
100
AcDbLine
 10
345.533081827998
 20
79.89995092250104
 30
0.0
 11
345.533081827998
 21
70.72129521737043
 31
0.0
  0
LINE
  5
25D
330
24C
100
AcDbEntity
  8
0
 62
     0
370
    -2
100
AcDbLine
 10
345.533081827998
 20
61.18263951223977
 30
0.0
 11
345.533081827998
 21
70.36129521737041
 31
0.0
  0
SOLID
  5
25E
330
24C
100
AcDbEntity
  8
0
 62
     0
100
AcDbTrace
 10
345.503081827998
 20
79.89995092250104
 30
0.0
 11
345.5630818279979
 21
79.89995092250104
 31
0.0
 12
345.533081827998
 22
80.07995092250105
 32
0.0
 13
345.533081827998
 23
80.07995092250105
 33
0.0
  0
SOLID
  5
25F
330
24C
100
AcDbEntity
  8
0
 62
     0
100
AcDbTrace
 10
345.503081827998
 20
61.18263951223977
 30
0.0
 11
345.5630818279979
 21
61.18263951223977
 31
0.0
 12
345.533081827998
 22
61.00263951223977
 32
0.0
 13
345.533081827998
 23
61.00263951223977
 33
0.0
  0
MTEXT
  5
260
330
24C
100
AcDbEntity
  8
0
 62
     0
100
AcDbMText
 10
345.533081827998
 20
70.54129521737047
 30
0.0
 40
0.18
 41
0.0
 71
     5
 72
     1
  1
\A1;19.0773
 73
     1
 44
1.0
1001
ACAD
1000
MTEXTBEGIN
1070
    73
1070
     1
1070
    44
1040
1.0
1070
    74
1070
     0
1000
MTEXTEND
  0
POINT
  5
261
330
24C
100
AcDbEntity
  8
Defpoints
 62
     0
100
AcDbPoint
 10
202.2849050358991
 20
80.0799509225011
 30
0.0
  0
POINT
  5
262
330
24C
100
AcDbEntity
  8
Defpoints
 62
     0
100
AcDbPoint
 10
202.2849050358991
 20
61.00263951223982
 30
0.0
  0
POINT
  5
263
330
24C
100
AcDbEntity
  8
Defpoints
 62
     0
100
AcDbPoint
 10
345.533081827998
 20
61.00263951223977
 30
0.0
  0
ENDBLK
  5
258
330
24C
100
AcDbEntity
  8
0
100
AcDbBlockEnd
  0
BLOCK
  5
271
330
266
100
AcDbEntity
  8
0
100
AcDbBlockBegin
  2
*D10
 70
     1
 10
0.0
 20
0.0
 30
0.0
  3
*D10
  1

  0
LINE
  5
274
330
266
100
AcDbEntity
  8
0
 62
     0
370
    -2
100
AcDbLine
 10
335.7078466716926
 20
216.5862084999227
 30
0.0
 11
335.7078466716926
 21
266.7857068794295
 31
0.0
  0
LINE
  5
275
330
266
100
AcDbEntity
  8
0
 62
     0
370
    -2
100
AcDbLine
 10
315.7088769297329
 20
216.5862084999227
 30
0.0
 11
315.7088769297329
 21
266.7857068794295
 31
0.0
  0
LINE
  5
276
330
266
100
AcDbEntity
  8
0
 62
     0
370
    -2
100
AcDbLine
 10
335.5278466716926
 20
266.6057068794295
 30
0.0
 11
326.2933618007127
 21
266.6057068794295
 31
0.0
  0
LINE
  5
277
330
266
100
AcDbEntity
  8
0
 62
     0
370
    -2
100
AcDbLine
 10
315.8888769297329
 20
266.6057068794295
 30
0.0
 11
325.1233618007128
 21
266.6057068794295
 31
0.0
  0
SOLID
  5
278
330
266
100
AcDbEntity
  8
0
 62
     0
100
AcDbTrace
 10
335.5278466716926
 20
266.6357068794294
 30
0.0
 11
335.5278466716926
 21
266.5757068794295
 31
0.0
 12
335.7078466716926
 22
266.6057068794295
 32
0.0
 13
335.7078466716926
 23
266.6057068794295
 33
0.0
  0
SOLID
  5
279
330
266
100
AcDbEntity
  8
0
 62
     0
100
AcDbTrace
 10
315.8888769297329
 20
266.6357068794294
 30
0.0
 11
315.8888769297329
 21
266.5757068794295
 31
0.0
 12
315.7088769297329
 22
266.6057068794295
 32
0.0
 13
315.7088769297329
 23
266.6057068794295
 33
0.0
  0
MTEXT
  5
27A
330
266
100
AcDbEntity
  8
0
 62
     0
100
AcDbMText
 10
325.7083618007127
 20
266.6057068794295
 30
0.0
 40
0.18
 41
0.0
 71
     5
 72
     1
  1
\A1;19.9990
 73
     1
 44
1.0
1001
ACAD
1000
MTEXTBEGIN
1070
    73
1070
     1
1070
    44
1040
1.0
1070
    74
1070
     0
1000
MTEXTEND
  0
POINT
  5
27B
330
266
100
AcDbEntity
  8
Defpoints
 62
     0
100
AcDbPoint
 10
335.7078466716926
 20
216.5237084999227
 30
0.0
  0
POINT
  5
27C
330
266
100
AcDbEntity
  8
Defpoints
 62
     0
100
AcDbPoint
 10
315.7088769297329
 20
216.5237084999227
 30
0.0
  0
POINT
  5
27D
330
266
100
AcDbEntity
  8
Defpoints
 62
     0
100
AcDbPoint
 10
315.7088769297329
 20
266.6057068794295
 30
0.0
  0
ENDBLK
  5
272
330
266
100
AcDbEntity
  8
0
100
AcDbBlockEnd
  0
ENDSEC
  0
SECTION
  2
ENTITIES
  0
LINE
  5
F4
330
1F
100
AcDbEntity
  8
Hewi
100
AcDbLine
 10
108.0761131891758
 20
61.00263951223983
 30
0.0
 11
183.031927277224
 21
61.00263951223983
 31
0.0
  0
LINE
  5
F6
330
1F
100
AcDbEntity
  8
Hewi
100
AcDbLine
 10
203.0761131891757
 20
151.0026395122398
 30
0.0
 11
108.0761131891758
 21
151.0026395122398
 31
0.0
  0
LINE
  5
FA
330
1F
100
AcDbEntity
  8
Hewi
100
AcDbLine
 10
182.0761131891758
 20
130.0026395122398
 30
0.0
 11
92.0592914237738
 21
130.0026395122398
 31
0.0
  0
SPLINE
  5
160
330
1F
100
AcDbEntity
  8
Hewi
 62
   255
100
AcDbSpline
210
0.0
220
0.0
230
1.0
 70
     8
 71
     3
 72
    14
 73
    10
 74
     0
 42
0.0000000001
 43
0.0000000001
 40
0.0
 40
0.0
 40
0.0
 40
0.0
 40
1.0
 40
1.0
 40
1.0
 40
2.0
 40
2.0
 40
2.0
 40
3.0
 40
3.0
 40
3.0
 40
3.0
 10
193.8606386297895
 20
80.39411505032958
 30
0.0
 10
193.8606386297895
 20
80.38554430817567
 30
0.0
 10
193.8606386297895
 20
80.37731639570793
 30
0.0
 10
193.8606386297895
 20
80.36908848324015
 30
0.0
 10
193.8606386297895
 20
80.36497452700627
 30
0.0
 10
193.8565246735556
 20
80.35674661453851
 30
0.0
 10
193.8565246735556
 20
80.3522898286185
 30
0.0
 10
193.8565246735556
 20
80.35023285050153
 30
0.0
 10
193.8565246735556
 20
80.3481758723846
 30
0.0
 10
193.8565246735556
 20
80.3481758723846
 30
0.0
  0
SPLINE
  5
161
330
1F
100
AcDbEntity
  8
Hewi
 62
   255
100
AcDbSpline
210
0.0
220
0.0
230
1.0
 70
     8
 71
     3
 72
     8
 73
     4
 74
     0
 42
0.0000000001
 43
0.0000000001
 40
3.0
 40
3.0
 40
3.0
 40
3.0
 40
4.0
 40
4.0
 40
4.0
 40
4.0
 10
193.8565246735556
 20
80.3481758723846
 30
0.0
 10
193.8524107173216
 20
80.20590155262951
 30
0.0
 10
193.844182804854
 20
80.06328440318823
 30
0.0
 10
193.8318409361524
 20
79.9223814021778
 30
0.0
  0
SPLINE
  5
162
330
1F
100
AcDbEntity
  8
Hewi
 62
   255
100
AcDbSpline
210
0.0
220
0.0
230
1.0
 70
    24
 71
     3
 72
     8
 73
     4
 74
     0
 42
0.0000000001
 43
0.0000000001
 40
4.0
 40
4.0
 40
4.0
 40
4.0
 40
5.0
 40
5.0
 40
5.0
 40
5.0
 10
193.8318409361524
 20
79.9223814021778
 30
0.0
 10
193.8318409361524
 20
79.92032442406084
 30
0.0
 10
193.8318409361524
 20
79.91826744594391
 30
0.0
 10
193.8318409361524
 20
79.91415348971003
 30
0.0
  0
SPLINE
  5
163
330
1F
100
AcDbEntity
  8
Hewi
 62
   255
100
AcDbSpline
210
0.0
220
0.0
230
1.0
 70
    24
 71
     3
 72
     8
 73
     4
 74
     0
 42
0.0000000001
 43
0.0000000001
 40
5.0
 40
5.0
 40
5.0
 40
5.0
 40
6.0
 40
6.0
 40
6.0
 40
6.0
 10
193.8318409361524
 20
79.91415348971003
 30
0.0
 10
193.8318409361524
 20
79.91415348971003
 30
0.0
 10
193.8318409361524
 20
79.91209651159309
 30
0.0
 10
193.8318409361524
 20
79.91003953347614
 30
0.0
  0
SPLINE
  5
164
330
1F
100
AcDbEntity
  8
Hewi
 62
   255
100
AcDbSpline
210
0.0
220
0.0
230
1.0
 70
     8
 71
     3
 72
     8
 73
     4
 74
     0
 42
0.0000000001
 43
0.0000000001
 40
6.0
 40
6.0
 40
6.0
 40
6.0
 40
7.0
 40
7.0
 40
7.0
 40
7.0
 10
193.8318409361524
 20
79.91003953347614
 30
0.0
 10
193.8277269799184
 20
79.85415829463256
 30
0.0
 10
193.8236130236846
 20
79.79827705578898
 30
0.0
 10
193.8198418971368
 20
79.74308147631775
 30
0.0
  0
SPLINE
  5
165
330
1F
100
AcDbEntity
  8
Hewi
 62
   255
100
AcDbSpline
210
0.0
220
0.0
230
1.0
 70
     8
 71
     3
 72
    11
 73
     7
 74
     0
 42
0.0000000001
 43
0.0000000001
 40
7.0
 40
7.0
 40
7.0
 40
7.0
 40
8.0
 40
8.0
 40
8.0
 40
9.0
 40
9.0
 40
9.0
 40
9.0
 10
193.8198418971368
 20
79.74308147631775
 30
0.0
 10
193.8198418971368
 20
79.74033883882849
 30
0.0
 10
193.8198418971368
 20
79.74033883882849
 30
0.0
 10
193.8198418971368
 20
79.73828186071155
 30
0.0
 10
193.8198418971368
 20
79.72388301389296
 30
0.0
 10
193.8157279409029
 20
79.71154114519134
 30
0.0
 10
193.8157279409029
 20
79.69577097962812
 30
0.0
  0
SPLINE
  5
166
330
1F
100
AcDbEntity
  8
Hewi
 62
   255
100
AcDbSpline
210
0.0
220
0.0
230
1.0
 70
    24
 71
     3
 72
     8
 73
     4
 74
     0
 42
0.0000000001
 43
0.0000000001
 40
9.0
 40
9.0
 40
9.0
 40
9.0
 40
10.0
 40
10.0
 40
10.0
 40
10.0
 10
193.8157279409029
 20
79.69577097962812
 30
0.0
 10
193.8157279409029
 20
79.69577097962812
 30
0.0
 10
193.8157279409029
 20
79.69371400151115
 30
0.0
 10
193.8157279409029
 20
79.6916570233942
 30
0.0
  0
SPLINE
  5
167
330
1F
100
AcDbEntity
  8
Hewi
 62
   255
100
AcDbSpline
210
0.0
220
0.0
230
1.0
 70
     8
 71
     3
 72
     8
 73
     4
 74
     0
 42
0.0000000001
 43
0.0000000001
 40
10.0
 40
10.0
 40
10.0
 40
10.0
 40
11.0
 40
11.0
 40
11.0
 40
11.0
 10
193.8157279409029
 20
79.6916570233942
 30
0.0
 10
193.811613984669
 20
79.64400369701845
 30
0.0
 10
193.8068143690628
 20
79.59600754095649
 30
0.0
 10
193.802700412829
 20
79.54664006614987
 30
0.0
  0
SPLINE
  5
168
330
1F
100
AcDbEntity
  8
Hewi
 62
   255
100
AcDbSpline
210
0.0
220
0.0
230
1.0
 70
     8
 71
     3
 72
     8
 73
     4
 74
     0
 42
0.0000000001
 43
0.0000000001
 40
11.0
 40
11.0
 40
11.0
 40
11.0
 40
12.0
 40
12.0
 40
12.0
 40
12.0
 10
193.802700412829
 20
79.54664006614987
 30
0.0
 10
193.7824734613456
 20
79.34368489194504
 30
0.0
 10
193.7577897239425
 20
79.14552933334637
 30
0.0
 10
193.7324203271669
 20
78.94291698882769
 30
0.0
  0
SPLINE
  5
169
330
1F
100
AcDbEntity
  8
Hewi
 62
   255
100
AcDbSpline
210
0.0
220
0.0
230
1.0
 70
     8
 71
     3
 72
     8
 73
     4
 74
     0
 42
0.0000000001
 43
0.0000000001
 40
12.0
 40
12.0
 40
12.0
 40
12.0
 40
13.0
 40
13.0
 40
13.0
 40
13.0
 10
193.7324203271669
 20
78.94291698882769
 30
0.0
 10
193.7241924146991
 20
78.90966250927045
 30
0.0
 10
193.7200784584652
 20
78.87640802971325
 30
0.0
 10
193.7159645022314
 20
78.84589618764528
 30
0.0
  0
SPLINE
  5
16A
330
1F
100
AcDbEntity
  8
Hewi
 62
   255
100
AcDbSpline
210
0.0
220
0.0
230
1.0
 70
    24
 71
     3
 72
     8
 73
     4
 74
     0
 42
0.0000000001
 43
0.0000000001
 40
13.0
 40
13.0
 40
13.0
 40
13.0
 40
14.0
 40
14.0
 40
14.0
 40
14.0
 10
193.7159645022314
 20
78.84589618764528
 30
0.0
 10
193.7159645022314
 20
78.84383920952834
 30
0.0
 10
193.7159645022314
 20
78.84383920952834
 30
0.0
 10
193.7159645022314
 20
78.84383920952834
 30
0.0
  0
SPLINE
  5
16B
330
1F
100
AcDbEntity
  8
Hewi
 62
   255
100
AcDbSpline
210
0.0
220
0.0
230
1.0
 70
    24
 71
     3
 72
     8
 73
     4
 74
     0
 42
0.0000000001
 43
0.0000000001
 40
14.0
 40
14.0
 40
14.0
 40
14.0
 40
15.0
 40
15.0
 40
15.0
 40
15.0
 10
193.7159645022314
 20
78.84383920952834
 30
0.0
 10
193.7159645022314
 20
78.83972525329444
 30
0.0
 10
193.7159645022314
 20
78.83766827517749
 30
0.0
 10
193.7159645022314
 20
78.83561129706058
 30
0.0
  0
SPLINE
  5
16C
330
1F
100
AcDbEntity
  8
Hewi
 62
   255
100
AcDbSpline
210
0.0
220
0.0
230
1.0
 70
     8
 71
     3
 72
     8
 73
     4
 74
     0
 42
0.0000000001
 43
0.0000000001
 40
15.0
 40
15.0
 40
15.0
 40
15.0
 40
16.0
 40
16.0
 40
16.0
 40
16.0
 10
193.7159645022314
 20
78.83561129706058
 30
0.0
 10
193.7121933756835
 20
78.81881264243891
 30
0.0
 10
193.7121933756835
 20
78.80235681750335
 30
0.0
 10
193.7080794194497
 20
78.78590099256783
 30
0.0
  0
SPLINE
  5
16D
330
1F
100
AcDbEntity
  8
Hewi
 62
   255
100
AcDbSpline
210
0.0
220
0.0
230
1.0
 70
    24
 71
     3
 72
     8
 73
     4
 74
     0
 42
0.0000000001
 43
0.0000000001
 40
16.0
 40
16.0
 40
16.0
 40
16.0
 40
17.0
 40
17.0
 40
17.0
 40
17.0
 10
193.7080794194497
 20
78.78590099256783
 30
0.0
 10
193.7080794194497
 20
78.78350118476475
 30
0.0
 10
193.7080794194497
 20
78.78144420664778
 30
0.0
 10
193.7080794194497
 20
78.77733025041393
 30
0.0
  0
SPLINE
  5
16E
330
1F
100
AcDbEntity
  8
Hewi
 62
   255
100
AcDbSpline
210
0.0
220
0.0
230
1.0
 70
     8
 71
     3
 72
     8
 73
     4
 74
     0
 42
0.0000000001
 43
0.0000000001
 40
17.0
 40
17.0
 40
17.0
 40
17.0
 40
18.0
 40
18.0
 40
18.0
 40
18.0
 10
193.7080794194497
 20
78.77733025041393
 30
0.0
 10
193.7039654632158
 20
78.7605315957922
 30
0.0
 10
193.7039654632158
 20
78.7464755786598
 30
0.0
 10
193.6998515069819
 20
78.73001975372428
 30
0.0
  0
SPLINE
  5
16F
330
1F
100
AcDbEntity
  8
Hewi
 62
   255
100
AcDbSpline
210
0.0
220
0.0
230
1.0
 70
    24
 71
     3
 72
     8
 73
     4
 74
     0
 42
0.0000000001
 43
0.0000000001
 40
18.0
 40
18.0
 40
18.0
 40
18.0
 40
19.0
 40
19.0
 40
19.0
 40
19.0
 10
193.6998515069819
 20
78.73001975372428
 30
0.0
 10
193.6998515069819
 20
78.7279627756073
 30
0.0
 10
193.6998515069819
 20
78.72419164905959
 30
0.0
 10
193.6998515069819
 20
78.72007769282571
 30
0.0
  0
SPLINE
  5
170
330
1F
100
AcDbEntity
  8
Hewi
 62
   255
100
AcDbSpline
210
0.0
220
0.0
230
1.0
 70
     8
 71
     3
 72
     8
 73
     4
 74
     0
 42
0.0000000001
 43
0.0000000001
 40
19.0
 40
19.0
 40
19.0
 40
19.0
 40
20.0
 40
20.0
 40
20.0
 40
20.0
 10
193.6998515069819
 20
78.72007769282571
 30
0.0
 10
193.6916235945141
 20
78.68648038358235
 30
0.0
 10
193.6878524679665
 20
78.65151175559436
 30
0.0
 10
193.6830528523602
 20
78.61654312760634
 30
0.0
  0
SPLINE
  5
171
330
1F
100
AcDbEntity
  8
Hewi
 62
   255
100
AcDbSpline
210
0.0
220
0.0
230
1.0
 70
     8
 71
     3
 72
     8
 73
     4
 74
     0
 42
0.0000000001
 43
0.0000000001
 40
20.0
 40
20.0
 40
20.0
 40
20.0
 40
21.0
 40
21.0
 40
21.0
 40
21.0
 10
193.6830528523602
 20
78.61654312760634
 30
0.0
 10
193.6785960664402
 20
78.60008730267084
 30
0.0
 10
193.6744821102063
 20
78.57917469181527
 30
0.0
 10
193.6744821102063
 20
78.56271886687974
 30
0.0
  0
SPLINE
  5
172
330
1F
100
AcDbEntity
  8
Hewi
 62
   255
100
AcDbSpline
210
0.0
220
0.0
230
1.0
 70
     8
 71
     3
 72
     8
 73
     4
 74
     0
 42
0.0000000001
 43
0.0000000001
 40
21.0
 40
21.0
 40
21.0
 40
21.0
 40
22.0
 40
22.0
 40
22.0
 40
22.0
 10
193.6744821102063
 20
78.56271886687974
 30
0.0
 10
193.6460272462553
 20
78.40604570030603
 30
0.0
 10
193.6210006791658
 20
78.2524580009078
 30
0.0
 10
193.588431858981
 20
78.09989879056797
 30
0.0
  0
SPLINE
  5
173
330
1F
100
AcDbEntity
  8
Hewi
 62
   255
100
AcDbSpline
210
0.0
220
0.0
230
1.0
 70
    24
 71
     3
 72
     8
 73
     4
 74
     0
 42
0.0000000001
 43
0.0000000001
 40
43.0
 40
43.0
 40
43.0
 40
43.0
 40
44.0
 40
44.0
 40
44.0
 40
44.0
 10
108.0227617174785
 20
61.00263951223983
 30
0.0
 10
133.0195026242327
 20
61.00263951223983
 30
0.0
 10
158.01864333879
 20
61.00263951223983
 30
0.0
 10
183.015041415858
 20
61.00263951223983
 30
0.0
  0
SPLINE
  5
174
330
1F
100
AcDbEntity
  8
Hewi
 62
   255
100
AcDbSpline
210
0.0
220
0.0
230
1.0
 70
     8
 71
     3
 72
     8
 73
     4
 74
     0
 42
0.0000000001
 43
0.0000000001
 40
44.0
 40
44.0
 40
44.0
 40
44.0
 40
45.0
 40
45.0
 40
45.0
 40
45.0
 10
183.015041415858
 20
61.00263951223983
 30
0.0
 10
192.861452831969
 20
60.99852555600595
 30
0.0
 10
201.2696937146519
 20
68.19143520126276
 30
0.0
 10
202.7788299931143
 20
77.92608413968645
 30
0.0
  0
SPLINE
  5
175
330
1F
100
AcDbEntity
  8
Hewi
 62
   255
100
AcDbSpline
210
0.0
220
0.0
230
1.0
 70
     8
 71
     3
 72
     8
 73
     4
 74
     0
 42
0.0000000001
 43
0.0000000001
 40
45.0
 40
45.0
 40
45.0
 40
45.0
 40
46.0
 40
46.0
 40
46.0
 40
46.0
 10
202.7788299931143
 20
77.92608413968645
 30
0.0
 10
202.7788299931143
 20
77.94665392085589
 30
0.0
 10
202.782601119662
 20
77.96722370202527
 30
0.0
 10
202.7870579055821
 20
77.98813631288088
 30
0.0
  0
SPLINE
  5
176
330
1F
100
AcDbEntity
  8
Hewi
 62
   255
100
AcDbSpline
210
0.0
220
0.0
230
1.0
 70
    24
 71
     3
 72
     8
 73
     4
 74
     0
 42
0.0000000001
 43
0.0000000001
 40
46.0
 40
46.0
 40
46.0
 40
46.0
 40
47.0
 40
47.0
 40
47.0
 40
47.0
 10
202.7870579055821
 20
77.98813631288088
 30
0.0
 10
202.7870579055821
 20
77.98813631288088
 30
0.0
 10
202.7870579055821
 20
77.99225026911476
 30
0.0
 10
202.7870579055821
 20
77.9963642253486
 30
0.0
  0
SPLINE
  5
177
330
1F
100
AcDbEntity
  8
Hewi
 62
   255
100
AcDbSpline
210
0.0
220
0.0
230
1.0
 70
     8
 71
     3
 72
     8
 73
     4
 74
     0
 42
0.0000000001
 43
0.0000000001
 40
47.0
 40
47.0
 40
47.0
 40
47.0
 40
48.0
 40
48.0
 40
48.0
 40
48.0
 10
202.7870579055821
 20
77.9963642253486
 30
0.0
 10
202.7911718618159
 20
78.02104796275191
 30
0.0
 10
202.7952858180499
 20
78.04196057360748
 30
0.0
 10
202.7993997742838
 20
78.06664431101076
 30
0.0
  0
SPLINE
  5
178
330
1F
100
AcDbEntity
  8
Hewi
 62
   255
100
AcDbSpline
210
0.0
220
0.0
230
1.0
 70
    27
 71
     3
 72
     8
 73
     4
 74
     0
 42
0.0000000001
 43
0.0000000001
 40
48.0
 40
48.0
 40
48.0
 40
48.0
 40
49.0
 40
49.0
 40
49.0
 40
49.0
 10
202.7993997742838
 20
78.06664431101076
 30
0.0
 10
202.7993997742838
 20
78.06664431101076
 30
0.0
 10
202.7993997742838
 20
78.06664431101076
 30
0.0
 10
202.7993997742838
 20
78.06664431101076
 30
0.0
  0
SPLINE
  5
179
330
1F
100
AcDbEntity
  8
Hewi
 62
   255
100
AcDbSpline
210
0.0
220
0.0
230
1.0
 70
     8
 71
     3
 72
     8
 73
     4
 74
     0
 42
0.0000000001
 43
0.0000000001
 40
49.0
 40
49.0
 40
49.0
 40
49.0
 40
50.0
 40
50.0
 40
50.0
 40
50.0
 10
202.7993997742838
 20
78.06664431101076
 30
0.0
 10
202.8035137305176
 20
78.09167087810021
 30
0.0
 10
202.8076276867515
 20
78.11224065926963
 30
0.0
 10
202.8076276867515
 20
78.13692439667292
 30
0.0
  0
SPLINE
  5
17A
330
1F
100
AcDbEntity
  8
Hewi
 62
   255
100
AcDbSpline
210
0.0
220
0.0
230
1.0
 70
     8
 71
     3
 72
     8
 73
     4
 74
     0
 42
0.0000000001
 43
0.0000000001
 40
50.0
 40
50.0
 40
50.0
 40
50.0
 40
51.0
 40
51.0
 40
51.0
 40
51.0
 10
202.8076276867515
 20
78.13692439667292
 30
0.0
 10
202.8117416429853
 20
78.14892343568842
 30
0.0
 10
202.8117416429853
 20
78.16195096376238
 30
0.0
 10
202.8158555992193
 20
78.17017887623013
 30
0.0
  0
SPLINE
  5
17B
330
1F
100
AcDbEntity
  8
Hewi
 62
   255
100
AcDbSpline
210
0.0
220
0.0
230
1.0
 70
     8
 71
     3
 72
     8
 73
     4
 74
     0
 42
0.0000000001
 43
0.0000000001
 40
51.0
 40
51.0
 40
51.0
 40
51.0
 40
52.0
 40
52.0
 40
52.0
 40
52.0
 10
202.8158555992193
 20
78.17017887623013
 30
0.0
 10
202.8158555992193
 20
78.18252074493178
 30
0.0
 10
202.8158555992193
 20
78.19417695426112
 30
0.0
 10
202.8199695554532
 20
78.20686165264892
 30
0.0
  0
SPLINE
  5
17C
330
1F
100
AcDbEntity
  8
Hewi
 62
   255
100
AcDbSpline
210
0.0
220
0.0
230
1.0
 70
     8
 71
     3
 72
     8
 73
     4
 74
     0
 42
0.0000000001
 43
0.0000000001
 40
52.0
 40
52.0
 40
52.0
 40
52.0
 40
53.0
 40
53.0
 40
53.0
 40
53.0
 10
202.8199695554532
 20
78.20686165264892
 30
0.0
 10
202.8199695554532
 20
78.21577522448897
 30
0.0
 10
202.8199695554532
 20
78.22400313695675
 30
0.0
 10
202.8240835116871
 20
78.23223104942453
 30
0.0
  0
SPLINE
  5
17D
330
1F
100
AcDbEntity
  8
Hewi
 62
   255
100
AcDbSpline
210
0.0
220
0.0
230
1.0
 70
     8
 71
     3
 72
    14
 73
    10
 74
     0
 42
0.0000000001
 43
0.0000000001
 40
53.0
 40
53.0
 40
53.0
 40
53.0
 40
54.0
 40
54.0
 40
54.0
 40
55.0
 40
55.0
 40
55.0
 40
56.0
 40
56.0
 40
56.0
 40
56.0
 10
202.8240835116871
 20
78.23223104942453
 30
0.0
 10
202.8240835116871
 20
78.24834404467387
 30
0.0
 10
202.8281974679209
 20
78.26068591337556
 30
0.0
 10
202.8281974679209
 20
78.27817022736955
 30
0.0
 10
202.8281974679209
 20
78.28228418360343
 30
0.0
 10
202.8319685944686
 20
78.28982643669887
 30
0.0
 10
202.8319685944686
 20
78.29394039293275
 30
0.0
 10
202.8319685944686
 20
78.31005338818214
 30
0.0
 10
202.8360825507024
 20
78.33062316935155
 30
0.0
 10
202.8360825507024
 20
78.34776465365941
 30
0.0
  0
SPLINE
  5
17E
330
1F
100
AcDbEntity
  8
Hewi
 62
   255
100
AcDbSpline
210
0.0
220
0.0
230
1.0
 70
     8
 71
     3
 72
     8
 73
     4
 74
     0
 42
0.0000000001
 43
0.0000000001
 40
56.0
 40
56.0
 40
56.0
 40
56.0
 40
57.0
 40
57.0
 40
57.0
 40
57.0
 10
202.8360825507024
 20
78.34776465365941
 30
0.0
 10
202.8401965069364
 20
78.34776465365941
 30
0.0
 10
202.8401965069364
 20
78.35187860989326
 30
0.0
 10
202.8401965069364
 20
78.35599256612714
 30
0.0
  0
SPLINE
  5
17F
330
1F
100
AcDbEntity
  8
Hewi
 62
   255
100
AcDbSpline
210
0.0
220
0.0
230
1.0
 70
     8
 71
     3
 72
     8
 73
     4
 74
     0
 42
0.0000000001
 43
0.0000000001
 40
57.0
 40
57.0
 40
57.0
 40
57.0
 40
58.0
 40
58.0
 40
58.0
 40
58.0
 10
202.8401965069364
 20
78.35599256612714
 30
0.0
 10
202.8453389522286
 20
78.39747495815212
 30
0.0
 10
202.8532240350103
 20
78.44238564703869
 30
0.0
 10
202.8573379912442
 20
78.48421086874981
 30
0.0
  0
SPLINE
  5
180
330
1F
100
AcDbEntity
  8
Hewi
 62
   255
100
AcDbSpline
210
0.0
220
0.0
230
1.0
 70
    24
 71
     3
 72
     8
 73
     4
 74
     0
 42
0.0000000001
 43
0.0000000001
 40
58.0
 40
58.0
 40
58.0
 40
58.0
 40
59.0
 40
59.0
 40
59.0
 40
59.0
 10
202.8573379912442
 20
78.48421086874981
 30
0.0
 10
202.8573379912442
 20
78.4883248249837
 30
0.0
 10
202.8573379912442
 20
78.49243878121757
 30
0.0
 10
202.8573379912442
 20
78.49243878121757
 30
0.0
  0
SPLINE
  5
181
330
1F
100
AcDbEntity
  8
Hewi
 62
   255
100
AcDbSpline
210
0.0
220
0.0
230
1.0
 70
     8
 71
     3
 72
     8
 73
     4
 74
     0
 42
0.0000000001
 43
0.0000000001
 40
59.0
 40
59.0
 40
59.0
 40
59.0
 40
60.0
 40
60.0
 40
60.0
 40
60.0
 10
202.8573379912442
 20
78.49243878121757
 30
0.0
 10
202.8779077724137
 20
78.66831041021602
 30
0.0
 10
202.8981347238969
 20
78.84383920952834
 30
0.0
 10
202.9193901644386
 20
79.01936800884065
 30
0.0
  0
SPLINE
  5
182
330
1F
100
AcDbEntity
  8
Hewi
 62
   255
100
AcDbSpline
210
0.0
220
0.0
230
1.0
 70
     8
 71
     3
 72
     8
 73
     4
 74
     0
 42
0.0000000001
 43
0.0000000001
 40
60.0
 40
60.0
 40
60.0
 40
60.0
 40
61.0
 40
61.0
 40
61.0
 40
61.0
 10
202.9193901644386
 20
79.01936800884065
 30
0.0
 10
202.9193901644386
 20
79.03376685565925
 30
0.0
 10
202.9193901644386
 20
79.05056551028093
 30
0.0
 10
202.9235041206725
 20
79.06290737898256
 30
0.0
  0
SPLINE
  5
183
330
1F
100
AcDbEntity
  8
Hewi
 62
   255
100
AcDbSpline
210
0.0
220
0.0
230
1.0
 70
     8
 71
     3
 72
    14
 73
    10
 74
     0
 42
0.0000000001
 43
0.0000000001
 40
61.0
 40
61.0
 40
61.0
 40
61.0
 40
62.0
 40
62.0
 40
62.0
 40
63.0
 40
63.0
 40
63.0
 40
64.0
 40
64.0
 40
64.0
 40
64.0
 10
202.9235041206725
 20
79.06290737898256
 30
0.0
 10
202.9235041206725
 20
79.07147812113648
 30
0.0
 10
202.9235041206725
 20
79.07970603360427
 30
0.0
 10
202.9235041206725
 20
79.08793394607204
 30
0.0
 10
202.9235041206725
 20
79.09787600697055
 30
0.0
 10
202.9276180769064
 20
79.10850372724144
 30
0.0
 10
202.9276180769064
 20
79.12050276625693
 30
0.0
 10
202.9276180769064
 20
79.13353029433086
 30
0.0
 10
202.9276180769064
 20
79.14552933334637
 30
0.0
 10
202.9313892034541
 20
79.15581422393106
 30
0.0
  0
SPLINE
  5
184
330
1F
100
AcDbEntity
  8
Hewi
 62
   255
100
AcDbSpline
210
0.0
220
0.0
230
1.0
 70
    24
 71
     3
 72
     8
 73
     4
 74
     0
 42
0.0000000001
 43
0.0000000001
 40
64.0
 40
64.0
 40
64.0
 40
64.0
 40
65.0
 40
65.0
 40
65.0
 40
65.0
 10
202.9313892034541
 20
79.15581422393106
 30
0.0
 10
202.9313892034541
 20
79.16198515828191
 30
0.0
 10
202.9313892034541
 20
79.17021307074967
 30
0.0
 10
202.9313892034541
 20
79.17638400510051
 30
0.0
  0
SPLINE
  5
185
330
1F
100
AcDbEntity
  8
Hewi
 62
   255
100
AcDbSpline
210
0.0
220
0.0
230
1.0
 70
     8
 71
     3
 72
     8
 73
     4
 74
     0
 42
0.0000000001
 43
0.0000000001
 40
65.0
 40
65.0
 40
65.0
 40
65.0
 40
66.0
 40
66.0
 40
66.0
 40
66.0
 10
202.9313892034541
 20
79.17638400510051
 30
0.0
 10
202.935503159688
 20
79.19969642375917
 30
0.0
 10
202.935503159688
 20
79.21958054555623
 30
0.0
 10
202.9396171159218
 20
79.24460711264569
 30
0.0
  0
SPLINE
  5
186
330
1F
100
AcDbEntity
  8
Hewi
 62
   255
100
AcDbSpline
210
0.0
220
0.0
230
1.0
 70
    24
 71
     3
 72
     8
 73
     4
 74
     0
 42
0.0000000001
 43
0.0000000001
 40
66.0
 40
66.0
 40
66.0
 40
66.0
 40
67.0
 40
67.0
 40
67.0
 40
67.0
 10
202.9396171159218
 20
79.24460711264569
 30
0.0
 10
202.9396171159218
 20
79.25763464071967
 30
0.0
 10
202.9396171159218
 20
79.27169065785211
 30
0.0
 10
202.9396171159218
 20
79.28574667498451
 30
0.0
  0
SPLINE
  5
187
330
1F
100
AcDbEntity
  8
Hewi
 62
   255
100
AcDbSpline
210
0.0
220
0.0
230
1.0
 70
     8
 71
     3
 72
    11
 73
     7
 74
     0
 42
0.0000000001
 43
0.0000000001
 40
67.0
 40
67.0
 40
67.0
 40
67.0
 40
68.0
 40
68.0
 40
68.0
 40
69.0
 40
69.0
 40
69.0
 40
69.0
 10
202.9396171159218
 20
79.28574667498451
 30
0.0
 10
202.9437310721558
 20
79.29603156556925
 30
0.0
 10
202.9437310721558
 20
79.30665928584009
 30
0.0
 10
202.9437310721558
 20
79.31728700611095
 30
0.0
 10
202.9437310721558
 20
79.32140096234483
 30
0.0
 10
202.9437310721558
 20
79.32517208889257
 30
0.0
 10
202.9437310721558
 20
79.33134302324337
 30
0.0
  0
SPLINE
  5
188
330
1F
100
AcDbEntity
  8
Hewi
 62
   255
100
AcDbSpline
210
0.0
220
0.0
230
1.0
 70
     8
 71
     3
 72
     8
 73
     4
 74
     0
 42
0.0000000001
 43
0.0000000001
 40
69.0
 40
69.0
 40
69.0
 40
69.0
 40
70.0
 40
70.0
 40
70.0
 40
70.0
 10
202.9437310721558
 20
79.33134302324337
 30
0.0
 10
202.9646436830113
 20
79.5521253411284
 30
0.0
 10
202.981442337633
 20
79.77393614807187
 30
0.0
 10
202.9893274204146
 20
79.99711827375995
 30
0.0
  0
SPLINE
  5
189
330
1F
100
AcDbEntity
  8
Hewi
 62
   255
100
AcDbSpline
210
0.0
220
0.0
230
1.0
 70
     8
 71
     3
 72
     8
 73
     4
 74
     0
 42
0.0000000001
 43
0.0000000001
 40
70.0
 40
70.0
 40
70.0
 40
70.0
 40
71.0
 40
71.0
 40
71.0
 40
71.0
 10
202.9893274204146
 20
79.99711827375995
 30
0.0
 10
202.9893274204146
 20
80.00500335654161
 30
0.0
 10
202.9893274204146
 20
80.01563107681246
 30
0.0
 10
202.9934413766485
 20
80.02385898928022
 30
0.0
  0
SPLINE
  5
18A
330
1F
100
AcDbEntity
  8
Hewi
 62
   255
100
AcDbSpline
210
0.0
220
0.0
230
1.0
 70
     8
 71
     3
 72
    20
 73
    16
 74
     0
 42
0.0000000001
 43
0.0000000001
 40
71.0
 40
71.0
 40
71.0
 40
71.0
 40
72.0
 40
72.0
 40
72.0
 40
73.0
 40
73.0
 40
73.0
 40
74.0
 40
74.0
 40
74.0
 40
75.0
 40
75.0
 40
75.0
 40
76.0
 40
76.0
 40
76.0
 40
76.0
 10
202.9934413766485
 20
80.02385898928022
 30
0.0
 10
202.9934413766485
 20
80.02591596739717
 30
0.0
 10
202.9934413766485
 20
80.03002992363105
 30
0.0
 10
202.9934413766485
 20
80.03208690174798
 30
0.0
 10
202.9934413766485
 20
80.04202896264656
 30
0.0
 10
202.9934413766485
 20
80.05094253448662
 30
0.0
 10
202.9934413766485
 20
80.06122742507129
 30
0.0
 10
202.9934413766485
 20
80.06739835942214
 30
0.0
 10
202.9934413766485
 20
80.07185514534217
 30
0.0
 10
202.9934413766485
 20
80.07802607969301
 30
0.0
 10
202.9934413766485
 20
80.08419701404383
 30
0.0
 10
202.9934413766485
 20
80.0900251187085
 30
0.0
 10
202.9934413766485
 20
80.09619605305932
 30
0.0
 10
202.9934413766485
 20
80.10031000929322
 30
0.0
 10
202.9934413766485
 20
80.10922358113328
 30
0.0
 10
202.9975553328824
 20
80.11333753736716
 30
0.0
  0
SPLINE
  5
18B
330
1F
100
AcDbEntity
  8
Hewi
 62
   255
100
AcDbSpline
210
0.0
220
0.0
230
1.0
 70
     8
 71
     3
 72
    17
 73
    13
 74
     0
 42
0.0000000001
 43
0.0000000001
 40
76.0
 40
76.0
 40
76.0
 40
76.0
 40
77.0
 40
77.0
 40
77.0
 40
78.0
 40
78.0
 40
78.0
 40
79.0
 40
79.0
 40
79.0
 40
80.0
 40
80.0
 40
80.0
 40
80.0
 10
202.9975553328824
 20
80.11333753736716
 30
0.0
 10
202.9975553328824
 20
80.11916564203183
 30
0.0
 10
202.9975553328824
 20
80.12533657638265
 30
0.0
 10
202.9975553328824
 20
80.12945053261651
 30
0.0
 10
202.9975553328824
 20
80.13939259351507
 30
0.0
 10
202.9975553328824
 20
80.14967748409979
 30
0.0
 10
202.9975553328824
 20
80.15996237468447
 30
0.0
 10
202.9975553328824
 20
80.17093292464151
 30
0.0
 10
202.9975553328824
 20
80.18293196365698
 30
0.0
 10
202.9975553328824
 20
80.19321685424172
 30
0.0
 10
202.9975553328824
 20
80.19973061827867
 30
0.0
 10
202.9975553328824
 20
80.20384457451255
 30
0.0
 10
203.0016692891163
 20
80.21207248698031
 30
0.0
  0
SPLINE
  5
18C
330
1F
100
AcDbEntity
  8
Hewi
 62
   255
100
AcDbSpline
210
0.0
220
0.0
230
1.0
 70
    24
 71
     3
 72
    14
 73
    10
 74
     0
 42
0.0000000001
 43
0.0000000001
 40
80.0
 40
80.0
 40
80.0
 40
80.0
 40
81.0
 40
81.0
 40
81.0
 40
82.0
 40
82.0
 40
82.0
 40
83.0
 40
83.0
 40
83.0
 40
83.0
 10
203.0016692891163
 20
80.21207248698031
 30
0.0
 10
203.0016692891163
 20
80.21412946509725
 30
0.0
 10
203.0016692891163
 20
80.21824342133115
 30
0.0
 10
203.0016692891163
 20
80.22235737756506
 30
0.0
 10
203.0016692891163
 20
80.22852831191585
 30
0.0
 10
203.0016692891163
 20
80.23675622438361
 30
0.0
 10
203.0016692891163
 20
80.24498413685137
 30
0.0
 10
203.0016692891163
 20
80.24909809308528
 30
0.0
 10
203.0016692891163
 20
80.25321204931914
 30
0.0
 10
203.0016692891163
 20
80.25732600555301
 30
0.0
  0
SPLINE
  5
18D
330
1F
100
AcDbEntity
  8
Hewi
 62
   255
100
AcDbSpline
210
0.0
220
0.0
230
1.0
 70
     8
 71
     3
 72
     8
 73
     4
 74
     0
 42
0.0000000001
 43
0.0000000001
 40
83.0
 40
83.0
 40
83.0
 40
83.0
 40
84.0
 40
84.0
 40
84.0
 40
84.0
 10
203.0016692891163
 20
80.25732600555301
 30
0.0
 10
203.0057832453502
 20
80.32349213498129
 30
0.0
 10
203.0057832453502
 20
80.38965826440959
 30
0.0
 10
203.0098972015841
 20
80.45788137195478
 30
0.0
  0
SPLINE
  5
18E
330
1F
100
AcDbEntity
  8
Hewi
 62
   255
100
AcDbSpline
210
0.0
220
0.0
230
1.0
 70
    24
 71
     3
 72
     8
 73
     4
 74
     0
 42
0.0000000001
 43
0.0000000001
 40
84.0
 40
84.0
 40
84.0
 40
84.0
 40
85.0
 40
85.0
 40
85.0
 40
85.0
 10
203.0098972015841
 20
80.45788137195478
 30
0.0
 10
203.0098972015841
 20
80.46610928442254
 30
0.0
 10
203.0098972015841
 20
80.47433719689031
 30
0.0
 10
203.0098972015841
 20
80.4849649171612
 30
0.0
  0
SPLINE
  5
18F
330
1F
100
AcDbEntity
  8
Hewi
 62
   255
100
AcDbSpline
210
0.0
220
0.0
230
1.0
 70
     8
 71
     3
 72
    11
 73
     7
 74
     0
 42
0.0000000001
 43
0.0000000001
 40
85.0
 40
85.0
 40
85.0
 40
85.0
 40
86.0
 40
86.0
 40
86.0
 40
87.0
 40
87.0
 40
87.0
 40
87.0
 10
203.0098972015841
 20
80.4849649171612
 30
0.0
 10
203.0098972015841
 20
80.4849649171612
 30
0.0
 10
203.0098972015841
 20
80.48702189527814
 30
0.0
 10
203.0098972015841
 20
80.48907887339506
 30
0.0
 10
203.0098972015841
 20
80.57718610273736
 30
0.0
 10
202.9934413766485
 20
80.65432278212266
 30
0.0
 10
202.9519589846235
 20
80.73283078025255
 30
0.0
  0
SPLINE
  5
191
330
1F
100
AcDbEntity
  8
Hewi
 62
   255
100
AcDbSpline
210
0.0
220
0.0
230
1.0
 70
    24
 71
     3
 72
     8
 73
     4
 74
     0
 42
0.0000000001
 43
0.0000000001
 40
90.0
 40
90.0
 40
90.0
 40
90.0
 40
91.0
 40
91.0
 40
91.0
 40
91.0
 10
193.8647525860234
 20
80.51581958891526
 30
0.0
 10
193.8647525860234
 20
80.49936376397972
 30
0.0
 10
193.8647525860234
 20
80.4808509609273
 30
0.0
 10
193.8647525860234
 20
80.4640523063056
 30
0.0
  0
SPLINE
  5
192
330
1F
100
AcDbEntity
  8
Hewi
 62
   255
100
AcDbSpline
210
0.0
220
0.0
230
1.0
 70
     8
 71
     3
 72
     8
 73
     4
 74
     0
 42
0.0000000001
 43
0.0000000001
 40
91.0
 40
91.0
 40
91.0
 40
91.0
 40
92.0
 40
92.0
 40
92.0
 40
92.0
 10
193.8647525860234
 20
80.4640523063056
 30
0.0
 10
193.8606386297895
 20
80.45993835007172
 30
0.0
 10
193.8606386297895
 20
80.45616722352402
 30
0.0
 10
193.8606386297895
 20
80.45171043760396
 30
0.0
  0
SPLINE
  5
193
330
1F
100
AcDbEntity
  8
Hewi
 62
   255
100
AcDbSpline
210
0.0
220
0.0
230
1.0
 70
    24
 71
     3
 72
     8
 73
     4
 74
     0
 42
0.0000000001
 43
0.0000000001
 40
92.0
 40
92.0
 40
92.0
 40
92.0
 40
93.0
 40
93.0
 40
93.0
 40
93.0
 10
193.8606386297895
 20
80.45171043760396
 30
0.0
 10
193.8606386297895
 20
80.45171043760396
 30
0.0
 10
193.8606386297895
 20
80.39411505032958
 30
0.0
 10
193.8606386297895
 20
80.39411505032958
 30
0.0
  0
SPLINE
  5
194
330
1F
100
AcDbEntity
  8
Hewi
 62
   255
100
AcDbSpline
210
0.0
220
0.0
230
1.0
 70
     8
 71
     3
 72
    18
 73
    14
 74
     0
 42
0.0000000001
 43
0.0000000001
 40
43.00913367302745
 40
43.00913367302745
 40
43.00913367302745
 40
43.00913367302745
 40
43.01670023482782
 40
43.01670023482782
 40
43.05010070448349
 40
43.05010070448349
 40
43.11690164379481
 40
43.11690164379481
 40
43.25050352241745
 40
43.25050352241745
 40
43.51770727966271
 40
43.51770727966271
 40
44.0
 40
44.0
 40
44.0
 40
44.0
 10
108.0146107146887
 20
70.00263949570322
 30
0.0
 10
108.896838202084
 20
70.00263951223982
 30
0.0
 10
109.0859780501275
 20
70.00263951223982
 30
0.0
 10
110.1100235460978
 20
70.00263951223982
 30
0.0
 10
110.9449316429435
 20
70.00263951223982
 30
0.0
 10
113.4496631028318
 20
70.00263951223982
 30
0.0
 10
115.1194936352258
 20
70.00263951223982
 30
0.0
 10
120.1290093110751
 20
70.00263951223982
 30
0.0
 10
123.4687185331979
 20
70.00263951223982
 30
0.0
 10
133.4879057243347
 20
70.00263951223982
 30
0.0
 10
140.1674432181172
 20
70.00263951223982
 30
0.0
 10
158.9032418067414
 20
70.00263951223982
 30
0.0
 10
170.9594605886353
 20
70.00263951223982
 30
0.0
 10
183.015041415858
 20
70.00263951223982
 30
0.0
  0
SPLINE
  5
195
330
1F
100
AcDbEntity
  8
Hewi
 62
   255
100
AcDbSpline
210
0.0
220
0.0
230
1.0
 70
     8
 71
     3
 72
    18
 73
    14
 74
     0
 42
0.0000000001
 43
0.0000000001
 40
44.0
 40
44.0
 40
44.0
 40
44.0
 40
44.17693288034036
 40
44.17693288034036
 40
44.35386576068075
 40
44.35386576068075
 40
44.53079864102112
 40
44.53079864102112
 40
44.75915020600289
 40
44.75915020600289
 40
44.98750177098465
 40
44.98750177098465
 40
45.0
 40
45.0
 40
45.0
 40
45.0
 10
183.0188017302821
 20
70.0026387266862
 30
0.0
 10
183.9850688479564
 20
70.00223500796429
 30
0.0
 10
184.911831664517
 20
70.12574834621137
 30
0.0
 10
186.6868825662524
 20
70.58990135315679
 30
0.0
 10
187.5348422540514
 20
70.93145166567693
 30
0.0
 10
189.1221502672957
 20
71.80971259446913
 30
0.0
 10
189.8607509237747
 20
72.34654613790883
 30
0.0
 10
191.3789393669082
 20
73.7625442715734
 30
0.0
 10
192.1068035345211
 20
74.69440209128769
 30
0.0
 10
193.236150857386
 20
76.75525705732534
 30
0.0
 10
193.6396568116481
 20
77.88193241585166
 30
0.0
 10
193.7620540811444
 20
79.18252608468981
 30
0.0
 10
193.588431858981
 20
78.09989879056797
 30
0.0
 10
193.5335418935495
 20
77.76769738833479
 30
0.0
  0
ARC
  5
19E
330
1F
100
AcDbEntity
  8
Hewi
100
AcDbCircle
 10
108.0761131891758
 20
106.0026395122398
 30
0.0
 40
45.0
100
AcDbArc
 50
90.0
 51
270.0
  0
ARC
  5
1B0
330
1F
100
AcDbEntity
  8
Hewi
100
AcDbCircle
 10
108.0761131891758
 20
106.0026395122398
 30
0.0
 40
36.0
100
AcDbArc
 50
269.1378977352045
 51
270.0
  0
ARC
  5
1D8
330
1F
100
AcDbEntity
  8
Hewi
100
AcDbCircle
 10
108.0761131891758
 20
106.0026395122398
 30
0.0
 40
36.0
100
AcDbArc
 50
180.0
 51
270.0
  0
ARC
  5
1DA
330
1F
100
AcDbEntity
  8
Hewi
100
AcDbCircle
 10
93.29424948583374
 20
108.6550522937292
 30
0.0
 40
21.38327854813108
100
AcDbArc
 50
93.3108711021314
 51
187.1254038505426
  0
ARC
  5
1DB
330
1F
100
AcDbEntity
  8
Hewi
100
AcDbCircle
 10
182.0761131891758
 20
151.0026395122398
 30
0.0
 40
21.0
100
AcDbArc
 50
270.0
 51
0.0
  0
LINE
  5
1DC
330
1F
100
AcDbEntity
  8
Hewi
100
AcDbLine
 10
202.432414353494
 20
81.00160925419954
 30
0.0
 11
194.2088317880599
 21
81.00160925419954
 31
0.0
  0
ARC
  5
1DD
330
1F
100
AcDbEntity
  8
Hewi
100
AcDbCircle
 10
194.2264163042116
 20
80.62440585226223
 30
0.0
 40
0.3776130580917029
100
AcDbArc
 50
87.33091047897785
 51
196.7119096442509
  0
SPLINE
  5
1DE
330
1F
100
AcDbEntity
  8
Hewi
 62
   255
100
AcDbSpline
210
0.0
220
0.0
230
1.0
 70
     8
 71
     3
 72
    14
 73
    10
 74
     0
 42
0.0000000001
 43
0.0000000001
 40
0.0
 40
0.0
 40
0.0
 40
0.0
 40
1.0
 40
1.0
 40
1.0
 40
2.0
 40
2.0
 40
2.0
 40
3.0
 40
3.0
 40
3.0
 40
3.0
 10
202.9975553328825
 20
80.30326518349806
 30
0.0
 10
202.9975553328825
 20
80.29469444134413
 30
0.0
 10
202.9975553328825
 20
80.28646652887639
 30
0.0
 10
202.9975553328825
 20
80.27823861640859
 30
0.0
 10
202.9975553328825
 20
80.27412466017473
 30
0.0
 10
203.0016692891163
 20
80.26589674770699
 30
0.0
 10
203.0016692891163
 20
80.26143996178694
 30
0.0
 10
203.0016692891163
 20
80.25938298366998
 30
0.0
 10
203.0016692891163
 20
80.25732600555304
 30
0.0
 10
203.0016692891163
 20
80.25732600555304
 30
0.0
  0
ARC
  5
1E3
330
1F
100
AcDbEntity
  8
Hewi
100
AcDbCircle
 10
202.2849050358991
 20
80.0799509225011
 30
0.0
 40
0.9333879574788252
100
AcDbArc
 50
44.38475371040067
 51
80.90705701056837
  0
LWPOLYLINE
  5
1E4
330
1F
100
AcDbEntity
  8
Hewi
100
AcDbPolyline
 90
        4
 70
     1
 43
0.0
 10
335.7078466716926
 20
196.5237084999225
 10
335.7078466716926
 20
216.5237084999227
 10
245.7078466716926
 20
216.5237084999227
 10
245.7078466716926
 20
196.5237084999225
  0
LINE
  5
1E5
330
1F
100
AcDbEntity
  8
Hewi
100
AcDbLine
 10
266.7078466716926
 20
196.5237084999225
 30
0.0
 11
266.7078466716926
 21
216.5237084999227
 31
0.0
  0
LINE
  5
1E6
330
1F
100
AcDbEntity
  8
Hewi
100
AcDbLine
 10
315.7088769297329
 20
216.5237084999227
 30
0.0
 11
315.7088769297329
 21
196.5237084999225
 31
0.0
  0
LWPOLYLINE
  5
1E7
330
1F
100
AcDbEntity
  8
Hewi
100
AcDbPolyline
 90
        4
 70
     1
 43
0.0
 10
64.18495057865346
 20
196.5237084999226
 10
204.1849505786534
 20
196.5237084999226
 10
204.1849505786534
 20
216.5237084999227
 10
64.18495057865346
 20
216.5237084999227
  0
VIEWPORT
  5
9A
102
{ACAD_XDICTIONARY
360
283
102
}
330
96
100
AcDbEntity
 67
     1
  8
0
100
AcDbViewport
 10
7.32214401076716
 20
4.5
 30
0.0
 40
15.34286275121571
 41
9.523598182250019
 68
     1
 69
     1
 12
7.32214401076716
 22
4.5
 13
0.0
 23
0.0
 14
0.5
 24
0.5
 15
0.5
 25
0.5
 16
0.0
 26
0.0
 36
1.0
 17
0.0
 27
0.0
 37
0.0
 42
50.0
 43
0.0
 44
0.0
 45
9.523598182250019
 50
0.0
 51
0.0
 72
   100
 90
   557152
  1

281
     0
 71
     1
 74
     0
110
0.0
120
0.0
130
0.0
111
1.0
121
0.0
131
0.0
112
0.0
122
1.0
132
0.0
 79
     0
146
0.0
  0
ENDSEC
  0
SECTION
  2
OBJECTS
  0
DICTIONARY
  5
C
330
0
100
AcDbDictionary
281
     1
  3
ACAD_COLOR
350
C9
  3
ACAD_GROUP
350
D
  3
ACAD_LAYOUT
350
1A
  3
ACAD_MATERIAL
350
C5
  3
ACAD_MLEADERSTYLE
350
BE
  3
ACAD_MLINESTYLE
350
17
  3
ACAD_PLOTSETTINGS
350
19
  3
ACAD_PLOTSTYLENAME
350
E
  3
ACAD_SCALELIST
350
9B
  3
ACAD_TABLESTYLE
350
BD
  3
ACAD_VISUALSTYLE
350
2A
  3
AcDbVariableDictionary
350
BF
  3
DWGPROPS
350
27F
  0
DICTIONARY
  5
D0
330
2
100
AcDbDictionary
280
     1
281
     1
  3
ACAD_LAYERFILTERS
360
D9
  3
ACAD_LAYERSTATES
360
D1
  3
ACLYDICTIONARY
360
D8
  0
DICTIONARY
  5
F8
330
1F
100
AcDbDictionary
280
     1
281
     1
  3
ACAD_SORTENTS
360
F9
  0
DICTIONARY
  5
283
330
9A
100
AcDbDictionary
280
     1
281
     1
  3
ACAD_XREC_ROUNDTRIP
360
284
  0
DICTIONARY
  5
C9
102
{ACAD_REACTORS
330
C
102
}
330
C
100
AcDbDictionary
281
     1
  0
DICTIONARY
  5
D
102
{ACAD_REACTORS
330
C
102
}
330
C
100
AcDbDictionary
281
     1
  0
DICTIONARY
  5
1A
102
{ACAD_REACTORS
330
C
102
}
330
C
100
AcDbDictionary
281
     1
  3
LAYOUT1
350
97
  3
Model
350
22
  0
DICTIONARY
  5
C5
102
{ACAD_REACTORS
330
C
102
}
330
C
100
AcDbDictionary
281
     1
  3
ByBlock
350
C7
  3
ByLayer
350
C6
  3
Global
350
C8
  0
DICTIONARY
  5
BE
102
{ACAD_REACTORS
330
C
102
}
330
C
100
AcDbDictionary
281
     1
  0
DICTIONARY
  5
17
102
{ACAD_REACTORS
330
C
102
}
330
C
100
AcDbDictionary
281
     1
  3
Standard
350
18
  0
DICTIONARY
  5
19
102
{ACAD_REACTORS
330
C
102
}
330
C
100
AcDbDictionary
281
     1
  0
ACDBDICTIONARYWDFLT
  5
E
102
{ACAD_REACTORS
330
C
102
}
330
C
100
AcDbDictionary
281
     1
  3
Normal
350
F
100
AcDbDictionaryWithDefault
340
F
  0
DICTIONARY
  5
9B
102
{ACAD_REACTORS
330
C
102
}
330
C
100
AcDbDictionary
281
     1
  3
A0
350
9C
  3
A1
350
9D
  3
A2
350
9E
  3
A3
350
9F
  3
A4
350
A0
  3
A5
350
A1
  3
A6
350
A2
  3
A7
350
A3
  3
A8
350
A4
  3
A9
350
A5
  3
B0
350
A6
  3
B1
350
A7
  3
B2
350
A8
  3
B3
350
A9
  3
B4
350
AA
  3
B5
350
AB
  3
B6
350
AC
  3
B7
350
AD
  3
B8
350
AE
  3
B9
350
AF
  3
C0
350
B0
  3
C1
350
B1
  3
C2
350
B2
  3
C3
350
B3
  3
C4
350
B4
  3
C5
350
B5
  3
C6
350
B6
  3
C7
350
B7
  3
C8
350
B8
  3
C9
350
B9
  3
D0
350
BA
  3
D1
350
BB
  3
D2
350
BC
  0
DICTIONARY
  5
BD
102
{ACAD_REACTORS
330
C
102
}
330
C
100
AcDbDictionary
281
     1
  3
Standard
350
CA
  0
DICTIONARY
  5
2A
102
{ACAD_REACTORS
330
C
102
}
330
C
100
AcDbDictionary
281
     1
  3
2dWireframe
350
2F
  3
3D Hidden
350
31
  3
3dWireframe
350
30
  3
Basic
350
32
  3
Brighten
350
36
  3
ColorChange
350
3A
  3
Conceptual
350
34
  3
Dim
350
35
  3
Facepattern
350
39
  3
Flat
350
2B
  3
FlatWithEdges
350
2C
  3
Gouraud
350
2D
  3
GouraudWithEdges
350
2E
  3
Linepattern
350
38
  3
Realistic
350
33
  3
Thicken
350
37
  0
DICTIONARY
  5
BF
102
{ACAD_REACTORS
330
C
102
}
330
C
100
AcDbDictionary
281
     1
  3
CANNOSCALE
350
C0
  3
CTABLESTYLE
350
DA
  3
DIMASSOC
350
DE
  3
HIDETEXT
350
DD
  3
INDEXCTL
350
DC
  3
SORTENTS
350
DB
  0
XRECORD
  5
27F
102
{ACAD_REACTORS
330
C
102
}
330
C
100
AcDbXrecord
280
     1
  1
DWGPROPS COOKIE
  2

  3

  4

  6

  7

  8
kaschu
  9

300
=
301
=
302
=
303
=
304
=
305
=
306
=
307
=
308
=
309
=
 40
0.01408875
 41
2454858.748596007
 42
2455310.387808183
  1

 90
        0
  0
DICTIONARY
  5
D9
102
{ACAD_REACTORS
330
D0
102
}
330
D0
100
AcDbDictionary
281
     1
  0
DICTIONARY
  5
D1
102
{ACAD_REACTORS
330
D0
102
}
330
D0
100
AcDbDictionary
281
     1
  0
DICTIONARY
  5
D8
102
{ACAD_REACTORS
330
D0
102
}
330
D0
100
AcDbDictionary
281
     1
1001
ACAD
1000
<All
  0
SORTENTSTABLE
  5
F9
102
{ACAD_REACTORS
330
F8
102
}
330
F8
100
AcDbSortentsTable
330
1F
331
16F
  5
171
331
17A
  5
17E
331
173
  5
175
331
17E
  5
182
331
182
  5
186
331
177
  5
17B
331
F6
  5
15D
331
186
  5
18A
331
162
  5
164
331
18A
  5
18E
331
166
  5
168
331
18E
  5
192
331
194
  5
176
331
16A
  5
16C
331
179
  5
17D
331
16E
  5
170
331
17D
  5
181
331
172
  5
174
331
1B0
  5
1D9
331
181
  5
185
331
176
  5
17A
331
185
  5
189
331
161
  5
163
331
189
  5
18D
331
193
  5
19E
331
165
  5
167
331
18D
  5
191
331
169
  5
16B
331
178
  5
17C
331
16D
  5
16F
331
171
  5
173
331
17C
  5
180
331
180
  5
184
331
175
  5
179
331
184
  5
188
331
F4
  5
15A
331
160
  5
162
331
188
  5
18C
331
164
  5
166
331
18C
  5
190
331
192
  5
19D
331
168
  5
16A
331
16C
  5
16E
331
17B
  5
17F
331
170
  5
172
331
19E
  5
1A9
331
17F
  5
183
331
174
  5
177
331
FA
  5
161
331
183
  5
187
331
187
  5
18B
331
191
  5
195
331
163
  5
165
331
18B
  5
18F
331
195
  5
178
331
167
  5
169
331
18F
  5
193
331
16B
  5
16D
  0
XRECORD
  5
284
102
{ACAD_REACTORS
330
283
102
}
330
283
100
AcDbXrecord
280
     1
102
SHADEPLOT
 70
     0
  0
LAYOUT
  5
97
102
{ACAD_XDICTIONARY
360
D3
102
}
102
{ACAD_REACTORS
330
1A
102
}
330
1A
100
AcDbPlotSettings
  1

  2
none_device
  4
Letter_(8.50_x_11.00_Inches)
  6

 40
6.349999999999997
 41
6.349999999999997
 42
6.350005079999997
 43
6.350005079999997
 44
215.9
 45
279.4
 46
0.0
 47
0.0
 48
0.0
 49
0.0
140
0.0
141
0.0
142
1.0
143
1.0
 70
   688
 72
     0
 73
     1
 74
     5
  7

 75
    16
147
1.0
148
0.0
149
0.0
100
AcDbLayout
  1
LAYOUT1
 70
     1
 71
     1
 10
0.0
 20
0.0
 11
12.0
 21
9.0
 12
0.0
 22
0.0
 32
0.0
 14
1.000000000000000E+20
 24
1.000000000000000E+20
 34
1.000000000000000E+20
 15
-1.000000000000000E+20
 25
-1.000000000000000E+20
 35
-1.000000000000000E+20
146
0.0
 13
0.0
 23
0.0
 33
0.0
 16
1.0
 26
0.0
 36
0.0
 17
0.0
 27
1.0
 37
0.0
 76
     0
330
96
331
9A
  0
LAYOUT
  5
22
102
{ACAD_XDICTIONARY
360
280
102
}
102
{ACAD_REACTORS
330
1A
102
}
330
1A
100
AcDbPlotSettings
  1

  2
none_device
  4

  6

 40
0.0
 41
0.0
 42
0.0
 43
0.0
 44
0.0
 45
0.0
 46
0.0
 47
0.0
 48
0.0
 49
0.0
140
0.0
141
0.0
142
1.0
143
1.0
 70
  1712
 72
     0
 73
     0
 74
     0
  7

 75
     0
147
1.0
148
0.0
149
0.0
100
AcDbLayout
  1
Model
 70
     1
 71
     0
 10
0.0
 20
0.0
 11
12.0
 21
9.0
 12
0.0
 22
0.0
 32
0.0
 14
106.6188564159412
 24
60.3287047482823
 34
0.0
 15
313.8573447196388
 25
235.9222988712721
 35
0.0
146
0.0
 13
0.0
 23
0.0
 33
0.0
 16
1.0
 26
0.0
 36
0.0
 17
0.0
 27
1.0
 37
0.0
 76
     0
330
1F
331
29
  0
MATERIAL
  5
C7
102
{ACAD_XDICTIONARY
360
E7
102
}
102
{ACAD_REACTORS
330
C5
102
}
330
C5
100
AcDbMaterial
  1
ByBlock
  0
MATERIAL
  5
C6
102
{ACAD_XDICTIONARY
360
E5
102
}
102
{ACAD_REACTORS
330
C5
102
}
330
C5
100
AcDbMaterial
  1
ByLayer
  0
MATERIAL
  5
C8
102
{ACAD_XDICTIONARY
360
E9
102
}
102
{ACAD_REACTORS
330
C5
102
}
330
C5
100
AcDbMaterial
  1
Global
  0
MLINESTYLE
  5
18
102
{ACAD_REACTORS
330
17
102
}
330
17
100
AcDbMlineStyle
  2
STANDARD
 70
     0
  3

 62
   256
 51
90.0
 52
90.0
 71
     2
 49
0.5
 62
   256
  6
BYLAYER
 49
-0.5
 62
   256
  6
BYLAYER
  0
ACDBPLACEHOLDER
  5
F
102
{ACAD_REACTORS
330
E
102
}
330
E
  0
ACAD_PROXY_OBJECT
  5
9C
102
{ACAD_REACTORS
330
9B
102
}
330
9B
100
AcDbProxyObject
 90
      499
 91
      502
 95
       25
 70
     1
100
AcDbScale
 70
     0
300
1:1
140
1.0
141
1.0
290
     1
1001
ACAD
1001
ACAD
1001
ACAD
1000
AcRTDxfName
1000
SCALE
  0
ACAD_PROXY_OBJECT
  5
9D
102
{ACAD_REACTORS
330
9B
102
}
330
9B
100
AcDbProxyObject
 90
      499
 91
      502
 95
       25
 70
     1
100
AcDbScale
 70
     0
300
1:2
140
1.0
141
2.0
290
     0
1001
ACAD
1001
ACAD
1001
ACAD
1000
AcRTDxfName
1000
SCALE
  0
ACAD_PROXY_OBJECT
  5
9E
102
{ACAD_REACTORS
330
9B
102
}
330
9B
100
AcDbProxyObject
 90
      499
 91
      502
 95
       25
 70
     1
100
AcDbScale
 70
     0
300
1:4
140
1.0
141
4.0
290
     0
1001
ACAD
1001
ACAD
1001
ACAD
1000
AcRTDxfName
1000
SCALE
  0
ACAD_PROXY_OBJECT
  5
9F
102
{ACAD_REACTORS
330
9B
102
}
330
9B
100
AcDbProxyObject
 90
      499
 91
      502
 95
       25
 70
     1
100
AcDbScale
 70
     0
300
1:5
140
1.0
141
5.0
290
     0
1001
ACAD
1001
ACAD
1001
ACAD
1000
AcRTDxfName
1000
SCALE
  0
ACAD_PROXY_OBJECT
  5
A0
102
{ACAD_REACTORS
330
9B
102
}
330
9B
100
AcDbProxyObject
 90
      499
 91
      502
 95
       25
 70
     1
100
AcDbScale
 70
     0
300
1:8
140
1.0
141
8.0
290
     0
1001
ACAD
1001
ACAD
1001
ACAD
1000
AcRTDxfName
1000
SCALE
  0
ACAD_PROXY_OBJECT
  5
A1
102
{ACAD_REACTORS
330
9B
102
}
330
9B
100
AcDbProxyObject
 90
      499
 91
      502
 95
       25
 70
     1
100
AcDbScale
 70
     0
300
1:10
140
1.0
141
10.0
290
     0
1001
ACAD
1001
ACAD
1001
ACAD
1000
AcRTDxfName
1000
SCALE
  0
ACAD_PROXY_OBJECT
  5
A2
102
{ACAD_REACTORS
330
9B
102
}
330
9B
100
AcDbProxyObject
 90
      499
 91
      502
 95
       25
 70
     1
100
AcDbScale
 70
     0
300
1:16
140
1.0
141
16.0
290
     0
1001
ACAD
1001
ACAD
1001
ACAD
1000
AcRTDxfName
1000
SCALE
  0
ACAD_PROXY_OBJECT
  5
A3
102
{ACAD_REACTORS
330
9B
102
}
330
9B
100
AcDbProxyObject
 90
      499
 91
      502
 95
       25
 70
     1
100
AcDbScale
 70
     0
300
1:20
140
1.0
141
20.0
290
     0
1001
ACAD
1001
ACAD
1001
ACAD
1000
AcRTDxfName
1000
SCALE
  0
ACAD_PROXY_OBJECT
  5
A4
102
{ACAD_REACTORS
330
9B
102
}
330
9B
100
AcDbProxyObject
 90
      499
 91
      502
 95
       25
 70
     1
100
AcDbScale
 70
     0
300
1:30
140
1.0
141
30.0
290
     0
1001
ACAD
1001
ACAD
1001
ACAD
1000
AcRTDxfName
1000
SCALE
  0
ACAD_PROXY_OBJECT
  5
A5
102
{ACAD_REACTORS
330
9B
102
}
330
9B
100
AcDbProxyObject
 90
      499
 91
      502
 95
       25
 70
     1
100
AcDbScale
 70
     0
300
1:40
140
1.0
141
40.0
290
     0
1001
ACAD
1001
ACAD
1001
ACAD
1000
AcRTDxfName
1000
SCALE
  0
ACAD_PROXY_OBJECT
  5
A6
102
{ACAD_REACTORS
330
9B
102
}
330
9B
100
AcDbProxyObject
 90
      499
 91
      502
 95
       25
 70
     1
100
AcDbScale
 70
     0
300
1:50
140
1.0
141
50.0
290
     0
1001
ACAD
1001
ACAD
1001
ACAD
1000
AcRTDxfName
1000
SCALE
  0
ACAD_PROXY_OBJECT
  5
A7
102
{ACAD_REACTORS
330
9B
102
}
330
9B
100
AcDbProxyObject
 90
      499
 91
      502
 95
       25
 70
     1
100
AcDbScale
 70
     0
300
1:100
140
1.0
141
100.0
290
     0
1001
ACAD
1001
ACAD
1001
ACAD
1000
AcRTDxfName
1000
SCALE
  0
ACAD_PROXY_OBJECT
  5
A8
102
{ACAD_REACTORS
330
9B
102
}
330
9B
100
AcDbProxyObject
 90
      499
 91
      502
 95
       25
 70
     1
100
AcDbScale
 70
     0
300
2:1
140
2.0
141
1.0
290
     0
1001
ACAD
1001
ACAD
1001
ACAD
1000
AcRTDxfName
1000
SCALE
  0
ACAD_PROXY_OBJECT
  5
A9
102
{ACAD_REACTORS
330
9B
102
}
330
9B
100
AcDbProxyObject
 90
      499
 91
      502
 95
       25
 70
     1
100
AcDbScale
 70
     0
300
4:1
140
4.0
141
1.0
290
     0
1001
ACAD
1001
ACAD
1001
ACAD
1000
AcRTDxfName
1000
SCALE
  0
ACAD_PROXY_OBJECT
  5
AA
102
{ACAD_REACTORS
330
9B
102
}
330
9B
100
AcDbProxyObject
 90
      499
 91
      502
 95
       25
 70
     1
100
AcDbScale
 70
     0
300
8:1
140
8.0
141
1.0
290
     0
1001
ACAD
1001
ACAD
1001
ACAD
1000
AcRTDxfName
1000
SCALE
  0
ACAD_PROXY_OBJECT
  5
AB
102
{ACAD_REACTORS
330
9B
102
}
330
9B
100
AcDbProxyObject
 90
      499
 91
      502
 95
       25
 70
     1
100
AcDbScale
 70
     0
300
10:1
140
10.0
141
1.0
290
     0
1001
ACAD
1001
ACAD
1001
ACAD
1000
AcRTDxfName
1000
SCALE
  0
ACAD_PROXY_OBJECT
  5
AC
102
{ACAD_REACTORS
330
9B
102
}
330
9B
100
AcDbProxyObject
 90
      499
 91
      502
 95
       25
 70
     1
100
AcDbScale
 70
     0
300
100:1
140
100.0
141
1.0
290
     0
1001
ACAD
1001
ACAD
1001
ACAD
1000
AcRTDxfName
1000
SCALE
  0
ACAD_PROXY_OBJECT
  5
AD
102
{ACAD_REACTORS
330
9B
102
}
330
9B
100
AcDbProxyObject
 90
      499
 91
      502
 95
       25
 70
     1
100
AcDbScale
 70
     0
300
1/128" = 1'-0"
140
0.0078125
141
12.0
290
     0
1001
ACAD
1001
ACAD
1001
ACAD
1000
AcRTDxfName
1000
SCALE
  0
ACAD_PROXY_OBJECT
  5
AE
102
{ACAD_REACTORS
330
9B
102
}
330
9B
100
AcDbProxyObject
 90
      499
 91
      502
 95
       25
 70
     1
100
AcDbScale
 70
     0
300
1/64" = 1'-0"
140
0.015625
141
12.0
290
     0
1001
ACAD
1001
ACAD
1001
ACAD
1000
AcRTDxfName
1000
SCALE
  0
ACAD_PROXY_OBJECT
  5
AF
102
{ACAD_REACTORS
330
9B
102
}
330
9B
100
AcDbProxyObject
 90
      499
 91
      502
 95
       25
 70
     1
100
AcDbScale
 70
     0
300
1/32" = 1'-0"
140
0.03125
141
12.0
290
     0
1001
ACAD
1001
ACAD
1001
ACAD
1000
AcRTDxfName
1000
SCALE
  0
ACAD_PROXY_OBJECT
  5
B0
102
{ACAD_REACTORS
330
9B
102
}
330
9B
100
AcDbProxyObject
 90
      499
 91
      502
 95
       25
 70
     1
100
AcDbScale
 70
     0
300
1/16" = 1'-0"
140
0.0625
141
12.0
290
     0
1001
ACAD
1001
ACAD
1001
ACAD
1000
AcRTDxfName
1000
SCALE
  0
ACAD_PROXY_OBJECT
  5
B1
102
{ACAD_REACTORS
330
9B
102
}
330
9B
100
AcDbProxyObject
 90
      499
 91
      502
 95
       25
 70
     1
100
AcDbScale
 70
     0
300
3/32" = 1'-0"
140
0.09375
141
12.0
290
     0
1001
ACAD
1001
ACAD
1001
ACAD
1000
AcRTDxfName
1000
SCALE
  0
ACAD_PROXY_OBJECT
  5
B2
102
{ACAD_REACTORS
330
9B
102
}
330
9B
100
AcDbProxyObject
 90
      499
 91
      502
 95
       25
 70
     1
100
AcDbScale
 70
     0
300
1/8" = 1'-0"
140
0.125
141
12.0
290
     0
1001
ACAD
1001
ACAD
1001
ACAD
1000
AcRTDxfName
1000
SCALE
  0
ACAD_PROXY_OBJECT
  5
B3
102
{ACAD_REACTORS
330
9B
102
}
330
9B
100
AcDbProxyObject
 90
      499
 91
      502
 95
       25
 70
     1
100
AcDbScale
 70
     0
300
3/16" = 1'-0"
140
0.1875
141
12.0
290
     0
1001
ACAD
1001
ACAD
1001
ACAD
1000
AcRTDxfName
1000
SCALE
  0
ACAD_PROXY_OBJECT
  5
B4
102
{ACAD_REACTORS
330
9B
102
}
330
9B
100
AcDbProxyObject
 90
      499
 91
      502
 95
       25
 70
     1
100
AcDbScale
 70
     0
300
1/4" = 1'-0"
140
0.25
141
12.0
290
     0
1001
ACAD
1001
ACAD
1001
ACAD
1000
AcRTDxfName
1000
SCALE
  0
ACAD_PROXY_OBJECT
  5
B5
102
{ACAD_REACTORS
330
9B
102
}
330
9B
100
AcDbProxyObject
 90
      499
 91
      502
 95
       25
 70
     1
100
AcDbScale
 70
     0
300
3/8" = 1'-0"
140
0.375
141
12.0
290
     0
1001
ACAD
1001
ACAD
1001
ACAD
1000
AcRTDxfName
1000
SCALE
  0
ACAD_PROXY_OBJECT
  5
B6
102
{ACAD_REACTORS
330
9B
102
}
330
9B
100
AcDbProxyObject
 90
      499
 91
      502
 95
       25
 70
     1
100
AcDbScale
 70
     0
300
1/2" = 1'-0"
140
0.5
141
12.0
290
     0
1001
ACAD
1001
ACAD
1001
ACAD
1000
AcRTDxfName
1000
SCALE
  0
ACAD_PROXY_OBJECT
  5
B7
102
{ACAD_REACTORS
330
9B
102
}
330
9B
100
AcDbProxyObject
 90
      499
 91
      502
 95
       25
 70
     1
100
AcDbScale
 70
     0
300
3/4" = 1'-0"
140
0.75
141
12.0
290
     0
1001
ACAD
1001
ACAD
1001
ACAD
1000
AcRTDxfName
1000
SCALE
  0
ACAD_PROXY_OBJECT
  5
B8
102
{ACAD_REACTORS
330
9B
102
}
330
9B
100
AcDbProxyObject
 90
      499
 91
      502
 95
       25
 70
     1
100
AcDbScale
 70
     0
300
1" = 1'-0"
140
1.0
141
12.0
290
     0
1001
ACAD
1001
ACAD
1001
ACAD
1000
AcRTDxfName
1000
SCALE
  0
ACAD_PROXY_OBJECT
  5
B9
102
{ACAD_REACTORS
330
9B
102
}
330
9B
100
AcDbProxyObject
 90
      499
 91
      502
 95
       25
 70
     1
100
AcDbScale
 70
     0
300
1-1/2" = 1'-0"
140
1.5
141
12.0
290
     0
1001
ACAD
1001
ACAD
1001
ACAD
1000
AcRTDxfName
1000
SCALE
  0
ACAD_PROXY_OBJECT
  5
BA
102
{ACAD_REACTORS
330
9B
102
}
330
9B
100
AcDbProxyObject
 90
      499
 91
      502
 95
       25
 70
     1
100
AcDbScale
 70
     0
300
3" = 1'-0"
140
3.0
141
12.0
290
     0
1001
ACAD
1001
ACAD
1001
ACAD
1000
AcRTDxfName
1000
SCALE
  0
ACAD_PROXY_OBJECT
  5
BB
102
{ACAD_REACTORS
330
9B
102
}
330
9B
100
AcDbProxyObject
 90
      499
 91
      502
 95
       25
 70
     1
100
AcDbScale
 70
     0
300
6" = 1'-0"
140
6.0
141
12.0
290
     0
1001
ACAD
1001
ACAD
1001
ACAD
1000
AcRTDxfName
1000
SCALE
  0
ACAD_PROXY_OBJECT
  5
BC
102
{ACAD_REACTORS
330
9B
102
}
330
9B
100
AcDbProxyObject
 90
      499
 91
      502
 95
       25
 70
     1
100
AcDbScale
 70
     0
300
1'-0" = 1'-0"
140
12.0
141
12.0
290
     0
1001
ACAD
1001
ACAD
1001
ACAD
1000
AcRTDxfName
1000
SCALE
  0
TABLESTYLE
  5
CA
102
{ACAD_XDICTIONARY
360
285
102
}
102
{ACAD_REACTORS
330
BD
102
}
330
BD
100
AcDbTableStyle
  3
Standard
 70
     0
 71
     0
 40
0.06
 41
0.06
280
     0
281
     0
  7
Standard
140
0.18
170
     2
 62
     0
 63
     7
283
     0
274
    -2
284
     1
 64
     0
275
    -2
285
     1
 65
     0
276
    -2
286
     1
 66
     0
277
    -2
287
     1
 67
     0
278
    -2
288
     1
 68
     0
279
    -2
289
     1
 69
     0
  7
Standard
140
0.25
170
     5
 62
     0
 63
     7
283
     0
274
    -2
284
     1
 64
     0
275
    -2
285
     1
 65
     0
276
    -2
286
     1
 66
     0
277
    -2
287
     1
 67
     0
278
    -2
288
     1
 68
     0
279
    -2
289
     1
 69
     0
  7
Standard
140
0.18
170
     5
 62
     0
 63
     7
283
     0
274
    -2
284
     1
 64
     0
275
    -2
285
     1
 65
     0
276
    -2
286
     1
 66
     0
277
    -2
287
     1
 67
     0
278
    -2
288
     1
 68
     0
279
    -2
289
     1
 69
     0
  0
VISUALSTYLE
  5
2F
102
{ACAD_REACTORS
330
2A
102
}
330
2A
100
AcDbVisualStyle
  2
2dWireframe
 70
     4
 71
     0
 72
     2
 73
     0
 90
        0
 40
-0.6
 41
-30.0
 62
     5
 63
     7
 74
     1
 91
        4
 64
     7
 65
   257
 75
     1
175
     1
 42
1.0
 92
        0
 66
   257
 43
1.0
 76
     1
 77
     6
 78
     2
 67
     7
 79
     5
170
     0
171
     0
290
     0
174
     0
 93
        1
 44
0.0
173
     0
291
     0
 45
0.0
1001
ACAD
1000
AcDbSavedByObjectVersion
1070
     0
1000
AcDbSavedByObjectVersion
1070
     0
1000
AcDbSavedByObjectVersion
1070
     0
  0
VISUALSTYLE
  5
31
102
{ACAD_REACTORS
330
2A
102
}
330
2A
100
AcDbVisualStyle
  2
3D Hidden
 70
     6
 71
     1
 72
     2
 73
     2
 90
        0
 40
-0.6
 41
-30.0
 62
     5
 63
     7
 74
     2
 91
        2
 64
     7
 65
   257
 75
     2
175
     1
 42
40.0
 92
        0
 66
   257
 43
1.0
 76
     1
 77
     6
 78
     2
 67
     7
 79
     3
170
     0
171
     0
290
     0
174
     0
 93
        1
 44
0.0
173
     0
291
     0
 45
0.0
1001
ACAD
1000
AcDbSavedByObjectVersion
1070
     0
1000
AcDbSavedByObjectVersion
1070
     0
1000
AcDbSavedByObjectVersion
1070
     0
  0
VISUALSTYLE
  5
30
102
{ACAD_REACTORS
330
2A
102
}
330
2A
100
AcDbVisualStyle
  2
3dWireframe
 70
     5
 71
     0
 72
     2
 73
     0
 90
        0
 40
-0.6
 41
-30.0
 62
     5
 63
     7
 74
     1
 91
        4
 64
     7
 65
   257
 75
     1
175
     1
 42
1.0
 92
        0
 66
   257
 43
1.0
 76
     1
 77
     6
 78
     2
 67
     7
 79
     5
170
     0
171
     0
290
     0
174
     0
 93
        1
 44
0.0
173
     0
291
     0
 45
0.0
1001
ACAD
1000
AcDbSavedByObjectVersion
1070
     0
1000
AcDbSavedByObjectVersion
1070
     0
1000
AcDbSavedByObjectVersion
1070
     0
  0
VISUALSTYLE
  5
32
102
{ACAD_REACTORS
330
2A
102
}
330
2A
100
AcDbVisualStyle
  2
Basic
 70
     7
 71
     1
 72
     0
 73
     1
 90
        0
 40
-0.6
 41
-30.0
 62
     5
 63
     7
 74
     0
 91
        4
 64
     7
 65
   257
 75
     1
175
     1
 42
1.0
 92
        8
 66
     7
 43
1.0
 76
     1
 77
     6
 78
     2
 67
     7
 79
     5
170
     0
171
     0
290
     0
174
     0
 93
        1
 44
0.0
173
     0
291
     1
 45
0.0
1001
ACAD
1000
AcDbSavedByObjectVersion
1070
     0
1000
AcDbSavedByObjectVersion
1070
     0
1000
AcDbSavedByObjectVersion
1070
     0
  0
VISUALSTYLE
  5
36
102
{ACAD_REACTORS
330
2A
102
}
330
2A
100
AcDbVisualStyle
  2
Brighten
 70
    12
 71
     2
 72
     2
 73
     0
 90
        0
 40
-0.6
 41
-30.0
 62
     5
 63
     7
 74
     1
 91
        4
 64
     7
 65
   257
 75
     1
175
     1
 42
1.0
 92
        8
 66
     7
 43
1.0
 76
     1
 77
     6
 78
     2
 67
     7
 79
     5
170
     0
171
     0
290
     0
174
     0
 93
        1
 44
50.0
173
     0
291
     1
 45
0.0
1001
ACAD
1000
AcDbSavedByObjectVersion
1070
     0
1000
AcDbSavedByObjectVersion
1070
     0
1000
AcDbSavedByObjectVersion
1070
     0
  0
VISUALSTYLE
  5
3A
102
{ACAD_REACTORS
330
2A
102
}
330
2A
100
AcDbVisualStyle
  2
ColorChange
 70
    16
 71
     2
 72
     2
 73
     3
 90
        0
 40
-0.6
 41
-30.0
 62
     5
 63
     8
 74
     1
 91
        4
 64
     7
 65
   257
 75
     1
175
     1
 42
1.0
 92
        8
 66
     8
 43
1.0
 76
     1
 77
     6
 78
     2
 67
     7
 79
     5
170
     0
171
     0
290
     0
174
     0
 93
        1
 44
0.0
173
     0
291
     1
 45
0.0
1001
ACAD
1000
AcDbSavedByObjectVersion
1070
     0
1000
AcDbSavedByObjectVersion
1070
     0
1000
AcDbSavedByObjectVersion
1070
     0
  0
VISUALSTYLE
  5
34
102
{ACAD_REACTORS
330
2A
102
}
330
2A
100
AcDbVisualStyle
  2
Conceptual
 70
     9
 71
     3
 72
     2
 73
     0
 90
        0
 40
-0.6
 41
-30.0
 62
     5
 63
     7
 74
     2
 91
        2
 64
     7
 65
   257
 75
     1
175
     1
 42
40.0
 92
        8
 66
     7
 43
1.0
 76
     1
 77
     6
 78
     2
 67
     7
 79
     3
170
     0
171
     0
290
     0
174
     0
 93
        1
 44
0.0
173
     0
291
     0
 45
0.0
1001
ACAD
1000
AcDbSavedByObjectVersion
1070
     0
1000
AcDbSavedByObjectVersion
1070
     0
1000
AcDbSavedByObjectVersion
1070
     0
  0
VISUALSTYLE
  5
35
102
{ACAD_REACTORS
330
2A
102
}
330
2A
100
AcDbVisualStyle
  2
Dim
 70
    11
 71
     2
 72
     2
 73
     0
 90
        0
 40
-0.6
 41
-30.0
 62
     5
 63
     7
 74
     1
 91
        4
 64
     7
 65
   257
 75
     1
175
     1
 42
1.0
 92
        8
 66
     7
 43
1.0
 76
     1
 77
     6
 78
     2
 67
     7
 79
     5
170
     0
171
     0
290
     0
174
     0
 93
        1
 44
-50.0
173
     0
291
     1
 45
0.0
1001
ACAD
1000
AcDbSavedByObjectVersion
1070
     0
1000
AcDbSavedByObjectVersion
1070
     0
1000
AcDbSavedByObjectVersion
1070
     0
  0
VISUALSTYLE
  5
39
102
{ACAD_REACTORS
330
2A
102
}
330
2A
100
AcDbVisualStyle
  2
Facepattern
 70
    15
 71
     2
 72
     2
 73
     0
 90
        0
 40
-0.6
 41
-30.0
 62
     5
 63
     7
 74
     1
 91
        4
 64
     7
 65
   257
 75
     1
175
     1
 42
1.0
 92
        8
 66
     7
 43
1.0
 76
     1
 77
     6
 78
     2
 67
     7
 79
     5
170
     0
171
     0
290
     0
174
     0
 93
        1
 44
0.0
173
     0
291
     1
 45
0.0
1001
ACAD
1000
AcDbSavedByObjectVersion
1070
     0
1000
AcDbSavedByObjectVersion
1070
     0
1000
AcDbSavedByObjectVersion
1070
     0
  0
VISUALSTYLE
  5
2B
102
{ACAD_REACTORS
330
2A
102
}
330
2A
100
AcDbVisualStyle
  2
Flat
 70
     0
 71
     2
 72
     1
 73
     1
 90
        2
 40
-0.6
 41
30.0
 62
     5
 63
     7
 74
     0
 91
        4
 64
     7
 65
   257
 75
     1
175
     1
 42
1.0
 92
        8
 66
     7
 43
1.0
 76
     1
 77
     6
 78
     2
 67
     7
 79
     5
170
     0
171
     0
290
     0
174
     0
 93
       13
 44
0.0
173
     0
291
     1
 45
0.0
1001
ACAD
1000
AcDbSavedByObjectVersion
1070
     0
1000
AcDbSavedByObjectVersion
1070
     0
1000
AcDbSavedByObjectVersion
1070
     0
  0
VISUALSTYLE
  5
2C
102
{ACAD_REACTORS
330
2A
102
}
330
2A
100
AcDbVisualStyle
  2
FlatWithEdges
 70
     1
 71
     2
 72
     1
 73
     1
 90
        2
 40
-0.6
 41
30.0
 62
     5
 63
     7
 74
     1
 91
        4
 64
     7
 65
   257
 75
     1
175
     1
 42
1.0
 92
        0
 66
   257
 43
1.0
 76
     1
 77
     6
 78
     2
 67
     7
 79
     5
170
     0
171
     0
290
     0
174
     0
 93
       13
 44
0.0
173
     0
291
     1
 45
0.0
1001
ACAD
1000
AcDbSavedByObjectVersion
1070
     0
1000
AcDbSavedByObjectVersion
1070
     0
1000
AcDbSavedByObjectVersion
1070
     0
  0
VISUALSTYLE
  5
2D
102
{ACAD_REACTORS
330
2A
102
}
330
2A
100
AcDbVisualStyle
  2
Gouraud
 70
     2
 71
     2
 72
     2
 73
     1
 90
        2
 40
-0.6
 41
30.0
 62
     5
 63
     7
 74
     0
 91
        4
 64
     7
 65
   257
 75
     1
175
     1
 42
1.0
 92
        0
 66
     7
 43
1.0
 76
     1
 77
     6
 78
     2
 67
     7
 79
     5
170
     0
171
     0
290
     0
174
     0
 93
       13
 44
0.0
173
     0
291
     1
 45
0.0
1001
ACAD
1000
AcDbSavedByObjectVersion
1070
     0
1000
AcDbSavedByObjectVersion
1070
     0
1000
AcDbSavedByObjectVersion
1070
     0
  0
VISUALSTYLE
  5
2E
102
{ACAD_REACTORS
330
2A
102
}
330
2A
100
AcDbVisualStyle
  2
GouraudWithEdges
 70
     3
 71
     2
 72
     2
 73
     1
 90
        2
 40
-0.6
 41
30.0
 62
     5
 63
     7
 74
     1
 91
        4
 64
     7
 65
   257
 75
     1
175
     1
 42
1.0
 92
        0
 66
   257
 43
1.0
 76
     1
 77
     6
 78
     2
 67
     7
 79
     5
170
     0
171
     0
290
     0
174
     0
 93
       13
 44
0.0
173
     0
291
     1
 45
0.0
1001
ACAD
1000
AcDbSavedByObjectVersion
1070
     0
1000
AcDbSavedByObjectVersion
1070
     0
1000
AcDbSavedByObjectVersion
1070
     0
  0
VISUALSTYLE
  5
38
102
{ACAD_REACTORS
330
2A
102
}
330
2A
100
AcDbVisualStyle
  2
Linepattern
 70
    14
 71
     2
 72
     2
 73
     0
 90
        0
 40
-0.6
 41
-30.0
 62
     5
 63
     7
 74
     1
 91
        4
 64
     7
 65
   257
 75
     7
175
     7
 42
1.0
 92
        8
 66
     7
 43
1.0
 76
     1
 77
     6
 78
     2
 67
     7
 79
     5
170
     0
171
     0
290
     0
174
     0
 93
        1
 44
0.0
173
     0
291
     1
 45
0.0
1001
ACAD
1000
AcDbSavedByObjectVersion
1070
     0
1000
AcDbSavedByObjectVersion
1070
     0
1000
AcDbSavedByObjectVersion
1070
     0
  0
VISUALSTYLE
  5
33
102
{ACAD_REACTORS
330
2A
102
}
330
2A
100
AcDbVisualStyle
  2
Realistic
 70
     8
 71
     2
 72
     2
 73
     0
 90
        0
 40
-0.6
 41
-30.0
 62
     5
 63
     7
 74
     1
 91
        0
 64
     7
 65
   257
 75
     1
175
     1
 42
1.0
 92
        8
 66
     8
 43
1.0
 76
     1
 77
     6
 78
     2
 67
     7
 79
     5
170
     0
171
     0
290
     0
174
     0
 93
       13
 44
0.0
173
     0
291
     0
 45
0.0
1001
ACAD
1000
AcDbSavedByObjectVersion
1070
     0
1000
AcDbSavedByObjectVersion
1070
     0
1000
AcDbSavedByObjectVersion
1070
     0
  0
VISUALSTYLE
  5
37
102
{ACAD_REACTORS
330
2A
102
}
330
2A
100
AcDbVisualStyle
  2
Thicken
 70
    13
 71
     2
 72
     2
 73
     0
 90
        0
 40
-0.6
 41
-30.0
 62
     5
 63
     7
 74
     1
 91
        4
 64
     7
 65
   257
 75
     1
175
     1
 42
1.0
 92
       12
 66
     7
 43
1.0
 76
     1
 77
     6
 78
     2
 67
     7
 79
     5
170
     0
171
     0
290
     0
174
     0
 93
        1
 44
0.0
173
     0
291
     1
 45
0.0
1001
ACAD
1000
AcDbSavedByObjectVersion
1070
     0
1000
AcDbSavedByObjectVersion
1070
     0
1000
AcDbSavedByObjectVersion
1070
     0
  0
DICTIONARYVAR
  5
C0
102
{ACAD_REACTORS
330
BF
102
}
330
BF
100
DictionaryVariables
280
     0
  1
1:1
  0
DICTIONARYVAR
  5
DA
102
{ACAD_REACTORS
330
BF
102
}
330
BF
100
DictionaryVariables
280
     0
  1
STANDARD
  0
DICTIONARYVAR
  5
DE
102
{ACAD_REACTORS
330
BF
102
}
330
BF
100
DictionaryVariables
280
     0
  1
2
  0
DICTIONARYVAR
  5
DD
102
{ACAD_REACTORS
330
BF
102
}
330
BF
100
DictionaryVariables
280
     0
  1
1
  0
DICTIONARYVAR
  5
DC
102
{ACAD_REACTORS
330
BF
102
}
330
BF
100
DictionaryVariables
280
     0
  1
0
  0
DICTIONARYVAR
  5
DB
102
{ACAD_REACTORS
330
BF
102
}
330
BF
100
DictionaryVariables
280
     0
  1
127
  0
DICTIONARY
  5
D3
330
97
100
AcDbDictionary
280
     1
281
     1
  3
ACAD_XREC_ROUNDTRIP
360
282
  3
ADSK_XREC_LAYOUTTHUMBNAIL
360
D4
  0
DICTIONARY
  5
280
330
22
100
AcDbDictionary
280
     1
281
     1
  3
ACAD_XREC_ROUNDTRIP
360
281
  0
DICTIONARY
  5
E7
330
C7
100
AcDbDictionary
280
     1
281
     1
  3
ACAD_XREC_ROUNDTRIP
360
E8
  0
DICTIONARY
  5
E5
330
C6
100
AcDbDictionary
280
     1
281
     1
  3
ACAD_XREC_ROUNDTRIP
360
E6
  0
DICTIONARY
  5
E9
330
C8
100
AcDbDictionary
280
     1
281
     1
  3
ACAD_XREC_ROUNDTRIP
360
EA
  0
DICTIONARY
  5
285
330
CA
100
AcDbDictionary
280
     1
281
     1
  3
ACAD_XREC_ROUNDTRIP
360
286
  0
XRECORD
  5
282
102
{ACAD_REACTORS
330
D3
102
}
330
D3
100
AcDbXrecord
280
     1
102
SHADEPLOT
 70
     0
102
SHADEPLOTRESLEVEL
 70
     2
102
SHADEPLOTCUSTOMDPI
 70
   300
  0
XRECORD
  5
D4
102
{ACAD_REACTORS
330
D3
102
}
330
D3
100
AcDbXrecord
280
     1
310
28000000B4000000870000000100080000000000EC5E000000000000000000000001000000000000FFFFFF0000000000FFFFFF000000000000000000000000000000000000000000000000000000000000000000330000006600000099000000CC000000FF00000000330000333300006633000099330000CC330000FF3300
310
0000660000336600006666000099660000CC660000FF66000000990000339900006699000099990000CC990000FF99000000CC000033CC000066CC000099CC0000CCCC0000FFCC000000FF000033FF000066FF000099FF0000CCFF0000FFFF000000003300330033006600330099003300CC003300FF003300003333003333
310
33006633330099333300CC333300FF33330000663300336633006666330099663300CC663300FF66330000993300339933006699330099993300CC993300FF99330000CC330033CC330066CC330099CC3300CCCC3300FFCC330000FF330033FF330066FF330099FF3300CCFF3300FFFF330000006600330066006600660099
310
006600CC006600FF00660000336600333366006633660099336600CC336600FF33660000666600336666006666660099666600CC666600FF66660000996600339966006699660099996600CC996600FF99660000CC660033CC660066CC660099CC6600CCCC6600FFCC660000FF660033FF660066FF660099FF6600CCFF6600
310
FFFF660000009900330099006600990099009900CC009900FF00990000339900333399006633990099339900CC339900FF33990000669900336699006666990099669900CC669900FF66990000999900339999006699990099999900CC999900FF99990000CC990033CC990066CC990099CC9900CCCC9900FFCC990000FF99
310
0033FF990066FF990099FF9900CCFF9900FFFF99000000CC003300CC006600CC009900CC00CC00CC00FF00CC000033CC003333CC006633CC009933CC00CC33CC00FF33CC000066CC003366CC006666CC009966CC00CC66CC00FF66CC000099CC003399CC006699CC009999CC00CC99CC00FF99CC0000CCCC0033CCCC0066CC
310
CC0099CCCC00CCCCCC00FFCCCC0000FFCC0033FFCC0066FFCC0099FFCC00CCFFCC00FFFFCC000000FF003300FF006600FF009900FF00CC00FF00FF00FF000033FF003333FF006633FF009933FF00CC33FF00FF33FF000066FF003366FF006666FF009966FF00CC66FF00FF66FF000099FF003399FF006699FF009999FF00CC
310
99FF00FF99FF0000CCFF0033CCFF0066CCFF0099CCFF00CCCCFF00FFCCFF0000FFFF0033FFFF0066FFFF0099FFFF00CCFFFF00FFFFFF00000000000D0D0D001A1A1A00282828003535350043434300505050005D5D5D006B6B6B00787878008686860093939300A1A1A100AEAEAE00BBBBBB00C9C9C900D6D6D600E4E4E400
310
F1F1F100FFFFFF0000000000000000000000000000000000000000000000000000000000000000000000000000000000E2E2E2E2E2E2E2E2E2F5F5F5F5F5F5F5F5F5E2E2E2E2E2E2E2E2E2E2E2E2E2E2E2E2E2F5F5F5F5F5F5F5F5F5E2E2E2E2E2E2E2E2E2E2E2E2E2E2E2E2E2F5F5F5F5F5F5F5F5F5E2E2E2E2E2E2E2E2E2
310
E2E2E2E2E2E2E2E2F5F5F5F5F5F5F5F5F5E2E2E2E2E2E2E2E2E2E2E2E2E2E2E2E2E2F5F5F5F5F5F5F5F5F5E2E2E2E2E2E2E2E2E2E2E2E2E2E2E2E2E2F5F5F5F5F5F5F5F5F5E2E2E2E2E2E2E2E2E2F5F5F5E2E2EFEFEFEFEFEFEFEFEFEFEFEFEFEFEFEFEFEFE2F5F5F5F5F5F5F5F5F5F5F5F5F5F5F5F5F5F5F5F5F5F5F5F5F5
310
F5F5F5F5F5F5F5F5F5F5F5F5F5F5F5F5F5F5F5F5F5F5F5F5F5F5F5F5F5F5F5F5F5F5F5F5F5F5F5F5F5F5F5F5F5F5F5F5F5F5F5F5F5F5F5F5F5F5F5F5F5F5F5F5F5F5F5F5F5F5F5F5F5F5F5F5F5F5F5F5F5F5F5F5F5F5F5F5F5F5F5F5F5F5F5F5F5F5F5F5F5F5F5F5F5F5F5F5F5F5F5F5F5F5F5F5F5F5F5F5F5F5F5F5F5F5F5
310
F5F5F5E2F5F5F5E2E2EFEFEFEFEFEFEFEFEFEFEFEFEFEFEFEFEFEFE2F5F5F5F5F5F5F5F5F5F5F5F5F5F5F5F5F5F5F5F5F5F5F5F5F5F5F5F5F5F5F5F5F5F5F5F5F5F5F5F5F5F5F5F5F5F5F5F5F5F5F5F5F5F5F5F5F5F5F5F5F5F5F5F5F5F5F5F5F5F5F5F5F5F5F5F5F5F5F5F5F5F5F5F5F5F5F5F5F5F5F5F5F5F5F5F5F5F5F5
310
F5F5F5F5F5F5F5F5F5F5F5F5F5F5F5F5F5F5F5F5F5F5F5F5F5F5F5F5F5F5F5F5F5F5F5F5F5F5F5F5F5F5F5F5F5F5F5F5F5F5F5F5F5F5F5F5E2F5F5F5E2E2EFEFEFEFEFEFEFEFEFEFEFEFEFEFEFEFEFEFE2F5F5F5F5F5F5F5F5F5F5F5F5F5F5F5F5F5F5F5F5F5F5F5F5F5F5F5F5F5F5F5F5F5F5F5F5F5F5F5F5F5F5F5F5F5F5
310
F5F5F5F5F5F5F5F5F5F5F5F5F5F5F5F5F5F5F5F5F5F5F5F5F5F5F5F5F5F5F5F5F5F5F5F5F5F5F5F5F5F5F5F5F5F5F5F5F5F5F5F5F5F5F5F5F5F5F5F5F5F5F5F5F5F5F5F5F5F5F5F5F5F5F5F5F5F5F5F5F5F5F5F5F5F5F5F5F5F5F5F5F5F5F5F5F5F5F5F5F5F5F5F5F5F5F5F5F5E2F5F5F5E2E2EFEFEFEFEFEFEFEFEFEFEFEF
310
EFEFEFEFEFEFE2F5F5F5F5F5F5F5F5F5F5F5F5F5F5F5F5F5F5F5F5F5F5F5F5F5F5F5F5F5F5F5F5F5F5F5F5F5F5F5F5F5F5F5F5F5F5F5F5F5F5F5F5F5F5F5F5F5F5F5F5F5F5F5F5F5F5F5F5F5F5F5F5F5F5F5F5F5F5F5F5F5F5F5F5F5F5F5F5F5F5F5F5F5F5F5F5F5F5F5F5F5F5F5F5F5F5F5F5F5F5F5F5F5F5F5F5F5F5F5F5
310
F5F5F5F5F5F5F5F5F5F5F5F5F5F5F5F5F5F5F5F5F5F5F5F5F5F5F5F5F5F5F5F5F5F5F5E2F5F5F5E2E2EFEFEFEFEFEFEFEFEFEFEFEFEFEFEFEFEFEFE2F5F5F5F5F5F5F5F5F5F5F5F5F5F5F5F5F5F5F5F5F5F5F5F5F5F5F5F5F5F5F5F5F5F5F5F5F5F5F5F5F5F5F5F5F5F5F5F5F5F5F5F5F5F5F5F5F5F5F5F5F5F5F5F5F5F5F5
310
F5F5F5F5F5F5F5F5F5F5F5F5F5F5F5F5F5F5F5F5F5F5F5F5F5F5F5F5F5F5F5F5F5F5F5F5F5F5F5F5F5F5F5F5F5F5F5F5F5F5F5F5F5F5F5F5F5F5F5F5F5F5F5F5F5F5F5F5F5F5F5F5F5F5F5F5F5F5F5F5F5F5F5F5F5F5F5F5E2F5F5F5E2E2EFEFEFEFEFEFEFEFEFEFEFEFEFEFEFEFEFEFE2F5F5F5F5F5F5F5F5F5F5F5F5F5F5
310
F5F5F5F5F5F5F5F5F5F5F5F5F5F5F5F5F5F5F5F5F5F5F5F5F5F5F5F5F5F5F5F5F5F5F5F5F5F5F5F5F5F5F5F5F5F5F5F5F5F5F5F5F5F5F5F5F5F5F5F5F5F5F5F5F5F5F5F5F5F5F5F5F5F5F5F5F5F5F5F5F5F5F5F5F5F5F5F5F5F5F5F5F5F5F5F5F5F5F5F5F5F5F5F5F5F5F5F5F5F5F5F5F5F5F5F5F5F5F5F5F5F5F5F5F5F5F5
310
F5F5F5F5F5F5F5F5F5F5F5F5F5F5E2F5F5F5E2E2EFEFEFEFEFEFEFEFEFEFEFEFEFEFEFEFEFEFE2F5F5F5F5F5F5F5F5F5F5F5F5F5F5F5F5F5F5F5F5F5F5F5F5F5F5F5F5F5F5F5F5F5F5F5F5F5F5F5F5F5F5F5F5F5F5F5F5F5F5F5F5F5F5F5F5F5F5F5F5F5F5F5F5F5F5F5F5F5F5F5F5F5F5F5F5F5F5F5F5F5F5F5F5F5F5F5F5
310
F5F5F5F5F5F5F5F5F5F5F5F5F5F5F5F5F5F5F5F5F5F5F5F5F5F5F5F5F5F5F5F5F5F5F5F5F5F5F5F5F5F5F5F5F5F5F5F5F5F5F5F5F5F5F5F5F5F5F5F5F5F5F5F5F5F5F5E2F5F5F5E2E2EFEFEFEFEFEFEFEFEFEFEFEFEFEFEFEFEFEFF5F5F5F5F5F5F5F5F5F5F5F5F5F5F5F5F5F5F5F5F5F5F5F5F5F5F5F5F5F5F5F5F5F5F5F5
310
F5F5F5F5F5F5F5F5F5F5F5F5F5F5F5F5F5F5F5F5F5F5F5F5F5F5F5F5F5F5F5F5F5F5F5F5F5F5F5F5F5F5F5F5F5F5F5F5F5F5F5F5F5F5F5F5F5F5F5F5F5F5F5F5F5F5F5F5F5F5F5F5F5F5F5F5F5F5F5F5F5F5F5F5F5F5F5F5F5F5F5F5F5F5F5F5F5F5F5F5F5F5F5F5F5F5F5F5F5F5F5F5F5F5F5F5F5F5F5F5F5F5F5F5E2E2EF
310
EFEFEFEFEFEFEFEFEFEFEFEFEFEFEFEFEFF5F5F5F5F5F5F5F5F5F5F5F5F5F5F5F5F5F5F5F5F5F5F5F5F5F5F5F5F5F5F5F5F5F5F5F5F5F5F5F5F5F5F5F5F5F5F5F5F5F5F5F5F5F5F5F5F5F5F5F5F5F5F5F5F5F5F5F5F5F5F5F5F5F5F5F5F5F5F5F5F5F5F5F5F5F5F5F5F5F5F5F5F5F5F5F5F5F5F5F5F5F5F5F5F5F5F5F5F5F5
310
F5F5F5F5F5F5F5F5F5F5F5F5F5F5F5F5F5F5F5F5F5F5F5F5F5F5F5F5F5F5F5F5F5F5F5F5F5F5F5F5F5F5F5F5F5F5F5F5F5F5E2E2EFEFEFEFEFEFEFEFEFEFEFEFEFEFEFEFEFEFF5F5F5F5F5F5F5F5F5F5F5F5F5F5F5F5F5F5F5F5F5F5F5F5F5F5F5F5F5F5F5F5F5F5F5F5F5F5F5F5F5F5F5F5F5F5F5F5F5F5F5F5F5F5F5F5F5
310
F5F5F5F5F5F5F5F5F5F5F5F5F5F5F5F5F5F5F5F5F5F5F5F5F5F5F5F5F5F5F5F5F5F5F5F5F5F5F5F5F5F5F5F5F5F5F5F5F5F5F5F5F5F5F5F5F5F5F5F5F5F5F5F5F5F5F5F5F5F5F5F5F5F5F5F5F5F5F5F5F5F5F5F5F5F5F5F5F5F5F5F5F5F5F5F5F5F5F5F5F5F5F5E2E2EFEFEFEFEFEFEFEFEFEFEFEFEFEFEFEFEFEFF5F5F5F5
310
F5F5F5F5F5F5F5F5F5F5F5F5F5F5F5F5F5F5F5F5F5F5F5F5F5F5F5F5F5F5F5F5F5F5F5F5F5F5F5F5F5F5F5F5F5F5F5F5F5F5F5F5F5F5F5F5F5F5F5F5F5F5F5F5F5F5F5F5F5F5F5F5F5F5F5F5F5F5F5F5F5F5F5F5F5F5F5F5F5F5F5F5F5F5F5F5F5F5F5F5F5F5F5F5F5F5F5F5F5F5F5F5F5F5F5F5F5F5F5F5F5F5F5F5F5F5F5
310
F5F5F5F5F5F5F5F5F5F5F5F5F5F5F5F5F5F5F5F5F5F5F5F5F5F5F5F5F5E2E2EFEFEFEFEFEFEFEFEFEFEFEFEFEFEFEFEFEFF5F5F5F5F5F5F5F5F5F5F5F5F5F5F5F5F5F5F5F5F5F5F5F5F5F5F5F5F5F5F5F5F5F5F5F5F5F5F5F5F5F5F5F5F5F5F5F5F5F5F5F5F5F5F5F5F5F5F5F5F5F5F5F5F5F5F5F5F5F5F5F5F5F5F5F5F5F5
310
F5F5F5F5F5F5F5F5F5F5F5F5F5F5F5F5F5F5F5F5F5F5F5F5F5F5F5F5F5F5F5F5F5F5F5F5F5F5F5F5F5F5F5F5F5F5F5F5F5F5F5F5F5F5F5F5F5F5F5F5F5F5F5F5F5F5F5F5F5F5F5F5F5F5F5F5F5F5F5F5F5F5E2E2EFEFEFEFEFEFEFEFEFEFEFEFEFEFEFEFEFEFF5F5F5F5F5F5F5F5F5F5F5F5F5F5F5F5F5F5F5F5F5F5F5F5F5
310
F5F5F5F5F5F5F5F5F5F5F5F5F5F5F5F5F5F5F5F5F5F5F5F5F5F5F5F5F5F5F5F5F5F5F5F5F5F5F5F5F5F5F5F5F5F5F5F5F5F5F5F5F5F5F5F5F5F5F5F5F5F5F5F5F5F5F5F5F5F5F5F5F5F5F5F5F5F5F5F5F5F5F5F5F5F5F5F5F5F5F5F5F5F5F5F5F5F5F5F5F5F5F5F5F5F5F5F5F5F5F5F5F5F5F5F5F5F5F5F5F5F5F5F5F5F5F5
310
F5F5F5F5F5F5F5F5E2E2EFEFEFEFEFEFEFEFEFEFEFEFEFEFEFEFEFEFF5F5F5F5F5F5F5F5F5F5F5F5F5F5F5F5F5F5F5F5F5F5F5F5F5F5F5F5F5F5F5F5F5F5F5F5F5F5F5F5F5F5F5F5F5F5F5F5F5F5F5F5F5F5F5F5F5F5F5F5F5F5F5F5F5F5F5F5F5F5F5F5F5F5F5F5F5F5F5F5F5F5F5F5F5F5F5F5F5F5F5F5F5F5F5F5F5F5F5
310
F5F5F5F5F5F5F5F5F5F5F5F5F5F5F5F5F5F5F5F5F5F5F5F5F5F5F5F5F5F5F5F5F5F5F5F5F5F5F5F5F5F5F5F5F5F5F5F5F5F5F5F5F5F5F5F5F5F5F5F5F5E2E2EFEFEFEFEFEFEFEFEFEFEFEFEFEFEFEFEFEFF5F5F5F5F5F5F5F5F5F5F5F5F5F5F5F5F5F5F5F5F5F5F5F5F5F5F5F5F5F5F5F5F5F5F5F5F5F5F5F5F5F5F5F5F5F5
310
F5F5F5F5F5F5F5F5F5F5F5F5F5F5F5F5F5F5F5F5F5F5F5F5F5F5F5F5F5F5F5F5F5F5F5F5F5F5F5F5F5F5F5F5F5F5F5F5F5F5F5F5F5F5F5F5F5F5F5F5F5F5F5F5F5F5F5F5F5F5F5F5F5F5F5F5F5F5F5F5F5F5F5F5F5F5F5F5F5F5F5F5F5F5F5F5F5F5F5F5F5F5F5F5F5F5F5F5F5F5F5F5F5F5E2E2EFEFEFEFEFEFEFEFEFEFEF
310
EFEFEFEFEFEFEFF5F5F5F5F5F5F5F5F5F5F5F5F5F5F5F5F5F5F5F5F5F5F5F5F5F5F5F5F5F5F5F5F5F5F5F5F5F5F5F5F5F5F5F5F5F5F5F5F5F5F5F5F5F5F5F5F5F5F5F5F5F5F5F5F5F5F5F5F5F5F5F5F5F5F5F5F5F5F5F5F5F5F5F5F5F5F5F5F5F5F5F5F5F5F5F5F5F5F5F5F5F5F5F5F5F5F5F5F5F5F5F5F5F5F5F5F5F5F5F5
310
F5F5F5F5F5F5F5F5F5F5F5F5F5F5F5F5F5F5F5F5F5F5F5F5F5F5F5F5F5F5F5F5F5F5F5F5F5F5F5F5E2E2EFEFEFEFEFEFEFEFEFEFEFEFEFEFEFEFEFEFE2F5F5F5F5F5F5F5F5F5F5F5F5F5F5F5F5F5F5F5F5F5F5F5F5F5F5F5F5F5F5F5F5F5F5F5F5F5F5F5F5F5F5F5F5F5F5F5F5F5F5F5F5F5F5F5F5F5F5F5F5F5F5F5F5F5F5
310
F5F5F5F5F5F5F5F5F5F5F5F5F5F5F5F5F5F5F5F5F5F5F5F5F5F5F5F5F5F5F5F5F5F5F5F5F5F5F5F5F5F5F5F5F5F5F5F5F5F5F5F5F5F5F5F5F5F5F5F5F5F5F5F5F5F5F5F5F5F5F5F5F5F5F5F5F5F5F5F5F5F5F5F5F5F5F5F5F5E2F5F5F5E2E2EFEFEFEFEFEFEFEFEFEFEFEFEFEFEFEFEFEFE2F5F5F5F5F5F5F5F5F5F5F5F5F5
310
F5F5F5F5F5F5F5F5F5F5F5F5F5F5F5F5F5F5F5F5F5F5F5F5F5F5F5F5F5F5F5F5F5F5F5F5F5F5F5F5F5F5F5F5F5F5F5F5F5F5F5F5F5F5F5F5F5F5F5F5F5F5F5F5F5F5F5F5F5F5F5F5F5F5F5F5F5F5F5F5F5F5F5F5F5F5F5F5F5F5F5F5F5F5F5F5F5F5F5F5F5F5F5F5F5F5F5F5F5F5F5F5F5F5F5F5F5F5F5F5F5F5F5F5F5F5F5
310
F5F5F5F5F5F5F5F5F5F5F5F5F5F5F5E2F5F5F5E2E2EFEFEFEFEFEFEFEFEFEFEFEFEFEFEFEFEFEFE2F5F5F5F5F5F5F5F5F5F5F5F5F5F5F5F5F5F5F5F5F5F5F5F5F5F5F5F5F5F5F5F5F5F5F5F5F5F5F5F5F5F5F5F5F5F5F5F5F5F5F5F5F5F5F5F5F5F5F5F5F5F5F5F5F5F5F5F5F5F5F5F5F5F5F5F5F5F5F5F5F5F5F5F5F5F5F5
310
F5F5F5F5F5F5F5F5F5F5F5F5F5F5F5F5F5F5F5F5F5F5F5F5F5F5F5F5F5F5F5F5F5F5F5F5F5F5F5F5F5F5F5F5F5F5F5F5F5F5F5F5F5F5F5F5F5F5F5F5F5F5F5F5F5F5F5F5E2F5F5F5E2E2EFEFEFEFEFEFEFEFEFEFEFEFEFEFEFEFEFEFE2F5F5F5F5F5F5F5F5F5F5F5F5F5F5F5F5F5F5F5F5F5F5F5F5F5F5F5F5F5F5F5F5F5F5
310
F5F5F5F5F5F5F5F5F5F5F5F5F5F5F5F5F5F5F5F5F5F5F5F5F5F5F5F5F5F5F5F5F5F5F5F5F5F5F5F5F5F5F5F5F5F5F5F5F5F5F5F5F5F5F5F5F5F5F5F5F5F5F5F5F5F5F5F5F5F5F5F5F5F5F5F5F5F5F5F5F5F5F5F5F5F5F5F5F5F5F5F5F5F5F5F5F5F5F5F5F5F5F5F5F5F5F5F5F5F5F5F5F5F5F5F5F5F5F5F5F5E2F5F5F5E2E2
310
EFEFEFEFEFEFEFEFEFEFEFEFEFEFEFEFEFEFE2F5F5F5F5F5F5F5F5F5F5F5F5F5F5F5F5F5F5F5F5F5F5F5F5F5F5F5F5F5F5F5F5F5F5F5F5F5F5F5F5F5F5F5F5F5F5F5F5F5F5F5F5F5F5F5F5F5F5F5F5F5F5F5F5F5F5F5F5F5F5F5F5F5F5F5F5F5F5F5F5F5F5F5F5F5F5F5F5F5F5F5F5F5F5F5F5F5F5F5F5F5F5F5F5F5F5F5F5
310
F5F5F5F5F5F5F5F5F5F5F5F5F5F5F5F5F5F5F5F5F5F5F5F5F5F5F5F5F5F5F5F5F5F5F5F5F5F5F5F5F5F5F5F5F5F5F5E2F5F5F5E2E2EFEFEFEFEFEFEFEFEFEFEFEFEFEFEFEFEFEFE2F5F5F5F5F5F5F5F5F5F5F5F5F5F5F5F5F5F5F5F5F5F5F5F5F5F5F5F5F5F5F5F5F5F5F5F5F5F5F5F5F5F5F5F5F5F5F5F5F5F5F5F5F5F5F5
310
F5F5F5F5F5F5F5F5F5F5F5F5F5F5F5F5F5F5F5F5F5F5F5F5F5F5F5F5F5F5F5F5F5F5F5F5F5F5F5F5F5F5F5F5F5F5F5F5F5F5F5F5F5F5F5F5F5F5F5F5F5F5F5F5F5F5F5F5F5F5F5F5F5F5F5F5F5F5F5F5F5F5F5F5F5F5F5F5F5F5F5F5F5F5F5F5F5F5F5F5E2F5F5F5E2E2EFEFEFEFEFEFEFEFEFEFEFEFEFEFEFEFEFEFE2F5F5
310
F5F5F5F5F5F5F5F5F5F5F5F5F5F5F5F5F5F5F5F5F5F5F5F5F5F5F5F5F5F5F5F5F5F5F5F5F5F5F5F5F5F5F5F5F5F5F5F5F5F5F5F5F5F5F5F5F5F5F5F5F5F5F5F5F5F5F5F5F5F5F5F5F5F5F5F5F5F5F5F5F5F5F5F5F5F5F5F5F5F5F5F5F5F5F5F5F5F5F5F5F5F5F5F5F5F5F5F5F5F5F5F5F5F5F5F5F5F5F5F5F5F5F5F5F5F5F5
310
F5F5F5F5F5F5F5F5F5F5F5F5F5F5F5F5F5F5F5F5F5F5F5F5F5F5E2F5F5F5E2E2EFEFEFEFEFEFEFEFEFEFEFEFEFEFEFEFEFEFE2F5F5F5F5F5F5F5F5F5F5F5F5F5F5F5F5F5F5F5F5F5F5F5F5F5F5F5F5F5F5F5F5F5F5F5F5F5F5F5F5F5F5F5F5F5F5F5F5F5F5F5F5F5F5F5F5F5F5F5F5F5F5F5F5F5F5F5F5F5F5F5F5F5F5F5F5
310
F5F5F5F5F5F5F5F5F5F5F5F5F5F5F5F5F5F5F5F5F5F5F5F5F5F5F5F5F5F5F5F5F5F5F5F5F5F5F5F5F5F5F5F5F5F5F5F5F5F5F5F5F5F5F5F5F5F5F5F5F5F5F5F5F5F5F5F5F5F5F5F5F5F5F5F5F5F5F5E2F5F5F5E2E2EFEFEFEFEFEFEFEFEFEFEFEFEFEFEFEFEFEFE2F5F5F5F5F5F5F5F5F5F5F5F5F5F5F5F5F5F5F5F5F5F5F5
310
F5F5F5F5F5F5F5F5F5F5F5F5F5F5F5F5F5F5F5F5F5F5F5F5F5F5F5F5F5F5F5F5F5F5F5F5F5F5F5F5F5F5F5F5F5F5F5F5F5F5F5F5F5F5F5F5F5F5F5F5F5F5F5F5F5F5F5F5F5F5F5F5F5F5F5F5F5F5F5F5F5F5F5F5F5F5F5F5F5F5F5F5F5F5F5F5F5F5F5F5F5F5F5F5F5F5F5F5F5F5F5F5F5F5F5F5F5F5F5F5F5F5F5F5F5F5F5
310
F5F5F5F5F5E2F5F5F5E2E2EFEFEFEFEFEFEFEFEFEFEFEFEFEFEFEFEFEFE2F5F5F5F5F5F5F5F5F5F5F5F5F5F5F5F5F5F5F5F5F5F5F5F5F5F5F5F5F5F5F5F5F5F5F5F5F5F5F5F5F5F5F5F5F5F5F5F5F5F5F5F5F5F5F5F5F5F5F5F5F5F5F5F5F5F5F5F5F5F5F5F5F5F5F5F5F5F5F5F5F5F5F5F5F5F5F5F5F5F5F5F5F5F5F5F5F5
310
F5F5F5F5F5F5F5F5F5F5F5F5F5F5F5F5F5F5F5F5F5F5F5F5F5F5F5F5F5F5F5F5F5F5F5F5F5F5F5F5F5F5F5F5F5F5F5F5F5F5F5F5F5F5F5F5F5F5E2F5F5F5E2E2EFEFEFEFEFEFEFEFEFEFEFEFEFEFEFEFEFEFE2F5F5F5F5F5F5F5F5F5F5F5F5F5F5F5F5F5F5F5F5F5F5F5F5F5F5F5F5F5F5F5F5F5F5F5F5F5F5F5F5F5F5F5F5
310
F5F5F5F5F5F5F5F5F5F5F5F5F5F5F5F5F5F5F5F5F5F5F5F5F5F5F5F5F5F5F5F5F5F5F5F5F5F5F5F5F5F5F5F5F5F5F5F5F5F5F5F5F5F5F5F5F5F5F5F5F5F5F5F5F5F5F5F5F5F5F5F5F5F5F5F5F5F5F5F5F5F5F5F5F5F5F5F5F5F5F5F5F5F5F5F5F5F5F5F5F5F5F5F5F5F5F5F5F5F5F5E2F5F5F5E2E2EFEFEFEFEFEFEFEFEFEF
310
EFEFEFEFEFEFEFEFE2F5F5F5F5F5F5F5F5F5F5F5F5F5F5F5F5F5F5F5F5F5F5F5F5F5F5F5F5F5F5F5F5F5F5F5F5F5F5F5F5F5F5F5F5F5F5F5F5F5F5F5F5F5F5F5F5F5F5F5F5F5F5F5F5F5F5F5F5F5F5F5F5F5F5F5F5F5F5F5F5F5F5F5F5F5F5F5F5F5F5F5F5F5F5F5F5F5F5F5F5F5F5F5F5F5F5F5F5F5F5F5F5F5F5F5F5F5F5
310
F5F5F5F5F5F5F5F5F5F5F5F5F5F5F5F5F5F5F5F5F5F5F5F5F5F5F5F5F5F5F5F5F5F5F5F5F5E2F5F5F5E2E2EFEFEFEFEFEFEFEFEFEFEFEFEFEFEFEFEFEFE2F5F5F5F5F5F5F5F5F5F5F5F5F5F5F5F5F5F5F5F5F5F5F5F5F5F5F5F5F5F5F5F5F5F5F5F5F5F5F5F5F5F5F5F5F5F5F5F5F5F5F5F5F5F5F5F5F5F5F5F5F5F5F5F5F5
310
F5F5F5F5F5F5F5F5F5F5F5F5F5F5F5F5F5F5F5F5F5F5F5F5F5F5F5F5F5F5F5F5F5F5F5F5F5F5F5F5F5F5F5F5F5F5F5F5F5F5F5F5F5F5F5F5F5F5F5F5F5F5F5F5F5F5F5F5F5F5F5F5F5F5F5F5F5F5F5F5F5F5F5F5F5F5F5F5F5F5E2F5F5F5E2E2EFEFEFEFEFEFEFEFEFEFEFEFEFEFEFEFEFEFE2F5F5F5F5F5F5F5F5F5F5F5F5
310
F5F5F5F5F5F5F5F5F5F5F5F5F5F5F5F5F5F5F5F5F5F5F5F5F5F5F5F5F5F5F5F5F5F5F5F5F5F5F5F5F5F5F5F5F5F5F5F5F5F5F5F5F5F5F5F5F5F5F5F5F5F5F5F5F5F5F5F5F5F5F5F5F5F5F5F5F5F5F5F5F5F5F5F5F5F5F5F5F5F5F5F5F5F5F5F5F5F5F5F5F5F5F5F5F5F5F5F5F5F5F5F5F5F5F5F5F5F5F5F5F5F5F5F5F5F5F5
310
F5F5F5F5F5F5F5F5F5F5F5F5F5F5F5F5E2F5F5F5E2E2EFEFEFEFEFEFEFEFEFEFEFEFEFEFEFEFEFEFE2F5F5F5F5F5F5F5F5F5F5F5F5F5F5F5F5F5F5F5F5F5F5F5F5F5F5F5F5F5F5F5F5F5F5F5F5F5F5F5F5F5F5F5F5F5F5F5F5F5F5F5F5F5F5F5F5F5F5F5F5F5F5F5F5F5F5F5F5F5F5F5F5F5F5F5F5F5F5F5F5F5F5F5F5F5F5
310
F5F5F5F5F5F5F5F5F5F5F5F5F5F5F5F5F5F5F5F5F5F5F5F5F5F5F5F5F5F5F5F5F5F5F5F5F5F5F5F5F5F5F5F5F5F5F5F5F5F5F5F5F5F5F5F5F5F5F5F5F5F5F5F5F5F5F5F5F5E2F5F5F5E2E2EFEFEFEFEFEFEFEFEFEFEFEFEFEFEFEFEFEFF5F5F5F5F5F5F5F5F5F5F5F5F5F5F5F5F5F5F5F5F5F5F5F5F5F5F5F5F5F5F5F5F5F5
310
F5F5F5F5F5F5F5F5F5F5F5F5F5F5F5F5F5F5F5F5F5F5F5F5F5F5F5F5F5F5F5F5F5F5F5F5F5F5F5F5F5F5F5F5F5F5F5F5F5F5F5F5F5F5F5F5F5F5F5F5F5F5F5F5F5F5F5F5F5F5F5F5F5F5F5F5F5F5F5F5F5F5F5F5F5F5F5F5F5F5F5F5F5F5F5F5F5F5F5F5F5F5F5F5F5F5F5F5F5F5F5F5F5F5F5F5F5F5F5F5F5F5F5F5F5F5E2
310
E2EFEFEFEFEFEFEFEFEFEFEFEFEFEFEFEFEFEFF5F5F5F5F5F5F5F5F5F5F5F5F5F5F5F5F5F5F5F5F5F5F5F5F5F5F5F5F5F5F5F5F5F5F5F5F5F5F5F5F5F5F5F5F5F5F5F5F5F5F5F5F5F5F5F5F5F5F5F5F5F5F5F5F5F5F5F5F5F5F5F5F5F5F5F5F5F5F5F5F5F5F5F5F5F5F5F5F5F5F5F5F5F5F5F5F5F5F5F5F5F5F5F5F5F5F5F5
310
F5F5F5F5F5F5F5F5F5F5F5F5F5F5F5F5F5F5F5F5F5F5F5F5F5F5F5F5F5F5F5F5F5F5F5F5F5F5F5F5F5F5F5F5F5F5F5F5F5F5F5F5E2E2EFEFEFEFEFEFEFEFEFEFEFEFEFEFEFEFEFEFF5F5F5F5F5F5F5F5F5F5F5F5F5F5F5F5F5F5F5F5F5F5F5F5F5F5F5F5F5F5F5F5F5F5F5F5F5F5F5F5F5F5F5F5F5F5F5F5F5F5F5F5F5F5F5
310
F5F5F5F5F5F5F5F5F5F5F5F5F5F5F5F5F5F5F5F5F5F5F5F5F5F5F5F5F5F5F5F5F5F5F5F5F5F5F5F5F5F5F5F5F5F5F5F5F5F5F5F5F5F5F5F5F5F5F5F5F5F5F5F5F5F5F5F5F5F5F5F5F5F5F5F5F5F5F5F5F5F5F5F5F5F5F5F5F5F5F5F5F5F5F5F5F5F5F5F5F5F5F5F5F5E2E2EFEFEFEFEFEFEFEFEFEFEFEFEFEFEFEFEFEFF5F5
310
F5F5F5F5F5F5F5F5F5F5F5F5F5F5F5F5F5F5F5F5F5F5F5F5F5F5F5F5F5F5F5F5F5F5F5F5F5F5F5F5F5F5F5F5F5F5F5F5F5F5F5F5F5F5F5F5F5F5F5F5F5F5F5F5F5F5F5F5F5F5F5F5F5F5F5F5F5F5F5F5F5F5F5F5F5F5F5F5F5F5F5F5F5F5F5F5F5F5F5F5F5F5F5F5F5F5F5F5F5F5F5F5F5F5F5F5F5F5F5F5F5F5F5F5F5F5F5
310
F5F5F5F5F5F5F5F5F5F5F5F5F5F5F5F5F5F5F5F5F5F5F5F5F5F5F5F5F5F5F5E2E2EFEFEFEFEFEFEFEFEFEFEFEFEFEFEFEFEFEFF5F5F5F5F5F5F5F5F5F5F5F5F5F5F5F5F5F5F5F5F5F5F5F5F5F5F5F5F5F5F5F5F5F5F5F5F5F5F5F5F5F5F5F5F5F5F5F5F5F5F5F5F5F5F5F5F5F5F5F5F5F5F5F5F5F5F5F5F5F5F5F5F5F5F5F5
310
F5F5F5F5F5F5F5F5F5F5F5F5F5F5F5F5F5F5F5F5F5F5F5F5F5F5F5F5F5F5F5F5F5F5F5F5F5F5F5F5F5F5F5F5F5F5F5F5F5F5F5F5F5F5F5F5F5F5F5F5F5F5F5F5F5F5F5F5F5F5F5F5F5F5F5F5F5F5F5F5F5F5F5F5E2E2EFEFEFEFEFEFEFEFEFEFEFEFEFEFEFEFEFEFF5F5F5F5F5F5F5F5F5F5F5F5F5F5F5F5F5F5F5F5F5F5F5
310
F5F5F5F5F5F5F5F5F5F5F5F5F5F5F5F5F5F5F5F5F5F5F5F5F5F5F5F5F5F5F5F5F5F5F5F5F5F5F5F5F5F5F5F5F5F5F5F5F5F5F5F5F5F5F5F5F5F5F5F5F5F5F5F5F5F5F5F5F5F5F5F5F5F5F5F5F5F5F5F5F5F5F5F5F5F5F5F5F5F5F5F5F5F5F5F5F5F5F5F5F5F5F5F5F5F5F5F5F5F5F5F5F5F5F5F5F5F5F5F5F5F5F5F5F5F5F5
310
F5F5F5F5F5F5F5F5F5F5E2E2EFEFEFEFEFEFEFEFEFEFEFEFEFEFEFEFEFEFF5F5F5F5F5F5F5F5F5F5F5F5F5F5F5F5F5F5F5F5F5F5F5F5F5F5F5F5F5F5F5F5F5F5F5F5F5F5F5F5F5F5F5F5F5F5F5F5F5F5F5F5F5F5F5F5F5F5F5F5F5F5F5F5F5F5F5F5F5F5F5F5F5F5F5F5F5F5F5F5F5F5F5F5F5F5F5F5F5F5F5F5F5F5F5F5F5
310
F5F5F5F5F5F5F5F5F5F5F5F5F5F5F5F5F5F5F5F5F5F5F5F5F5F5F5F5F5F5F5F5F5F5F5F5F5F5F5F5F5F5F5F5F5F5F5F5F5F5F5F5F5F5F5F5F5F5F5F5F5F5F5E2E2EFEFEFEFEFEFEFEFEFEFEFEFEFEFEFEFEFEFF5F5F5F5F5F5F5F5F5F5F5F5F5F5F5F5F5F5F5F5F5F5F5F5F5F5F5F5F5F5F5F5F5F5F5F5F5F5F5F5F5F5F5F5
310
F5F5F5F5F5F5F5F5F5F5F5F5F5F5F5F5F5F5F5F5F5F5F5F5F5F5F5F5F5F5F5F5F5F5F5F5F5F5F5F5F5F5F5F5F5F5F5F5F5F5F5F5F5F5F5F5F5F5F5F5F5F5F5F5F5F5F5F5F5F5F5F5F5F5F5F5F5F5F5F5F5F5F5F5F5F5F5F5F5F5F5F5F5F5F5F5F5F5F5F5F5F5F5F5F5F5F5F5F5F5F5F5F5F5F5F5E2E2EFEFEFEFEFEFEFEFEF
310
EFEFEFEFEFEFEFEFEFE2F5F5F5F5F5F5F5F5F5F5F5F5F5F5F5F5F5F5F5F5F5F5F5F5F5F5F5F5F5F5F5F5F5F5F5F5F5F5F5F5F5F5F5F5F5F5F5F5F5F5F5F5F5F5F5F5F5F5F5F5F5F5F5F5F5F5F5F5F5F5F5F5F5F5F5F5F5F5F5F5F5F5F5F5F5F5F5F5F5F5F5F5F5F5F5F5F5F5F5F5F5F5F5F5F5F5F5F5F5F5F5F5F5F5F5F5F5
310
F5F5F5F5F5F5F5F5F5F5F5F5F5F5F5F5F5F5F5F5F5F5F5F5F5F5F5F5F5F5F5F5F5F5F5F5F5F5E2F5F5F5E2E2EFEFEFEFEFEFEFEFEFEFEFEFEFEFEFEFEFEFE2F5F5F5F5F5F5F5F5F5F5F5F5F5F5F5F5F5F5F5F5F5F5F5F5F5F5F5F5F5F5F5F5F5F5F5F5F5F5F5F5F5F5F5F5F5F5F5F5F5F5F5F5F5F5F5F5F5F5F5F5F5F5F5F5
310
F5F5F5F5F5F5F5F5F5F5F5F5F5F5F5F5F5F5F5F5F5F5F5F5F5F5F5F5F5F5F5F5F5F5F5F5F5F5F5F5F5F5F5F5F5F5F5F5F5F5F5F5F5F5F5F5F5F5F5F5F5F5F5F5F5F5F5F5F5F5F5F5F5F5F5F5F5F5F5F5F5F5F5F5F5F5F5F5F5F5F5E2F5F5F5E2E2EFEFEFEFEFEFEFEFEFEFEFEFEFEFEFEFEFEFE2F5F5F5F5F5F5F5F5F5F5F5
310
F5F5F5F5F5F5F5F5F5F5F5F5F5F5F5F5F5F5F5F5F5F5F5F5F5F5F5F5F5F5F5F5F5F5F5F5F5F5F5F5F5F5F5F5F5F5F5F5F5F5F5F5F5F5F5F5F5F5F5F5F5F5F5F5F5F5F5F5F5F5F5F5F5F5F5F5F5F5F5F5F5F5F5F5F5F5F5F5F5F5F5F5F5F5F5F5F5F5F5F5F5F5F5F5F5F5F5F5F5F5F5F5F5F5F5F5F5F5F5F5F5F5F5F5F5F5F5
310
F5F5F5F5F5F5F5F5F5F5F5F5F5F5F5F5F5E2F5F5F5E2E2EFEFEFEFEFEFEFEFEFEFEFEFEFEFEFEFEFEFE2F5F5F5F5F5F5F5F5F5F5F5F5F5F5F5F5F5F5F5F5F5F5F5F5F5F5F5F5F5F5F5F5F5F5F5F5F5F5F5F5F5F5F5F5F5F5F5F5F5F5F5F5F5F5F5F5F5F5F5F5F5F5F5F5F5F5F5F5F5F5F5F5F5F5F5F5F5F5F5F5F5F5F5F5F5
310
F5F5F5F5F5F5F5F5F5F5F5F5F5F5F5F5F5F5F5F5F5F5F5F5F5F5F5F5F5F5F5F5F5F5F5F5F5F5F5F5F5F5F5F5F5F5F5F5F5F5F5F5F5F5F5F5F5F5F5F5F5F5F5F5F5F5F5F5F5F5E2F5F5F5E2E2EFEFEFEFEFEFEFEFEFEFEFEFEFEFEFEFEFEFE2F5F5F5F5F5F5F5F5F5F5F5F5F5F5F5F5F5F5F5F5F5F5F5F5F5F5F5F5F5F5F5F5
310
F5F5F5F5F5F5F5F5F5F5F5F5F5F5F5F5F5F5F5F5F5F5F5F5F5F5F5F5F5F5F5F5F5F5F5F5F5F5F5F5F5F5F5F5F5F5F5F5F5F5F5F5F5F5F5F5F5F5F5F5F5F5F5F5F5F5F5F5F5F5F5F5F5F5F5F5F5F5F5F5F5F5F5F5F5F5F5F5F5F5F5F5F5F5F5F5F5F5F5F5F5F5F5F5F5F5F5F5F5F5F5F5F5F5F5F5F5F5F5F5F5F5F5E2F5F5F5
310
E2E2EFEFEFEFEFEFEFEFEFEFEFEFEFEFEFEFEFEFE2F5F5F5F5F5F5F5F5F5F5F5F5F5F5F5F5F5F5F5F5F5F5F5F5F5F5F5F5F5F5F5F5F5F5F5F5F5F5F5F5F5F5F5F5F5F5F5F5F5F5F5F5F5F5F5F5F5F5F5F5F5F5F5F5F5F5F5F5F5F5F5F5F5F5F5F5F5F5F5F5F5F5F5F5F5F5F5F5F5F5F5F5F5F5F5F5F5F5F5F5F5F5F5F5F5F5
310
F5F5F5F5F5F5F5F5F5F5F5F5F5F5F5F5F5F5F5F5F5F5F5F5F5F5F5F5F5F5F5F5F5F5F5F5F5F5F5F5F5F5F5F5F5F5F5F5F5E2F5F5F5E2E2EFEFEFEFEFEFEFEFEFEFEFEFEFEFEFEFEFEFE2F5F5F5F5F5F5F5F5F5F5F5F5F5F5F5F5F5F5F5F5F5F5F5F5F5F5F5F5F5F5F5F5F5F5F5F5F5F5F5F5F5F5F5F5F5F5F5F5F5F5F5F5F5
310
F5F5F5F5F5F5F5F5F5F5F5F5F5F5F5F5F5F5F5F5F5F5F5F5F5F5F5F5F5F5F5F5F5F5F5F5F5F5F5F5F5F5F5F5F5F5F5F5F5F5F5F5F5F5F5F5F5F5F5F5F5F5F5F5F5F5F5F5F5F5F5F5F5F5F5F5F5F5F5F5F5F5F5F5F5F5F5F5F5F5F5F5F5F5F5F5F5F5F5F5F5F5E2F5F5F5E2E2EFEFEFEFEFEFEFEFEFEFEFEFEFEFEFEFEFEFE2
310
F5F5F5F5F5F5F5F5F5F5F5F5F5F5F5F5F5F5F5F5F5F5F5F5F5F5F5F5F5F5F5F5F5F5F5F5F5F5F5F5F5F5F5F5F5F5F5F5F5F5F5F5F5F5F5F5F5F5F5F5F5F5F5F5F5F5F5F5F5F5F5F5F5F5F5F5F5F5F5F5F5F5F5F5F5F5F5F5F5F5F5F5F5F5F5F5F5F5F5F5F5F5F5F5F5F5F5F5F5F5F5F5F5F5F5F5F5F5F5F5F5F5F5F5F5F5F5
310
F5F5F5F5F5F5F5F5F5F5F5F5F5F5F5F5F5F5F5F5F5F5F5F5F5F5F5F5E2F5F5F5E2E2EFEFEFEFEFEFEFEFEFEFEFEFEFEFEFEFEFEFE2F5F5F5F5F5F5F5F5F5F5F5F5F5F5F5F5F5F5F5F5F5F5F5F5F5F5F5F5F5F5F5F5F5F5F5F5F5F5F5F5F5F5F5F5F5F5F5F5F5F5F5F5F5F5F5F5F5F5F5F5F5F5F5F5F5F5F5F5F5F5F5F5F5F5
310
F5F5F5F5F5F5F5F5F5F5F5F5F5F5F5F5F5F5F5F5F5F5F5F5F5F5F5F5F5F5F5F5F5F5F5F5F5F5F5F5F5F5F5F5F5F5F5F5F5F5F5F5F5F5F5F5F5F5F5F5F5F5F5F5F5F5F5F5F5F5F5F5F5F5F5F5F5F5F5F5F5E2F5F5F5E2E2EFEFEFEFEFEFEFEFEFEFEFEFEFEFEFEFEFEFE2F5F5F5F5F5F5F5F5F5F5F5F5F5F5F5F5F5F5F5F5F5
310
F5F5F5F5F5F5F5F5F5F5F5F5F5F5F5F5F5F5F5F5F5F5F5F5F5F5F5F5F5F5F5F5F5F5F5F5F5F5F5F5F5F5F5F5F5F5F5F5F5F5F5F5F5F5F5F5F5F5F5F5F5F5F5F5F5F5F5F5F5F5F5F5F5F5F5F5F5F5F5F5F5F5F5F5F5F5F5F5F5F5F5F5F5F5F5F5F5F5F5F5F5F5F5F5F5F5F5F5F5F5F5F5F5F5F5F5F5F5F5F5F5F5F5F5F5F5F5
310
F5F5F5F5F5F5F5E2F5F5F5E2E2EFEFEFEFEFEFEFEFEFEFEFEFEFEFEFEFEFEFE2F5F5F5F5F5F5F5F5F5F5F5F5F5F5F5F5F5F5F5F5F5F5F5F5F5F5F5F5F5F5F5F5F5F5F5F5F5F5F5F5F5F5F5F5F5F5F5F5F5F5F5F5F5F5F5F5F5F5F5F5F5F5F5F5F5F5F5F5F5F5F5F5F5F5F5F5F5F5F5F5F5F5F5F5F5F5F5F5F5F5F5F5F5F5F5
310
F5F5F5F5F5F5F5F5F5F5F5F5F5F5F5F5F5F5F5F5F5F5F5F5F5F5F5F5F5F5F5F5F5F5F5F5F5F5F5F5F5F5F5F5F5F5F5F5F5F5F5F5F5F5F5F5F5F5F5F5E2F5F5F5E2E2EFEFEFEFEFEFEFEFEFEFEFEFEFEFEFEFEFEFE2F5F5F5F5F5F5F5F5F5F5F5F5F5F5F5F5F5F5F5F5F5F5F5F5F5F5F5F5F5F5F5F5F5F5F5F5F5F5F5F5F5F5
310
F5F5F5F5F5F5F5F5F5F5F5F5F5F5F5F5F5F5F5F5F5F5F5F5F5F5F5F5F5F5F5F5F5F5F5F5F5F5F5F5F5F5F5F5F5F5F5F5F5F5F5F5F5F5F5F5F5F5F5F5F5F5F5F5F5F5F5F5F5F5F5F5F5F5F5F5F5F5F5F5F5F5F5F5F5F5F5F5F5F5F5F5F5F5F5F5F5F5F5F5F5F5F5F5F5F5F5F5F5F5F5F5F5E2F5F5F5E2E2EFEFEFEFEFEFEFEF
310
EFEFEFEFEFEFEFEFEFEFE2F5F5F5F5F5F5F5F5F5F5F5F5F5F5F5F5F5F5F5F5F5F5F5F5F5F5F5F5F5F5F5F5F5F5F5F5F5F5F5F5F5F5F5F5F5F5F5F5F5F5F5F5F5F5F5F5F5F5F5F5F5F5F5F5F5F5F5F5F5F5F5F5F5F5F5F5F5F5F5F5F5F5F5F5F5F5F5F5F5F5F5F5F5F5F5F5F5F5F5F5F5F5F5F5F5F5F5F5F5F5F5F5F5F5F5F5
310
F5F5F5F5F5F5F5F5F5F5F5F5F5F5F5F5F5F5F5F5F5F5F5F5F5F5F5F5F5F5F5F5F5F5F5F5F5F5F5E2F5F5F5E2E2EFEFEFEFEFEFEFEFEFEFEFEFEFEFEFEFEFEFE2F5F5F5F5F5F5F5F5F5F5F5F5F5F5F5F5F5F5F5F5F5F5F5F5F5F5F5F5F5F5F5F5F5F5F5F5F5F5F5F5F5F5F5F5F5F5F5F5F5F5F5F5F5F5F5F5F5F5F5F5F5F5F5
310
F5F5F5F5F5F5F5F5F5F5F5F5F5F5F5F5F5F5F5F5F5F5F5F5F5F5F5F5F5F5F5F5F5F5F5F5F5F5F5F5F5F5F5F5F5F5F5F5F5F5F5F5F5F5F5F5F5F5F5F5F5F5F5F5F5F5F5F5F5F5F5F5F5F5F5F5F5F5F5F5F5F5F5F5F5F5F5F5F5F5F5F5E2F5F5F5E2E2EFEFEFEFEFEFEFEFEFEFEFEFEFEFEFEFEFEFE2F5F5F5F5F5F5F5F5F5F5
310
F5F5F5F5F5F5F5F5F5F5F5F5F5F5F5F5F5F5F5F5F5F5F5F5F5F5F5F5F5F5F5F5F5F5F5F5F5F5F5F5F5F5F5F5F5F5F5F5F5F5F5F5F5F5F5F5F5F5F5F5F5F5F5F5F5F5F5F5F5F5F5F5F5F5F5F5F5F5F5F5F5F5F5F5F5F5F5F5F5F5F5F5F5F5F5F5F5F5F5F5F5F5F5F5F5F5F5F5F5F5F5F5F5F5F5F5F5F5F5F5F5F5F5F5F5F5F5
310
F5F5F5F5F5F5F5F5F5F5F5F5F5F5F5F5F5F5E2F5F5F5E2E2EFEFEFEFEFEFEFEFEFEFEFEFEFEFEFEFEFEFE2F5F5F5F5F5F5F5F5F5F5F5F5F5F5F5F5F5F5F5F5F5F5F5F5F5F5F5F5F5F5F5F5F5F5F5F5F5F5F5F5F5F5F5F5F5F5F5F5F5F5F5F5F5F5F5F5F5F5F5F5F5F5F5F5F5F5F5F5F5F5F5F5F5F5F5F5F5F5F5F5F5F5F5F5
310
F5F5F5F5F5F5F5F5F5F5F5F5F5F5F5F5F5F5F5F5F5F5F5F5F5F5F5F5F5F5F5F5F5F5F5F5F5F5F5F5F5F5F5F5F5F5F5F5F5F5F5F5F5F5F5F5F5F5F5F5F5F5F5F5F5F5F5F5F5F5F5E2F5F5F5E2E2EFEFEFEFEFEFEFEFEFEFEFEFEFEFEFEFEFEFF5F5F5F5F5F5F5F5F5F5F5F5F5F5F5F5F5F5F5F5F5F5F5F5F5F5F5F5F5F5F5F5
310
F5F5F5F5F5F5F5F5F5F5F5F5F5F5F5F5F5F5F5F5F5F5F5F5F5F5F5F5F5F5F5F5F5F5F5F5F5F5F5F5F5F5F5F5F5F5F5F5F5F5F5F5F5F5F5F5F5F5F5F5F5F5F5F5F5F5F5F5F5F5F5F5F5F5F5F5F5F5F5F5F5F5F5F5F5F5F5F5F5F5F5F5F5F5F5F5F5F5F5F5F5F5F5F5F5F5F5F5F5F5F5F5F5F5F5F5F5F5F5F5F5F5F5F5F5F5F5
310
F5E2E2EFEFEFEFEFEFEFEFEFEFEFEFEFEFEFEFEFEFF5F5F5F5F5F5F5F5F5F5F5F5F5F5F5F5F5F5F5F5F5F5F5F5F5F5F5F5F5F5F5F5F5F5F5F5F5F5F5F5F5F5F5F5F5F5F5F5F5F5F5F5F5F5F5F5F5F5F5F5F5F5F5F5F5F5F5F5F5F5F5F5F5F5F5F5F5F5F5F5F5F5F5F5F5F5F5F5F5F5F5F5F5F5F5F5F5F5F5F5F5F5F5F5F5F5
310
F5F5F5F5F5F5F5F5F5F5F5F5F5F5F5F5F5F5F5F5F5F5F5F5F5F5F5F5F5F5F5F5F5F5F5F5F5F5F5F5F5F5F5F5F5F5F5F5F5F5F5F5F5F5E2E2EFEFEFEFEFEFEFEFEFEFEFEFEFEFEFEFEFEFF5F5F5F5F5F5F5F5F5F5F5F5F5F5F5F5F5F5F5F5F5F5F5F5F5F5F5F5F5F5F5F5F5F5F5F5F5F5F5F5F5F5F5F5F5F5F5F5F5F5F5F5F5
310
F5F5F5F5F5F5F5F5F5F5F5F5F5F5F5F5F5F5F5F5F5F5F5F5F5F5F5F5F5F5F5F5F5F5F5F5F5F5F5F5F5F5F5F5F5F5F5F5F5F5F5F5F5F5F5F5F5F5F5F5F5F5F5F5F5F5F5F5F5F5F5F5F5F5F5F5F5F5F5F5F5F5F5F5F5F5F5F5F5F5F5F5F5F5F5F5F5F5F5F5F5F5F5F5F5F5F5E2E2EFEFEFEFEFEFEFEFEFEFEFEFEFEFEFEFEFEF
310
F5F5F5F5F5F5F5F5F5F5F5F5F5F5F5F5F5F5F5F5F5F5F5F5F5F5F5F5F5F5F5F5F5F5F5F5F5F5F5F5F5F5F5F5F5F5F5F5F5F5F5F5F5F5F5F5F5F5F5F5F5F5F5F5F5F5F5F5F5F5F5F5F5F5F5F5F5F5F5F5F5F5F5F5F5F5F5F5F5F5F5F5F5F5F5F5F5F5F5F5F5F5F5F5F5F5F5F5F5F5F5F5F5F5F5F5F5F5F5F5F5F5F5F5F5F5F5
310
F5F5F5F5F5F5F5F5F5F5F5F5F5F5F5F5F5F5F5F5F5F5F5F5F5F5F5F5F5F5F5F5F5E2E2EFEFEFEFEFEFEFEFEFEFEFEFEFEFEFEFEFEFF5F5F5F5F5F5F5F5F5F5F5F5F5F5F5F5F5F5F5F5F5F5F5F5F5F5F5F5F5F5F5F5F5F5F5F5F5F5F5F5F5F5F5F5F5F5F5F5F5F5F5F5F5F5F5F5F5F5F5F5F5F5F5F5F5F5F5F5F5F5F5F5F5F5
310
F5F5F5F5F5F5F5F5F5F5F5F5F5F5F5F5F5F5F5F5F5F5F5F5F5F5F5F5F5F5F5F5F5F5F5F5F5F5F5F5F5F5F5F5F5F5F5F5F5F5F5F5F5F5F5F5F5F5F5F5F5F5F5F5F5F5F5F5F5F5F5F5F5F5F5F5F5F5F5F5F5F5F5F5F5F5E2E2EFEFEFEFEFEFEFEFEFEFEFEFEFEFEFEFEFEFF5F5F5F5F5F5F5F5F5F5F5F5F5F5F5F5F5F5F5F5F5
310
F5F5F5F5F5F5F5F5F5F5F5F5F5F5F5F5F5F5F5F5F5F5F5F5F5F5F5F5F5F5F5F5F5F5F5F5F5F5F5F5F5F5F5F5F5F5F5F5F5F5F5F5F5F5F5F5F5F5F5F5F5F5F5F5F5F5F5F5F5F5F5F5F5F5F5F5F5F5F5F5F5F5F5F5F5F5F5F5F5F5F5F5F5F5F5F5F5F5F5F5F5F5F5F5F5F5F5F5F5F5F5F5F5F5F5F5F5F5F5F5F5F5F5F5F5F5F5
310
F5F5F5F5F5F5F5F5F5F5F5F5E2E2EFEFEFEFEFEFEFEFEFEFEFEFEFEFEFEFEFEFF5F5F5F5F5F5F5F5F5F5F5F5F5F5F5F5F5F5F5F5F5F5F5F5F5F5F5F5F5F5F5F5F5F5F5F5F5F5F5F5F5F5F5F5F5F5F5F5F5F5F5F5F5F5F5F5F5F5F5F5F5F5F5F5F5F5F5F5F5F5F5F5F5F5F5F5F5F5F5F5F5F5F5F5F5F5F5F5F5F5F5F5F5F5F5
310
F5F5F5F5F5F5F5F5F5F5F5F5F5F5F5F5F5F5F5F5F5F5F5F5F5F5F5F5F5F5F5F5F5F5F5F5F5F5F5F5F5F5F5F5F5F5F5F5F5F5F5F5F5F5F5F5F5F5F5F5F5F5F5F5F5E2E2EFEFEFEFEFEFEFEFEFEFEFEFEFEFEFEFEFEFF5F5F5F5F5F5F5F5F5F5F5F5F5F5F5F5F5F5F5F5F5F5F5F5F5F5F5F5F5F5F5F5F5F5F5F5F5F5F5F5F5F5
310
F5F5F5F5F5F5F5F5F5F5F5F5F5F5F5F5F5F5F5F5F5F5F5F5F5F5F5F5F5F5F5F5F5F5F5F5F5F5F5F5F5F5F5F5F5F5F5F5F5F5F5F5F5F5F5F5F5F5F5F5F5F5F5F5F5F5F5F5F5F5F5F5F5F5F5F5F5F5F5F5F5F5F5F5F5F5F5F5F5F5F5F5F5F5F5F5F5F5F5F5F5F5F5F5F5F5F5F5F5F5F5F5F5F5F5F5F5F5E2E2EFEFEFEFEFEFEF
310
EFEFEFEFEFEFEFEFEFEFEFE2F5F5F5F5F5F5F5F5F5F5F5F5F5F5F5F5F5F5F5F5F5F5F5F5F5F5F5F5F5F5F5F5F5F5F5F5F5F5F5F5F5F5F5F5F5F5F5F5F5F5F5F5F5F5F5F5F5F5F5F5F5F5F5F5F5F5F5F5F5F5F5F5F5F5F5F5F5F5F5F5F5F5F5F5F5F5F5F5F5F5F5F5F5F5F5F5F5F5F5F5F5F5F5F5F5F5F5F5F5F5F5F5F5F5F5
310
F5F5F5F5F5F5F5F5F5F5F5F5F5F5F5F5F5F5F5F5F5F5F5F5F5F5F5F5F5F5F5F5F5F5F5F5F5F5F5F5E2F5F5F5E2E2EFEFEFEFEFEFEFEFEFEFEFEFEFEFEFEFEFEFE2F5F5F5F5F5F5F5F5F5F5F5F5F5F5F5F5F5F5F5F5F5F5F5F5F5F5F5F5F5F5F5F5F5F5F5F5F5F5F5F5F5F5F5F5F5F5F5F5F5F5F5F5F5F5F5F5F5F5F5F5F5F5
310
F5F5F5F5F5F5F5F5F5F5F5F5F5F5F5F5F5F5F5F5F5F5F5F5F5F5F5F5F5F5F5F5F5F5F5F5F5F5F5F5F5F5F5F5F5F5F5F5F5F5F5F5F5F5F5F5F5F5F5F5F5F5F5F5F5F5F5F5F5F5F5F5F5F5F5F5F5F5F5F5F5F5F5F5F5F5F5F5F5F5F5F5F5E2F5F5F5E2E2EFEFEFEFEFEFEFEFEFEFEFEFEFEFEFEFEFEFE2F5F5F5F5F5F5F5F5F5
310
F5F5F5F5F5F5F5F5F5F5F5F5F5F5F5F5F5F5F5F5F5F5F5F5F5F5F5F5F5F5F5F5F5F5F5F5F5F5F5F5F5F5F5F5F5F5F5F5F5F5F5F5F5F5F5F5F5F5F5F5F5F5F5F5F5F5F5F5F5F5F5F5F5F5F5F5F5F5F5F5F5F5F5F5F5F5F5F5F5F5F5F5F5F5F5F5F5F5F5F5F5F5F5F5F5F5F5F5F5F5F5F5F5F5F5F5F5F5F5F5F5F5F5F5F5F5F5
310
F5F5F5F5F5F5F5F5F5F5F5F5F5F5F5F5F5F5F5E2F5F5F5E2E2EFEFEFEFEFEFEFEFEFEFEFEFEFEFEFEFEFEFE2F5F5F5F5F5F5F5F5F5F5F5F5F5F5F5F5F5F5F5F5F5F5F5F5F5F5F5F5F5F5F5F5F5F5F5F5F5F5F5F5F5F5F5F5F5F5F5F5F5F5F5F5F5F5F5F5F5F5F5F5F5F5F5F5F5F5F5F5F5F5F5F5F5F5F5F5F5F5F5F5F5F5F5
310
F5F5F5F5F5F5F5F5F5F5F5F5F5F5F5F5F5F5F5F5F5F5F5F5F5F5F5F5F5F5F5F5F5F5F5F5F5F5F5F5F5F5F5F5F5F5F5F5F5F5F5F5F5F5F5F5F5F5F5F5F5F5F5F5F5F5F5F5F5F5F5F5E2F5F5F5E2E2EFEFEFEFEFEFEFEFEFEFEFEFEFEFEFEFEFEFE2F5F5F5F5F5F5F5F5F5F5F5F5F5F5F5F5F5F5F5F5F5F5F5F5F5F5F5F5F5F5
310
F5F5F5F5F5F5F5F5F5F5F5F5F5F5F5F5F5F5F5F5F5F5F5F5F5F5F5F5F5F5F5F5F5F5F5F5F5F5F5F5F5F5F5F5F5F5F5F5F5F5F5F5F5F5F5F5F5F5F5F5F5F5F5F5F5F5F5F5F5F5F5F5F5F5F5F5F5F5F5F5F5F5F5F5F5F5F5F5F5F5F5F5F5F5F5F5F5F5F5F5F5F5F5F5F5F5F5F5F5F5F5F5F5F5F5F5F5F5F5F5F5F5F5F5F5E2F5
310
F5F5E2E2EFEFEFEFEFEFEFEFEFEFEFEFEFEFEFEFEFEFE2F5F5F5F5F5F5F5F5F5F5F5F5F5F5F5F5F5F5F5F5F5F5F5F5F5F5F5F5F5F5F5F5F5F5F5F5F5F5F5F5F5F5F5F5F5F5F5F5F5F5F5F5F5F5F5F5F5F5F5F5F5F5F5F5F5F5F5F5F5F5F5F5F5F5F5F5F5F5F5F5F5F5F5F5F5F5F5F5F5F5F5F5F5F5F5F5F5F5F5F5F5F5F5F5
310
F5F5F5F5F5F5F5F5F5F5F5F5F5F5F5F5F5F5F5F5F5F5F5F5F5F5F5F5F5F5F5F5F5F5F5F5F5F5F5F5F5F5F5F5F5F5F5F5F5F5F5E2F5F5F5E2E2EFEFEFEFEFEFEFEFEFEFEFEFEFEFEFEFEFEFE2F5F5F5F5F5F5F5F5F5F5F5F5F5F5F5F5F5F5F5F5F5F5F5F5F5F5F5F5F5F5F5F5F5F5F5F5F5F5F5F5F5F5F5F5F5F5F5F5F5F5F5
310
F5F5F5F5F5F5F5F5F5F5F5F5F5F5F5F5F5F5F5F5F5F5F5F5F5F5F5F5F5F5F5F5F5F5F5F5F5F5F5F5F5F5F5F5F5F5F5F5F5F5F5F5F5F5F5F5F5F5F5F5F5F5F5F5F5F5F5F5F5F5F5F5F5F5F5F5F5F5F5F5F5F5F5F5F5F5F5F5F5F5F5F5F5F5F5F5F5F5F5F5F5F5F5F5E2F5F5F5E2E2EFEFEFEFEFEFEFEFEFEFEFEFEFEFEFEFEF
310
EFE2F5F5F5F5F5F5F5F5F5F5F5F5F5F5F5F5F5F5F5F5F5F5F5F5F5F5F5F5F5F5F5F5F5F5F5F5F5F5F5F5F5F5F5F5F5F5F5F5F5F5F5F5F5F5F5F5F5F5F5F5F5F5F5F5F5F5F5F5F5F5F5F5F5F5F5F5F5F5F5F5F5F5F5F5F5F5F5F5F5F5F5F5F5F5F5F5F5F5F5F5F5F5F5F5F5F5F5F5F5F5F5F5F5F5F5F5F5F5F5F5F5F5F5F5F5
310
F5F5F5F5F5F5F5F5F5F5F5F5F5F5F5F5F5F5F5F5F5F5F5F5F5F5F5F5F5F5E2F5F5F5E2E2EFEFEFEFEFEFEFEFEFEFEFEFEFEFEFEFEFEFE2F5F5F5F5F5F5F5F5F5F5F5F5F5F5F5F5F5F5F5F5F5F5F5F5F5F5F5F5F5F5F5F5F5F5F5F5F5F5F5F5F5F5F5F5F5F5F5F5F5F5F5F5F5F5F5F5F5F5F5F5F5F5F5F5F5F5F5F5F5F5F5F5
310
F5F5F5F5F5F5F5F5F5F5F5F5F5F5F5F5F5F5F5F5F5F5F5F5F5F5F5F5F5F5F5F5F5F5F5F5F5F5F5F5F5F5F5F5F5F5F5F5F5F5F5F5F5F5F5F5F5F5F5F5F5F5F5F5F5F5F5F5F5F5F5F5F5F5F5F5F5F5F5F5F5F5F5E2F5F5F5E2E2EFEFEFEFEFEFEFEFEFEFEFEFEFEFEFEFEFEFE2F5F5F5F5F5F5F5F5F5F5F5F5F5F5F5F5F5F5F5
310
F5F5F5F5F5F5F5F5F5F5F5F5F5F5F5F5F5F5F5F5F5F5F5F5F5F5F5F5F5F5F5F5F5F5F5F5F5F5F5F5F5F5F5F5F5F5F5F5F5F5F5F5F5F5F5F5F5F5F5F5F5F5F5F5F5F5F5F5F5F5F5F5F5F5F5F5F5F5F5F5F5F5F5F5F5F5F5F5F5F5F5F5F5F5F5F5F5F5F5F5F5F5F5F5F5F5F5F5F5F5F5F5F5F5F5F5F5F5F5F5F5F5F5F5F5F5F5
310
F5F5F5F5F5F5F5F5F5E2F5F5F5E2E2EFEFEFEFEFEFEFEFEFEFEFEFEFEFEFEFEFEFE2F5F5F5F5F5F5F5F5F5F5F5F5F5F5F5F5F5F5F5F5F5F5F5F5F5F5F5F5F5F5F5F5F5F5F5F5F5F5F5F5F5F5F5F5F5F5F5F5F5F5F5F5F5F5F5F5F5F5F5F5F5F5F5F5F5F5F5F5F5F5F5F5F5F5F5F5F5F5F5F5F5F5F5F5F5F5F5F5F5F5F5F5F5
310
F5F5F5F5F5F5F5F5F5F5F5F5F5F5F5F5F5F5F5F5F5F5F5F5F5F5F5F5F5F5F5F5F5F5F5F5F5F5F5F5F5F5F5F5F5F5F5F5F5F5F5F5F5F5F5F5F5F5F5F5F5F5E2F5F5F5E2E2EFEFEFEFEFEFEFEFEFEFEFEFEFEFEFEFEFEFE2F5F5F5F5F5F5F5F5F5F5F5F5F5F5F5F5F5F5F5F5F5F5F5F5F5F5F5F5F5F5F5F5F5F5F5F5F5F5F5F5
310
F5F5F5F5F5F5F5F5F5F5F5F5F5F5F5F5F5F5F5F5F5F5F5F5F5F5F5F5F5F5F5F5F5F5F5F5F5F5F5F5F5F5F5F5F5F5F5F5F5F5F5F5F5F5F5F5F5F5F5F5F5F5F5F5F5F5F5F5F5F5F5F5F5F5F5F5F5F5F5F5F5F5F5F5F5F5F5F5F5F5F5F5F5F5F5F5F5F5F5F5F5F5F5F5F5F5F5F5F5F5F5F5F5F5F5E2F5F5F5E2E2EFEFEFEFEFEF
310
EFEFEFEFEFEFEFEFEFEFEFEFE2F5F5F5F5F5F5F5F5F5F5F5F5F5F5F5F5F5F5F5F5F5F5F5F5F5F5F5F5F5F5F5F5F5F5F5F5F5F5F5F5F5F5F5F5F5F5F5F5F5F5F5F5F5F5F5F5F5F5F5F5F5F5F5F5F5F5F5F5F5F5F5F5F5F5F5F5F5F5F5F5F5F5F5F5F5F5F5F5F5F5F5F5F5F5F5F5F5F5F5F5F5F5F5F5F5F5F5F5F5F5F5F5F5F5
310
F5F5F5F5F5F5F5F5F5F5F5F5F5F5F5F5F5F5F5F5F5F5F5F5F5F5F5F5F5F5F5F5F5F5F5F5F5F5F5F5F5E2F5F5F5E2E2EFEFEFEFEFEFEFEFEFEFEFEFEFEFEFEFEFEFE2F5F5F5F5F5F5F5F5F5F5F5F5F5F5F5F5F5F5F5F5F5F5F5F5F5F5F5F5F5F5F5F5F5F5F5F5F5F5F5F5F5F5F5F5F5F5F5F5F5F5F5F5F5F5F5F5F5F5F5F5F5
310
F5F5F5F5F5F5F5F5F5F5F5F5F5F5F5F5F5F5F5F5F5F5F5F5F5F5F5F5F5F5F5F5F5F5F5F5F5F5F5F5F5F5F5F5F5F5F5F5F5F5F5F5F5F5F5F5F5F5F5F5F5F5F5F5F5F5F5F5F5F5F5F5F5F5F5F5F5F5F5F5F5F5F5F5F5F5F5F5F5F5F5F5F5F5E2F5F5F5E2E2EFEFEFEFEFEFEFEFEFEFEFEFEFEFEFEFEFEFE2F5F5F5F5F5F5F5F5
310
F5F5F5F5F5F5F5F5F5F5F5F5F5F5F5F5F5F5F5F5F5F5F5F5F5F5F5F5F5F5F5F5F5F5F5F5F5F5F5F5F5F5F5F5F5F5F5F5F5F5F5F5F5F5F5F5F5F5F5F5F5F5F5F5F5F5F5F5F5F5F5F5F5F5F5F5F5F5F5F5F5F5F5F5F5F5F5F5F5F5F5F5F5F5F5F5F5F5F5F5F5F5F5F5F5F5F5F5F5F5F5F5F5F5F5F5F5F5F5F5F5F5F5F5F5F5F5
310
F5F5F5F5F5F5F5F5F5F5F5F5F5F5F5F5F5F5F5F5E2F5F5F5E2E2EFEFEFEFEFEFEFEFEFEFEFEFEFEFEFEFEFEFE2F5F5F5F5F5F5F5F5F5F5F5F5F5F5F5F5F5F5F5F5F5F5F5F5F5F5F5F5F5F5F5F5F5F5F5F5F5F5F5F5F5F5F5F5F5F5F5F5F5F5F5F5F5F5F5F5F5F5F5F5F5F5F5F5F5F5F5F5F5F5F5F5F5F5F5F5F5F5F5F5F5F5
310
F5F5F5F5F5F5F5F5F5F5F5F5F5F5F5F5F5F5F5F5F5F5F5F5F5F5F5F5F5F5F5F5F5F5F5F5F5F5F5F5F5F5F5F5F5F5F5F5F5F5F5F5F5F5F5F5F5F5F5F5F5F5F5F5F5F5F5F5F5F5F5F5F5E2F5F5F5E2E2EFEFEFEFEFEFEFEFEFEFEFEFEFEFEFEFEFEFF5F5F5F5F5F5F5F5F5F5F5F5F5F5F5F5F5F5F5F5F5F5F5F5F5F5F5F5F5F5
310
F5F5F5F5F5F5F5F5F5F5F5F5F5F5F5F5F5F5F5F5F5F5F5F5F5F5F5F5F5F5F5F5F5F5F5F5F5F5F5F5F5F5F5F5F5F5F5F5F5F5F5F5F5F5F5F5F5F5F5F5F5F5F5F5F5F5F5F5F5F5F5F5F5F5F5F5F5F5F5F5F5F5F5F5F5F5F5F5F5F5F5F5F5F5F5F5F5F5F5F5F5F5F5F5F5F5F5F5F5F5F5F5F5F5F5F5F5F5F5F5F5F5F5F5F5F5F5
310
F5F5F5E2E2EFEFEFEFEFEFEFEFEFEFEFEFEFEFEFEFEFEFF5F5F5F5F5F5F5F5F5F5F5F5F5F5F5F5F5F5F5F5F5F5F5F5F5F5F5F5F5F5F5F5F5F5F5F5F5F5F5F5F5F5F5F5F5F5F5F5F5F5F5F5F5F5F5F5F5F5F5F5F5F5F5F5F5F5F5F5F5F5F5F5F5F5F5F5F5F5F5F5F5F5F5F5F5F5F5F5F5F5F5F5F5F5F5F5F5F5F5F5F5F5F5F5
310
F5F5F5F5F5F5F5F5F5F5F5F5F5F5F5F5F5F5F5F5F5F5F5F5F5F5F5F5F5F5F5F5F5F5F5F5F5F5F5F5F5F5F5F5F5F5F5F5F5F5F5F5F5F5F5F5E2E2EFEFEFEFEFEFEFEFEFEFEFEFEFEFEFEFEFEFF5F5F5F5F5F5F5F5F5F5F5F5F5F5F5F5F5F5F5F5F5F5F5F5F5F5F5F5F5F5F5F5F5F5F5F5F5F5F5F5F5F5F5F5F5F5F5F5F5F5F5
310
F5F5F5F5F5F5F5F5F5F5F5F5F5F5F5F5F5F5F5F5F5F5F5F5F5F5F5F5F5F5F5F5F5F5F5F5F5F5F5F5F5F5F5F5F5F5F5F5F5F5F5F5F5F5F5F5F5F5F5F5F5F5F5F5F5F5F5F5F5F5F5F5F5F5F5F5F5F5F5F5F5F5F5F5F5F5F5F5F5F5F5F5F5F5F5F5F5F5F5F5F5F5F5F5F5F5F5F5F5E2E2EFEFEFEFEFEFEFEFEFEFEFEFEFEFEFEF
310
EFEFF5F5F5F5F5F5F5F5F5F5F5F5F5F5F5F5F5F5F5F5F5F5F5F5F5F5F5F5F5F5F5F5F5F5F5F5F5F5F5F5F5F5F5F5F5F5F5F5F5F5F5F5F5F5F5F5F5F5F5F5F5F5F5F5F5F5F5F5F5F5F5F5F5F5F5F5F5F5F5F5F5F5F5F5F5F5F5F5F5F5F5F5F5F5F5F5F5F5F5F5F5F5F5F5F5F5F5F5F5F5F5F5F5F5F5F5F5F5F5F5F5F5F5F5F5
310
F5F5F5F5F5F5F5F5F5F5F5F5F5F5F5F5F5F5F5F5F5F5F5F5F5F5F5F5F5F5F5F5F5F5F5E2E2EFEFEFEFEFEFEFEFEFEFEFEFEFEFEFEFEFEFF5F5F5F5F5F5F5F5F5F5F5F5F5F5F5F5F5F5F5F5F5F5F5F5F5F5F5F5F5F5F5F5F5F5F5F5F5F5F5F5F5F5F5F5F5F5F5F5F5F5F5F5F5F5F5F5F5F5F5F5F5F5F5F5F5F5F5F5F5F5F5F5
310
F5F5F5F5F5F5F5F5F5F5F5F5F5F5F5F5F5F5F5F5F5F5F5F5F5F5F5F5F5F5F5F5F5F5F5F5F5F5F5F5F5F5F5F5F5F5F5F5F5F5F5F5F5F5F5F5F5F5F5F5F5F5F5F5F5F5F5F5F5F5F5F5F5F5F5F5F5F5F5F5F5F5F5F5F5F5F5F5E2E2EFEFEFEFEFEFEFEFEFEFEFEFEFEFEFEFEFEFF5F5F5F5F5F5F5F5F5F5F5F5F5F5F5F5F5F5F5
310
F5F5F5F5F5F5F5F5F5F5F5F5F5F5F5F5F5F5F5F5F5F5F5F5F5F5F5F5F5F5F5F5F5F5F5F5F5F5F5F5F5F5F5F5F5F5F5F5F5F5F5F5F5F5F5F5F5F5F5F5F5F5F5F5F5F5F5F5F5F5F5F5F5F5F5F5F5F5F5F5F5F5F5F5F5F5F5F5F5F5F5F5F5F5F5F5F5F5F5F5F5F5F5F5F5F5F5F5F5F5F5F5F5F5F5F5F5F5F5F5F5F5F5F5F5F5F5
310
F5F5F5F5F5F5F5F5F5F5F5F5F5F5E2E2EFEFEFEFEFEFEFEFEFEFEFEFEFEFEFEFEFEFF5F5F5F5F5F5F5F5F5F5F5F5F5F5F5F5F5F5F5F5F5F5F5F5F5F5F5F5F5F5F5F5F5F5F5F5F5F5F5F5F5F5F5F5F5F5F5F5F5F5F5F5F5F5F5F5F5F5F5F5F5F5F5F5F5F5F5F5F5F5F5F5F5F5F5F5F5F5F5F5F5F5F5F5F5F5F5F5F5F5F5F5F5
310
F5F5F5F5F5F5F5F5F5F5F5F5F5F5F5F5F5F5F5F5F5F5F5F5F5F5F5F5F5F5F5F5F5F5F5F5F5F5F5F5F5F5F5F5F5F5F5F5F5F5F5F5F5F5F5F5F5F5F5F5F5F5F5F5F5F5F5E2E2EFEFEFEFEFEFEFEFEFEFEFEFEFEFEFEFEFEFF5F5F5F5F5F5F5F5F5F5F5F5F5F5F5F5F5F5F5F5F5F5F5F5F5F5F5F5F5F5F5F5F5F5F5F5F5F5F5F5
310
F5F5F5F5F5F5F5F5F5F5F5F5F5F5F5F5F5F5F5F5F5F5F5F5F5F5F5F5F5F5F5F5F5F5F5F5F5F5F5F5F5F5F5F5F5F5F5F5F5F5F5F5F5F5F5F5F5F5F5F5F5F5F5F5F5F5F5F5F5F5F5F5F5F5F5F5F5F5F5F5F5F5F5F5F5F5F5F5F5F5F5F5F5F5F5F5F5F5F5F5F5F5F5F5F5F5F5F5F5F5F5F5F5F5F5F5F5F5F5F5E2E2EFEFEFEFEF
310
EFEFEFEFEFEFEFEFEFEFEFEFEFE2F5F5F5F5F5F5F5F5F5F5F5F5F5F5F5F5F5F5F5F5F5F5F5F5F5F5F5F5F5F5F5F5F5F5F5F5F5F5F5F5F5F5F5F5F5F5F5F5F5F5F5F5F5F5F5F5F5F5F5F5F5F5F5F5F5F5F5F5F5F5F5F5F5F5F5F5F5F5F5F5F5F5F5F5F5F5F5F5F5F5F5F5F5F5F5F5F5F5F5F5F5F5F5F5F5F5F5F5F5F5F5F5F5
310
F5F5F5F5F5F5F5F5F5F5F5F5F5F5F5F5F5F5F5F5F5F5F5F5F5F5F5F5F5F5F5F5F5F5F5F5F5F5F5F5F5F5E2F5F5F5E2E2EFEFEFEFEFEFEFEFEFEFEFEFEFEFEFEFEFEFE2F5F5F5F5F5F5F5F5F5F5F5F5F5F5F5F5F5F5F5F5F5F5F5F5F5F5F5F5F5F5F5F5F5F5F5F5F5F5F5F5F5F5F5F5F5F5F5F5F5F5F5F5F5F5F5F5F5F5F5F5
310
F5F5F5F5F5F5F5F5F5F5F5F5F5F5F5F5F5F5F5F5F5F5F5F5F5F5F5F5F5F5F5F5F5F5F5F5F5F5F5F5F5F5F5F5F5F5F5F5F5F5F5F5F5F5F5F5F5F5F5F5F5F5F5F5F5F5F5F5F5F5F5F5F5F5F5F5F5F5F5F5F5F5F5F5F5F5F5F5F5F5F5F5F5F5F5E2F5F5F5E2E2EFEFEFEFEFEFEFEFEFEFEFEFEFEFEFEFEFEFE2F5F5F5F5F5F5F5
310
F5F5F5F5F5F5F5F5F5F5F5F5F5F5F5F5F5F5F5F5F5F5F5F5F5F5F5F5F5F5F5F5F5F5F5F5F5F5F5F5F5F5F5F5F5F5F5F5F5F5F5F5F5F5F5F5F5F5F5F5F5F5F5F5F5F5F5F5F5F5F5F5F5F5F5F5F5F5F5F5F5F5F5F5F5F5F5F5F5F5F5F5F5F5F5F5F5F5F5F5F5F5F5F5F5F5F5F5F5F5F5F5F5F5F5F5F5F5F5F5F5F5F5F5F5F5F5
310
F5F5F5F5F5F5F5F5F5F5F5F5F5F5F5F5F5F5F5F5F5E2F5F5F5E2E2EFEFEFEFEFEFEFEFEFEFEFEFEFEFEFEFEFEFE2F5F5F5F5F5F5F5F5F5F5F5F5F5F5F5F5F5F5F5F5F5F5F5F5F5F5F5F5F5F5F5F5F5F5F5F5F5F5F5F5F5F5F5F5F5F5F5F5F5F5F5F5F5F5F5F5F5F5F5F5F5F5F5F5F5F5F5F5F5F5F5F5F5F5F5F5F5F5F5F5F5
310
F5F5F5F5F5F5F5F5F5F5F5F5F5F5F5F5F5F5F5F5F5F5F5F5F5F5F5F5F5F5F5F5F5F5F5F5F5F5F5F5F5F5F5F5F5F5F5F5F5F5F5F5F5F5F5F5F5F5F5F5F5F5F5F5F5F5F5F5F5F5F5F5F5F5E2F5F5F5E2E2EFEFEFEFEFEFEFEFEFEFEFEFEFEFEFEFEFEFE2F5F5F5F5F5F5F5F5F5F5F5F5F5F5F5F5F5F5F5F5F5F5F5F5F5F5F5F5
310
F5F5F5F5F5F5F5F5F5F5F5F5F5F5F5F5F5F5F5F5F5F5F5F5F5F5F5F5F5F5F5F5F5F5F5F5F5F5F5F5F5F5F5F5F5F5F5F5F5F5F5F5F5F5F5F5F5F5F5F5F5F5F5F5F5F5F5F5F5F5F5F5F5F5F5F5F5F5F5F5F5F5F5F5F5F5F5F5F5F5F5F5F5F5F5F5F5F5F5F5F5F5F5F5F5F5F5F5F5F5F5F5F5F5F5F5F5F5F5F5F5F5F5F5F5F5F5
310
E2F5F5F5E2E2EFEFEFEFEFEFEFEFEFEFEFEFEFEFEFEFEFEFE2F5F5F5F5F5F5F5F5F5F5F5F5F5F5F5F5F5F5F5F5F5F5F5F5F5F5F5F5F5F5F5F5F5F5F5F5F5F5F5F5F5F5F5F5F5F5F5F5F5F5F5F5F5F5F5F5F5F5F5F5F5F5F5F5F5F5F5F5F5F5F5F5F5F5F5F5F5F5F5F5F5F5F5F5F5F5F5F5F5F5F5F5F5F5F5F5F5F5F5F5F5F5
310
F5F5F5F5F5F5F5F5F5F5F5F5F5F5F5F5F5F5F5F5F5F5F5F5F5F5F5F5F5F5F5F5F5F5F5F5F5F5F5F5F5F5F5F5F5F5F5F5F5F5F5F5F5E2F5F5F5E2E2EFEFEFEFEFEFEFEFEFEFEFEFEFEFEFEFEFEFE2F5F5F5F5F5F5F5F5F5F5F5F5F5F5F5F5F5F5F5F5F5F5F5F5F5F5F5F5F5F5F5F5F5F5F5F5F5F5F5F5F5F5F5F5F5F5F5F5F5
310
F5F5F5F5F5F5F5F5F5F5F5F5F5F5F5F5F5F5F5F5F5F5F5F5F5F5F5F5F5F5F5F5F5F5F5F5F5F5F5F5F5F5F5F5F5F5F5F5F5F5F5F5F5F5F5F5F5F5F5F5F5F5F5F5F5F5F5F5F5F5F5F5F5F5F5F5F5F5F5F5F5F5F5F5F5F5F5F5F5F5F5F5F5F5F5F5F5F5F5F5F5F5F5F5F5F5E2F5F5F5E2E2EFEFEFEFEFEFEFEFEFEFEFEFEFEFEF
310
EFEFEFE2F5F5F5F5F5F5F5F5F5F5F5F5F5F5F5F5F5F5F5F5F5F5F5F5F5F5F5F5F5F5F5F5F5F5F5F5F5F5F5F5F5F5F5F5F5F5F5F5F5F5F5F5F5F5F5F5F5F5F5F5F5F5F5F5F5F5F5F5F5F5F5F5F5F5F5F5F5F5F5F5F5F5F5F5F5F5F5F5F5F5F5F5F5F5F5F5F5F5F5F5F5F5F5F5F5F5F5F5F5F5F5F5F5F5F5F5F5F5F5F5F5F5F5
310
F5F5F5F5F5F5F5F5F5F5F5F5F5F5F5F5F5F5F5F5F5F5F5F5F5F5F5F5F5F5F5F5E2F5F5F5E2E2EFEFEFEFEFEFEFEFEFEFEFEFEFEFEFEFEFEFE2F5F5F5F5F5F5F5F5F5F5F5F5F5F5F5F5F5F5F5F5F5F5F5F5F5F5F5F5F5F5F5F5F5F5F5F5F5F5F5F5F5F5F5F5F5F5F5F5F5F5F5F5F5F5F5F5F5F5F5F5F5F5F5F5F5F5F5F5F5F5
310
F5F5F5F5F5F5F5F5F5F5F5F5F5F5F5F5F5F5F5F5F5F5F5F5F5F5F5F5F5F5F5F5F5F5F5F5F5F5F5F5F5F5F5F5F5F5F5F5F5F5F5F5F5F5F5F5F5F5F5F5F5F5F5F5F5F5F5F5F5F5F5F5F5F5F5F5F5F5F5F5F5F5F5F5F5E2F5F5F5E2E2EFEFEFEFEFEFEFEFEFEFEFEFEFEFEFEFEFEFE2F5F5F5F5F5F5F5F5F5F5F5F5F5F5F5F5F5
310
F5F5F5F5F5F5F5F5F5F5F5F5F5F5F5F5F5F5F5F5F5F5F5F5F5F5F5F5F5F5F5F5F5F5F5F5F5F5F5F5F5F5F5F5F5F5F5F5F5F5F5F5F5F5F5F5F5F5F5F5F5F5F5F5F5F5F5F5F5F5F5F5F5F5F5F5F5F5F5F5F5F5F5F5F5F5F5F5F5F5F5F5F5F5F5F5F5F5F5F5F5F5F5F5F5F5F5F5F5F5F5F5F5F5F5F5F5F5F5F5F5F5F5F5F5F5F5
310
F5F5F5F5F5F5F5F5F5F5F5E2F5F5F5E2E2EFEFEFEFEFEFEFEFEFEFEFEFEFEFEFEFEFEFE2F5F5F5F5F5F5F5F5F5F5F5F5F5F5F5F5F5F5F5F5F5F5F5F5F5F5F5F5F5F5F5F5F5F5F5F5F5F5F5F5F5F5F5F5F5F5F5F5F5F5F5F5F5F5F5F5F5F5F5F5F5F5F5F5F5F5F5F5F5F5F5F5F5F5F5F5F5F5F5F5F5F5F5F5F5F5F5F5F5F5F5
310
F5F5F5F5F5F5F5F5F5F5F5F5F5F5F5F5F5F5F5F5F5F5F5F5F5F5F5F5F5F5F5F5F5F5F5F5F5F5F5F5F5F5F5F5F5F5F5F5F5F5F5F5F5F5F5F5F5F5F5F5F5F5F5F5E2F5F5F5E2E2EFEFEFEFEFEFEFEFEFEFEFEFEFEFEFEFEFEFE2F5F5F5F5F5F5F5F5F5F5F5F5F5F5F5F5F5F5F5F5F5F5F5F5F5F5F5F5F5F5F5F5F5F5F5F5F5F5
310
F5F5F5F5F5F5F5F5F5F5F5F5F5F5F5F5F5F5F5F5F5F5F5F5F5F5F5F5F5F5F5F5F5F5F5F5F5F5F5F5F5F5F5F5F5F5F5F5F5F5F5F5F5F5F5F5F5F5F5F5F5F5F5F5F5F5F5F5F5F5F5F5F5F5F5F5F5F5F5F5F5F5F5F5F5F5F5F5F5F5F5F5F5F5F5F5F5F5F5F5F5F5F5F5F5F5F5F5F5F5F5F5F5F5F5F5F5E2F5F5F5E2E2EFEFEFEF
310
EFEFEFEFEFEFEFEFEFEFEFEFEFEFE2F5F5F5F5F5F5F5F5F5F5F5F5F5F5F5F5F5F5F5F5F5F5F5F5F5F5F5F5F5F5F5F5F5F5F5F5F5F5F5F5F5F5F5F5F5F5F5F5F5F5F5F5F5F5F5F5F5F5F5F5F5F5F5F5F5F5F5F5F5F5F5F5F5F5F5F5F5F5F5F5F5F5F5F5F5F5F5F5F5F5F5F5F5F5F5F5F5F5F5F5F5F5F5F5F5F5F5F5F5F5F5F5
310
F5F5F5F5F5F5F5F5F5F5F5F5F5F5F5F5F5F5F5F5F5F5F5F5F5F5F5F5F5F5F5F5F5F5F5F5F5F5F5F5F5F5F5E2F5F5F5E2E2EFEFEFEFEFEFEFEFEFEFEFEFEFEFEFEFEFEFE2F5F5F5F5F5F5F5F5F5F5F5F5F5F5F5F5F5F5F5F5F5F5F5F5F5F5F5F5F5F5F5F5F5F5F5F5F5F5F5F5F5F5F5F5F5F5F5F5F5F5F5F5F5F5F5F5F5F5F5
310
F5F5F5F5F5F5F5F5F5F5F5F5F5F5F5F5F5F5F5F5F5F5F5F5F5F5F5F5F5F5F5F5F5F5F5F5F5F5F5F5F5F5F5F5F5F5F5F5F5F5F5F5F5F5F5F5F5F5F5F5F5F5F5F5F5F5F5F5F5F5F5F5F5F5F5F5F5F5F5F5F5F5F5F5F5F5F5F5F5F5F5F5F5F5F5F5E2F5F5F5E2E2EFEFEFEFEFEFEFEFEFEFEFEFEFEFEFEFEFEFE2F5F5F5F5F5F5
310
F5F5F5F5F5F5F5F5F5F5F5F5F5F5F5F5F5F5F5F5F5F5F5F5F5F5F5F5F5F5F5F5F5F5F5F5F5F5F5F5F5F5F5F5F5F5F5F5F5F5F5F5F5F5F5F5F5F5F5F5F5F5F5F5F5F5F5F5F5F5F5F5F5F5F5F5F5F5F5F5F5F5F5F5F5F5F5F5F5F5F5F5F5F5F5F5F5F5F5F5F5F5F5F5F5F5F5F5F5F5F5F5F5F5F5F5F5F5F5F5F5F5F5F5F5F5F5
310
F5F5F5F5F5F5F5F5F5F5F5F5F5F5F5F5F5F5F5F5F5F5E2F5F5F5E2E2EFEFEFEFEFEFEFEFEFEFEFEFEFEFEFEFEFEFF5F5F5F5F5F5F5F5F5F5F5F5F5F5F5F5F5F5F5F5F5F5F5F5F5F5F5F5F5F5F5F5F5F5F5F5F5F5F5F5F5F5F5F5F5F5F5F5F5F5F5F5F5F5F5F5F5F5F5F5F5F5F5F5F5F5F5F5F5F5F5F5F5F5F5F5F5F5F5F5F5
310
F5F5F5F5F5F5F5F5F5F5F5F5F5F5F5F5F5F5F5F5F5F5F5F5F5F5F5F5F5F5F5F5F5F5F5F5F5F5F5F5F5F5F5F5F5F5F5F5F5F5F5F5F5F5F5F5F5F5F5F5F5F5F5F5F5F5F5F5F5F5F5F5F5F5F5F5F5F5F5E2E2EFEFEFEFEFEFEFEFEFEFEFEFEFEFEFEFEFEFF5F5F5F5F5F5F5F5F5F5F5F5F5F5F5F5F5F5F5F5F5F5F5F5F5F5F5F5
310
F5F5F5F5F5F5F5F5F5F5F5F5F5F5F5F5F5F5F5F5F5F5F5F5F5F5F5F5F5F5F5F5F5F5F5F5F5F5F5F5F5F5F5F5F5F5F5F5F5F5F5F5F5F5F5F5F5F5F5F5F5F5F5F5F5F5F5F5F5F5F5F5F5F5F5F5F5F5F5F5F5F5F5F5F5F5F5F5F5F5F5F5F5F5F5F5F5F5F5F5F5F5F5F5F5F5F5F5F5F5F5F5F5F5F5F5F5F5F5F5F5F5F5F5F5F5F5
310
F5F5F5F5F5E2E2EFEFEFEFEFEFEFEFEFEFEFEFEFEFEFEFEFEFF5F5F5F5F5F5F5F5F5F5F5F5F5F5F5F5F5F5F5F5F5F5F5F5F5F5F5F5F5F5F5F5F5F5F5F5F5F5F5F5F5F5F5F5F5F5F5F5F5F5F5F5F5F5F5F5F5F5F5F5F5F5F5F5F5F5F5F5F5F5F5F5F5F5F5F5F5F5F5F5F5F5F5F5F5F5F5F5F5F5F5F5F5F5F5F5F5F5F5F5F5F5
310
F5F5F5F5F5F5F5F5F5F5F5F5F5F5F5F5F5F5F5F5F5F5F5F5F5F5F5F5F5F5F5F5F5F5F5F5F5F5F5F5F5F5F5F5F5F5F5F5F5F5F5F5F5F5F5F5F5F5E2E2EFEFEFEFEFEFEFEFEFEFEFEFEFEFEFEFEFEFF5F5F5F5F5F5F5F5F5F5F5F5F5F5F5F5F5F5F5F5F5F5F5F5F5F5F5F5F5F5F5F5F5F5F5F5F5F5F5F5F5F5F5F5F5F5F5F5F5
310
F5F5F5F5F5F5F5F5F5F5F5F5F5F5F5F5F5F5F5F5F5F5F5F5F5F5F5F5F5F5F5F5F5F5F5F5F5F5F5F5F5F5F5F5F5F5F5F5F5F5F5F5F5F5F5F5F5F5F5F5F5F5F5F5F5F5F5F5F5F5F5F5F5F5F5F5F5F5F5F5F5F5F5F5F5F5F5F5F5F5F5F5F5F5F5F5F5F5F5F5F5F5F5F5F5F5F5F5F5F5F5E2E2EFEFEFEFEFEFEFEFEFEFEFEFEFEF
310
EFEFEFEFF5F5F5F5F5F5F5F5F5F5F5F5F5F5F5F5F5F5F5F5F5F5F5F5F5F5F5F5F5F5F5F5F5F5F5F5F5F5F5F5F5F5F5F5F5F5F5F5F5F5F5F5F5F5F5F5F5F5F5F5F5F5F5F5F5F5F5F5F5F5F5F5F5F5F5F5F5F5F5F5F5F5F5F5F5F5F5F5F5F5F5F5F5F5F5F5F5F5F5F5F5F5F5F5F5F5F5F5F5F5F5F5F5F5F5F5F5F5F5F5F5F5F5
310
F5F5F5F5F5F5F5F5F5F5F5F5F5F5F5F5F5F5F5F5F5F5F5F5F5F5F5F5F5F5F5F5F5F5F5F5F5E2E2EFEFEFEFEFEFEFEFEFEFEFEFEFEFEFEFEFEFF5F5F5F5F5F5F5F5F5F5F5F5F5F5F5F5F5F5F5F5F5F5F5F5F5F5F5F5F5F5F5F5F5F5F5F5F5F5F5F5F5F5F5F5F5F5F5F5F5F5F5F5F5F5F5F5F5F5F5F5F5F5F5F5F5F5F5F5F5F5
310
F5F5F5F5F5F5F5F5F5F5F5F5F5F5F5F5F5F5F5F5F5F5F5F5F5F5F5F5F5F5F5F5F5F5F5F5F5F5F5F5F5F5F5F5F5F5F5F5F5F5F5F5F5F5F5F5F5F5F5F5F5F5F5F5F5F5F5F5F5F5F5F5F5F5F5F5F5F5F5F5F5F5F5F5F5F5F5F5F5F5E2E2EFEFEFEFEFEFEFEFEFEFEFEFEFEFEFEFEFEFF5F5F5F5F5F5F5F5F5F5F5F5F5F5F5F5F5
310
F5F5F5F5F5F5F5F5F5F5F5F5F5F5F5F5F5F5F5F5F5F5F5F5F5F5F5F5F5F5F5F5F5F5F5F5F5F5F5F5F5F5F5F5F5F5F5F5F5F5F5F5F5F5F5F5F5F5F5F5F5F5F5F5F5F5F5F5F5F5F5F5F5F5F5F5F5F5F5F5F5F5F5F5F5F5F5F5F5F5F5F5F5F5F5F5F5F5F5F5F5F5F5F5F5F5F5F5F5F5F5F5F5F5F5F5F5F5F5F5F5F5F5F5F5F5F5
310
F5F5F5F5F5F5F5F5F5F5F5F5F5F5F5F5E2E2EFEFEFEFEFEFEFEFEFEFEFEFEFEFEFEFEFEFF5F5F5F5F5F5F5F5F5F5F5F5F5F5F5F5F5F5F5F5F5F5F5F5F5F5F5F5F5F5F5F5F5F5F5F5F5F5F5F5F5F5F5F5F5F5F5F5F5F5F5F5F5F5F5F5F5F5F5F5F5F5F5F5F5F5F5F5F5F5F5F5F5F5F5F5F5F5F5F5F5F5F5F5F5F5F5F5F5F5F5
310
F5F5F5F5F5F5F5F5F5F5F5F5F5F5F5F5F5F5F5F5F5F5F5F5F5F5F5F5F5F5F5F5F5F5F5F5F5F5F5F5F5F5F5F5F5F5F5F5F5F5F5F5F5F5F5F5F5F5F5F5F5F5F5F5F5F5F5F5F5E2E2EFEFEFEFEFEFEFEFEFEFEFEFEFEFEFEFEFEFF5F5F5F5F5F5F5F5F5F5F5F5F5F5F5F5F5F5F5F5F5F5F5F5F5F5F5F5F5F5F5F5F5F5F5F5F5F5
310
F5F5F5F5F5F5F5F5F5F5F5F5F5F5F5F5F5F5F5F5F5F5F5F5F5F5F5F5F5F5F5F5F5F5F5F5F5F5F5F5F5F5F5F5F5F5F5F5F5F5F5F5F5F5F5F5F5F5F5F5F5F5F5F5F5F5F5F5F5F5F5F5F5F5F5F5F5F5F5F5F5F5F5F5F5F5F5F5F5F5F5F5F5F5F5F5F5F5F5F5F5F5F5F5F5F5F5F5F5F5F5F5F5F5F5F5F5F5F5F5F5F5E2E2EFEFEF
310
EFEFEFEFEFEFEFEFEFEFEFEFEFEFEFE2F5F5F5F5F5F5F5F5F5F5F5F5F5F5F5F5F5F5F5F5F5F5F5F5F5F5F5F5F5F5F5F5F5F5F5F5F5F5F5F5F5F5F5F5F5F5F5F5F5F5F5F5F5F5F5F5F5F5F5F5F5F5F5F5F5F5F5F5F5F5F5F5F5F5F5F5F5F5F5F5F5F5F5F5F5F5F5F5F5F5F5F5F5F5F5F5F5F5F5F5F5F5F5F5F5F5F5F5F5F5F5
310
F5F5F5F5F5F5F5F5F5F5F5F5F5F5F5F5F5F5F5F5F5F5F5F5F5F5F5F5F5F5F5F5F5F5F5F5F5F5F5F5F5F5F5F5E2F5F5F5E2E2EFEFEFEFEFEFEFEFEFEFEFEFEFEFEFEFEFEFE2F5F5F5F5F5F5F5F5F5F5F5F5F5F5F5F5F5F5F5F5F5F5F5F5F5F5F5F5F5F5F5F5F5F5F5F5F5F5F5F5F5F5F5F5F5F5F5F5F5F5F5F5F5F5F5F5F5F5
310
F5F5F5F5F5F5F5F5F5F5F5F5F5F5F5F5F5F5F5F5F5F5F5F5F5F5F5F5F5F5F5F5F5F5F5F5F5F5F5F5F5F5F5F5F5F5F5F5F5F5F5F5F5F5F5F5F5F5F5F5F5F5F5F5F5F5F5F5F5F5F5F5F5F5F5F5F5F5F5F5F5F5F5F5F5F5F5F5F5F5F5F5F5F5F5F5F5E2F5F5F5E2E2EFEFEFEFEFEFEFEFEFEFEFEFEFEFEFEFEFEFE2F5F5F5F5F5
310
F5F5F5F5F5F5F5F5F5F5F5F5F5F5F5F5F5F5F5F5F5F5F5F5F5F5F5F5F5F5F5F5F5F5F5F5F5F5F5F5F5F5F5F5F5F5F5F5F5F5F5F5F5F5F5F5F5F5F5F5F5F5F5F5F5F5F5F5F5F5F5F5F5F5F5F5F5F5F5F5F5F5F5F5F5F5F5F5F5F5F5F5F5F5F5F5F5F5F5F5F5F5F5F5F5F5F5F5F5F5F5F5F5F5F5F5F5F5F5F5F5F5F5F5F5F5F5
310
F5F5F5F5F5F5F5F5F5F5F5F5F5F5F5F5F5F5F5F5F5F5F5E2F5F5F5E2E2EFEFEFEFEFEFEFEFEFEFEFEFEFEFEFEFEFEFE2F5F5F5F5F5F5F5F5F5F5F5F5F5F5F5F5F5F5F5F5F5F5F5F5F5F5F5F5F5F5F5F5F5F5F5F5F5F5F5F5F5F5F5F5F5F5F5F5F5F5F5F5F5F5F5F5F5F5F5F5F5F5F5F5F5F5F5F5F5F5F5F5F5F5F5F5F5F5F5
310
F5F5F5F5F5F5F5F5F5F5F5F5F5F5F5F5F5F5F5F5F5F5F5F5F5F5F5F5F5F5F5F5F5F5F5F5F5F5F5F5F5F5F5F5F5F5F5F5F5F5F5F5F5F5F5F5F5F5F5F5F5F5F5F5F5F5F5F5F5F5F5F5F5F5F5F5E2F5F5F5E2E2EFEFEFEFEFEFEFEFEFEFEFEFEFEFEFEFEFEFE2F5F5F5F5F5F5F5F5F5F5F5F5F5F5F5F5F5F5F5F5F5F5F5F5F5F5
310
F5F5F5F5F5F5F5F5F5F5F5F5F5F5F5F5F5F5F5F5F5F5F5F5F5F5F5F5F5F5F5F5F5F5F5F5F5F5F5F5F5F5F5F5F5F5F5F5F5F5F5F5F5F5F5F5F5F5F5F5F5F5F5F5F5F5F5F5F5F5F5F5F5F5F5F5F5F5F5F5F5F5F5F5F5F5F5F5F5F5F5F5F5F5F5F5F5F5F5F5F5F5F5F5F5F5F5F5F5F5F5F5F5F5F5F5F5F5F5F5F5F5F5F5F5F5F5
310
F5F5E2F5F5F5E2E2EFEFEFEFEFEFEFEFEFEFEFEFEFEFEFEFEFEFE2F5F5F5F5F5F5F5F5F5F5F5F5F5F5F5F5F5F5F5F5F5F5F5F5F5F5F5F5F5F5F5F5F5F5F5F5F5F5F5F5F5F5F5F5F5F5F5F5F5F5F5F5F5F5F5F5F5F5F5F5F5F5F5F5F5F5F5F5F5F5F5F5F5F5F5F5F5F5F5F5F5F5F5F5F5F5F5F5F5F5F5F5F5F5F5F5F5F5F5F5
310
F5F5F5F5F5F5F5F5F5F5F5F5F5F5F5F5F5F5F5F5F5F5F5F5F5F5F5F5F5F5F5F5F5F5F5F5F5F5F5F5F5F5F5F5F5F5F5F5F5F5F5F5F5F5F5E2F5F5F5E2E2EFEFEFEFEFEFEFEFEFEFEFEFEFEFEFEFEFEFE2F5F5F5F5F5F5F5F5F5F5F5F5F5F5F5F5F5F5F5F5F5F5F5F5F5F5F5F5F5F5F5F5F5F5F5F5F5F5F5F5F5F5F5F5F5F5F5
310
F5F5F5F5F5F5F5F5F5F5F5F5F5F5F5F5F5F5F5F5F5F5F5F5F5F5F5F5F5F5F5F5F5F5F5F5F5F5F5F5F5F5F5F5F5F5F5F5F5F5F5F5F5F5F5F5F5F5F5F5F5F5F5F5F5F5F5F5F5F5F5F5F5F5F5F5F5F5F5F5F5F5F5F5F5F5F5F5F5F5F5F5F5F5F5F5F5F5F5F5F5F5F5F5F5F5F5F5E2F5F5F5E2E2EFEFEFEFEFEFEFEFEFEFEFEFEF
310
EFEFEFEFEFE2E2E2E2E2E2E2E2E2F5F5F5F5F5F5F5F5F5E2E2E2E2E2E2E2E2E2E2E2E2E2E2E2E2E2F5F5F5F5F5F5F5F5F5E2E2E2E2E2E2E2E2E2E2E2E2E2E2E2E2E2F5F5F5F5F5F5F5F5F5E2E2E2E2E2E2E2E2E2E2E2E2E2E2E2E2E2F5F5F5F5F5F5F5F5F5E2E2E2E2E2E2E2E2E2E2E2E2E2E2E2E2E2F5F5F5F5F5F5F5F5F5
310
E2E2E2E2E2E2E2E2E2E2E2E2E2E2E2E2E2F5F5F5F5F5F5F5F5F5E2E2E2E2E2E2E2E2E2F5F5F5E2E2EFEFEFEFEFEFEFEFEFEFEFEFEFEFEFEFEFEFF5F5F5F5F5F5F5F5F5F5F5F5F5F5F5F5F5F5F5F5F5F5F5F5F5F5F5F5F5F5F5F5F5F5F5F5F5F5F5F5F5F5F5F5F5F5F5F5F5F5F5F5F5F5F5F5F5F5F5F5F5F5F5F5F5F5F5F5F5
310
F5F5F5F5F5F5F5F5F5F5F5F5F5F5F5F5F5F5F5F5F5F5F5F5F5F5F5F5F5F5F5F5F5F5F5F5F5F5F5F5F5F5F5F5F5F5F5F5F5F5F5F5F5F5F5F5F5F5F5F5F5F5F5F5F5F5F5F5F5F5F5F5F5F5F5F5F5F5F5F5F5F5F5F5F5F5F5F5F5F5F5E2E2EFEFEFEFEFEFEFEFEFEFEFEFEFEFEFEFEFEFF5F5F5F5F5F5F5F5F5F5F5F5F5F5F5F5
310
F5F5F5F5F5F5F5F5F5F5F5F5F5F5F5F5F5F5F5F5F5F5F5F5F5F5F5F5F5F5F5F5F5F5F5F5F5F5F5F5F5F5F5F5F5F5F5F5F5F5F5F5F5F5F5F5F5F5F5F5F5F5F5F5F5F5F5F5F5F5F5F5F5F5F5F5F5F5F5F5F5F5F5F5F5F5F5F5F5F5F5F5F5F5F5F5F5F5F5F5F5F5F5F5F5F5F5F5F5F5F5F5F5F5F5F5F5F5F5F5F5F5F5F5F5F5F5
310
F5F5F5F5F5F5F5F5F5F5F5F5F5F5F5F5F5E2E2EFEFEFEFEFEFEFEFEFEFEFEFEFEFEFEFEFEFF5F5F5F5F5F5F5F5F5F5F5F5F5F5F5F5F5F5F5F5F5F5F5F5F5F5F5F5F5F5F5F5F5F5F5F5F5F5F5F5F5F5F5F5F5F5F5F5F5F5F5F5F5F5F5F5F5F5F5F5F5F5F5F5F5F5F5F5F5F5F5F5F5F5F5F5F5F5F5F5F5F5F5F5F5F5F5F5F5F5
310
F5F5F5F5F5F5F5F5F5F5F5F5F5F5F5F5F5F5F5F5F5F5F5F5F5F5F5F5F5F5F5F5F5F5F5F5F5F5F5F5F5F5F5F5F5F5F5F5F5F5F5F5F5F5F5F5F5F5F5F5F5F5F5F5F5F5F5F5F5F5E2EFEFEFEFEFEFEFEFEFEFEFEFEFEFEFEFEFEFEFE2E2E2E2E2E2E2E2E2E2E2E2E2E2E2E2E2E2E2E2E2E2E2E2E2E2E2E2E2E2E2E2E2E2E2E2E2
310
E2E2E2E2E2E2E2E2E2E2E2E2E2E2E2E2E2E2E2E2E2E2E2E2E2E2E2E2E2E2E2E2E2E2E2E2E2E2E2E2E2E2E2E2E2E2E2E2E2E2E2E2E2E2E2E2E2E2E2E2E2E2E2E2E2E2E2E2E2E2E2E2E2E2E2E2E2E2E2E2E2E2E2E2E2E2E2E2E2E2E2E2E2E2E2E2E2E2E2E2E2E2E2E2E2E2E2E2E2E2E2E2E2E2E2E2E2E2E2E2E2E2E2E2EFEFEF
310
EFEFEFEFEFEFEFEFEFEFEFEFEFEFEFEFEFEFEFEFEFEFEFEFEFEFEFEFEFEFEFEFEFEFEFEFEFEFEFEFEFEFEFEFEFEFEFEFEFEFEFEFEFEFEFEFEFEFEFEFEFEFEFEFEFEFEFEFEFEFEFEFEFEFEFEFEFEFEFEFEFEFEFEFEFEFEFEFEFEFEFEFEFEFEFEFEFEFEFEFEFEFEFEFEFEFEFEFEFEFEFEFEFEFEFEFEFEFEFEFEFEFEFEFEFEFEF
310
EFEFEFEFEFEFEFEFEFEFEFEFEFEFEFEFEFEFEFEFEFEFEFEFEFEFEFEFEFEFEFEFEFEFEFEFEFEFEFEFEFEFEFEFEFEFEFEFEFEFEFEFEFEFEFEFEFEFEFEFEFEFEFEFEFEFEFEFEFEFEFEFEFEFEFEFEFEFEFEFEFEFEFEFEFEFEFEFEFEFEFEFEFEFEFEFEFEFEFEFEFEFEFEFEFEFEFEFEFEFEFEFEFEFEFEFEFEFEFEFEFEFEFEFEFEFEF
310
EFEFEFEFEFEFEFEFEFEFEFEFEFEFEFEFEFEFEFEFEFEFEFEFEFEFEFEFEFEFEFEFEFEFEFEFEFEFEFEFEFEFEFEFEFEFEFEFEFEFEFEFEFEFEFEFEFEFEFEFEFEFEFEFEFEFEFEFEFEFEFEFEFEFEFEFEFEFEFEFEFEFEFEFEFEFEFEFEFEFEFEFEFEFEFEFEFEFEFEFEFEFEFEFEFEFEFEFEFEFEFEFEFEFEFEFEFEFEFEFEFEFEFEFEFEFEF
310
EFEFEFEFEFEFEFEFEFEFEFEFEFEFEFEFEFEFEFEFEFEFEFEFEFEFEFEFEFEFEFEFEFEFEFEFEFEFEFEFEFEFEFEFEFEFEFEFEFEFEFEFEFEFEFEFEFEFEFEFEFEFEFEFEFEFEFEFEFEFEFEFEFEFEFEFEFEFEFEFEFEFEFEFEFEFEFEFEFEFEFEFEFEFEFEFEFEFEFEFEFEFEFEFEFEFEFEFEFEFEFEFEFEFEFEFEFEFEFEFEFEFEFEFEFEFEF
310
EFEFEFEFEFEFEFEFEFEFEFEFEFEFEFEFEFEFEFEFEFEFEFEFEFEFEFEFEFEFEFEFEFEFEFEFEFEFEFEFEFEFEFEFEFEFEFEFEFEFEFEFEFEFEFEFEFEFEFEFEFEFEFEFEFEFEFEFEFEFEFEFEFEFEFEFEFEFEFEFEFEFEFEFEFEFEFEFEFEFEFEFEFEFEFEFEFEFEFEFEFEFEFEFEFEFEFEFEFEFEFEFEFEFEFEFEFEFEFEFEFEFEFEFEFEFEF
310
EFEFEFEFEFEFEFEFEFEFEFEFEFEFEFEFEFEFEFEFEFEFEFEFEFEFEFEFEFEFEFEFEFEFEFEFEFEFEFEFEFEFEFEFEFEFEFEFEFEFEFEFEFEFEFEFEFEFEFEFEFEFEFEFEFEFEFEFEFEFEFEFEFEFEFEFEFEFEFEFEFEFEFEFEFEFEFEFEFEFEFEFEFEFEFEFEFEFEFEFEFEFEFEFEFEFEFEFEFEFEFEFEFEFEFEFEFEFEFEFEFEFEFEFEFEFEF
310
EFEFEFEFEFEFEFEFEFEFEFEFEFEFEFEFEFEFEFEFEFEFEFEFEFEFEFEFEFEFEFEFEFEFEFEFEFEFEFEFEFEFEFEFEFEFEFEFEFEFEFEFEFEFEFEFEFEFEFEFEFEFEFEFEFEFEFEFEFEFEFEFEFEFEFEFEFEFEFEFEFEFEFEFEFEFEFEFEFEFEFEFEFEFEFEFEFEFEFEFEFEFEFEFEFEFEFEFEFEFEFEFEFEFEFEFEFEFEFEFEFEFEFEFEFEFEF
310
EFEFEFEFEFEFEFEFEFEFEFEFEFEFEFEFEFEFEFEFEFEFEFEFEFEFEFEFEFEFEFEFEFEFEFEFEFEFEFEFEFEFEFEFEFEFEFEFEFEFEFEFEFEFEFEFEFEFEFEFEFEFEFEFEFEFEFEFEFEFEFEFEFEFEFEFEFEFEFEFEFEFEFEFEFEFEFEFEFEFEFEFEFEFEFEFEFEFEFEFEFEFEFEFEFEFEFEFEFEFEFEFEFEFEFEFEFEFEFEFEFEFEFEFEFEFEF
310
EFEFEFEFEFEFEFEFEFEFEFEFEFEFEFEFEFEFEFEFEFEFEFEFEFEFEFEFEFEFEFEFEFEFEFEFEFEFEFEFEFEFEFEFEFEFEFEFEFEFEFEFEFEFEFEFEFEFEFEFEFEFEFEFEFEFEFEFEFEFEFEFEFEFEFEFEFEFEFEFEFEFEFEFEFEFEFEFEFEFEFEFEFEFEFEFEFEFEFEFEFEFEFEFEFEFEFEFEFEFEFEFEFEFEFEFEFEFEFEFEFEFEFEFEFEFEF
310
EFEFEFEFEFEFEFEFEFEFEFEFEFEFEFEFEFEFEFEFEFEFEFEFEFEFEFEFEFEFEFEFEFEFEFEFEFEFEFEFEFEFEFEFEFEFEFEFEFEFEFEFEFEFEFEFEFEFEFEFEFEFEFEFEFEFEFEFEFEFEFEFEFEFEFEFEFEFEFEFEFEFEFEFEFEFEFEFEFEFEFEFEFEFEFEFEFEFEFEFEFEFEFEFEFEFEFEFEFEFEFEFEFEFEFEFEFEFEFEFEFEFEFEFEFEFEF
310
EFEFEFEFEFEFEFEFEFEFEFEFEFEFEFEFEFEFEFEFEFEFEFEFEFEFEFEFEFEFEFEFEFEFEFEFEFEFEFEFEFEFEFEFEFEFEFEFEFEFEFEFEFEFEFEFEFEFEFEFEFEFEFEFEFEFEFEFEFEFEFEFEFEFEFEFEFEFEFEFEFEFEFEFEFEFEFEFEFEFEFEFEFEFEFEFEFEFEFEFEFEFEFEFEFEFEFEFEFEFEFEFEFEFEFEFEFEFEFEFEFEFEFEFEFEFEF
310
EFEFEFEFEFEFEFEFEFEFEFEFEFEFEFEFEFEFEFEFEFEFEFEFEFEFEFEFEFEFEFEFEFEFEFEFEFEFEFEFEFEFEFEFEFEFEFEFEFEFEFEFEFEFEFEFEFEFEFEFEFEFEFEFEFEFEFEFEFEFEFEFEFEFEFEFEFEFEFEFEFEFEFEFEFEFEFEFEFEFEFEFEFEFEFEFEFEFEFEFEFEFEFEFEFEFEFEFEFEFEFEFEFEFEFEFEFEFEFEFEFEFEFEFEFEFEF
310
EFEFEFEFEFEFEFEFEFEFEFEFEFEFEFEFEFEFEFEFEFEFEFEFEFEFEFEFEFEFEFEFEFEFEFEFEFEFEFEFEFEFEFEFEFEFEFEFEFEFEFEFEFEFEFEFEFEFEFEFEFEFEFEFEFEFEFEFEFEFEFEFEFEFEFEFEFEFEFEFEFEFEFEFEFEFEFEFEFEFEFEFEFEFEFEFEFEFEFEFEFEFEFEFEFEFEFEFEFEFEFEFEFEFEFEFEFEFEFEFEFEFEFEFEFEFEF
310
EFEFEFEFEFEFEFEFEFEFEFEFEFEFEFEFEFEFEFEFEFEFEFEFEFEFEFEFEFEFEFEFEFEFEFEFEFEFEFEFEFEFEFEFEFEFEFEFEFEFEFEFEFEFEFEFEFEFEFEFEFEFEFEFEFEFEFEFEFEFEFEFEFEFEFEFEFEFEFEFEFEFEFEFEFEFEFEFEFEFEFEFEFEFEFEFEFEFEFEFEFEFEFEFEFEFEFEFEFEFEFEFEFEFEFEFEFEFEFEFEFEFEFEFEFEFEF
310
EFEFEFEFEFEFEFEFEFEFEFEFEFEFEFEFEFEFEFEFEFEFEFEFEFEFEFEFEFEFEFEFEFEFEFEFEFEFEFEFEFEFEFEFEFEFEFEFEFEFEFEFEFEFEFEFEFEFEFEFEFEFEFEFEFEFEFEFEFEFEFEFEFEFEFEFEFEFEFEFEFEFEFEFEFEFEFEFEFEFEFEFEFEFEFEFEFEFEFEFEFEFEFEFEFEFEFEFEFEFEFEFEFEFEFEFEFEFEFEFEFEFEFEFEFEFEF
310
EFEFEFEFEFEFEFEFEFEFEFEFEFEFEFEFEFEFEFEFEFEFEFEFEFEFEFEFEFEFEFEFEFEFEFEFEFEFEFEFEFEFEFEFEFEFEFEFEFEFEFEFEFEFEFEFEFEFEFEFEFEFEFEFEFEFEFEFEFEFEFEFEFEFEFEFEFEFEFEFEFEFEFEFEFEFEFEFEFEFEF
  0
XRECORD
  5
281
102
{ACAD_REACTORS
330
280
102
}
330
280
100
AcDbXrecord
280
     1
102
SHADEPLOT
 70
     0
102
SHADEPLOTRESLEVEL
 70
     2
102
SHADEPLOTCUSTOMDPI
 70
   300
  0
XRECORD
  5
E8
102
{ACAD_REACTORS
330
E7
102
}
330
E7
100
AcDbXrecord
280
     1
102
MATERIAL
148
0.0
149
0.0
149
0.0
 93
        0
 94
       63
282
     0
 72
     1
 77
     1
171
     1
175
     1
179
     1
273
     0
  0
XRECORD
  5
E6
102
{ACAD_REACTORS
330
E5
102
}
330
E5
100
AcDbXrecord
280
     1
102
MATERIAL
148
0.0
149
0.0
149
0.0
 93
        0
 94
       63
282
     0
 72
     1
 77
     1
171
     1
175
     1
179
     1
273
     0
  0
XRECORD
  5
EA
102
{ACAD_REACTORS
330
E9
102
}
330
E9
100
AcDbXrecord
280
     1
102
MATERIAL
148
0.0
149
0.0
149
0.0
 93
        0
 94
       63
282
     0
 72
     1
 77
     1
171
     1
175
     1
179
     1
273
     0
  0
XRECORD
  5
286
102
{ACAD_REACTORS
330
285
102
}
330
285
100
AcDbXrecord
280
     1
102
ACAD_ROUNDTRIP_PRE2007_TABLESTYLE
 90
      512
 91
        0
  1

 92
      512
 93
        0
  2

 94
      512
 95
        0
  3

  0
ENDSEC
  0
EOF
