  0
SECTION
  2
HEADER
  9
$ACADVER
  1
AC1015
  9
$ACADMAINTVER
 70
    20
  9
$DWGCODEPAGE
  3
ANSI_1252
  9
$INSBASE
 10
0.0
 20
0.0
 30
0.0
  9
$EXTMIN
 10
-34111.09483749501
 20
-34894.25323137067
 30
0.0
  9
$EXTMAX
 10
37888.90516250499
 20
47905.74676862932
 30
0.0
  9
$LIMMIN
 10
0.0
 20
0.0
  9
$LIMMAX
 10
12.0
 20
9.0
  9
$ORTHOMODE
 70
     1
  9
$REGENMODE
 70
     1
  9
$FILLMODE
 70
     1
  9
$QTEXTMODE
 70
     0
  9
$MIRRTEXT
 70
     1
  9
$LTSCALE
 40
1.0
  9
$ATTMODE
 70
     1
  9
$TEXTSIZE
 40
0.2
  9
$TRACEWID
 40
0.05
  9
$TEXTSTYLE
  7
STANDARD
  9
$CLAYER
  8
Hewi
  9
$CELTYPE
  6
BYLAYER
  9
$CECOLOR
 62
   256
  9
$CELTSCALE
 40
1.0
  9
$DISPSILH
 70
     0
  9
$DIMSCALE
 40
1.0
  9
$DIMASZ
 40
0.18
  9
$DIMEXO
 40
0.0625
  9
$DIMDLI
 40
0.38
  9
$DIMRND
 40
0.0
  9
$DIMDLE
 40
0.0
  9
$DIMEXE
 40
0.18
  9
$DIMTP
 40
0.0
  9
$DIMTM
 40
0.0
  9
$DIMTXT
 40
0.18
  9
$DIMCEN
 40
0.09
  9
$DIMTSZ
 40
0.0
  9
$DIMTOL
 70
     0
  9
$DIMLIM
 70
     0
  9
$DIMTIH
 70
     1
  9
$DIMTOH
 70
     1
  9
$DIMSE1
 70
     0
  9
$DIMSE2
 70
     0
  9
$DIMTAD
 70
     0
  9
$DIMZIN
 70
     0
  9
$DIMBLK
  1

  9
$DIMASO
 70
     1
  9
$DIMSHO
 70
     1
  9
$DIMPOST
  1

  9
$DIMAPOST
  1

  9
$DIMALT
 70
     0
  9
$DIMALTD
 70
     2
  9
$DIMALTF
 40
25.4
  9
$DIMLFAC
 40
1.0
  9
$DIMTOFL
 70
     0
  9
$DIMTVP
 40
0.0
  9
$DIMTIX
 70
     0
  9
$DIMSOXD
 70
     0
  9
$DIMSAH
 70
     0
  9
$DIMBLK1
  1

  9
$DIMBLK2
  1

  9
$DIMSTYLE
  2
STANDARD
  9
$DIMCLRD
 70
     0
  9
$DIMCLRE
 70
     0
  9
$DIMCLRT
 70
     0
  9
$DIMTFAC
 40
1.0
  9
$DIMGAP
 40
0.09
  9
$DIMJUST
 70
     0
  9
$DIMSD1
 70
     0
  9
$DIMSD2
 70
     0
  9
$DIMTOLJ
 70
     1
  9
$DIMTZIN
 70
     0
  9
$DIMALTZ
 70
     0
  9
$DIMALTTZ
 70
     0
  9
$DIMUPT
 70
     0
  9
$DIMDEC
 70
     4
  9
$DIMTDEC
 70
     4
  9
$DIMALTU
 70
     2
  9
$DIMALTTD
 70
     2
  9
$DIMTXSTY
  7
STANDARD
  9
$DIMAUNIT
 70
     0
  9
$DIMADEC
 70
     0
  9
$DIMALTRND
 40
0.0
  9
$DIMAZIN
 70
     0
  9
$DIMDSEP
 70
    46
  9
$DIMATFIT
 70
     3
  9
$DIMFRAC
 70
     0
  9
$DIMLDRBLK
  1

  9
$DIMLUNIT
 70
     2
  9
$DIMLWD
 70
    -2
  9
$DIMLWE
 70
    -2
  9
$DIMTMOVE
 70
     0
  9
$LUNITS
 70
     2
  9
$LUPREC
 70
     4
  9
$SKETCHINC
 40
0.1
  9
$FILLETRAD
 40
0.5
  9
$AUNITS
 70
     0
  9
$AUPREC
 70
     0
  9
$MENU
  1
.
  9
$ELEVATION
 40
0.0
  9
$PELEVATION
 40
0.0
  9
$THICKNESS
 40
0.0
  9
$LIMCHECK
 70
     0
  9
$CHAMFERA
 40
0.5
  9
$CHAMFERB
 40
0.5
  9
$CHAMFERC
 40
1.0
  9
$CHAMFERD
 40
0.0
  9
$SKPOLY
 70
     0
  9
$TDCREATE
 40
2454858.677077315
  9
$TDUCREATE
 40
2454858.635410648
  9
$TDUPDATE
 40
2455245.342691563
  9
$TDUUPDATE
 40
2455245.301024896
  9
$TDINDWG
 40
0.0084631366
  9
$TDUSRTIMER
 40
0.0084627778
  9
$USRTIMER
 70
     1
  9
$ANGBASE
 50
0.0
  9
$ANGDIR
 70
     0
  9
$PDMODE
 70
     0
  9
$PDSIZE
 40
0.0
  9
$PLINEWID
 40
0.0
  9
$SPLFRAME
 70
     0
  9
$SPLINETYPE
 70
     6
  9
$SPLINESEGS
 70
     8
  9
$HANDSEED
  5
159
  9
$SURFTAB1
 70
     6
  9
$SURFTAB2
 70
     6
  9
$SURFTYPE
 70
     6
  9
$SURFU
 70
     6
  9
$SURFV
 70
     6
  9
$UCSBASE
  2

  9
$UCSNAME
  2

  9
$UCSORG
 10
0.0
 20
0.0
 30
0.0
  9
$UCSXDIR
 10
1.0
 20
0.0
 30
0.0
  9
$UCSYDIR
 10
0.0
 20
1.0
 30
0.0
  9
$UCSORTHOREF
  2

  9
$UCSORTHOVIEW
 70
     0
  9
$UCSORGTOP
 10
0.0
 20
0.0
 30
0.0
  9
$UCSORGBOTTOM
 10
0.0
 20
0.0
 30
0.0
  9
$UCSORGLEFT
 10
0.0
 20
0.0
 30
0.0
  9
$UCSORGRIGHT
 10
0.0
 20
0.0
 30
0.0
  9
$UCSORGFRONT
 10
0.0
 20
0.0
 30
0.0
  9
$UCSORGBACK
 10
0.0
 20
0.0
 30
0.0
  9
$PUCSBASE
  2

  9
$PUCSNAME
  2

  9
$PUCSORG
 10
0.0
 20
0.0
 30
0.0
  9
$PUCSXDIR
 10
1.0
 20
0.0
 30
0.0
  9
$PUCSYDIR
 10
0.0
 20
1.0
 30
0.0
  9
$PUCSORTHOREF
  2

  9
$PUCSORTHOVIEW
 70
     0
  9
$PUCSORGTOP
 10
0.0
 20
0.0
 30
0.0
  9
$PUCSORGBOTTOM
 10
0.0
 20
0.0
 30
0.0
  9
$PUCSORGLEFT
 10
0.0
 20
0.0
 30
0.0
  9
$PUCSORGRIGHT
 10
0.0
 20
0.0
 30
0.0
  9
$PUCSORGFRONT
 10
0.0
 20
0.0
 30
0.0
  9
$PUCSORGBACK
 10
0.0
 20
0.0
 30
0.0
  9
$USERI1
 70
     0
  9
$USERI2
 70
     0
  9
$USERI3
 70
     0
  9
$USERI4
 70
     0
  9
$USERI5
 70
     0
  9
$USERR1
 40
0.0
  9
$USERR2
 40
0.0
  9
$USERR3
 40
0.0
  9
$USERR4
 40
0.0
  9
$USERR5
 40
0.0
  9
$WORLDVIEW
 70
     1
  9
$SHADEDGE
 70
     3
  9
$SHADEDIF
 70
    70
  9
$TILEMODE
 70
     1
  9
$MAXACTVP
 70
    64
  9
$PINSBASE
 10
0.0
 20
0.0
 30
0.0
  9
$PLIMCHECK
 70
     0
  9
$PEXTMIN
 10
1.000000000000000E+20
 20
1.000000000000000E+20
 30
1.000000000000000E+20
  9
$PEXTMAX
 10
-1.000000000000000E+20
 20
-1.000000000000000E+20
 30
-1.000000000000000E+20
  9
$PLIMMIN
 10
0.0
 20
0.0
  9
$PLIMMAX
 10
12.0
 20
9.0
  9
$UNITMODE
 70
     0
  9
$VISRETAIN
 70
     1
  9
$PLINEGEN
 70
     0
  9
$PSLTSCALE
 70
     1
  9
$TREEDEPTH
 70
  3020
  9
$CMLSTYLE
  2
STANDARD
  9
$CMLJUST
 70
     0
  9
$CMLSCALE
 40
1.0
  9
$PROXYGRAPHICS
 70
     1
  9
$MEASUREMENT
 70
     0
  9
$CELWEIGHT
370
    -1
  9
$ENDCAPS
280
     0
  9
$JOINSTYLE
280
     0
  9
$LWDISPLAY
290
     0
  9
$INSUNITS
 70
     0
  9
$HYPERLINKBASE
  1

  9
$STYLESHEET
  1

  9
$XEDIT
290
     1
  9
$CEPSNTYPE
380
     0
  9
$PSTYLEMODE
290
     1
  9
$FINGERPRINTGUID
  2
{40517480-3D62-4D13-A9AA-7A7AD7D76545}
  9
$VERSIONGUID
  2
{2D210963-86D6-4602-88A6-D8CF395E050A}
  9
$EXTNAMES
290
     1
  9
$PSVPSCALE
 40
0.0
  9
$OLESTARTUP
290
     0
  0
ENDSEC
  0
SECTION
  2
CLASSES
  0
CLASS
  1
ACDBDICTIONARYWDFLT
  2
AcDbDictionaryWithDefault
  3
ObjectDBX Classes
 90
        0
280
     0
281
     0
  0
CLASS
  1
VISUALSTYLE
  2
AcDbVisualStyle
  3
ObjectDBX Classes
 90
     4095
280
     0
281
     0
  0
CLASS
  1
ACDBPLACEHOLDER
  2
AcDbPlaceHolder
  3
ObjectDBX Classes
 90
        0
280
     0
281
     0
  0
CLASS
  1
LAYOUT
  2
AcDbLayout
  3
ObjectDBX Classes
 90
        0
280
     0
281
     0
  0
CLASS
  1
MATERIAL
  2
AcDbMaterial
  3
ObjectDBX Classes
 90
     1024
280
     0
281
     0
  0
CLASS
  1
TABLESTYLE
  2
AcDbTableStyle
  3
ObjectDBX Classes
 90
     4095
280
     0
281
     0
  0
CLASS
  1
DICTIONARYVAR
  2
AcDbDictionaryVar
  3
ObjectDBX Classes
 90
        0
280
     0
281
     0
  0
CLASS
  1
SORTENTSTABLE
  2
AcDbSortentsTable
  3
ObjectDBX Classes
 90
        0
280
     0
281
     0
  0
ENDSEC
  0
SECTION
  2
TABLES
  0
TABLE
  2
VPORT
  5
8
330
0
100
AcDbSymbolTable
 70
     1
  0
VPORT
  5
29
330
8
100
AcDbSymbolTableRecord
100
AcDbViewportTableRecord
  2
*ACTIVE
 70
     0
 10
0.0
 20
0.0
 11
1.0
 21
1.0
 12
1291.769954247061
 22
83.51692749759946
 13
0.0
 23
0.0
 14
0.5
 24
0.5
 15
0.5
 25
0.5
 16
0.0
 26
0.0
 36
1.0
 17
480.0673101215574
 27
-206.4759913298013
 37
0.0
 40
2246.999586161712
 41
1.6625
 42
50.0
 43
0.0
 44
0.0
 50
0.0
 51
0.0
 71
     0
 72
   100
 73
     1
 74
     3
 75
     0
 76
     0
 77
     0
 78
     0
281
     0
 65
     1
110
0.0
120
0.0
130
0.0
111
1.0
121
0.0
131
0.0
112
0.0
122
1.0
132
0.0
 79
     0
146
0.0
  0
ENDTAB
  0
TABLE
  2
LTYPE
  5
5
330
0
100
AcDbSymbolTable
 70
     2
  0
LTYPE
  5
14
330
5
100
AcDbSymbolTableRecord
100
AcDbLinetypeTableRecord
  2
BYBLOCK
 70
     0
  3

 72
    65
 73
     0
 40
0.0
  0
LTYPE
  5
15
330
5
100
AcDbSymbolTableRecord
100
AcDbLinetypeTableRecord
  2
BYLAYER
 70
     0
  3

 72
    65
 73
     0
 40
0.0
  0
LTYPE
  5
16
330
5
100
AcDbSymbolTableRecord
100
AcDbLinetypeTableRecord
  2
CONTINUOUS
 70
     0
  3
Solid line
 72
    65
 73
     0
 40
0.0
  0
ENDTAB
  0
TABLE
  2
LAYER
  5
2
102
{ACAD_XDICTIONARY
360
9A
102
}
330
0
100
AcDbSymbolTable
 70
     4
  0
LAYER
  5
10
330
2
100
AcDbSymbolTableRecord
100
AcDbLayerTableRecord
  2
0
 70
     0
 62
     7
  6
CONTINUOUS
370
    -3
390
8B
  0
LAYER
  5
3B
330
2
100
AcDbSymbolTableRecord
100
AcDbLayerTableRecord
  2
EBENE_1
 70
     0
 62
     7
  6
CONTINUOUS
370
    -3
390
8B
  0
LAYER
  5
98
330
2
100
AcDbSymbolTableRecord
100
AcDbLayerTableRecord
  2
Hewi
 70
     0
 62
     7
  6
CONTINUOUS
370
    -3
390
8B
1001
AcAecLayerStandard
1000

1000

  0
LAYER
  5
D6
330
2
100
AcDbSymbolTableRecord
100
AcDbLayerTableRecord
  2
Defpoints
 70
     0
 62
     7
  6
CONTINUOUS
290
     0
370
    -3
390
8B
  0
ENDTAB
  0
TABLE
  2
STYLE
  5
3
330
0
100
AcDbSymbolTable
 70
     1
  0
STYLE
  5
11
330
3
100
AcDbSymbolTableRecord
100
AcDbTextStyleTableRecord
  2
STANDARD
 70
     0
 40
0.0
 41
1.0
 50
0.0
 71
     0
 42
0.2
  3
txt
  4

  0
ENDTAB
  0
TABLE
  2
VIEW
  5
6
330
0
100
AcDbSymbolTable
 70
     0
  0
ENDTAB
  0
TABLE
  2
UCS
  5
7
330
0
100
AcDbSymbolTable
 70
     0
  0
ENDTAB
  0
TABLE
  2
APPID
  5
9
330
0
100
AcDbSymbolTable
 70
     3
  0
APPID
  5
12
330
9
100
AcDbSymbolTableRecord
100
AcDbRegAppTableRecord
  2
ACAD
 70
     0
  0
APPID
  5
99
330
9
100
AcDbSymbolTableRecord
100
AcDbRegAppTableRecord
  2
AcAecLayerStandard
 70
     0
  0
APPID
  5
117
330
9
100
AcDbSymbolTableRecord
100
AcDbRegAppTableRecord
  2
ACAD_EXEMPT_FROM_CAD_STANDARDS
 70
     0
  0
ENDTAB
  0
TABLE
  2
DIMSTYLE
  5
A
330
0
100
AcDbSymbolTable
 70
     2
100
AcDbDimStyleTable
 71
     1
340
27
  0
DIMSTYLE
105
27
330
A
100
AcDbSymbolTableRecord
100
AcDbDimStyleTableRecord
  2
STANDARD
 70
     0
340
11
  0
ENDTAB
  0
TABLE
  2
BLOCK_RECORD
  5
1
330
0
100
AcDbSymbolTable
 70
     9
  0
BLOCK_RECORD
  5
1F
102
{ACAD_XDICTIONARY
360
BF
102
}
330
1
100
AcDbSymbolTableRecord
100
AcDbBlockTableRecord
  2
*MODEL_SPACE
340
94
  0
BLOCK_RECORD
  5
1B
330
1
100
AcDbSymbolTableRecord
100
AcDbBlockTableRecord
  2
*PAPER_SPACE
340
95
  0
BLOCK_RECORD
  5
3C
330
1
100
AcDbSymbolTableRecord
100
AcDbBlockTableRecord
  2
BLOCK_2
340
0
  0
BLOCK_RECORD
  5
52
330
1
100
AcDbSymbolTableRecord
100
AcDbBlockTableRecord
  2
BLOCK_3
340
0
  0
BLOCK_RECORD
  5
7A
330
1
100
AcDbSymbolTableRecord
100
AcDbBlockTableRecord
  2
BLOCK_4
340
0
  0
BLOCK_RECORD
  5
D7
330
1
100
AcDbSymbolTableRecord
100
AcDbBlockTableRecord
  2
*D3
340
0
  0
BLOCK_RECORD
  5
E5
330
1
100
AcDbSymbolTableRecord
100
AcDbBlockTableRecord
  2
*D4
340
0
  0
BLOCK_RECORD
  5
FB
330
1
100
AcDbSymbolTableRecord
100
AcDbBlockTableRecord
  2
*D5
340
0
  0
BLOCK_RECORD
  5
108
330
1
100
AcDbSymbolTableRecord
100
AcDbBlockTableRecord
  2
*D6
340
0
  0
BLOCK_RECORD
  5
143
330
1
100
AcDbSymbolTableRecord
100
AcDbBlockTableRecord
  2
*D8
340
0
  0
ENDTAB
  0
ENDSEC
  0
SECTION
  2
BLOCKS
  0
BLOCK
  5
20
330
1F
100
AcDbEntity
  8
0
100
AcDbBlockBegin
  2
*MODEL_SPACE
 70
     0
 10
0.0
 20
0.0
 30
0.0
  3
*MODEL_SPACE
  1

  0
ENDBLK
  5
21
330
1F
100
AcDbEntity
  8
0
100
AcDbBlockEnd
  0
BLOCK
  5
1C
330
1B
100
AcDbEntity
 67
     1
  8
0
100
AcDbBlockBegin
  2
*PAPER_SPACE
 70
     0
 10
0.0
 20
0.0
 30
0.0
  3
*PAPER_SPACE
  1

  0
ENDBLK
  5
1D
330
1B
100
AcDbEntity
 67
     1
  8
0
100
AcDbBlockEnd
  0
BLOCK
  5
3E
330
3C
100
AcDbEntity
  8
0
100
AcDbBlockBegin
  2
BLOCK_2
 70
     0
 10
0.0
 20
0.0
 30
0.0
  3
BLOCK_2
  1

  0
SPLINE
  5
40
330
3C
100
AcDbEntity
  8
EBENE_1
 62
     7
100
AcDbSpline
210
0.0
220
0.0
230
1.0
 70
    11
 71
     3
 72
    83
 73
    79
 74
     0
 42
0.0000000001
 43
0.0000000001
 40
0.0
 40
0.0
 40
0.0
 40
0.0
 40
1.0
 40
1.0
 40
1.0
 40
2.0
 40
2.0
 40
2.0
 40
3.0
 40
3.0
 40
3.0
 40
4.0
 40
4.0
 40
4.0
 40
5.0
 40
5.0
 40
5.0
 40
6.0
 40
6.0
 40
6.0
 40
7.0
 40
7.0
 40
7.0
 40
8.0
 40
8.0
 40
8.0
 40
9.0
 40
9.0
 40
9.0
 40
10.0
 40
10.0
 40
10.0
 40
11.0
 40
11.0
 40
11.0
 40
12.0
 40
12.0
 40
12.0
 40
13.0
 40
13.0
 40
13.0
 40
14.0
 40
14.0
 40
14.0
 40
15.0
 40
15.0
 40
15.0
 40
16.0
 40
16.0
 40
16.0
 40
17.0
 40
17.0
 40
17.0
 40
18.0
 40
18.0
 40
18.0
 40
19.0
 40
19.0
 40
19.0
 40
20.0
 40
20.0
 40
20.0
 40
21.0
 40
21.0
 40
21.0
 40
22.0
 40
22.0
 40
22.0
 40
23.0
 40
23.0
 40
23.0
 40
24.0
 40
24.0
 40
24.0
 40
25.0
 40
25.0
 40
25.0
 40
26.0
 40
26.0
 40
26.0
 40
26.0
 10
101.9995260846354
 20
-187.703739774112
 30
0.0
 10
101.9995260846354
 20
-194.3396870754978
 30
0.0
 10
101.9995260846354
 20
-200.9756343768836
 30
0.0
 10
101.9995260846354
 20
-207.615715795579
 30
0.0
 10
117.8442196930528
 20
-207.615715795579
 30
0.0
 10
133.6882242819186
 20
-207.615715795579
 30
0.0
 10
149.5318843610086
 20
-207.615715795579
 30
0.0
 10
149.5318843610086
 20
-206.9521899673956
 30
0.0
 10
149.5318843610086
 20
-206.2852190414542
 30
0.0
 10
149.5318843610086
 20
-205.6220377230466
 30
0.0
 10
198.3595993943754
 20
-205.6220377230466
 30
0.0
 10
247.1926543292671
 20
-205.6220377230466
 30
0.0
 10
296.0200248528581
 20
-205.6220377230466
 30
0.0
 10
296.0200248528581
 20
-206.2852190414542
 30
0.0
 10
296.0200248528581
 20
-206.9521899673956
 30
0.0
 10
296.0200248528581
 20
-207.615715795579
 30
0.0
 10
311.8640294417239
 20
-207.615715795579
 30
0.0
 10
327.7087230501413
 20
-207.615715795579
 30
0.0
 10
343.5527276390071
 20
-207.615715795579
 30
0.0
 10
343.5527276390071
 20
-200.9594424174212
 30
0.0
 10
343.5527276390071
 20
-194.3031690392634
 30
0.0
 10
343.5527276390071
 20
-187.6510297784152
 30
0.0
 10
355.9977987798679
 20
-171.055649368538
 30
0.0
 10
352.5347865135648
 20
-154.4995430731015
 30
0.0
 10
352.5347865135648
 20
-136.7510884436344
 30
0.0
 10
352.5347865135648
 20
-119.1276908627814
 30
0.0
 10
352.5347865135648
 20
-101.5101499481169
 30
0.0
 10
352.5347865135648
 20
-83.89260903345245
 30
0.0
 10
352.5347865135648
 20
-48.67888681022286
 30
0.0
 10
352.5347865135648
 20
-13.45896341102893
 30
0.0
 10
352.5347865135648
 20
21.75579234152806
 30
0.0
 10
352.5347865135648
 20
56.98501750466849
 30
0.0
 10
352.5347865135648
 20
92.21010855049936
 30
0.0
 10
352.5347865135648
 20
127.4403672429672
 30
0.0
 10
352.5347865135648
 20
145.0627312944928
 30
0.0
 10
352.5347865135648
 20
162.6802722091573
 30
0.0
 10
352.5347865135648
 20
180.2981576335976
 30
0.0
 10
352.5347865135648
 20
198.3783751771563
 30
0.0
 10
354.6976188860132
 20
214.5865265990387
 30
0.0
 10
339.9588016579015
 20
229.8782820173032
 30
0.0
 10
339.4530613070327
 20
230.3988362885312
 30
0.0
 10
338.9542111516798
 20
230.9304148725847
 30
0.0
 10
338.4229770774022
 20
231.4299540474892
 30
0.0
 10
320.7317110707173
 20
248.0635750424798
 30
0.0
 10
302.2081094457089
 20
243.6221550129156
 30
0.0
 10
282.1541953966139
 20
243.6221550129156
 30
0.0
 10
262.3627977966756
 20
243.6221550129156
 30
0.0
 10
242.5665770598761
 20
243.6221550129156
 30
0.0
 10
222.776557499041
 20
243.6221550129156
 30
0.0
 10
202.9801645073536
 20
243.6221550129156
 30
0.0
 10
183.1887669074153
 20
243.6221550129156
 30
0.0
 10
163.3925461706159
 20
243.6221550129156
 30
0.0
 10
143.3441442779336
 20
243.6221550129156
 30
0.0
 10
124.8212316724768
 20
248.0635750424798
 30
0.0
 10
107.129965665792
 20
231.4299540474892
 30
0.0
 10
106.5987315915143
 20
230.9304148725847
 30
0.0
 10
106.0981588872824
 20
230.3988362885312
 30
0.0
 10
105.5941410852926
 20
229.8782820173032
 30
0.0
 10
90.86014699404207
 20
214.5865265990387
 30
0.0
 10
93.01195505366495
 20
198.383887333569
 30
0.0
 10
93.01195505366495
 20
180.3036697900103
 30
0.0
 10
93.01195505366495
 20
162.7012873054809
 30
0.0
 10
93.01195505366495
 20
145.0999383502788
 30
0.0
 10
93.01195505366495
 20
127.4979003755251
 30
0.0
 10
93.01195505366495
 20
92.25765089955924
 30
0.0
 10
93.01195505366495
 20
57.01671240404174
 30
0.0
 10
93.01195505366495
 20
21.78094155516118
 30
0.0
 10
93.01195505366495
 20
-13.4431159613423
 30
0.0
 10
93.01195505366495
 20
-48.66235034098464
 30
0.0
 10
93.01195505366495
 20
-83.88261824995437
 30
0.0
 10
93.01195505366495
 20
-101.4998146548431
 30
0.0
 10
93.01195505366495
 20
-119.1070202762337
 30
0.0
 10
93.01195505366495
 20
-136.7242166811224
 30
0.0
 10
93.01195505366495
 20
-154.4788724865537
 30
0.0
 10
89.5448086700523
 20
-171.0442805459367
 30
0.0
 10
101.9995260846354
 20
-187.6510297784152
 30
0.0
 10
101.9995260846354
 20
-187.6510297784152
 30
0.0
 10
101.9995260846354
 20
-187.703739774112
 30
0.0
 10
101.9995260846354
 20
-187.703739774112
 30
0.0
  0
SPLINE
  5
41
330
3C
100
AcDbEntity
  8
EBENE_1
 62
     7
100
AcDbSpline
210
0.0
220
0.0
230
1.0
 70
     8
 71
     3
 72
     8
 73
     4
 74
     0
 42
0.0000000001
 43
0.0000000001
 40
0.0
 40
0.0
 40
0.0
 40
0.0
 40
1.0
 40
1.0
 40
1.0
 40
1.0
 10
117.8125247936796
 20
-191.697641604917
 30
0.0
 10
117.8232045967292
 20
-191.697641604917
 30
0.0
 10
117.8232045967292
 20
-191.7031537613298
 30
0.0
 10
117.8331953802273
 20
-191.7031537613298
 30
0.0
  0
SPLINE
  5
42
330
3C
100
AcDbEntity
  8
EBENE_1
 62
     7
100
AcDbSpline
210
0.0
220
0.0
230
1.0
 70
    11
 71
     3
 72
    53
 73
    49
 74
     0
 42
0.0000000001
 43
0.0000000001
 40
0.0
 40
0.0
 40
0.0
 40
0.0
 40
1.0
 40
1.0
 40
1.0
 40
2.0
 40
2.0
 40
2.0
 40
3.0
 40
3.0
 40
3.0
 40
4.0
 40
4.0
 40
4.0
 40
5.0
 40
5.0
 40
5.0
 40
6.0
 40
6.0
 40
6.0
 40
7.0
 40
7.0
 40
7.0
 40
8.0
 40
8.0
 40
8.0
 40
9.0
 40
9.0
 40
9.0
 40
10.0
 40
10.0
 40
10.0
 40
11.0
 40
11.0
 40
11.0
 40
12.0
 40
12.0
 40
12.0
 40
13.0
 40
13.0
 40
13.0
 40
14.0
 40
14.0
 40
14.0
 40
15.0
 40
15.0
 40
15.0
 40
16.0
 40
16.0
 40
16.0
 40
16.0
 10
307.6120897888476
 20
-197.633545041885
 30
0.0
 10
321.3724992536982
 20
-197.633545041885
 30
0.0
 10
333.9912033215602
 20
-189.9878395876406
 30
0.0
 10
340.3591220173766
 20
-177.7904709755773
 30
0.0
 10
347.335444977249
 20
-164.4186685378248
 30
0.0
 10
344.551805988816
 20
-151.5743105668162
 30
0.0
 10
344.551805988816
 20
-138.1346397032319
 30
0.0
 10
344.551805988816
 20
-111.270800915974
 30
0.0
 10
344.551805988816
 20
-84.41385232423206
 30
0.0
 10
344.551805988816
 20
-57.55035804675001
 30
0.0
 10
344.551805988816
 20
-3.781683808914545
 30
0.0
 10
344.551805988816
 20
49.98147827250818
 30
0.0
 10
344.551805988816
 20
103.7439513343793
 30
0.0
 10
344.551805988816
 20
130.6546434511454
 30
0.0
 10
344.551805988816
 20
157.5653355679115
 30
0.0
 10
344.551805988816
 20
184.4767167042293
 30
0.0
 10
344.551805988816
 20
198.2467724428022
 30
0.0
 10
346.0001250862631
 20
210.6870204468018
 30
0.0
 10
335.6441612258303
 20
222.7534753440627
 30
0.0
 10
325.1510824746305
 20
234.9873619923604
 30
0.0
 10
313.469444996934
 20
235.6346958610814
 30
0.0
 10
299.1350822456071
 20
235.6346958610814
 30
0.0
 10
245.3881121236467
 20
235.6346958610814
 30
0.0
 10
191.6395917076954
 20
235.6346958610814
 30
0.0
 10
137.8984782519236
 20
235.6346958610814
 30
0.0
 10
124.1377242772972
 20
235.6346958610814
 30
0.0
 10
111.5197092289867
 20
227.988990406837
 30
0.0
 10
105.1517905331704
 20
215.7916217947737
 30
0.0
 10
98.17408953419478
 20
202.4205083765728
 30
0.0
 10
100.9632406790405
 20
189.5751168762368
 30
0.0
 10
100.9632406790405
 20
176.1361350322041
 30
0.0
 10
100.9632406790405
 20
149.2729852644978
 30
0.0
 10
100.9632406790405
 20
122.4091464772399
 30
0.0
 10
100.9632406790405
 20
95.5459967095337
 30
0.0
 10
100.9632406790405
 20
41.78283462811095
 30
0.0
 10
100.9632406790405
 20
-11.98032745331177
 30
0.0
 10
100.9632406790405
 20
-65.7431450249587
 30
0.0
 10
100.9632406790405
 20
-92.62799890854013
 30
0.0
 10
100.9632406790405
 20
-119.5063071063814
 30
0.0
 10
100.9632406790405
 20
-146.3911609899629
 30
0.0
 10
100.9632406790405
 20
-160.1412351615395
 30
0.0
 10
99.48942785818452
 20
-172.5759710091264
 30
0.0
 10
109.7826909394225
 20
-184.6517276703338
 30
0.0
 10
120.2330504784234
 20
-196.9121415713678
 30
0.0
 10
131.8726577634728
 20
-197.633545041885
 30
0.0
 10
146.2166667885221
 20
-197.633545041885
 30
0.0
 10
200.016691415955
 20
-197.633545041885
 30
0.0
 10
253.8120651614147
 20
-197.633545041885
 30
0.0
 10
307.6120897888476
 20
-197.633545041885
 30
0.0
  0
SPLINE
  5
43
330
3C
100
AcDbEntity
  8
EBENE_1
 62
     7
100
AcDbSpline
210
0.0
220
0.0
230
1.0
 70
     8
 71
     3
 72
     8
 73
     4
 74
     0
 42
0.0000000001
 43
0.0000000001
 40
0.0
 40
0.0
 40
0.0
 40
0.0
 40
1.0
 40
1.0
 40
1.0
 40
1.0
 10
136.9031895096485
 20
-205.6110134102211
 30
0.0
 10
136.8301534371797
 20
-205.6061902733599
 30
0.0
 10
136.7564283451593
 20
-205.6061902733599
 30
0.0
 10
136.6768465869504
 20
-205.6061902733599
 30
0.0
  0
SPLINE
  5
44
330
3C
100
AcDbEntity
  8
EBENE_1
 62
     7
100
AcDbSpline
210
0.0
220
0.0
230
1.0
 70
     8
 71
     3
 72
     8
 73
     4
 74
     0
 42
0.0000000001
 43
0.0000000001
 40
0.0
 40
0.0
 40
0.0
 40
0.0
 40
1.0
 40
1.0
 40
1.0
 40
1.0
 10
107.129965665792
 20
231.4299540474892
 30
0.0
 10
107.1933554645384
 20
231.4933438462357
 30
0.0
 10
107.2670805565588
 20
231.5567336449822
 30
0.0
 10
107.3308148650811
 20
231.6197789339529
 30
0.0
  0
SPLINE
  5
45
330
3C
100
AcDbEntity
  8
EBENE_1
 62
     7
100
AcDbSpline
210
0.0
220
0.0
230
1.0
 70
     8
 71
     3
 72
     8
 73
     4
 74
     0
 42
0.0000000001
 43
0.0000000001
 40
0.0
 40
0.0
 40
0.0
 40
0.0
 40
1.0
 40
1.0
 40
1.0
 40
1.0
 10
117.8759145924261
 20
-191.734848660703
 30
0.0
 10
117.8125247936796
 20
-191.6931629778317
 30
0.0
 10
117.7539581317942
 20
-191.6556114122699
 30
0.0
 10
117.6912573525993
 20
-191.6194378858113
 30
0.0
  0
SPLINE
  5
46
330
3C
100
AcDbEntity
  8
EBENE_1
 62
     7
100
AcDbSpline
210
0.0
220
0.0
230
1.0
 70
     8
 71
     3
 72
     8
 73
     4
 74
     0
 42
0.0000000001
 43
0.0000000001
 40
0.0
 40
0.0
 40
0.0
 40
0.0
 40
1.0
 40
1.0
 40
1.0
 40
1.0
 10
338.6110794149868
 20
218.7857562562182
 30
0.0
 10
338.6276158842251
 20
218.764052140343
 30
0.0
 10
338.6427743143601
 20
218.7433815537952
 30
0.0
 10
338.6537986271856
 20
218.7223664574717
 30
0.0
  0
SPLINE
  5
47
330
3C
100
AcDbEntity
  8
EBENE_1
 62
     7
100
AcDbSpline
210
0.0
220
0.0
230
1.0
 70
     8
 71
     3
 72
     8
 73
     4
 74
     0
 42
0.0000000001
 43
0.0000000001
 40
0.0
 40
0.0
 40
0.0
 40
0.0
 40
1.0
 40
1.0
 40
1.0
 40
1.0
 10
137.8984782519236
 20
-205.6220377230466
 30
0.0
 10
137.481965932986
 20
-205.6220377230466
 30
0.0
 10
137.0716547900128
 20
-205.6165255666338
 30
0.0
 10
136.6558314906268
 20
-205.6061902733599
 30
0.0
  0
LWPOLYLINE
  5
48
330
3C
100
AcDbEntity
  8
EBENE_1
 62
     7
100
AcDbPolyline
 90
        2
 70
     0
 43
0.0
 10
137.8984782519236
 20
-205.6220377230466
 10
149.5318843610086
 20
-205.6220377230466
  0
SPLINE
  5
4C
330
3C
100
AcDbEntity
  8
EBENE_1
 62
     7
100
AcDbSpline
210
0.0
220
0.0
230
1.0
 70
     8
 71
     3
 72
     8
 73
     4
 74
     0
 42
0.0000000001
 43
0.0000000001
 40
0.0
 40
0.0
 40
0.0
 40
0.0
 40
1.0
 40
1.0
 40
1.0
 40
1.0
 10
101.9995260846354
 20
-187.703739774112
 30
0.0
 10
110.2246969817689
 20
-198.6384800578824
 30
0.0
 10
122.9791379012947
 20
-205.2275740297599
 30
0.0
 10
136.6558314906268
 20
-205.6061902733599
 30
0.0
  0
SPLINE
  5
4D
330
3C
100
AcDbEntity
  8
EBENE_1
 62
     7
100
AcDbSpline
210
0.0
220
0.0
230
1.0
 70
     8
 71
     3
 72
     8
 73
     4
 74
     0
 42
0.0000000001
 43
0.0000000001
 40
0.0
 40
0.0
 40
0.0
 40
0.0
 40
1.0
 40
1.0
 40
1.0
 40
1.0
 10
307.6120897888476
 20
-205.6220377230466
 30
0.0
 10
321.7514600070739
 20
-205.6220377230466
 30
0.0
 10
335.0708969589054
 20
-198.9647308155614
 30
0.0
 10
343.5527276390071
 20
-187.6510297784152
 30
0.0
  0
LWPOLYLINE
  5
4E
330
3C
100
AcDbEntity
  8
EBENE_1
 62
     7
100
AcDbPolyline
 90
        2
 70
     0
 43
0.0
 10
296.0200248528581
 20
-205.6220377230466
 10
307.6120897888476
 20
-205.6220377230466
  0
ENDBLK
  5
3F
330
3C
100
AcDbEntity
  8
0
100
AcDbBlockEnd
  0
BLOCK
  5
54
330
52
100
AcDbEntity
  8
0
100
AcDbBlockBegin
  2
BLOCK_3
 70
     0
 10
0.0
 20
0.0
 30
0.0
  3
BLOCK_3
  1

  0
SPLINE
  5
56
330
52
100
AcDbEntity
  8
EBENE_1
 62
     7
100
AcDbSpline
210
0.0
220
0.0
230
1.0
 70
    11
 71
     3
 72
   125
 73
   121
 74
     0
 42
0.0000000001
 43
0.0000000001
 40
0.0
 40
0.0
 40
0.0
 40
0.0
 40
1.0
 40
1.0
 40
1.0
 40
2.0
 40
2.0
 40
2.0
 40
3.0
 40
3.0
 40
3.0
 40
4.0
 40
4.0
 40
4.0
 40
5.0
 40
5.0
 40
5.0
 40
6.0
 40
6.0
 40
6.0
 40
7.0
 40
7.0
 40
7.0
 40
8.0
 40
8.0
 40
8.0
 40
9.0
 40
9.0
 40
9.0
 40
10.0
 40
10.0
 40
10.0
 40
11.0
 40
11.0
 40
11.0
 40
12.0
 40
12.0
 40
12.0
 40
13.0
 40
13.0
 40
13.0
 40
14.0
 40
14.0
 40
14.0
 40
15.0
 40
15.0
 40
15.0
 40
16.0
 40
16.0
 40
16.0
 40
17.0
 40
17.0
 40
17.0
 40
18.0
 40
18.0
 40
18.0
 40
19.0
 40
19.0
 40
19.0
 40
20.0
 40
20.0
 40
20.0
 40
21.0
 40
21.0
 40
21.0
 40
22.0
 40
22.0
 40
22.0
 40
23.0
 40
23.0
 40
23.0
 40
24.0
 40
24.0
 40
24.0
 40
25.0
 40
25.0
 40
25.0
 40
26.0
 40
26.0
 40
26.0
 40
27.0
 40
27.0
 40
27.0
 40
28.0
 40
28.0
 40
28.0
 40
29.0
 40
29.0
 40
29.0
 40
30.0
 40
30.0
 40
30.0
 40
31.0
 40
31.0
 40
31.0
 40
32.0
 40
32.0
 40
32.0
 40
33.0
 40
33.0
 40
33.0
 40
34.0
 40
34.0
 40
34.0
 40
35.0
 40
35.0
 40
35.0
 40
36.0
 40
36.0
 40
36.0
 40
37.0
 40
37.0
 40
37.0
 40
38.0
 40
38.0
 40
38.0
 40
39.0
 40
39.0
 40
39.0
 40
40.0
 40
40.0
 40
40.0
 40
40.0
 10
667.9042029240147
 20
-198.8283049443461
 30
0.0
 10
724.8044710238373
 20
-198.8283049443461
 30
0.0
 10
781.7095622605211
 20
-198.8283049443461
 30
0.0
 10
838.6136199678775
 20
-198.8283049443461
 30
0.0
 10
839.2978163826088
 20
-198.8283049443461
 30
0.0
 10
839.5875491040532
 20
-198.554419672588
 30
0.0
 10
839.6133873372379
 20
-197.8705677676328
 30
0.0
 10
839.6133873372379
 20
-197.8492081615334
 30
0.0
 10
839.6133873372379
 20
-197.8281930652098
 30
0.0
 10
839.6133873372379
 20
-197.8071779688863
 30
0.0
 10
839.6133873372379
 20
-200.0805979793652
 30
0.0
 10
839.6133873372379
 20
-202.3485058334314
 30
0.0
 10
839.6133873372379
 20
-204.6222703536861
 30
0.0
 10
839.6133873372379
 20
-205.3274818647409
 30
0.0
 10
839.9027755489067
 20
-205.6220377230466
 30
0.0
 10
840.61384372615
 20
-205.6220377230466
 30
0.0
 10
842.7608286489117
 20
-205.6220377230466
 30
0.0
 10
844.9126367085346
 20
-205.6220377230466
 30
0.0
 10
847.0644447681575
 20
-205.6220377230466
 30
0.0
 10
847.0644447681575
 20
-206.2852190414542
 30
0.0
 10
847.0644447681575
 20
-206.9521899673956
 30
0.0
 10
847.0644447681575
 20
-207.615715795579
 30
0.0
 10
851.4063014725168
 20
-207.615715795579
 30
0.0
 10
855.7522922941851
 20
-207.615715795579
 30
0.0
 10
860.0931154692171
 20
-207.615715795579
 30
0.0
 10
860.0931154692171
 20
-206.9521899673956
 30
0.0
 10
860.0931154692171
 20
-206.2852190414542
 30
0.0
 10
860.0931154692171
 20
-205.6220377230466
 30
0.0
 10
862.2507801950284
 20
-205.6220377230466
 30
0.0
 10
864.4084449208399
 20
-205.6220377230466
 30
0.0
 10
866.5664541564273
 20
-205.6220377230466
 30
0.0
 10
867.2709766479302
 20
-205.6220377230466
 30
0.0
 10
867.5662215257876
 20
-205.3274818647409
 30
0.0
 10
867.5662215257876
 20
-204.6222703536861
 30
0.0
 10
867.5662215257876
 20
-192.5606385932864
 30
0.0
 10
867.5662215257876
 20
-180.4945282058014
 30
0.0
 10
867.5662215257876
 20
-168.4342744845049
 30
0.0
 10
867.5662215257876
 20
-46.0582009457414
 30
0.0
 10
867.5662215257876
 20
76.31925063212531
 30
0.0
 10
867.5662215257876
 20
198.6994582881983
 30
0.0
 10
867.5662215257876
 20
213.1130582879585
 30
0.0
 10
867.5662215257876
 20
227.525969268167
 30
0.0
 10
867.5662215257876
 20
241.9388802483755
 30
0.0
 10
867.5662215257876
 20
242.1648786612978
 30
0.0
 10
867.5662215257876
 20
242.396044720857
 30
0.0
 10
867.5662215257876
 20
242.6220431337793
 30
0.0
 10
867.5662215257876
 20
243.3300107230404
 30
0.0
 10
867.2764888043428
 20
243.6221550129156
 30
0.0
 10
866.5664541564273
 20
243.6221550129156
 30
0.0
 10
857.9158136861853
 20
243.6221550129156
 30
0.0
 10
849.2644841963919
 20
243.6221550129156
 30
0.0
 10
840.61384372615
 20
243.6221550129156
 30
0.0
 10
839.9027755489067
 20
243.6221550129156
 30
0.0
 10
839.6133873372379
 20
243.3300107230404
 30
0.0
 10
839.6133873372379
 20
242.6251437217615
 30
0.0
 10
839.6133873372379
 20
243.3300107230404
 30
0.0
 10
839.3188314789322
 20
243.6221550129156
 30
0.0
 10
838.6136199678775
 20
243.6221550129156
 30
0.0
 10
781.7095622605211
 20
243.6221550129156
 30
0.0
 10
724.8044710238373
 20
243.6221550129156
 30
0.0
 10
667.9042029240147
 20
243.6221550129156
 30
0.0
 10
611.0004897264341
 20
243.6221550129156
 30
0.0
 10
554.0953984897503
 20
243.6221550129156
 30
0.0
 10
497.1903072530664
 20
243.6221550129156
 30
0.0
 10
496.4854402517876
 20
243.6221550129156
 30
0.0
 10
496.1905398837061
 20
243.3300107230404
 30
0.0
 10
496.1905398837061
 20
242.6251437217615
 30
0.0
 10
496.1905398837061
 20
243.3300107230404
 30
0.0
 10
495.8959840254003
 20
243.6221550129156
 30
0.0
 10
495.1907725143454
 20
243.6221550129156
 30
0.0
 10
486.5394430245522
 20
243.6221550129156
 30
0.0
 10
477.8891470640862
 20
243.6221550129156
 30
0.0
 10
469.2381620840686
 20
243.6221550129156
 30
0.0
 10
468.5326060632381
 20
243.6221550129156
 30
0.0
 10
468.238394714708
 20
243.3300107230404
 30
0.0
 10
468.238394714708
 20
242.6220431337793
 30
0.0
 10
468.238394714708
 20
242.396044720857
 30
0.0
 10
468.238394714708
 20
242.1648786612978
 30
0.0
 10
468.238394714708
 20
241.9388802483755
 30
0.0
 10
468.238394714708
 20
227.525969268167
 30
0.0
 10
468.238394714708
 20
213.1130582879585
 30
0.0
 10
468.238394714708
 20
198.6994582881983
 30
0.0
 10
468.238394714708
 20
76.31925063212531
 30
0.0
 10
468.238394714708
 20
-46.0582009457414
 30
0.0
 10
468.238394714708
 20
-168.4342744845049
 30
0.0
 10
468.238394714708
 20
-180.4945282058014
 30
0.0
 10
468.238394714708
 20
-192.5606385932864
 30
0.0
 10
468.238394714708
 20
-204.6222703536861
 30
0.0
 10
468.238394714708
 20
-205.3274818647409
 30
0.0
 10
468.5326060632381
 20
-205.6220377230466
 30
0.0
 10
469.2381620840686
 20
-205.6220377230466
 30
0.0
 10
471.3951377903283
 20
-205.6220377230466
 30
0.0
 10
473.5528025161398
 20
-205.6220377230466
 30
0.0
 10
475.7108117517268
 20
-205.6220377230466
 30
0.0
 10
475.7108117517268
 20
-206.2852190414542
 30
0.0
 10
475.7108117517268
 20
-206.9521899673956
 30
0.0
 10
475.7108117517268
 20
-207.615715795579
 30
0.0
 10
480.0516349267588
 20
-207.615715795579
 30
0.0
 10
484.3983147679788
 20
-207.615715795579
 30
0.0
 10
488.7391379430106
 20
-207.615715795579
 30
0.0
 10
488.7391379430106
 20
-206.9521899673956
 30
0.0
 10
488.7391379430106
 20
-206.2852190414542
 30
0.0
 10
488.7391379430106
 20
-205.6220377230466
 30
0.0
 10
490.8923240417368
 20
-205.6220377230466
 30
0.0
 10
493.0441321013597
 20
-205.6220377230466
 30
0.0
 10
495.1907725143454
 20
-205.6220377230466
 30
0.0
 10
495.8959840254003
 20
-205.6220377230466
 30
0.0
 10
496.1905398837061
 20
-205.3274818647409
 30
0.0
 10
496.1905398837061
 20
-204.6222703536861
 30
0.0
 10
496.1905398837061
 20
-202.3485058334314
 30
0.0
 10
496.1905398837061
 20
-200.0805979793652
 30
0.0
 10
496.1905398837061
 20
-197.8071779688863
 30
0.0
 10
496.1905398837061
 20
-197.8281930652098
 30
0.0
 10
496.1905398837061
 20
-197.8492081615334
 30
0.0
 10
496.1905398837061
 20
-197.8705677676328
 30
0.0
 10
496.2170671364423
 20
-198.554419672588
 30
0.0
 10
496.5067998578868
 20
-198.8283049443461
 30
0.0
 10
497.1903072530664
 20
-198.8283049443461
 30
0.0
 10
554.0953984897503
 20
-198.8283049443461
 30
0.0
 10
611.0004897264341
 20
-198.8283049443461
 30
0.0
 10
667.9042029240147
 20
-198.8283049443461
 30
0.0
  0
LWPOLYLINE
  5
57
330
52
100
AcDbEntity
  8
EBENE_1
 62
     7
100
AcDbPolyline
 90
        2
 70
     0
 43
0.0
 10
488.7391379430106
 20
-187.6510297784152
 10
488.7391379430106
 20
-205.6220377230466
  0
LWPOLYLINE
  5
5B
330
52
100
AcDbEntity
  8
EBENE_1
 62
     7
100
AcDbPolyline
 90
        2
 70
     0
 43
0.0
 10
496.1905398837061
 20
242.6251437217615
 10
496.1905398837061
 20
-197.8705677676328
  0
LWPOLYLINE
  5
5F
330
52
100
AcDbEntity
  8
EBENE_1
 62
     7
100
AcDbPolyline
 90
        2
 70
     0
 43
0.0
 10
839.6133873372379
 20
242.6251437217615
 10
839.6133873372379
 20
-197.8705677676328
  0
LWPOLYLINE
  5
63
330
52
100
AcDbEntity
  8
EBENE_1
 62
     7
100
AcDbPolyline
 90
        2
 70
     0
 43
0.0
 10
847.0644447681575
 20
-187.6510297784152
 10
847.0644447681575
 20
-205.6220377230466
  0
SPLINE
  5
67
330
52
100
AcDbEntity
  8
EBENE_1
 62
     7
100
AcDbSpline
210
0.0
220
0.0
230
1.0
 70
     8
 71
     3
 72
    17
 73
    13
 74
     0
 42
0.0000000001
 43
0.0000000001
 40
0.0
 40
0.0
 40
0.0
 40
0.0
 40
1.0
 40
1.0
 40
1.0
 40
2.0
 40
2.0
 40
2.0
 40
3.0
 40
3.0
 40
3.0
 40
4.0
 40
4.0
 40
4.0
 40
4.0
 10
839.6133873372379
 20
-192.4972487945399
 30
0.0
 10
839.5772138107794
 20
-191.8347564956839
 30
0.0
 10
839.2075548213501
 20
-191.697641604917
 30
0.0
 10
838.6136199678775
 20
-191.697641604917
 30
0.0
 10
781.7095622605211
 20
-191.697641604917
 30
0.0
 10
724.8044710238373
 20
-191.697641604917
 30
0.0
 10
667.9042029240147
 20
-191.697641604917
 30
0.0
 10
611.0004897264341
 20
-191.697641604917
 30
0.0
 10
554.0953984897503
 20
-191.697641604917
 30
0.0
 10
497.1903072530664
 20
-191.697641604917
 30
0.0
 10
496.596027889818
 20
-191.697641604917
 30
0.0
 10
496.2277469394921
 20
-191.8347564956839
 30
0.0
 10
496.1905398837061
 20
-192.4972487945399
 30
0.0
  0
SPLINE
  5
68
330
52
100
AcDbEntity
  8
EBENE_1
 62
     7
100
AcDbSpline
210
0.0
220
0.0
230
1.0
 70
     8
 71
     3
 72
    17
 73
    13
 74
     0
 42
0.0000000001
 43
0.0000000001
 40
0.0
 40
0.0
 40
0.0
 40
0.0
 40
1.0
 40
1.0
 40
1.0
 40
2.0
 40
2.0
 40
2.0
 40
3.0
 40
3.0
 40
3.0
 40
4.0
 40
4.0
 40
4.0
 40
4.0
 10
496.1905398837061
 20
218.8388107616908
 30
0.0
 10
496.2112104702538
 20
218.1546143469596
 30
0.0
 10
496.5012877014741
 20
217.8697047623762
 30
0.0
 10
497.1903072530664
 20
217.8697047623762
 30
0.0
 10
554.0953984897503
 20
217.8697047623762
 30
0.0
 10
611.0004897264341
 20
217.8697047623762
 30
0.0
 10
667.9042029240147
 20
217.8697047623762
 30
0.0
 10
724.8044710238373
 20
217.8697047623762
 30
0.0
 10
781.7095622605211
 20
217.8697047623762
 30
0.0
 10
838.6136199678775
 20
217.8697047623762
 30
0.0
 10
839.3029840292456
 20
217.8697047623762
 30
0.0
 10
839.5875491040532
 20
218.1546143469596
 30
0.0
 10
839.6133873372379
 20
218.8388107616908
 30
0.0
  0
SPLINE
  5
69
330
52
100
AcDbEntity
  8
EBENE_1
 62
     7
100
AcDbSpline
210
0.0
220
0.0
230
1.0
 70
     8
 71
     3
 72
    17
 73
    13
 74
     0
 42
0.0000000001
 43
0.0000000001
 40
0.0
 40
0.0
 40
0.0
 40
0.0
 40
1.0
 40
1.0
 40
1.0
 40
2.0
 40
2.0
 40
2.0
 40
3.0
 40
3.0
 40
3.0
 40
4.0
 40
4.0
 40
4.0
 40
4.0
 10
839.6133873372379
 20
222.4051759607327
 30
0.0
 10
839.6133873372379
 20
223.07903708219
 30
0.0
 10
839.0762965967716
 20
222.9429557207505
 30
0.0
 10
838.6136199678775
 20
222.9429557207505
 30
0.0
 10
781.7095622605211
 20
222.9429557207505
 30
0.0
 10
724.8044710238373
 20
222.9429557207505
 30
0.0
 10
667.9042029240147
 20
222.9429557207505
 30
0.0
 10
611.0004897264341
 20
222.9429557207505
 30
0.0
 10
554.0953984897503
 20
222.9429557207505
 30
0.0
 10
497.1903072530664
 20
222.9429557207505
 30
0.0
 10
496.7272861143965
 20
222.9429557207505
 30
0.0
 10
496.1905398837061
 20
223.07903708219
 30
0.0
 10
496.1905398837061
 20
222.4051759607327
 30
0.0
  0
LWPOLYLINE
  5
6A
330
52
100
AcDbEntity
  8
EBENE_1
 62
     7
100
AcDbPolyline
 90
        2
 70
     0
 43
0.0
 10
860.0931154692171
 20
-205.6220377230466
 10
860.0931154692171
 20
-187.6510297784152
  0
LWPOLYLINE
  5
6E
330
52
100
AcDbEntity
  8
EBENE_1
 62
     7
100
AcDbPolyline
 90
        2
 70
     0
 43
0.0
 10
860.0931154692171
 20
-187.6510297784152
 10
847.0644447681575
 20
-187.6510297784152
  0
LWPOLYLINE
  5
72
330
52
100
AcDbEntity
  8
EBENE_1
 62
     7
100
AcDbPolyline
 90
        2
 70
     0
 43
0.0
 10
475.7108117517268
 20
-187.6510297784152
 10
488.7391379430106
 20
-187.6510297784152
  0
LWPOLYLINE
  5
76
330
52
100
AcDbEntity
  8
EBENE_1
 62
     7
100
AcDbPolyline
 90
        2
 70
     0
 43
0.0
 10
475.7108117517268
 20
-205.6220377230466
 10
475.7108117517268
 20
-187.6510297784152
  0
ENDBLK
  5
55
330
52
100
AcDbEntity
  8
0
100
AcDbBlockEnd
  0
BLOCK
  5
7C
330
7A
100
AcDbEntity
  8
0
100
AcDbBlockBegin
  2
BLOCK_4
 70
     0
 10
0.0
 20
0.0
 30
0.0
  3
BLOCK_4
  1

  0
SPLINE
  5
7E
330
7A
100
AcDbEntity
  8
EBENE_1
 62
     7
100
AcDbSpline
210
0.0
220
0.0
230
1.0
 70
    11
 71
     3
 72
   101
 73
    97
 74
     0
 42
0.0000000001
 43
0.0000000001
 40
0.0
 40
0.0
 40
0.0
 40
0.0
 40
1.0
 40
1.0
 40
1.0
 40
2.0
 40
2.0
 40
2.0
 40
3.0
 40
3.0
 40
3.0
 40
4.0
 40
4.0
 40
4.0
 40
5.0
 40
5.0
 40
5.0
 40
6.0
 40
6.0
 40
6.0
 40
7.0
 40
7.0
 40
7.0
 40
8.0
 40
8.0
 40
8.0
 40
9.0
 40
9.0
 40
9.0
 40
10.0
 40
10.0
 40
10.0
 40
11.0
 40
11.0
 40
11.0
 40
12.0
 40
12.0
 40
12.0
 40
13.0
 40
13.0
 40
13.0
 40
14.0
 40
14.0
 40
14.0
 40
15.0
 40
15.0
 40
15.0
 40
16.0
 40
16.0
 40
16.0
 40
17.0
 40
17.0
 40
17.0
 40
18.0
 40
18.0
 40
18.0
 40
19.0
 40
19.0
 40
19.0
 40
20.0
 40
20.0
 40
20.0
 40
21.0
 40
21.0
 40
21.0
 40
22.0
 40
22.0
 40
22.0
 40
23.0
 40
23.0
 40
23.0
 40
24.0
 40
24.0
 40
24.0
 40
25.0
 40
25.0
 40
25.0
 40
26.0
 40
26.0
 40
26.0
 40
27.0
 40
27.0
 40
27.0
 40
28.0
 40
28.0
 40
28.0
 40
29.0
 40
29.0
 40
29.0
 40
30.0
 40
30.0
 40
30.0
 40
31.0
 40
31.0
 40
31.0
 40
32.0
 40
32.0
 40
32.0
 40
32.0
 10
667.9042029240147
 20
-650.3252471042393
 30
0.0
 10
724.8044710238373
 20
-650.3252471042393
 30
0.0
 10
781.7095622605211
 20
-650.3252471042393
 30
0.0
 10
838.6136199678775
 20
-650.3252471042393
 30
0.0
 10
839.2978163826088
 20
-650.3252471042393
 30
0.0
 10
839.5875491040532
 20
-650.0461941858445
 30
0.0
 10
839.6133873372379
 20
-649.3613087515617
 30
0.0
 10
839.6133873372379
 20
-649.3613087515617
 30
0.0
 10
839.6133873372379
 20
-649.3613087515617
 30
0.0
 10
839.6133873372379
 20
-649.3613087515617
 30
0.0
 10
839.6133873372379
 20
-651.6137136657171
 30
0.0
 10
839.6133873372379
 20
-653.8609509332355
 30
0.0
 10
839.6133873372379
 20
-656.1130113376149
 30
0.0
 10
839.6133873372379
 20
-656.8182228486697
 30
0.0
 10
839.9027755489067
 20
-657.1124341971998
 30
0.0
 10
840.61384372615
 20
-657.1124341971998
 30
0.0
 10
849.2644841963919
 20
-657.1124341971998
 30
0.0
 10
857.9158136861853
 20
-657.1124341971998
 30
0.0
 10
866.5664541564273
 20
-657.1124341971998
 30
0.0
 10
867.2764888043428
 20
-657.1124341971998
 30
0.0
 10
867.5662215257876
 20
-656.8182228486697
 30
0.0
 10
867.5662215257876
 20
-656.1130113376149
 30
0.0
 10
867.5662215257876
 20
-644.0531021260944
 30
0.0
 10
867.5662215257876
 20
-631.9914703656946
 30
0.0
 10
867.5662215257876
 20
-619.9312166443982
 30
0.0
 10
867.5662215257876
 20
-560.7733759837832
 30
0.0
 10
867.5662215257876
 20
-501.627593165321
 30
0.0
 10
867.5662215257876
 20
-442.4759536806706
 30
0.0
 10
867.5662215257876
 20
-428.0630427004621
 30
0.0
 10
867.5662215257876
 20
-413.6494427007018
 30
0.0
 10
867.5662215257876
 20
-399.2365317204935
 30
0.0
 10
867.5662215257876
 20
-399.00571017071
 30
0.0
 10
867.5662215257876
 20
-398.7790227382362
 30
0.0
 10
867.5662215257876
 20
-398.5530243253139
 30
0.0
 10
867.5662215257876
 20
-397.8423006578464
 30
0.0
 10
867.2764888043428
 20
-397.5525679364018
 30
0.0
 10
866.5664541564273
 20
-397.5525679364018
 30
0.0
 10
857.9158136861853
 20
-397.5525679364018
 30
0.0
 10
849.2644841963919
 20
-397.5525679364018
 30
0.0
 10
840.61384372615
 20
-397.5525679364018
 30
0.0
 10
839.9027755489067
 20
-397.5525679364018
 30
0.0
 10
839.6133873372379
 20
-397.8423006578464
 30
0.0
 10
839.6133873372379
 20
-398.5471676591253
 30
0.0
 10
839.6133873372379
 20
-397.8423006578464
 30
0.0
 10
839.3188314789322
 20
-397.5525679364018
 30
0.0
 10
838.6136199678775
 20
-397.5525679364018
 30
0.0
 10
781.7095622605211
 20
-397.5525679364018
 30
0.0
 10
724.8044710238373
 20
-397.5525679364018
 30
0.0
 10
667.9042029240147
 20
-397.5525679364018
 30
0.0
 10
611.0004897264341
 20
-397.5525679364018
 30
0.0
 10
554.0953984897503
 20
-397.5525679364018
 30
0.0
 10
497.1903072530664
 20
-397.5525679364018
 30
0.0
 10
496.4854402517876
 20
-397.5525679364018
 30
0.0
 10
496.1905398837061
 20
-397.8423006578464
 30
0.0
 10
496.1905398837061
 20
-398.5471676591253
 30
0.0
 10
496.1905398837061
 20
-397.8423006578464
 30
0.0
 10
495.8959840254003
 20
-397.5525679364018
 30
0.0
 10
495.1907725143454
 20
-397.5525679364018
 30
0.0
 10
486.5394430245522
 20
-397.5525679364018
 30
0.0
 10
477.8891470640862
 20
-397.5525679364018
 30
0.0
 10
469.2381620840686
 20
-397.5525679364018
 30
0.0
 10
468.5326060632381
 20
-397.5525679364018
 30
0.0
 10
468.238394714708
 20
-397.8423006578464
 30
0.0
 10
468.238394714708
 20
-398.5530243253139
 30
0.0
 10
468.238394714708
 20
-398.7790227382362
 30
0.0
 10
468.238394714708
 20
-399.00571017071
 30
0.0
 10
468.238394714708
 20
-399.2365317204935
 30
0.0
 10
468.238394714708
 20
-413.6494427007018
 30
0.0
 10
468.238394714708
 20
-428.0630427004621
 30
0.0
 10
468.238394714708
 20
-442.4759536806706
 30
0.0
 10
468.238394714708
 20
-501.627593165321
 30
0.0
 10
468.238394714708
 20
-560.7733759837832
 30
0.0
 10
468.238394714708
 20
-619.9312166443982
 30
0.0
 10
468.238394714708
 20
-631.9914703656946
 30
0.0
 10
468.238394714708
 20
-644.0531021260944
 30
0.0
 10
468.238394714708
 20
-656.1130113376149
 30
0.0
 10
468.238394714708
 20
-656.8182228486697
 30
0.0
 10
468.5326060632381
 20
-657.1124341971998
 30
0.0
 10
469.2381620840686
 20
-657.1124341971998
 30
0.0
 10
477.8891470640862
 20
-657.1124341971998
 30
0.0
 10
486.5394430245522
 20
-657.1124341971998
 30
0.0
 10
495.1907725143454
 20
-657.1124341971998
 30
0.0
 10
495.8959840254003
 20
-657.1124341971998
 30
0.0
 10
496.1905398837061
 20
-656.8182228486697
 30
0.0
 10
496.1905398837061
 20
-656.1130113376149
 30
0.0
 10
496.1905398837061
 20
-653.8609509332355
 30
0.0
 10
496.1905398837061
 20
-651.6137136657171
 30
0.0
 10
496.1905398837061
 20
-649.3613087515617
 30
0.0
 10
496.1905398837061
 20
-649.3613087515617
 30
0.0
 10
496.1905398837061
 20
-649.3613087515617
 30
0.0
 10
496.1905398837061
 20
-649.3613087515617
 30
0.0
 10
496.2170671364423
 20
-650.0461941858445
 30
0.0
 10
496.5067998578868
 20
-650.3252471042393
 30
0.0
 10
497.1903072530664
 20
-650.3252471042393
 30
0.0
 10
554.0953984897503
 20
-650.3252471042393
 30
0.0
 10
611.0004897264341
 20
-650.3252471042393
 30
0.0
 10
667.9042029240147
 20
-650.3252471042393
 30
0.0
  0
LWPOLYLINE
  5
7F
330
7A
100
AcDbEntity
  8
EBENE_1
 62
     7
100
AcDbPolyline
 90
        2
 70
     0
 43
0.0
 10
496.1905398837061
 20
-398.5471676591253
 10
496.1905398837061
 20
-650.8819749019258
  0
LWPOLYLINE
  5
83
330
7A
100
AcDbEntity
  8
EBENE_1
 62
     7
100
AcDbPolyline
 90
        2
 70
     0
 43
0.0
 10
839.6133873372379
 20
-398.5471676591253
 10
839.6133873372379
 20
-650.8819749019258
  0
ENDBLK
  5
7D
330
7A
100
AcDbEntity
  8
0
100
AcDbBlockEnd
  0
BLOCK
  5
E2
330
D7
100
AcDbEntity
  8
0
100
AcDbBlockBegin
  2
*D3
 70
     1
 10
0.0
 20
0.0
 30
0.0
  3
*D3
  1

  0
LINE
  5
D8
330
D7
100
AcDbEntity
  8
Hewi
 62
     0
370
    -2
100
AcDbLine
 10
468.238394714708
 20
44.92706226821907
 30
0.0
 11
468.238394714708
 21
-36.7204446779454
 31
0.0
  0
LINE
  5
D9
330
D7
100
AcDbEntity
  8
Hewi
 62
     0
370
    -2
100
AcDbLine
 10
496.1905398837061
 20
44.92706226821908
 30
0.0
 11
496.1905398837061
 21
-36.72044467794541
 31
0.0
  0
LINE
  5
DA
330
D7
100
AcDbEntity
  8
Hewi
 62
     0
370
    -2
100
AcDbLine
 10
468.418394714708
 20
-36.5404446779454
 30
0.0
 11
481.614467299207
 21
-36.5404446779454
 31
0.0
  0
LINE
  5
DB
330
D7
100
AcDbEntity
  8
Hewi
 62
     0
370
    -2
100
AcDbLine
 10
496.0105398837061
 20
-36.5404446779454
 30
0.0
 11
482.814467299207
 21
-36.5404446779454
 31
0.0
  0
SOLID
  5
DC
330
D7
100
AcDbEntity
  8
Hewi
 62
     0
100
AcDbTrace
 10
468.418394714708
 20
-36.5104446779454
 30
0.0
 11
468.418394714708
 21
-36.5704446779454
 31
0.0
 12
468.238394714708
 22
-36.5404446779454
 32
0.0
 13
468.238394714708
 23
-36.5404446779454
 33
0.0
  0
SOLID
  5
DD
330
D7
100
AcDbEntity
  8
Hewi
 62
     0
100
AcDbTrace
 10
496.0105398837061
 20
-36.5104446779454
 30
0.0
 11
496.0105398837061
 21
-36.5704446779454
 31
0.0
 12
496.1905398837061
 22
-36.5404446779454
 32
0.0
 13
496.1905398837061
 23
-36.5404446779454
 33
0.0
  0
MTEXT
  5
DE
330
D7
100
AcDbEntity
  8
Hewi
 62
     0
100
AcDbMText
 10
482.214467299207
 20
-36.5404446779454
 30
0.0
 40
0.18
 41
0.0
 71
     5
 72
     1
  1
\A1;27.9521
 73
     1
 44
1.0
1001
ACAD
1000
MTEXTBEGIN
1070
    73
1070
     1
1070
    44
1040
1.0
1070
    74
1070
     0
1000
MTEXTEND
  0
POINT
  5
DF
330
D7
100
AcDbEntity
  8
Defpoints
 62
     0
100
AcDbPoint
 10
468.238394714708
 20
44.98956226821906
 30
0.0
  0
POINT
  5
E0
330
D7
100
AcDbEntity
  8
Defpoints
 62
     0
100
AcDbPoint
 10
496.1905398837061
 20
44.98956226821909
 30
0.0
  0
POINT
  5
E1
330
D7
100
AcDbEntity
  8
Defpoints
 62
     0
100
AcDbPoint
 10
496.1905398837061
 20
-36.5404446779454
 30
0.0
  0
ENDBLK
  5
E3
330
D7
100
AcDbEntity
  8
0
100
AcDbBlockEnd
  0
BLOCK
  5
F0
330
E5
100
AcDbEntity
  8
0
100
AcDbBlockBegin
  2
*D4
 70
     1
 10
0.0
 20
0.0
 30
0.0
  3
*D4
  1

  0
LINE
  5
E6
330
E5
100
AcDbEntity
  8
Hewi
 62
     0
370
    -2
100
AcDbLine
 10
352.5347865135648
 20
53.22192735412359
 30
0.0
 11
352.5347865135648
 21
-28.55454566305827
 31
0.0
  0
LINE
  5
E7
330
E5
100
AcDbEntity
  8
Hewi
 62
     0
370
    -2
100
AcDbLine
 10
344.551805988816
 20
53.22192735409797
 30
0.0
 11
344.551805988816
 21
-28.55454566305827
 31
0.0
  0
LINE
  5
E8
330
E5
100
AcDbEntity
  8
Hewi
 62
     0
370
    -2
100
AcDbLine
 10
352.3547865135648
 20
-28.37454566305826
 30
0.0
 11
349.0682962511904
 21
-28.37454566305826
 31
0.0
  0
LINE
  5
E9
330
E5
100
AcDbEntity
  8
Hewi
 62
     0
370
    -2
100
AcDbLine
 10
344.731805988816
 20
-28.37454566305826
 30
0.0
 11
348.0182962511904
 21
-28.37454566305826
 31
0.0
  0
SOLID
  5
EA
330
E5
100
AcDbEntity
  8
Hewi
 62
     0
100
AcDbTrace
 10
352.3547865135648
 20
-28.34454566305826
 30
0.0
 11
352.3547865135648
 21
-28.40454566305826
 31
0.0
 12
352.5347865135648
 22
-28.37454566305826
 32
0.0
 13
352.5347865135648
 23
-28.37454566305826
 33
0.0
  0
SOLID
  5
EB
330
E5
100
AcDbEntity
  8
Hewi
 62
     0
100
AcDbTrace
 10
344.731805988816
 20
-28.34454566305826
 30
0.0
 11
344.731805988816
 21
-28.40454566305826
 31
0.0
 12
344.551805988816
 22
-28.37454566305826
 32
0.0
 13
344.551805988816
 23
-28.37454566305826
 33
0.0
  0
MTEXT
  5
EC
330
E5
100
AcDbEntity
  8
Hewi
 62
     0
100
AcDbMText
 10
348.5432962511904
 20
-28.37454566305826
 30
0.0
 40
0.18
 41
0.0
 71
     5
 72
     1
  1
\A1;7.9830
 73
     1
 44
1.0
1001
ACAD
1000
MTEXTBEGIN
1070
    73
1070
     1
1070
    44
1040
1.0
1070
    74
1070
     0
1000
MTEXTEND
  0
POINT
  5
ED
330
E5
100
AcDbEntity
  8
Defpoints
 62
     0
100
AcDbPoint
 10
352.5347865135648
 20
53.28442735412359
 30
0.0
  0
POINT
  5
EE
330
E5
100
AcDbEntity
  8
Defpoints
 62
     0
100
AcDbPoint
 10
344.551805988816
 20
53.28442735409797
 30
0.0
  0
POINT
  5
EF
330
E5
100
AcDbEntity
  8
Defpoints
 62
     0
100
AcDbPoint
 10
344.551805988816
 20
-28.37454566305826
 30
0.0
  0
ENDBLK
  5
F1
330
E5
100
AcDbEntity
  8
0
100
AcDbBlockEnd
  0
BLOCK
  5
104
330
FB
100
AcDbEntity
  8
0
100
AcDbBlockBegin
  2
*D5
 70
     1
 10
0.0
 20
0.0
 30
0.0
  3
*D5
  1

  0
LINE
  5
FC
330
FB
100
AcDbEntity
  8
Hewi
 62
     0
370
    -2
100
AcDbLine
 10
263.3965910137896
 20
220.9401516504976
 30
0.0
 11
263.5765910137897
 21
220.9401516504975
 31
0.0
  0
LINE
  5
FD
330
FB
100
AcDbEntity
  8
Hewi
 62
     0
370
    -2
100
AcDbLine
 10
263.5765910137897
 20
220.9401516504975
 30
0.0
 11
278.2977335022183
 21
214.3112153578431
 31
0.0
  0
MTEXT
  5
FE
330
FB
100
AcDbEntity
  8
Hewi
 62
     0
100
AcDbMText
 10
262.6765910137896
 20
220.9401516504976
 30
0.0
 40
0.18
 41
0.0
 71
     5
 72
     1
  1
\A1;R34.5677
 73
     1
 44
1.0
1001
ACAD
1000
MTEXTBEGIN
1070
    73
1070
     1
1070
    44
1040
1.0
1070
    74
1070
     0
1000
MTEXTEND
  0
SOLID
  5
FF
330
FB
100
AcDbEntity
  8
Hewi
 62
     0
100
AcDbTrace
 10
278.310051275588
 20
214.3385699270996
 30
0.0
 11
278.2854157288487
 21
214.2838607885865
 31
0.0
 12
278.4618609177579
 22
214.2373087176251
 32
0.0
 13
278.4618609177579
 23
214.2373087176251
 33
0.0
  0
LINE
  5
100
330
FB
100
AcDbEntity
  8
Hewi
 62
     0
370
    -2
100
AcDbLine
 10
309.8913649364202
 20
200.044063575136
 30
0.0
 11
310.0713649364201
 21
200.0440635751361
 31
0.0
  0
LINE
  5
101
330
FB
100
AcDbEntity
  8
Hewi
 62
     0
370
    -2
100
AcDbLine
 10
309.9813649364202
 20
199.954063575136
 30
0.0
 11
309.9813649364202
 21
200.1340635751361
 31
0.0
  0
POINT
  5
102
330
FB
100
AcDbEntity
  8
Defpoints
 62
     0
100
AcDbPoint
 10
278.4618609177579
 20
214.2373087176251
 30
0.0
  0
POINT
  5
103
330
FB
100
AcDbEntity
  8
Defpoints
 62
     0
100
AcDbPoint
 10
309.9813649364202
 20
200.0440635751361
 30
0.0
  0
ENDBLK
  5
105
330
FB
100
AcDbEntity
  8
0
100
AcDbBlockEnd
  0
BLOCK
  5
113
330
108
100
AcDbEntity
  8
0
100
AcDbBlockBegin
  2
*D6
 70
     1
 10
0.0
 20
0.0
 30
0.0
  3
*D6
  1

  0
LINE
  5
109
330
108
100
AcDbEntity
  8
Hewi
 62
     0
370
    -2
100
AcDbLine
 10
839.6133873372379
 20
157.1408871929278
 30
0.0
 11
839.6133873372379
 21
329.5433340676814
 31
0.0
  0
LINE
  5
10A
330
108
100
AcDbEntity
  8
Hewi
 62
     0
370
    -2
100
AcDbLine
 10
867.5662215257876
 20
157.1408871929287
 30
0.0
 11
867.5662215257876
 21
329.5433340676814
 31
0.0
  0
LINE
  5
10B
330
108
100
AcDbEntity
  8
Hewi
 62
     0
370
    -2
100
AcDbLine
 10
839.7933873372378
 20
329.3633340676814
 30
0.0
 11
852.9598044315127
 21
329.3633340676814
 31
0.0
  0
LINE
  5
10C
330
108
100
AcDbEntity
  8
Hewi
 62
     0
370
    -2
100
AcDbLine
 10
867.3862215257877
 20
329.3633340676814
 30
0.0
 11
854.2198044315128
 21
329.3633340676814
 31
0.0
  0
SOLID
  5
10D
330
108
100
AcDbEntity
  8
Hewi
 62
     0
100
AcDbTrace
 10
839.7933873372378
 20
329.3933340676814
 30
0.0
 11
839.7933873372378
 21
329.3333340676814
 31
0.0
 12
839.6133873372379
 22
329.3633340676814
 32
0.0
 13
839.6133873372379
 23
329.3633340676814
 33
0.0
  0
SOLID
  5
10E
330
108
100
AcDbEntity
  8
Hewi
 62
     0
100
AcDbTrace
 10
867.3862215257877
 20
329.3933340676814
 30
0.0
 11
867.3862215257877
 21
329.3333340676814
 31
0.0
 12
867.5662215257876
 22
329.3633340676814
 32
0.0
 13
867.5662215257876
 23
329.3633340676814
 33
0.0
  0
MTEXT
  5
10F
330
108
100
AcDbEntity
  8
Hewi
 62
     0
100
AcDbMText
 10
853.5898044315128
 20
329.3633340676814
 30
0.0
 40
0.18
 41
0.0
 71
     5
 72
     1
  1
\A1;27.9528
 73
     1
 44
1.0
1001
ACAD
1000
MTEXTBEGIN
1070
    73
1070
     1
1070
    44
1040
1.0
1070
    74
1070
     0
1000
MTEXTEND
  0
POINT
  5
110
330
108
100
AcDbEntity
  8
Defpoints
 62
     0
100
AcDbPoint
 10
839.6133873372379
 20
157.0783871929278
 30
0.0
  0
POINT
  5
111
330
108
100
AcDbEntity
  8
Defpoints
 62
     0
100
AcDbPoint
 10
867.5662215257876
 20
157.0783871929287
 30
0.0
  0
POINT
  5
112
330
108
100
AcDbEntity
  8
Defpoints
 62
     0
100
AcDbPoint
 10
867.5662215257876
 20
329.3633340676814
 30
0.0
  0
ENDBLK
  5
114
330
108
100
AcDbEntity
  8
0
100
AcDbBlockEnd
  0
BLOCK
  5
14E
330
143
100
AcDbEntity
  8
0
100
AcDbBlockBegin
  2
*D8
 70
     1
 10
0.0
 20
0.0
 30
0.0
  3
*D8
  1

  0
LINE
  5
144
330
143
100
AcDbEntity
  8
Hewi
 62
     0
370
    -2
100
AcDbLine
 10
2034.193827576689
 20
649.0555232725104
 30
0.0
 11
2429.736837746397
 21
649.0555232725102
 31
0.0
  0
LINE
  5
145
330
143
100
AcDbEntity
  8
Hewi
 62
     0
370
    -2
100
AcDbLine
 10
2034.193827576689
 20
543.4574859933708
 30
0.0
 11
2429.736837746397
 21
543.4574859933706
 31
0.0
  0
LINE
  5
146
330
143
100
AcDbEntity
  8
Hewi
 62
     0
370
    -2
100
AcDbLine
 10
2429.556837746398
 20
648.8755232725103
 30
0.0
 11
2429.556837746398
 21
596.4365046329404
 31
0.0
  0
LINE
  5
147
330
143
100
AcDbEntity
  8
Hewi
 62
     0
370
    -2
100
AcDbLine
 10
2429.556837746398
 20
543.6374859933706
 30
0.0
 11
2429.556837746398
 21
596.0765046329405
 31
0.0
  0
SOLID
  5
148
330
143
100
AcDbEntity
  8
Hewi
 62
     0
100
AcDbTrace
 10
2429.526837746398
 20
648.8755232725103
 30
0.0
 11
2429.586837746398
 21
648.8755232725103
 31
0.0
 12
2429.556837746398
 22
649.0555232725102
 32
0.0
 13
2429.556837746398
 23
649.0555232725102
 33
0.0
  0
SOLID
  5
149
330
143
100
AcDbEntity
  8
Hewi
 62
     0
100
AcDbTrace
 10
2429.526837746398
 20
543.6374859933706
 30
0.0
 11
2429.586837746398
 21
543.6374859933706
 31
0.0
 12
2429.556837746398
 22
543.4574859933706
 32
0.0
 13
2429.556837746398
 23
543.4574859933706
 33
0.0
  0
MTEXT
  5
14A
330
143
100
AcDbEntity
  8
Hewi
 62
     0
100
AcDbMText
 10
2429.556837746398
 20
596.2565046329409
 30
0.0
 40
0.18
 41
0.0
 71
     5
 72
     1
  1
\A1;105.5980
 73
     1
 44
1.0
1001
ACAD
1000
MTEXTBEGIN
1070
    73
1070
     1
1070
    44
1040
1.0
1070
    74
1070
     0
1000
MTEXTEND
  0
POINT
  5
14B
330
143
100
AcDbEntity
  8
Defpoints
 62
     0
100
AcDbPoint
 10
2034.131327576688
 20
649.0555232725104
 30
0.0
  0
POINT
  5
14C
330
143
100
AcDbEntity
  8
Defpoints
 62
     0
100
AcDbPoint
 10
2034.131327576688
 20
543.4574859933708
 30
0.0
  0
POINT
  5
14D
330
143
100
AcDbEntity
  8
Defpoints
 62
     0
100
AcDbPoint
 10
2429.556837746398
 20
543.4574859933706
 30
0.0
  0
ENDBLK
  5
14F
330
143
100
AcDbEntity
  8
0
100
AcDbBlockEnd
  0
ENDSEC
  0
SECTION
  2
ENTITIES
  0
LINE
  5
F2
330
1F
100
AcDbEntity
  8
Hewi
100
AcDbLine
 10
1834.131327576689
 20
-452.9637270625445
 30
0.0
 11
2234.131327576689
 21
-452.9637270625445
 31
0.0
  0
LINE
  5
F3
330
1F
100
AcDbEntity
  8
Hewi
100
AcDbLine
 10
2234.131327576689
 20
-452.9637270625445
 30
0.0
 11
2234.131327576689
 21
-52.96372706254453
 31
0.0
  0
LINE
  5
F4
330
1F
100
AcDbEntity
  8
Hewi
100
AcDbLine
 10
2234.131327576689
 20
-52.96372706254453
 30
0.0
 11
1834.131327576689
 21
-52.96372706254453
 31
0.0
  0
LINE
  5
F5
330
1F
100
AcDbEntity
  8
Hewi
100
AcDbLine
 10
1834.131327576689
 20
-52.96372706254453
 30
0.0
 11
1834.131327576689
 21
-452.9637270625445
 31
0.0
  0
LINE
  5
F6
330
1F
100
AcDbEntity
  8
Hewi
100
AcDbLine
 10
2234.131327576689
 20
-60.96372706254453
 30
0.0
 11
1834.131327576689
 21
-60.96372706254453
 31
0.0
  0
LINE
  5
F7
330
1F
100
AcDbEntity
  8
Hewi
100
AcDbLine
 10
1834.131327576689
 20
-444.9637270625445
 30
0.0
 11
2234.131327576689
 21
-444.9637270625445
 31
0.0
  0
LWPOLYLINE
  5
106
330
1F
100
AcDbEntity
  8
Hewi
100
AcDbPolyline
 90
        3
 70
     0
 43
0.0
 10
1067.553136216623
 20
584.0555232725104
 10
1067.553136216623
 20
189.0555232725104
 10
1095.553136216623
 20
189.0555232725104
  0
ARC
  5
11E
330
1F
100
AcDbEntity
  8
Hewi
100
AcDbCircle
 10
1132.553136216623
 20
584.0555232725104
 30
0.0
 40
65.0
100
AcDbArc
 50
90.0
 51
180.0
  0
ARC
  5
120
330
1F
100
AcDbEntity
  8
Hewi
100
AcDbCircle
 10
1402.553136216623
 20
584.0555232725104
 30
0.0
 40
65.0
100
AcDbArc
 50
0.0
 51
90.0
  0
LWPOLYLINE
  5
121
330
1F
100
AcDbEntity
  8
Hewi
100
AcDbPolyline
 90
        2
 70
     0
 43
0.0
 10
1402.553136216623
 20
649.0555232725104
 10
1132.553136216623
 20
649.0555232725104
  0
LWPOLYLINE
  5
123
330
1F
100
AcDbEntity
  8
Hewi
100
AcDbPolyline
 90
        2
 70
     0
 43
0.0
 10
1402.553136216623
 20
621.0555232725104
 10
1132.553136216623
 20
621.0555232725104
  0
ARC
  5
125
330
1F
100
AcDbEntity
  8
Hewi
100
AcDbCircle
 10
1402.553136216623
 20
584.0555232725104
 30
0.0
 40
37.0
100
AcDbArc
 50
0.0
 51
90.0
  0
ARC
  5
126
330
1F
100
AcDbEntity
  8
Hewi
100
AcDbCircle
 10
1132.553136216623
 20
584.0555232725104
 30
0.0
 40
37.0
100
AcDbArc
 50
90.0
 51
180.0
  0
LINE
  5
127
330
1F
100
AcDbEntity
  8
Hewi
100
AcDbLine
 10
1095.553136216623
 20
584.0555232725104
 30
0.0
 11
1095.553136216623
 21
189.0555232725104
 31
0.0
  0
LINE
  5
129
330
1F
100
AcDbEntity
  8
Hewi
100
AcDbLine
 10
1439.553136216623
 20
189.0555232725104
 30
0.0
 11
1439.553136216623
 21
584.0555232725104
 31
0.0
  0
LWPOLYLINE
  5
12A
330
1F
100
AcDbEntity
  8
Hewi
100
AcDbPolyline
 90
        3
 70
     0
 43
0.0
 10
1439.553136216623
 20
189.0555232725104
 10
1467.553136216623
 20
189.0555232725104
 10
1467.553136216623
 20
584.0555232725104
  0
LWPOLYLINE
  5
12B
330
1F
100
AcDbEntity
  8
Hewi
100
AcDbPolyline
 90
        3
 70
     0
 43
0.0
 10
2234.131327576688
 20
254.0555232725104
 10
2234.131327576688
 20
649.0555232725104
 10
2206.131327576688
 20
649.0555232725104
  0
LWPOLYLINE
  5
12C
330
1F
100
AcDbEntity
  8
Hewi
100
AcDbPolyline
 90
        3
 70
     0
 43
0.0
 10
1862.131327576688
 20
649.0555232725104
 10
1834.131327576688
 20
649.0555232725104
 10
1834.131327576688
 20
254.0555232725104
  0
LWPOLYLINE
  5
12F
330
1F
100
AcDbEntity
  8
Hewi
100
AcDbPolyline
 90
        2
 70
     0
 43
0.0
 10
1899.131327576688
 20
189.0555232725104
 10
2169.131327576689
 20
189.0555232725104
  0
ARC
  5
131
330
1F
100
AcDbEntity
  8
Hewi
100
AcDbCircle
 10
2169.131327576689
 20
254.0555232725104
 30
0.0
 40
65.0
100
AcDbArc
 50
270.0
 51
0.0
  0
ARC
  5
133
330
1F
100
AcDbEntity
  8
Hewi
100
AcDbCircle
 10
1899.131327576688
 20
254.0555232725104
 30
0.0
 40
65.0
100
AcDbArc
 50
180.0
 51
270.0
  0
LWPOLYLINE
  5
13B
330
1F
100
AcDbEntity
  8
Hewi
100
AcDbPolyline
 90
        3
 70
     0
 43
0.0
 10
1862.131327576689
 20
649.0555232725104
 10
1840.131327576688
 20
649.0555232725104
 10
1840.131327576688
 20
254.0555232725104
  0
ARC
  5
13C
330
1F
100
AcDbEntity
  8
Hewi
100
AcDbCircle
 10
1899.131327576688
 20
254.0555232725104
 30
0.0
 40
59.0
100
AcDbArc
 50
180.0
 51
270.0
  0
ARC
  5
13D
330
1F
100
AcDbEntity
  8
Hewi
100
AcDbCircle
 10
2169.131327576689
 20
254.0555232725104
 30
0.0
 40
59.0
100
AcDbArc
 50
270.0
 51
0.0
  0
LWPOLYLINE
  5
13E
330
1F
100
AcDbEntity
  8
Hewi
100
AcDbPolyline
 90
        3
 70
     0
 43
0.0
 10
2228.131327576688
 20
254.0555232725104
 10
2228.131327576688
 20
649.0555232725104
 10
2206.131327576688
 20
649.0555232725104
  0
LINE
  5
13F
330
1F
100
AcDbEntity
  8
Hewi
100
AcDbLine
 10
1899.131327576688
 20
195.0555232725104
 30
0.0
 11
2169.131327576689
 21
195.0555232725104
 31
0.0
  0
LINE
  5
140
330
1F
100
AcDbEntity
  8
Hewi
100
AcDbLine
 10
1862.131327576688
 20
649.0555232725104
 30
0.0
 11
2206.131327576688
 21
649.0555232725104
 31
0.0
  0
LINE
  5
150
330
1F
100
AcDbEntity
  8
Hewi
100
AcDbLine
 10
1840.131327576688
 20
539.0555232725104
 30
0.0
 11
2228.131327576688
 21
539.0555232725104
 31
0.0
  0
ENDSEC
  0
SECTION
  2
OBJECTS
  0
DICTIONARY
  5
C
330
0
100
AcDbDictionary
281
     1
  3
ACAD_COLOR
350
91
  3
ACAD_GROUP
350
D
  3
ACAD_LAYOUT
350
93
  3
ACAD_MATERIAL
350
8C
  3
ACAD_MLINESTYLE
350
17
  3
ACAD_PLOTSETTINGS
350
19
  3
ACAD_PLOTSTYLENAME
350
8A
  3
ACAD_TABLESTYLE
350
87
  3
ACAD_VISUALSTYLE
350
2A
  3
AcDbVariableDictionary
350
9D
  3
DWGPROPS
350
152
1001
ACAD
1000
TREAT_AS_HARD
1070
     0
  0
DICTIONARY
  5
9A
330
2
100
AcDbDictionary
280
     1
281
     1
  3
ACAD_LAYERFILTERS
360
9C
  3
ACLYDICTIONARY
360
9B
  0
DICTIONARY
  5
BF
330
1F
100
AcDbDictionary
280
     1
281
     1
  3
ACAD_SORTENTS
360
C0
  0
DICTIONARY
  5
91
102
{ACAD_REACTORS
330
C
102
}
330
C
100
AcDbDictionary
281
     1
  0
DICTIONARY
  5
D
102
{ACAD_REACTORS
330
C
102
}
330
C
100
AcDbDictionary
281
     1
1001
ACAD
1000
TREAT_AS_HARD
1070
     0
  0
DICTIONARY
  5
93
102
{ACAD_REACTORS
330
C
102
}
330
C
100
AcDbDictionary
281
     1
  3
Layout1
350
95
  3
Model
350
94
  0
DICTIONARY
  5
8C
102
{ACAD_REACTORS
330
C
102
}
330
C
100
AcDbDictionary
281
     1
  3
ByBlock
350
8E
  3
ByLayer
350
8D
  3
Global
350
8F
  0
DICTIONARY
  5
17
102
{ACAD_REACTORS
330
C
102
}
330
C
100
AcDbDictionary
281
     1
  3
STANDARD
350
18
1001
ACAD
1000
TREAT_AS_HARD
1070
     0
  0
DICTIONARY
  5
19
102
{ACAD_REACTORS
330
C
102
}
330
C
100
AcDbDictionary
281
     1
1001
ACAD
1000
TREAT_AS_HARD
1070
     0
  0
ACDBDICTIONARYWDFLT
  5
8A
102
{ACAD_REACTORS
330
C
102
}
330
C
100
AcDbDictionary
281
     1
  3
Normal
350
8B
100
AcDbDictionaryWithDefault
340
8B
  0
DICTIONARY
  5
87
102
{ACAD_REACTORS
330
C
102
}
330
C
100
AcDbDictionary
281
     1
  3
Standard
350
92
1001
ACAD
1000
TREAT_AS_HARD
1070
     0
  0
DICTIONARY
  5
2A
102
{ACAD_REACTORS
330
C
102
}
330
C
100
AcDbDictionary
281
     1
  3
2DWIREFRAME
350
2F
  3
3D Hidden
350
90
  3
3D_HIDDEN
350
31
  3
3DWIREFRAME
350
30
  3
BASIC
350
32
  3
BRIGHTEN
350
36
  3
COLORCHANGE
350
3A
  3
CONCEPTUAL
350
34
  3
DIM
350
35
  3
FACEPATTERN
350
39
  3
FLAT
350
2B
  3
FLATWITHEDGES
350
2C
  3
GOURAUD
350
2D
  3
GOURAUDWITHEDGES
350
2E
  3
LINEPATTERN
350
38
  3
REALISTIC
350
33
  3
THICKEN
350
37
1001
ACAD
1000
TREAT_AS_HARD
1070
     0
  0
DICTIONARY
  5
9D
102
{ACAD_REACTORS
330
C
102
}
330
C
100
AcDbDictionary
281
     1
  3
CTABLESTYLE
350
9E
  3
DIMASSOC
350
A1
  3
INDEXCTL
350
A0
  3
SORTENTS
350
9F
  0
XRECORD
  5
152
102
{ACAD_REACTORS
330
C
102
}
330
C
100
AcDbXrecord
280
     1
  1
DWGPROPS COOKIE
  2

  3

  4

  6

  7

  8
kaschu
  9

300
=
301
=
302
=
303
=
304
=
305
=
306
=
307
=
308
=
309
=
 40
0.0084629513888889
 41
2454858.677077315
 42
2455245.342691563
  1

 90
        0
  0
DICTIONARY
  5
9C
102
{ACAD_REACTORS
330
9A
102
}
330
9A
100
AcDbDictionary
281
     1
  0
DICTIONARY
  5
9B
102
{ACAD_REACTORS
330
9A
102
}
330
9A
100
AcDbDictionary
281
     1
1001
ACAD
1000
<All
  0
SORTENTSTABLE
  5
C0
102
{ACAD_REACTORS
330
BF
102
}
330
BF
100
AcDbSortentsTable
330
1F
331
13B
  5
131
331
12B
  5
12B
331
106
  5
106
331
131
  5
135
331
F5
  5
F5
331
13F
  5
13E
331
121
  5
125
331
12F
  5
133
331
F2
  5
D5
331
13C
  5
13C
331
11E
  5
127
331
12C
  5
12F
331
125
  5
12A
331
150
  5
150
331
F6
  5
F4
331
140
  5
140
331
129
  5
123
331
13D
  5
13A
331
F3
  5
F2
331
126
  5
128
331
133
  5
13B
331
F7
  5
E4
331
123
  5
126
331
12A
  5
11D
331
13E
  5
12C
331
F4
  5
F3
331
120
  5
129
331
127
  5
11E
  0
LAYOUT
  5
95
102
{ACAD_XDICTIONARY
360
157
102
}
102
{ACAD_REACTORS
330
93
102
}
330
93
100
AcDbPlotSettings
  1

  2
\\druckserv1\AROBBE04
  4

  6

 40
0.0
 41
0.0
 42
0.0
 43
0.0
 44
0.0
 45
0.0
 46
0.0
 47
0.0
 48
0.0
 49
0.0
140
0.0
141
0.0
142
1.0
143
1.0
 70
   688
 72
     0
 73
     0
 74
     5
  7

 75
    16
147
1.0
148
0.0
149
0.0
100
AcDbLayout
  1
Layout1
 70
     1
 71
     1
 10
0.0
 20
0.0
 11
12.0
 21
9.0
 12
0.0
 22
0.0
 32
0.0
 14
1.000000000000000E+20
 24
1.000000000000000E+20
 34
1.000000000000000E+20
 15
-1.000000000000000E+20
 25
-1.000000000000000E+20
 35
-1.000000000000000E+20
146
0.0
 13
0.0
 23
0.0
 33
0.0
 16
1.0
 26
0.0
 36
0.0
 17
0.0
 27
1.0
 37
0.0
 76
     0
330
1B
  0
LAYOUT
  5
94
102
{ACAD_XDICTIONARY
360
155
102
}
102
{ACAD_REACTORS
330
93
102
}
330
93
100
AcDbPlotSettings
  1

  2
\\druckserv1\AROBBE04
  4

  6

 40
0.0
 41
0.0
 42
0.0
 43
0.0
 44
0.0
 45
0.0
 46
0.0
 47
0.0
 48
0.0
 49
0.0
140
0.0
141
0.0
142
1.0
143
1.0
 70
  1712
 72
     0
 73
     0
 74
     0
  7

 75
     0
147
1.0
148
0.0
149
0.0
100
AcDbLayout
  1
Model
 70
     1
 71
     0
 10
0.0
 20
0.0
 11
12.0
 21
9.0
 12
0.0
 22
0.0
 32
0.0
 14
0.0
 24
0.0
 34
0.0
 15
0.0
 25
0.0
 35
0.0
146
0.0
 13
0.0
 23
0.0
 33
0.0
 16
1.0
 26
0.0
 36
0.0
 17
0.0
 27
1.0
 37
0.0
 76
     0
330
1F
331
29
  0
MATERIAL
  5
8E
102
{ACAD_XDICTIONARY
360
A5
102
}
102
{ACAD_REACTORS
330
8C
102
}
330
8C
100
AcDbMaterial
  1
ByBlock
  0
MATERIAL
  5
8D
102
{ACAD_XDICTIONARY
360
A3
102
}
102
{ACAD_REACTORS
330
8C
102
}
330
8C
100
AcDbMaterial
  1
ByLayer
  0
MATERIAL
  5
8F
102
{ACAD_XDICTIONARY
360
A7
102
}
102
{ACAD_REACTORS
330
8C
102
}
330
8C
100
AcDbMaterial
  1
Global
  0
MLINESTYLE
  5
18
102
{ACAD_REACTORS
330
17
102
}
330
17
100
AcDbMlineStyle
  2
STANDARD
 70
     0
  3

 62
   256
 51
90.0
 52
90.0
 71
     2
 49
0.5
 62
   256
  6
BYLAYER
 49
-0.5
 62
   256
  6
BYLAYER
  0
ACDBPLACEHOLDER
  5
8B
102
{ACAD_REACTORS
330
8A
102
}
330
8A
  0
TABLESTYLE
  5
92
102
{ACAD_XDICTIONARY
360
153
102
}
102
{ACAD_REACTORS
330
87
102
}
330
87
100
AcDbTableStyle
  3
Standard
 70
     0
 71
     0
 40
0.06
 41
0.06
280
     0
281
     0
  7
STANDARD
140
0.18
170
     2
 62
     0
 63
     7
283
     0
274
    -2
284
     1
 64
     0
275
    -2
285
     1
 65
     0
276
    -2
286
     1
 66
     0
277
    -2
287
     1
 67
     0
278
    -2
288
     1
 68
     0
279
    -2
289
     1
 69
     0
  7
STANDARD
140
0.25
170
     5
 62
     0
 63
     7
283
     0
274
    -2
284
     1
 64
     0
275
    -2
285
     1
 65
     0
276
    -2
286
     1
 66
     0
277
    -2
287
     1
 67
     0
278
    -2
288
     1
 68
     0
279
    -2
289
     1
 69
     0
  7
STANDARD
140
0.18
170
     5
 62
     0
 63
     7
283
     0
274
    -2
284
     1
 64
     0
275
    -2
285
     1
 65
     0
276
    -2
286
     1
 66
     0
277
    -2
287
     1
 67
     0
278
    -2
288
     1
 68
     0
279
    -2
289
     1
 69
     0
  0
VISUALSTYLE
  5
2F
102
{ACAD_REACTORS
330
2A
102
}
330
2A
100
AcDbVisualStyle
  2
2dWireframe
 70
     4
 71
     0
 72
     2
 73
     0
 90
        0
 40
-0.6
 41
-30.0
 62
     5
 63
     7
 74
     1
 91
        4
 64
     7
 65
   257
 75
     1
175
     1
 42
1.0
 92
        0
 66
   257
 43
1.0
 76
     1
 77
     6
 78
     2
 67
     7
 79
     5
170
     0
171
     0
290
     0
174
     0
 93
        1
 44
0.0
173
     0
291
     0
 45
0.0
1001
ACAD
1000
AcDbSavedByObjectVersion
1070
     0
1000
AcDbSavedByObjectVersion
1070
     0
  0
VISUALSTYLE
  5
90
102
{ACAD_REACTORS
330
2A
102
}
330
2A
100
AcDbVisualStyle
  2
3D Hidden
 70
     6
 71
     1
 72
     2
 73
     2
 90
        0
 40
-0.6
 41
-30.0
 62
     5
 63
     7
 74
     2
 91
        2
 64
     7
 65
   257
 75
     2
175
     1
 42
40.0
 92
        0
 66
   257
 43
1.0
 76
     1
 77
     6
 78
     2
 67
     7
 79
     3
170
     0
171
     0
290
     0
174
     0
 93
        1
 44
0.0
173
     0
291
     0
 45
0.0
1001
ACAD
1000
AcDbSavedByObjectVersion
1070
     0
  0
VISUALSTYLE
  5
31
102
{ACAD_REACTORS
330
2A
102
}
330
2A
100
AcDbVisualStyle
  2
3D Hidden
 70
     6
 71
     1
 72
     2
 73
     2
 90
        0
 40
-0.6
 41
-30.0
 62
     5
 63
     7
 74
     2
 91
        2
 64
     7
 65
   257
 75
     2
175
     1
 42
40.0
 92
        0
 66
   257
 43
1.0
 76
     1
 77
     6
 78
     2
 67
     7
 79
     3
170
     0
171
     0
290
     0
174
     0
 93
        1
 44
0.0
173
     0
291
     0
 45
0.0
1001
ACAD
1000
AcDbSavedByObjectVersion
1070
     0
1000
AcDbSavedByObjectVersion
1070
     0
  0
VISUALSTYLE
  5
30
102
{ACAD_REACTORS
330
2A
102
}
330
2A
100
AcDbVisualStyle
  2
3dWireframe
 70
     5
 71
     0
 72
     2
 73
     0
 90
        0
 40
-0.6
 41
-30.0
 62
     5
 63
     7
 74
     1
 91
        4
 64
     7
 65
   257
 75
     1
175
     1
 42
1.0
 92
        0
 66
   257
 43
1.0
 76
     1
 77
     6
 78
     2
 67
     7
 79
     5
170
     0
171
     0
290
     0
174
     0
 93
        1
 44
0.0
173
     0
291
     0
 45
0.0
1001
ACAD
1000
AcDbSavedByObjectVersion
1070
     0
1000
AcDbSavedByObjectVersion
1070
     0
  0
VISUALSTYLE
  5
32
102
{ACAD_REACTORS
330
2A
102
}
330
2A
100
AcDbVisualStyle
  2
Basic
 70
     7
 71
     1
 72
     0
 73
     1
 90
        0
 40
-0.6
 41
-30.0
 62
     5
 63
     7
 74
     0
 91
        4
 64
     7
 65
   257
 75
     1
175
     1
 42
1.0
 92
        8
 66
     7
 43
1.0
 76
     1
 77
     6
 78
     2
 67
     7
 79
     5
170
     0
171
     0
290
     0
174
     0
 93
        1
 44
0.0
173
     0
291
     1
 45
0.0
1001
ACAD
1000
AcDbSavedByObjectVersion
1070
     0
1000
AcDbSavedByObjectVersion
1070
     0
  0
VISUALSTYLE
  5
36
102
{ACAD_REACTORS
330
2A
102
}
330
2A
100
AcDbVisualStyle
  2
Brighten
 70
    12
 71
     2
 72
     2
 73
     0
 90
        0
 40
-0.6
 41
-30.0
 62
     5
 63
     7
 74
     1
 91
        4
 64
     7
 65
   257
 75
     1
175
     1
 42
1.0
 92
        8
 66
     7
 43
1.0
 76
     1
 77
     6
 78
     2
 67
     7
 79
     5
170
     0
171
     0
290
     0
174
     0
 93
        1
 44
50.0
173
     0
291
     1
 45
0.0
1001
ACAD
1000
AcDbSavedByObjectVersion
1070
     0
1000
AcDbSavedByObjectVersion
1070
     0
  0
VISUALSTYLE
  5
3A
102
{ACAD_REACTORS
330
2A
102
}
330
2A
100
AcDbVisualStyle
  2
ColorChange
 70
    16
 71
     2
 72
     2
 73
     3
 90
        0
 40
-0.6
 41
-30.0
 62
     5
 63
     8
 74
     1
 91
        4
 64
     7
 65
   257
 75
     1
175
     1
 42
1.0
 92
        8
 66
     8
 43
1.0
 76
     1
 77
     6
 78
     2
 67
     7
 79
     5
170
     0
171
     0
290
     0
174
     0
 93
        1
 44
0.0
173
     0
291
     1
 45
0.0
1001
ACAD
1000
AcDbSavedByObjectVersion
1070
     0
1000
AcDbSavedByObjectVersion
1070
     0
  0
VISUALSTYLE
  5
34
102
{ACAD_REACTORS
330
2A
102
}
330
2A
100
AcDbVisualStyle
  2
Conceptual
 70
     9
 71
     3
 72
     2
 73
     0
 90
        0
 40
-0.6
 41
-30.0
 62
     5
 63
     7
 74
     2
 91
        2
 64
     7
 65
   257
 75
     1
175
     1
 42
40.0
 92
        8
 66
     7
 43
1.0
 76
     1
 77
     6
 78
     2
 67
     7
 79
     3
170
     0
171
     0
290
     0
174
     0
 93
        1
 44
0.0
173
     0
291
     0
 45
0.0
1001
ACAD
1000
AcDbSavedByObjectVersion
1070
     0
1000
AcDbSavedByObjectVersion
1070
     0
  0
VISUALSTYLE
  5
35
102
{ACAD_REACTORS
330
2A
102
}
330
2A
100
AcDbVisualStyle
  2
Dim
 70
    11
 71
     2
 72
     2
 73
     0
 90
        0
 40
-0.6
 41
-30.0
 62
     5
 63
     7
 74
     1
 91
        4
 64
     7
 65
   257
 75
     1
175
     1
 42
1.0
 92
        8
 66
     7
 43
1.0
 76
     1
 77
     6
 78
     2
 67
     7
 79
     5
170
     0
171
     0
290
     0
174
     0
 93
        1
 44
-50.0
173
     0
291
     1
 45
0.0
1001
ACAD
1000
AcDbSavedByObjectVersion
1070
     0
1000
AcDbSavedByObjectVersion
1070
     0
  0
VISUALSTYLE
  5
39
102
{ACAD_REACTORS
330
2A
102
}
330
2A
100
AcDbVisualStyle
  2
Facepattern
 70
    15
 71
     2
 72
     2
 73
     0
 90
        0
 40
-0.6
 41
-30.0
 62
     5
 63
     7
 74
     1
 91
        4
 64
     7
 65
   257
 75
     1
175
     1
 42
1.0
 92
        8
 66
     7
 43
1.0
 76
     1
 77
     6
 78
     2
 67
     7
 79
     5
170
     0
171
     0
290
     0
174
     0
 93
        1
 44
0.0
173
     0
291
     1
 45
0.0
1001
ACAD
1000
AcDbSavedByObjectVersion
1070
     0
1000
AcDbSavedByObjectVersion
1070
     0
  0
VISUALSTYLE
  5
2B
102
{ACAD_REACTORS
330
2A
102
}
330
2A
100
AcDbVisualStyle
  2
Flat
 70
     0
 71
     2
 72
     1
 73
     1
 90
        2
 40
-0.6
 41
30.0
 62
     5
 63
     7
 74
     0
 91
        4
 64
     7
 65
   257
 75
     1
175
     1
 42
1.0
 92
        8
 66
     7
 43
1.0
 76
     1
 77
     6
 78
     2
 67
     7
 79
     5
170
     0
171
     0
290
     0
174
     0
 93
       13
 44
0.0
173
     0
291
     1
 45
0.0
1001
ACAD
1000
AcDbSavedByObjectVersion
1070
     0
1000
AcDbSavedByObjectVersion
1070
     0
  0
VISUALSTYLE
  5
2C
102
{ACAD_REACTORS
330
2A
102
}
330
2A
100
AcDbVisualStyle
  2
FlatWithEdges
 70
     1
 71
     2
 72
     1
 73
     1
 90
        2
 40
-0.6
 41
30.0
 62
     5
 63
     7
 74
     1
 91
        4
 64
     7
 65
   257
 75
     1
175
     1
 42
1.0
 92
        0
 66
   257
 43
1.0
 76
     1
 77
     6
 78
     2
 67
     7
 79
     5
170
     0
171
     0
290
     0
174
     0
 93
       13
 44
0.0
173
     0
291
     1
 45
0.0
1001
ACAD
1000
AcDbSavedByObjectVersion
1070
     0
1000
AcDbSavedByObjectVersion
1070
     0
  0
VISUALSTYLE
  5
2D
102
{ACAD_REACTORS
330
2A
102
}
330
2A
100
AcDbVisualStyle
  2
Gouraud
 70
     2
 71
     2
 72
     2
 73
     1
 90
        2
 40
-0.6
 41
30.0
 62
     5
 63
     7
 74
     0
 91
        4
 64
     7
 65
   257
 75
     1
175
     1
 42
1.0
 92
        0
 66
     7
 43
1.0
 76
     1
 77
     6
 78
     2
 67
     7
 79
     5
170
     0
171
     0
290
     0
174
     0
 93
       13
 44
0.0
173
     0
291
     1
 45
0.0
1001
ACAD
1000
AcDbSavedByObjectVersion
1070
     0
1000
AcDbSavedByObjectVersion
1070
     0
  0
VISUALSTYLE
  5
2E
102
{ACAD_REACTORS
330
2A
102
}
330
2A
100
AcDbVisualStyle
  2
GouraudWithEdges
 70
     3
 71
     2
 72
     2
 73
     1
 90
        2
 40
-0.6
 41
30.0
 62
     5
 63
     7
 74
     1
 91
        4
 64
     7
 65
   257
 75
     1
175
     1
 42
1.0
 92
        0
 66
   257
 43
1.0
 76
     1
 77
     6
 78
     2
 67
     7
 79
     5
170
     0
171
     0
290
     0
174
     0
 93
       13
 44
0.0
173
     0
291
     1
 45
0.0
1001
ACAD
1000
AcDbSavedByObjectVersion
1070
     0
1000
AcDbSavedByObjectVersion
1070
     0
  0
VISUALSTYLE
  5
38
102
{ACAD_REACTORS
330
2A
102
}
330
2A
100
AcDbVisualStyle
  2
Linepattern
 70
    14
 71
     2
 72
     2
 73
     0
 90
        0
 40
-0.6
 41
-30.0
 62
     5
 63
     7
 74
     1
 91
        4
 64
     7
 65
   257
 75
     7
175
     7
 42
1.0
 92
        8
 66
     7
 43
1.0
 76
     1
 77
     6
 78
     2
 67
     7
 79
     5
170
     0
171
     0
290
     0
174
     0
 93
        1
 44
0.0
173
     0
291
     1
 45
0.0
1001
ACAD
1000
AcDbSavedByObjectVersion
1070
     0
1000
AcDbSavedByObjectVersion
1070
     0
  0
VISUALSTYLE
  5
33
102
{ACAD_REACTORS
330
2A
102
}
330
2A
100
AcDbVisualStyle
  2
Realistic
 70
     8
 71
     2
 72
     2
 73
     0
 90
        0
 40
-0.6
 41
-30.0
 62
     5
 63
     7
 74
     1
 91
        0
 64
     7
 65
   257
 75
     1
175
     1
 42
1.0
 92
        8
 66
     8
 43
1.0
 76
     1
 77
     6
 78
     2
 67
     7
 79
     5
170
     0
171
     0
290
     0
174
     0
 93
       13
 44
0.0
173
     0
291
     0
 45
0.0
1001
ACAD
1000
AcDbSavedByObjectVersion
1070
     0
1000
AcDbSavedByObjectVersion
1070
     0
  0
VISUALSTYLE
  5
37
102
{ACAD_REACTORS
330
2A
102
}
330
2A
100
AcDbVisualStyle
  2
Thicken
 70
    13
 71
     2
 72
     2
 73
     0
 90
        0
 40
-0.6
 41
-30.0
 62
     5
 63
     7
 74
     1
 91
        4
 64
     7
 65
   257
 75
     1
175
     1
 42
1.0
 92
       12
 66
     7
 43
1.0
 76
     1
 77
     6
 78
     2
 67
     7
 79
     5
170
     0
171
     0
290
     0
174
     0
 93
        1
 44
0.0
173
     0
291
     1
 45
0.0
1001
ACAD
1000
AcDbSavedByObjectVersion
1070
     0
1000
AcDbSavedByObjectVersion
1070
     0
  0
DICTIONARYVAR
  5
9E
102
{ACAD_REACTORS
330
9D
102
}
330
9D
100
DictionaryVariables
280
     0
  1
STANDARD
  0
DICTIONARYVAR
  5
A1
102
{ACAD_REACTORS
330
9D
102
}
330
9D
100
DictionaryVariables
280
     0
  1
1
  0
DICTIONARYVAR
  5
A0
102
{ACAD_REACTORS
330
9D
102
}
330
9D
100
DictionaryVariables
280
     0
  1
0
  0
DICTIONARYVAR
  5
9F
102
{ACAD_REACTORS
330
9D
102
}
330
9D
100
DictionaryVariables
280
     0
  1
127
  0
DICTIONARY
  5
157
330
95
100
AcDbDictionary
280
     1
281
     1
  3
ACAD_XREC_ROUNDTRIP
360
158
  0
DICTIONARY
  5
155
330
94
100
AcDbDictionary
280
     1
281
     1
  3
ACAD_XREC_ROUNDTRIP
360
156
  0
DICTIONARY
  5
A5
330
8E
100
AcDbDictionary
280
     1
281
     1
  3
ACAD_XREC_ROUNDTRIP
360
A6
  0
DICTIONARY
  5
A3
330
8D
100
AcDbDictionary
280
     1
281
     1
  3
ACAD_XREC_ROUNDTRIP
360
A4
  0
DICTIONARY
  5
A7
330
8F
100
AcDbDictionary
280
     1
281
     1
  3
ACAD_XREC_ROUNDTRIP
360
A8
  0
DICTIONARY
  5
153
330
92
100
AcDbDictionary
280
     1
281
     1
  3
ACAD_XREC_ROUNDTRIP
360
154
  0
XRECORD
  5
158
102
{ACAD_REACTORS
330
157
102
}
330
157
100
AcDbXrecord
280
     1
102
SHADEPLOT
 70
     0
102
SHADEPLOTRESLEVEL
 70
     2
102
SHADEPLOTCUSTOMDPI
 70
   300
  0
XRECORD
  5
156
102
{ACAD_REACTORS
330
155
102
}
330
155
100
AcDbXrecord
280
     1
102
SHADEPLOT
 70
     0
102
SHADEPLOTRESLEVEL
 70
     2
102
SHADEPLOTCUSTOMDPI
 70
   300
  0
XRECORD
  5
A6
102
{ACAD_REACTORS
330
A5
102
}
330
A5
100
AcDbXrecord
280
     1
102
MATERIAL
148
0.0
149
0.0
149
0.0
 93
        0
 94
       63
282
     0
 72
     1
 77
     1
171
     1
175
     1
179
     1
273
     0
  0
XRECORD
  5
A4
102
{ACAD_REACTORS
330
A3
102
}
330
A3
100
AcDbXrecord
280
     1
102
MATERIAL
148
0.0
149
0.0
149
0.0
 93
        0
 94
       63
282
     0
 72
     1
 77
     1
171
     1
175
     1
179
     1
273
     0
  0
XRECORD
  5
A8
102
{ACAD_REACTORS
330
A7
102
}
330
A7
100
AcDbXrecord
280
     1
102
MATERIAL
148
0.0
149
0.0
149
0.0
 93
        0
 94
       63
282
     0
 72
     1
 77
     1
171
     1
175
     1
179
     1
273
     0
  0
XRECORD
  5
154
102
{ACAD_REACTORS
330
153
102
}
330
153
100
AcDbXrecord
280
     1
102
ACAD_ROUNDTRIP_PRE2007_TABLESTYLE
 90
      512
 91
        0
  1

 92
      512
 93
        0
  2

 94
      512
 95
        0
  3

  0
ENDSEC
  0
EOF
