  0
SECTION
  2
HEADER
  9
$ACADVER
  1
AC1027
  9
$ACADMAINTVER
 70
   125
  9
$DWGCODEPAGE
  3
ANSI_1252
  9
$LASTSAVEDBY
  1
kaschu
  9
$REQUIREDVERSIONS
160
                 0
  9
$INSBASE
 10
0.0
 20
0.0
 30
0.0
  9
$EXTMIN
 10
-94.21090036567466
 20
-231.0354117447255
 30
0.0
  9
$EXTMAX
 10
3322.407640519596
 20
1683.641107601611
 30
0.0
  9
$LIMMIN
 10
0.0
 20
0.0
  9
$LIMMAX
 10
420.0
 20
297.0
  9
$ORTHOMODE
 70
     1
  9
$REGENMODE
 70
     1
  9
$FILLMODE
 70
     1
  9
$QTEXTMODE
 70
     0
  9
$MIRRTEXT
 70
     1
  9
$LTSCALE
 40
1.0
  9
$ATTMODE
 70
     1
  9
$TEXTSIZE
 40
2.5
  9
$TRACEWID
 40
1.0
  9
$TEXTSTYLE
  7
Standard
  9
$CLAYER
  8
0
  9
$CELTYPE
  6
ByLayer
  9
$CECOLOR
 62
   256
  9
$CELTSCALE
 40
1.0
  9
$DISPSILH
 70
     0
  9
$DIMSCALE
 40
1.0
  9
$DIMASZ
 40
2.5
  9
$DIMEXO
 40
0.625
  9
$DIMDLI
 40
3.75
  9
$DIMRND
 40
0.0
  9
$DIMDLE
 40
0.0
  9
$DIMEXE
 40
1.25
  9
$DIMTP
 40
0.0
  9
$DIMTM
 40
0.0
  9
$DIMTXT
 40
2.5
  9
$DIMCEN
 40
2.5
  9
$DIMTSZ
 40
0.0
  9
$DIMTOL
 70
     0
  9
$DIMLIM
 70
     0
  9
$DIMTIH
 70
     0
  9
$DIMTOH
 70
     0
  9
$DIMSE1
 70
     0
  9
$DIMSE2
 70
     0
  9
$DIMTAD
 70
     1
  9
$DIMZIN
 70
     8
  9
$DIMBLK
  1

  9
$DIMASO
 70
     1
  9
$DIMSHO
 70
     1
  9
$DIMPOST
  1

  9
$DIMAPOST
  1

  9
$DIMALT
 70
     0
  9
$DIMALTD
 70
     3
  9
$DIMALTF
 40
0.03937007874016
  9
$DIMLFAC
 40
1.0
  9
$DIMTOFL
 70
     1
  9
$DIMTVP
 40
0.0
  9
$DIMTIX
 70
     0
  9
$DIMSOXD
 70
     0
  9
$DIMSAH
 70
     0
  9
$DIMBLK1
  1

  9
$DIMBLK2
  1

  9
$DIMSTYLE
  2
ISO-25
  9
$DIMCLRD
 70
     0
  9
$DIMCLRE
 70
     0
  9
$DIMCLRT
 70
     0
  9
$DIMTFAC
 40
1.0
  9
$DIMGAP
 40
0.625
  9
$DIMJUST
 70
     0
  9
$DIMSD1
 70
     0
  9
$DIMSD2
 70
     0
  9
$DIMTOLJ
 70
     0
  9
$DIMTZIN
 70
     8
  9
$DIMALTZ
 70
     0
  9
$DIMALTTZ
 70
     0
  9
$DIMUPT
 70
     0
  9
$DIMDEC
 70
     2
  9
$DIMTDEC
 70
     2
  9
$DIMALTU
 70
     2
  9
$DIMALTTD
 70
     3
  9
$DIMTXSTY
  7
Standard
  9
$DIMAUNIT
 70
     0
  9
$DIMADEC
 70
     0
  9
$DIMALTRND
 40
0.0
  9
$DIMAZIN
 70
     0
  9
$DIMDSEP
 70
    44
  9
$DIMATFIT
 70
     3
  9
$DIMFRAC
 70
     0
  9
$DIMLDRBLK
  1

  9
$DIMLUNIT
 70
     2
  9
$DIMLWD
 70
    -2
  9
$DIMLWE
 70
    -2
  9
$DIMTMOVE
 70
     0
  9
$DIMFXL
 40
1.0
  9
$DIMFXLON
 70
     0
  9
$DIMJOGANG
 40
0.7853981633974483
  9
$DIMTFILL
 70
     0
  9
$DIMTFILLCLR
 70
     0
  9
$DIMARCSYM
 70
     0
  9
$DIMLTYPE
  6

  9
$DIMLTEX1
  6

  9
$DIMLTEX2
  6

  9
$DIMTXTDIRECTION
 70
     0
  9
$LUNITS
 70
     2
  9
$LUPREC
 70
     4
  9
$SKETCHINC
 40
1.0
  9
$FILLETRAD
 40
10.0
  9
$AUNITS
 70
     0
  9
$AUPREC
 70
     0
  9
$MENU
  1
.
  9
$ELEVATION
 40
0.0
  9
$PELEVATION
 40
0.0
  9
$THICKNESS
 40
0.0
  9
$LIMCHECK
 70
     0
  9
$CHAMFERA
 40
0.0
  9
$CHAMFERB
 40
0.0
  9
$CHAMFERC
 40
0.0
  9
$CHAMFERD
 40
0.0
  9
$SKPOLY
 70
     0
  9
$TDCREATE
 40
2459101.383553241
  9
$TDUCREATE
 40
2459101.300230416
  9
$TDUPDATE
 40
2459101.387245371
  9
$TDUUPDATE
 40
2459101.303912037
  9
$TDINDWG
 40
0.0029976968
  9
$TDUSRTIMER
 40
0.0029976968
  9
$USRTIMER
 70
     1
  9
$ANGBASE
 50
0.0
  9
$ANGDIR
 70
     0
  9
$PDMODE
 70
     0
  9
$PDSIZE
 40
0.0
  9
$PLINEWID
 40
0.0
  9
$SPLFRAME
 70
     0
  9
$SPLINETYPE
 70
     6
  9
$SPLINESEGS
 70
     8
  9
$HANDSEED
  5
207
  9
$SURFTAB1
 70
     6
  9
$SURFTAB2
 70
     6
  9
$SURFTYPE
 70
     6
  9
$SURFU
 70
     6
  9
$SURFV
 70
     6
  9
$UCSBASE
  2

  9
$UCSNAME
  2

  9
$UCSORG
 10
0.0
 20
0.0
 30
0.0
  9
$UCSXDIR
 10
1.0
 20
0.0
 30
0.0
  9
$UCSYDIR
 10
0.0
 20
1.0
 30
0.0
  9
$UCSORTHOREF
  2

  9
$UCSORTHOVIEW
 70
     0
  9
$UCSORGTOP
 10
0.0
 20
0.0
 30
0.0
  9
$UCSORGBOTTOM
 10
0.0
 20
0.0
 30
0.0
  9
$UCSORGLEFT
 10
0.0
 20
0.0
 30
0.0
  9
$UCSORGRIGHT
 10
0.0
 20
0.0
 30
0.0
  9
$UCSORGFRONT
 10
0.0
 20
0.0
 30
0.0
  9
$UCSORGBACK
 10
0.0
 20
0.0
 30
0.0
  9
$PUCSBASE
  2

  9
$PUCSNAME
  2

  9
$PUCSORG
 10
0.0
 20
0.0
 30
0.0
  9
$PUCSXDIR
 10
1.0
 20
0.0
 30
0.0
  9
$PUCSYDIR
 10
0.0
 20
1.0
 30
0.0
  9
$PUCSORTHOREF
  2

  9
$PUCSORTHOVIEW
 70
     0
  9
$PUCSORGTOP
 10
0.0
 20
0.0
 30
0.0
  9
$PUCSORGBOTTOM
 10
0.0
 20
0.0
 30
0.0
  9
$PUCSORGLEFT
 10
0.0
 20
0.0
 30
0.0
  9
$PUCSORGRIGHT
 10
0.0
 20
0.0
 30
0.0
  9
$PUCSORGFRONT
 10
0.0
 20
0.0
 30
0.0
  9
$PUCSORGBACK
 10
0.0
 20
0.0
 30
0.0
  9
$USERI1
 70
     0
  9
$USERI2
 70
     0
  9
$USERI3
 70
     0
  9
$USERI4
 70
     0
  9
$USERI5
 70
     0
  9
$USERR1
 40
0.0
  9
$USERR2
 40
0.0
  9
$USERR3
 40
0.0
  9
$USERR4
 40
0.0
  9
$USERR5
 40
0.0
  9
$WORLDVIEW
 70
     1
  9
$SHADEDGE
 70
     3
  9
$SHADEDIF
 70
    70
  9
$TILEMODE
 70
     1
  9
$MAXACTVP
 70
    64
  9
$PINSBASE
 10
0.0
 20
0.0
 30
0.0
  9
$PLIMCHECK
 70
     0
  9
$PEXTMIN
 10
1.000000000000000E+20
 20
1.000000000000000E+20
 30
1.000000000000000E+20
  9
$PEXTMAX
 10
-1.000000000000000E+20
 20
-1.000000000000000E+20
 30
-1.000000000000000E+20
  9
$PLIMMIN
 10
0.0
 20
0.0
  9
$PLIMMAX
 10
420.0
 20
297.0
  9
$UNITMODE
 70
     0
  9
$VISRETAIN
 70
     1
  9
$PLINEGEN
 70
     0
  9
$PSLTSCALE
 70
     1
  9
$TREEDEPTH
 70
  3020
  9
$CMLSTYLE
  2
Standard
  9
$CMLJUST
 70
     0
  9
$CMLSCALE
 40
20.0
  9
$PROXYGRAPHICS
 70
     1
  9
$MEASUREMENT
 70
     1
  9
$CELWEIGHT
370
    -1
  9
$ENDCAPS
280
     0
  9
$JOINSTYLE
280
     0
  9
$LWDISPLAY
290
     0
  9
$INSUNITS
 70
     5
  9
$HYPERLINKBASE
  1

  9
$STYLESHEET
  1

  9
$XEDIT
290
     1
  9
$CEPSNTYPE
380
     0
  9
$PSTYLEMODE
290
     1
  9
$FINGERPRINTGUID
  2
{d8f46f35-5462-4c04-8f81-b28550d994f5}
  9
$VERSIONGUID
  2
{C56BA41F-3063-BA49-A07A-425BCBA276B1}
  9
$EXTNAMES
290
     1
  9
$PSVPSCALE
 40
0.0
  9
$OLESTARTUP
290
     0
  9
$SORTENTS
280
   127
  9
$INDEXCTL
280
     0
  9
$HIDETEXT
280
     1
  9
$XCLIPFRAME
280
     2
  9
$HALOGAP
280
     0
  9
$OBSCOLOR
 70
   257
  9
$OBSLTYPE
280
     0
  9
$INTERSECTIONDISPLAY
280
     0
  9
$INTERSECTIONCOLOR
 70
   257
  9
$DIMASSOC
280
     2
  9
$PROJECTNAME
  1

  9
$CAMERADISPLAY
290
     0
  9
$LENSLENGTH
 40
50.0
  9
$CAMERAHEIGHT
 40
0.0
  9
$STEPSPERSEC
 40
2.0
  9
$STEPSIZE
 40
6.0
  9
$3DDWFPREC
 40
2.0
  9
$PSOLWIDTH
 40
5.0
  9
$PSOLHEIGHT
 40
80.0
  9
$LOFTANG1
 40
1.570796326794896
  9
$LOFTANG2
 40
1.570796326794896
  9
$LOFTMAG1
 40
0.0
  9
$LOFTMAG2
 40
0.0
  9
$LOFTPARAM
 70
     7
  9
$LOFTNORMALS
280
     1
  9
$LATITUDE
 40
37.795
  9
$LONGITUDE
 40
-122.394
  9
$NORTHDIRECTION
 40
0.0
  9
$TIMEZONE
 70
 -8000
  9
$LIGHTGLYPHDISPLAY
280
     1
  9
$TILEMODELIGHTSYNCH
280
     1
  9
$CMATERIAL
347
44
  9
$SOLIDHIST
280
     0
  9
$SHOWHIST
280
     1
  9
$DWFFRAME
280
     2
  9
$DGNFRAME
280
     2
  9
$REALWORLDSCALE
290
     1
  9
$INTERFERECOLOR
 62
   256
  9
$INTERFEREOBJVS
345
33
  9
$INTERFEREVPVS
346
30
  9
$CSHADOW
280
     0
  9
$SHADOWPLANELOCATION
 40
0.0
  0
ENDSEC
  0
SECTION
  2
CLASSES
  0
CLASS
  1
ACDBDICTIONARYWDFLT
  2
AcDbDictionaryWithDefault
  3
ObjectDBX Classes
 90
        0
 91
        1
280
     0
281
     0
  0
CLASS
  1
VISUALSTYLE
  2
AcDbVisualStyle
  3
ObjectDBX Classes
 90
     4095
 91
       25
280
     0
281
     0
  0
CLASS
  1
MATERIAL
  2
AcDbMaterial
  3
ObjectDBX Classes
 90
     1153
 91
        3
280
     0
281
     0
  0
CLASS
  1
SCALE
  2
AcDbScale
  3
ObjectDBX Classes
 90
     1153
 91
       33
280
     0
281
     0
  0
CLASS
  1
TABLESTYLE
  2
AcDbTableStyle
  3
ObjectDBX Classes
 90
     4095
 91
        1
280
     0
281
     0
  0
CLASS
  1
MLEADERSTYLE
  2
AcDbMLeaderStyle
  3
ACDB_MLEADERSTYLE_CLASS
 90
     4095
 91
        1
280
     0
281
     0
  0
CLASS
  1
SUN
  2
AcDbSun
  3
SCENEOE
 90
     1153
 91
        1
280
     0
281
     0
  0
CLASS
  1
DICTIONARYVAR
  2
AcDbDictionaryVar
  3
ObjectDBX Classes
 90
        0
 91
        7
280
     0
281
     0
  0
CLASS
  1
ACDBSECTIONVIEWSTYLE
  2
AcDbSectionViewStyle
  3
ObjectDBX Classes
 90
     1025
 91
        1
280
     0
281
     0
  0
CLASS
  1
ACDBDETAILVIEWSTYLE
  2
AcDbDetailViewStyle
  3
ObjectDBX Classes
 90
     1025
 91
        1
280
     0
281
     0
  0
CLASS
  1
SORTENTSTABLE
  2
AcDbSortentsTable
  3
ObjectDBX Classes
 90
        0
 91
        1
280
     0
281
     0
  0
CLASS
  1
CELLSTYLEMAP
  2
AcDbCellStyleMap
  3
ObjectDBX Classes
 90
     1152
 91
        1
280
     0
281
     0
  0
ENDSEC
  0
SECTION
  2
TABLES
  0
TABLE
  2
VPORT
  5
8
330
0
100
AcDbSymbolTable
 70
     1
1001
ACAD
1000
DbSaveVer
1071
      224
  0
VPORT
  5
29
330
8
100
AcDbSymbolTableRecord
100
AcDbViewportTableRecord
  2
*Active
 70
     0
 10
0.0
 20
0.0
 11
1.0
 21
1.0
 12
1720.188549535724
 22
734.6239418015922
 13
0.0
 23
0.0
 14
10.0
 24
10.0
 15
10.0
 25
10.0
 16
0.0
 26
0.0
 36
1.0
 17
0.0
 27
0.0
 37
0.0
 40
3131.034854499628
 41
2.050213675213675
 42
50.0
 43
0.0
 44
0.0
 50
0.0
 51
0.0
 71
     0
 72
   100
 73
     1
 74
     3
 75
     0
 76
     0
 77
     0
 78
     0
281
     0
 65
     1
110
0.0
120
0.0
130
0.0
111
1.0
121
0.0
131
0.0
112
0.0
122
1.0
132
0.0
 79
     0
146
0.0
348
2F
 60
     3
 61
     5
292
     1
282
     1
141
0.0
142
0.0
361
6D
1001
ACAD_NAV_VCDISPLAY
1070
     3
  0
ENDTAB
  0
TABLE
  2
LTYPE
  5
5
330
0
100
AcDbSymbolTable
 70
    12
  0
LTYPE
  5
14
330
5
100
AcDbSymbolTableRecord
100
AcDbLinetypeTableRecord
  2
ByBlock
 70
     0
  3

 72
    65
 73
     0
 40
0.0
  0
LTYPE
  5
15
330
5
100
AcDbSymbolTableRecord
100
AcDbLinetypeTableRecord
  2
ByLayer
 70
     0
  3

 72
    65
 73
     0
 40
0.0
  0
LTYPE
  5
16
330
5
100
AcDbSymbolTableRecord
100
AcDbLinetypeTableRecord
  2
Continuous
 70
     0
  3
Solid line
 72
    65
 73
     0
 40
0.0
  0
LTYPE
  5
6F
330
5
100
AcDbSymbolTableRecord
100
AcDbLinetypeTableRecord
  2
CUSTOM
 70
     0
  3

 72
    65
 73
     0
 40
0.0
  0
LTYPE
  5
70
330
5
100
AcDbSymbolTableRecord
100
AcDbLinetypeTableRecord
  2
SOLID
 70
     0
  3

 72
    65
 73
     0
 40
0.0
  0
LTYPE
  5
71
330
5
100
AcDbSymbolTableRecord
100
AcDbLinetypeTableRecord
  2
DASHED
 70
     0
  3

 72
    65
 73
     2
 40
3.000000038089553
 49
1.500000019044776
 74
     0
 49
-1.500000019044776
 74
     0
  0
LTYPE
  5
72
330
5
100
AcDbSymbolTableRecord
100
AcDbLinetypeTableRecord
  2
LONG_DASH
 70
     0
  3

 72
    65
 73
     2
 40
3.000000038089553
 49
2.250000028567165
 74
     0
 49
-0.7500000095223884
 74
     0
  0
LTYPE
  5
73
330
5
100
AcDbSymbolTableRecord
100
AcDbLinetypeTableRecord
  2
SHORT_DASH
 70
     0
  3

 72
    65
 73
     4
 40
3.000000038089553
 49
0.6000000076179109
 74
     0
 49
-0.900000011426866
 74
     0
 49
0.6000000076179109
 74
     0
 49
-0.900000011426866
 74
     0
  0
LTYPE
  5
74
330
5
100
AcDbSymbolTableRecord
100
AcDbLinetypeTableRecord
  2
DOTTED
 70
     0
  3

 72
    65
 73
     8
 40
3.000000038089554
 49
0.1500000019044777
 74
     0
 49
-0.6000000076179109
 74
     0
 49
0.1500000019044777
 74
     0
 49
-0.6000000076179109
 74
     0
 49
0.1500000019044777
 74
     0
 49
-0.6000000076179109
 74
     0
 49
0.1500000019044777
 74
     0
 49
-0.6000000076179109
 74
     0
  0
LTYPE
  5
75
330
5
100
AcDbSymbolTableRecord
100
AcDbLinetypeTableRecord
  2
DOTDASH
 70
     0
  3

 72
    65
 73
     4
 40
3.000000038089553
 49
0.1500000019044777
 74
     0
 49
-0.7500000095223884
 74
     0
 49
1.350000017140299
 74
     0
 49
-0.7500000095223884
 74
     0
  0
LTYPE
  5
76
330
5
100
AcDbSymbolTableRecord
100
AcDbLinetypeTableRecord
  2
DOTDOTDASH
 70
     0
  3

 72
    65
 73
     6
 40
3.000000038089553
 49
0.1500000019044777
 74
     0
 49
-0.4500000057134331
 74
     0
 49
0.1500000019044777
 74
     0
 49
-0.4500000057134331
 74
     0
 49
1.350000017140299
 74
     0
 49
-0.4500000057134331
 74
     0
  0
LTYPE
  5
77
330
5
100
AcDbSymbolTableRecord
100
AcDbLinetypeTableRecord
  2
DASHDASHDOT
 70
     0
  3

 72
    65
 73
     6
 40
3.000000038089553
 49
0.1500000019044777
 74
     0
 49
-0.4500000057134331
 74
     0
 49
0.1500000019044777
 74
     0
 49
-0.4500000057134331
 74
     0
 49
1.350000017140299
 74
     0
 49
-0.4500000057134331
 74
     0
  0
LTYPE
  5
BA
330
5
100
AcDbSymbolTableRecord
100
AcDbLinetypeTableRecord
  2
IMPORT
 70
     0
  3

 72
    65
 73
     0
 40
0.0
  0
ENDTAB
  0
TABLE
  2
LAYER
  5
2
102
{ACAD_XDICTIONARY
360
C1
102
}
330
0
100
AcDbSymbolTable
 70
     2
  0
LAYER
  5
10
330
2
100
AcDbSymbolTableRecord
100
AcDbLayerTableRecord
  2
0
 70
     0
 62
     7
  6
Continuous
370
    -3
390
F
347
46
348
0
  0
LAYER
  5
BB
102
{ACAD_XDICTIONARY
360
BC
102
}
330
2
100
AcDbSymbolTableRecord
100
AcDbLayerTableRecord
  2
HEWI
 70
     0
 62
    62
  6
Continuous
370
    -3
390
F
347
46
348
0
  0
ENDTAB
  0
TABLE
  2
STYLE
  5
3
330
0
100
AcDbSymbolTable
 70
     2
  0
STYLE
  5
11
330
3
100
AcDbSymbolTableRecord
100
AcDbTextStyleTableRecord
  2
Standard
 70
     0
 40
0.0
 41
1.0
 50
0.0
 71
     0
 42
2.5
  3
txt
  4

  0
STYLE
  5
BD
330
3
100
AcDbSymbolTableRecord
100
AcDbTextStyleTableRecord
  2
HEWI
 70
     0
 40
0.0
 41
1.0
 50
0.0
 71
     0
 42
50.0
  3
arial.ttf
  4

1001
ACAD
1000
Arial
1071
       34
  0
ENDTAB
  0
TABLE
  2
VIEW
  5
6
330
0
100
AcDbSymbolTable
 70
     0
  0
ENDTAB
  0
TABLE
  2
UCS
  5
7
330
0
100
AcDbSymbolTable
 70
     0
  0
ENDTAB
  0
TABLE
  2
APPID
  5
9
330
0
100
AcDbSymbolTable
 70
     3
  0
APPID
  5
12
330
9
100
AcDbSymbolTableRecord
100
AcDbRegAppTableRecord
  2
ACAD
 70
     0
  0
APPID
  5
BF
330
9
100
AcDbSymbolTableRecord
100
AcDbRegAppTableRecord
  2
ACAD_NAV_VCDISPLAY
 70
     0
  0
APPID
  5
1B4
330
9
100
AcDbSymbolTableRecord
100
AcDbRegAppTableRecord
  2
ACAD_EXEMPT_FROM_CAD_STANDARDS
 70
     0
  0
ENDTAB
  0
TABLE
  2
DIMSTYLE
  5
A
330
0
100
AcDbSymbolTable
 70
     3
100
AcDbDimStyleTable
 71
     1
340
27
  0
DIMSTYLE
105
27
330
A
100
AcDbSymbolTableRecord
100
AcDbDimStyleTableRecord
  2
ISO-25
 70
     0
 41
2.5
 42
0.625
 43
3.75
 44
1.25
 73
     0
 74
     0
 77
     1
 78
     8
140
2.5
141
2.5
143
0.03937007874016
147
0.625
171
     3
172
     1
271
     2
272
     2
274
     3
278
    44
283
     0
284
     8
340
11
  0
DIMSTYLE
105
BE
330
A
100
AcDbSymbolTableRecord
100
AcDbDimStyleTableRecord
  2
STANDARD
 70
     0
340
11
  0
ENDTAB
  0
TABLE
  2
BLOCK_RECORD
  5
1
330
0
100
AcDbSymbolTable
 70
     5
  0
BLOCK_RECORD
  5
1F
330
1
100
AcDbSymbolTableRecord
100
AcDbBlockTableRecord
  2
*Model_Space
340
22
 70
     0
280
     1
281
     0
  0
BLOCK_RECORD
  5
1B
330
1
100
AcDbSymbolTableRecord
100
AcDbBlockTableRecord
  2
*Paper_Space
340
1E
 70
     0
280
     1
281
     0
  0
BLOCK_RECORD
  5
23
330
1
100
AcDbSymbolTableRecord
100
AcDbBlockTableRecord
  2
*Paper_Space0
340
26
 70
     0
280
     1
281
     0
  0
ENDTAB
  0
ENDSEC
  0
SECTION
  2
BLOCKS
  0
BLOCK
  5
20
330
1F
100
AcDbEntity
  8
0
100
AcDbBlockBegin
  2
*Model_Space
 70
     0
 10
0.0
 20
0.0
 30
0.0
  3
*Model_Space
  1

  0
ENDBLK
  5
21
330
1F
100
AcDbEntity
  8
0
100
AcDbBlockEnd
  0
BLOCK
  5
1C
330
1B
100
AcDbEntity
 67
     1
  8
0
100
AcDbBlockBegin
  2
*Paper_Space
 70
     0
 10
0.0
 20
0.0
 30
0.0
  3
*Paper_Space
  1

  0
ENDBLK
  5
1D
330
1B
100
AcDbEntity
 67
     1
  8
0
100
AcDbBlockEnd
  0
BLOCK
  5
24
330
23
100
AcDbEntity
 67
     1
  8
0
100
AcDbBlockBegin
  2
*Paper_Space0
 70
     0
 10
0.0
 20
0.0
 30
0.0
  3
*Paper_Space0
  1

  0
ENDBLK
  5
25
330
23
100
AcDbEntity
 67
     1
  8
0
100
AcDbBlockEnd
  0
ENDSEC
  0
SECTION
  2
ENTITIES
  0
LWPOLYLINE
  5
78
330
1F
100
AcDbEntity
  8
HEWI
 62
     0
100
AcDbPolyline
 90
       13
 70
     1
 43
0.0
 10
628.4426941332631
 20
747.4947719417461
 10
629.1746941425544
 20
750.5657720028134
 10
629.895694151709
 20
747.4947719417461
 10
630.7806941629451
 20
747.4947719417461
 10
632.1326941801117
 20
751.994772031229
 10
631.1356941674521
 20
751.994772031229
 10
630.3296941572179
 20
748.8557719688096
 10
629.642694148496
 20
751.994772031229
 10
628.7236941368274
 20
751.994772031229
 10
628.0306941280278
 20
748.8787719692672
 10
627.2476941180894
 20
751.994772031229
 10
626.2896941059253
 20
751.994772031229
 10
627.5576941220233
 20
747.4947719417461
  0
LWPOLYLINE
  5
79
330
1F
100
AcDbEntity
  8
HEWI
 62
     0
100
AcDbPolyline
 90
       12
 70
     1
 43
0.0
 10
620.0016940260893
 20
751.994772031229
 10
619.0946940145722
 20
751.994772031229
 10
619.0946940145722
 20
747.4947719417461
 10
620.0016940260893
 20
747.4947719417461
 10
620.0016940260893
 20
749.4857719813372
 10
621.8216940491974
 20
749.4857719813372
 10
621.8216940491974
 20
747.4947719417461
 10
622.7286940607146
 20
747.4947719417461
 10
622.7286940607146
 20
751.994772031229
 10
621.8216940491974
 20
751.994772031229
 10
621.8216940491974
 20
750.200771995555
 10
620.0016940260893
 20
750.200771995555
  0
LWPOLYLINE
  5
7A
330
1F
100
AcDbEntity
  8
HEWI
 62
     0
100
AcDbPolyline
 90
       12
 70
     1
 43
0.0
 10
626.1546941042134
 20
751.994772031229
 10
623.3376940684457
 20
751.994772031229
 10
623.3376940684457
 20
747.4947719417461
 10
626.1546941042134
 20
747.4947719417461
 10
626.1546941042134
 20
748.2487719567395
 10
624.2446940799591
 20
748.2487719567395
 10
624.2446940799591
 20
749.4857719813372
 10
626.0026941022797
 20
749.4857719813372
 10
626.0026941022797
 20
750.200771995555
 10
624.2446940799591
 20
750.200771995555
 10
624.2446940799591
 20
751.2077720155794
 10
626.1546941042134
 20
751.2077720155794
  0
LWPOLYLINE
  5
7B
330
1F
100
AcDbEntity
  8
HEWI
 62
     0
100
AcDbPolyline
 90
       24
 70
     1
 43
0.0
 10
71.65468706399315
 20
1276.689782464829
 10
76.27068712259916
 20
1277.500782480955
 10
646.2326943591315
 20
1277.500782480955
 10
650.8486944177375
 20
1276.689782464829
 10
655.0126944706053
 20
1274.571782422712
 10
658.3176945125696
 20
1271.271782357091
 10
660.4386945394971
 20
1267.114782274429
 10
661.25169454982
 20
1262.506782182799
 10
661.25169454982
 20
752.4947720411717
 10
660.4386945394971
 20
747.886771949541
 10
658.3176945125696
 20
743.729771866879
 10
655.0126944706053
 20
740.4297718012583
 10
650.8486944177375
 20
738.3117717591417
 10
646.2326943591315
 20
737.5007717430149
 10
76.27068712259916
 20
737.5007717430149
 10
71.65468706399315
 20
738.3117717591417
 10
67.49068701112173
 20
740.4297718012583
 10
64.185686969161
 20
743.729771866879
 10
62.06468694222985
 20
747.886771949541
 10
61.25168693191063
 20
752.4947720411717
 10
61.25168693191063
 20
1262.506782182799
 10
62.06468694222985
 20
1267.114782274429
 10
64.185686969161
 20
1271.271782357091
 10
67.49068701112173
 20
1274.571782422712
  0
LINE
  5
7C
330
1F
100
AcDbEntity
  8
HEWI
 62
     0
100
AcDbLine
 10
89.95539974967597
 20
762.6814889809666
 30
0.0
 11
91.29668731337643
 21
762.4957722400422
 31
0.0
  0
LINE
  5
7D
330
1F
100
AcDbEntity
  8
HEWI
 62
     0
100
AcDbLine
 10
86.91168725770239
 20
765.0787722914053
 30
0.0
 11
88.5020004375392
 21
763.4143228399416
 31
0.0
  0
LINE
  5
7E
330
1F
100
AcDbEntity
  8
HEWI
 62
     0
100
AcDbLine
 10
91.29668731337643
 20
1252.505781983928
 30
0.0
 11
90.35329473853471
 21
1252.331254356327
 31
0.0
  0
LINE
  5
7F
330
1F
100
AcDbEntity
  8
HEWI
 62
     0
100
AcDbLine
 10
87.98644376843276
 20
1251.227008188696
 30
0.0
 11
87.61232793594444
 21
1250.796282720563
 31
0.0
  0
LWPOLYLINE
  5
80
330
1F
100
AcDbEntity
  8
HEWI
 62
     0
100
AcDbPolyline
 90
        3
 70
     0
 43
0.0
 10
618.1911034406976
 20
1251.440075071788
 10
620.5576940331511
 20
1252.465781983133
 10
621.1896940411707
 20
1252.505781983928
  0
LWPOLYLINE
  5
81
330
1F
100
AcDbEntity
  8
HEWI
 62
     0
100
AcDbPolyline
 90
        4
 70
     0
 43
0.0
 10
635.1885065458763
 20
1250.344765172217
 10
636.2156942319516
 20
1247.505781884503
 10
636.2156942319516
 20
767.4957723394677
 10
635.5506237712934
 20
765.1519352959474
  0
LWPOLYLINE
  5
82
330
1F
100
AcDbEntity
  8
HEWI
 62
     0
100
AcDbPolyline
 90
        4
 70
     0
 43
0.0
 10
87.31487493585428
 20
764.6567890517526
 10
86.28768724977907
 20
767.4957723394677
 10
86.28768724977907
 20
1247.505781884503
 10
86.95275771043725
 20
1249.849618928023
  0
LWPOLYLINE
  5
83
330
1F
100
AcDbEntity
  8
HEWI
 62
     0
100
AcDbPolyline
 90
        3
 70
     0
 43
0.0
 10
88.29709671288856
 20
1251.440075071788
 10
90.6636873053385
 20
1252.465781983133
 10
91.29668731337643
 20
1252.505781983928
  0
LINE
  5
84
330
1F
100
AcDbEntity
  8
HEWI
 62
     0
100
AcDbLine
 10
621.1302676159057
 20
1252.494781984063
 30
0.0
 11
620.2476561672693
 21
1252.331408101624
 31
0.0
  0
LINE
  5
85
330
1F
100
AcDbEntity
  8
HEWI
 62
     0
100
AcDbLine
 10
102.6553336628521
 20
1252.319879390206
 30
0.0
 11
101.3930737073196
 21
1252.49478198061
 31
0.0
  0
LINE
  5
86
330
1F
100
AcDbEntity
  8
HEWI
 62
     0
100
AcDbLine
 10
101.3930737073196
 20
1252.49478198061
 30
0.0
 11
101.3136874405563
 21
1252.505781983928
 31
0.0
  0
LINE
  5
87
330
1F
100
AcDbEntity
  8
HEWI
 62
     0
100
AcDbLine
 10
105.6976874962192
 20
1249.922781932565
 30
0.0
 11
104.1089586811167
 21
1251.58651900289
 31
0.0
  0
LWPOLYLINE
  5
88
330
1F
100
AcDbEntity
  8
HEWI
 62
     0
100
AcDbPolyline
 90
        4
 70
     1
 43
0.0
 10
633.3106941950672
 20
747.4947719417461
 10
633.3106941950672
 20
751.994772031229
 10
632.3756941831988
 20
751.994772031229
 10
632.3756941831988
 20
747.4947719417461
  0
LWPOLYLINE
  5
89
330
1F
100
AcDbEntity
  8
HEWI
 62
     0
100
AcDbPolyline
 90
        4
 70
     0
 43
0.0
 10
105.2943599881027
 20
1250.345151639987
 10
106.3216875041425
 20
1247.505781884503
 10
106.3216875041425
 20
767.4957723394677
 10
105.6566170434844
 20
765.1519352959474
  0
LINE
  5
8A
330
1F
100
AcDbEntity
  8
HEWI
 62
     0
100
AcDbLine
 10
101.3136874405563
 20
762.4957722400422
 30
0.0
 11
102.6657056752874
 21
762.7460346499374
 31
0.0
  0
LINE
  5
8B
330
1F
100
AcDbEntity
  8
HEWI
 62
     0
100
AcDbLine
 10
616.7278080849783
 20
1249.678884004245
 30
0.0
 11
616.5425966426
 21
1249.25873768419
 31
0.0
  0
LINE
  5
8C
330
1F
100
AcDbEntity
  8
HEWI
 62
     0
100
AcDbLine
 10
104.6229309854889
 20
763.7745460352739
 30
0.0
 11
104.9970468179772
 21
764.2052715034074
 31
0.0
  0
LINE
  5
8D
330
1F
100
AcDbEntity
  8
HEWI
 62
     0
100
AcDbLine
 10
617.8804504962418
 20
1251.227008188696
 30
0.0
 11
617.5063346637535
 21
1250.796282720563
 31
0.0
  0
LWPOLYLINE
  5
8E
330
1F
100
AcDbEntity
  8
HEWI
 62
     0
100
AcDbPolyline
 90
        6
 70
     0
 43
0.0
 10
617.2090214936279
 20
764.6564025839827
 10
616.1816939775881
 20
767.4957723394677
 10
616.1816939775881
 20
1247.505781884503
 10
616.5876939827422
 20
1249.477781923716
 10
617.7386939973575
 20
1251.129781956566
 10
619.0406940138882
 20
1252.022781974323
  0
LINE
  5
8F
330
1F
100
AcDbEntity
  8
HEWI
 62
     0
100
AcDbLine
 10
621.1896940411707
 20
1252.505781983928
 30
0.0
 11
621.1302676159057
 21
1252.494781984063
 31
0.0
  0
LINE
  5
90
330
1F
100
AcDbEntity
  8
HEWI
 62
     0
100
AcDbLine
 10
632.5479817320547
 20
1252.320065243004
 30
0.0
 11
631.2066941683542
 21
1252.505781983928
 31
0.0
  0
LINE
  5
91
330
1F
100
AcDbEntity
  8
HEWI
 62
     0
100
AcDbLine
 10
635.5916942240246
 20
1249.922781932565
 30
0.0
 11
634.0013810441915
 21
1251.587231384028
 31
0.0
  0
LINE
  5
92
330
1F
100
AcDbEntity
  8
HEWI
 62
     0
100
AcDbLine
 10
619.8480478188785
 20
762.6816748337642
 30
0.0
 11
621.1896940411707
 21
762.4957722400422
 31
0.0
  0
LINE
  5
93
330
1F
100
AcDbEntity
  8
HEWI
 62
     0
100
AcDbLine
 10
631.2066941683542
 20
762.4957722400422
 30
0.0
 11
632.5601418970063
 21
762.7461600716426
 31
0.0
  0
LINE
  5
94
330
1F
100
AcDbEntity
  8
HEWI
 62
     0
100
AcDbLine
 10
616.8056939855114
 20
765.0787722914053
 30
0.0
 11
618.3944228006176
 21
763.4150352210804
 31
0.0
  0
LINE
  5
95
330
1F
100
AcDbEntity
  8
HEWI
 62
     0
100
AcDbLine
 10
634.5169377132979
 20
763.7745460352739
 30
0.0
 11
634.8910535457862
 21
764.2052715034074
 31
0.0
  0
LINE
  5
96
330
1F
100
AcDbEntity
  8
HEWI
 62
     0
100
AcDbLine
 10
633.1696542218878
 20
762.9241521368267
 30
0.0
 11
633.9021129057173
 21
763.3528574366528
 31
0.0
  0
LWPOLYLINE
  5
97
330
1F
100
AcDbEntity
  8
HEWI
 62
     0
100
AcDbPolyline
 90
       13
 70
     0
 43
0.0
 10
621.1302676145451
 20
1252.494781983709
 10
630.7516941625753
 20
1252.494781983709
 10
632.1136941798677
 20
1252.305781979951
 10
633.3736941958659
 20
1251.752781968954
 10
634.5976942114057
 20
1250.689781947817
 10
635.4176942218209
 20
1249.290781919998
 10
635.7516942260581
 20
1247.494781884284
 10
635.7516942260581
 20
767.4947723394478
 10
635.5626942236585
 20
766.132772312364
 10
635.0096942166373
 20
764.8727722873091
 10
633.9466942031422
 20
763.6487722629697
 10
632.5476941853803
 20
762.8287722466638
 10
630.7570713882805
 20
762.4957722363467
  0
LWPOLYLINE
  5
98
330
1F
100
AcDbEntity
  8
HEWI
 62
     0
100
AcDbPolyline
 90
       11
 70
     0
 43
0.0
 10
91.74448097007461
 20
762.495772240012
 10
90.38968730185933
 20
762.6837722437805
 10
89.12968728586111
 20
763.2367722547772
 10
87.90568727032132
 20
764.299772275915
 10
87.08568725990971
 20
765.6987723037341
 10
86.75168725567255
 20
767.4947723394478
 10
86.75168725567255
 20
1247.494781884284
 10
86.94068725806847
 20
1248.856781911367
 10
87.49368726508965
 20
1250.116781936422
 10
88.55668727858846
 20
1251.340781960762
 10
89.94354007659694
 20
1252.153662091243
  0
LINE
  5
99
330
1F
100
AcDbEntity
  8
HEWI
 62
     0
100
AcDbLine
 10
101.393073712089
 20
1252.494781983709
 30
0.0
 11
101.395969901815
 21
1252.494781983709
 31
0.0
  0
LWPOLYLINE
  5
9A
330
1F
100
AcDbEntity
  8
HEWI
 62
     0
100
AcDbPolyline
 90
        3
 70
     0
 43
0.0
 10
89.96318455753408
 20
1252.16217623389
 10
91.75168731915528
 20
1252.494781983709
 10
101.393073712089
 20
1252.494781983709
  0
LINE
  5
9B
330
1F
100
AcDbEntity
  8
HEWI
 62
     0
100
AcDbLine
 10
621.0158940297433
 20
1252.494781983709
 30
0.0
 11
621.1302676145451
 21
1252.494781983709
 31
0.0
  0
LINE
  5
9C
330
1F
100
AcDbEntity
  8
HEWI
 62
     0
100
AcDbLine
 10
103.2756474940788
 20
762.9241521368267
 30
0.0
 11
104.0081061779046
 21
763.3528574366528
 31
0.0
  0
LINE
  5
9D
330
1F
100
AcDbEntity
  8
HEWI
 62
     0
100
AcDbLine
 10
631.2066941683542
 20
1252.505781983928
 30
0.0
 11
621.1896940411707
 21
1252.505781983928
 31
0.0
  0
LWPOLYLINE
  5
9E
330
1F
100
AcDbEntity
  8
HEWI
 62
     0
100
AcDbPolyline
 90
        3
 70
     0
 43
0.0
 10
88.19568727400747
 20
763.5687722613788
 10
89.97268729656843
 20
762.6727722435621
 10
91.29668731337643
 20
762.4957722400422
  0
LWPOLYLINE
  5
9F
330
1F
100
AcDbEntity
  8
HEWI
 62
     0
100
AcDbPolyline
 90
        3
 70
     0
 43
0.0
 10
104.4136874799178
 20
1251.432781962591
 10
102.6376874573679
 20
1252.328781980408
 10
101.3136874405563
 20
1252.505781983928
  0
LWPOLYLINE
  5
A0
330
1F
100
AcDbEntity
  8
HEWI
 62
     0
100
AcDbPolyline
 90
        3
 70
     0
 43
0.0
 10
68.63068702559667
 20
741.379771820149
 10
66.96568700445914
 20
742.7267718469343
 10
64.95268697889969
 20
745.1427718949767
  0
LWPOLYLINE
  5
A1
330
1F
100
AcDbEntity
  8
HEWI
 62
     0
100
AcDbPolyline
 90
        5
 70
     0
 43
0.0
 10
631.2066941683542
 20
762.4957722400422
 10
631.8396941763885
 20
762.5357722408377
 10
633.3566941956514
 20
762.9787722496466
 10
634.6586942121821
 20
763.8717722674041
 10
635.8096942267975
 20
765.5237723002542
  0
LINE
  5
A2
330
1F
100
AcDbEntity
  8
HEWI
 62
     0
100
AcDbLine
 10
101.3136874405563
 20
1252.505781983928
 30
0.0
 11
91.29668731337643
 21
1252.505781983928
 31
0.0
  0
LWPOLYLINE
  5
A3
330
1F
100
AcDbEntity
  8
HEWI
 62
     0
100
AcDbPolyline
 90
        5
 70
     0
 43
0.0
 10
101.3136874405563
 20
762.4957722400422
 10
101.9456874485795
 20
762.5357722408377
 10
103.4626874678424
 20
762.9787722496466
 10
104.7646874843731
 20
763.8717722674041
 10
105.9156874989885
 20
765.5237723002542
  0
LWPOLYLINE
  5
A4
330
1F
100
AcDbEntity
  8
HEWI
 62
     0
100
AcDbPolyline
 90
        3
 70
     0
 43
0.0
 10
634.3076942077268
 20
1251.432781962591
 10
632.5306941851622
 20
1252.328781980408
 10
631.2066941683542
 20
1252.505781983928
  0
LWPOLYLINE
  5
A5
330
1F
100
AcDbEntity
  8
HEWI
 62
     0
100
AcDbPolyline
 90
        3
 70
     0
 43
0.0
 10
618.0896940018165
 20
763.5687722613788
 10
619.8656940243627
 20
762.6727722435621
 10
621.1896940411707
 20
762.4957722400422
  0
LWPOLYLINE
  5
A6
330
1F
100
AcDbEntity
  8
HEWI
 62
     0
100
AcDbPolyline
 90
        3
 70
     0
 43
0.0
 10
89.14668728607921
 20
1252.022781974323
 10
87.84468726954855
 20
1251.129781956566
 10
86.69368725493313
 20
1249.477781923716
  0
LINE
  5
A7
330
1F
100
AcDbEntity
  8
HEWI
 62
     0
100
AcDbLine
 10
91.29668731337643
 20
762.4957722400422
 30
0.0
 11
101.3136874405563
 21
762.4957722400422
 31
0.0
  0
LINE
  5
A8
330
1F
100
AcDbEntity
  8
HEWI
 62
     0
100
AcDbLine
 10
659.4936945274994
 20
749.9577719907229
 30
0.0
 11
658.7816945184632
 21
747.5177719422036
 31
0.0
  0
LINE
  5
A9
330
1F
100
AcDbEntity
  8
HEWI
 62
     0
100
AcDbLine
 10
621.1896940411707
 20
762.4957722400422
 30
0.0
 11
631.2066941683542
 21
762.4957722400422
 31
0.0
  0
LINE
  5
169
330
1F
100
AcDbEntity
  8
HEWI
 62
     0
100
AcDbLine
 10
986.6990381075193
 20
494.5007797430148
 30
0.0
 11
986.6990381075193
 21
737.5007717430149
 31
0.0
  0
LINE
  5
16A
330
1F
100
AcDbEntity
  8
HEWI
 62
     0
100
AcDbLine
 10
984.6990301075202
 20
469.5007797430148
 30
0.0
 11
984.6990301075202
 21
737.5007717430149
 31
0.0
  0
LINE
  5
16D
330
1F
100
AcDbEntity
  8
HEWI
 62
     0
100
AcDbLine
 10
1014.699030107518
 20
540.874909743015
 30
0.0
 11
1019.699030107518
 21
540.874909743015
 31
0.0
  0
LINE
  5
16E
330
1F
100
AcDbEntity
  8
HEWI
 62
     0
100
AcDbLine
 10
984.6990301075202
 20
494.5007797430148
 30
0.0
 11
1014.699030107518
 21
494.5007797430148
 31
0.0
  0
LINE
  5
16F
330
1F
100
AcDbEntity
  8
HEWI
 62
     0
100
AcDbLine
 10
984.6990301075202
 20
472.5007717430148
 30
0.0
 11
1014.699030107518
 21
472.5007717430148
 31
0.0
  0
LINE
  5
170
330
1F
100
AcDbEntity
  8
HEWI
 62
     0
100
AcDbLine
 10
1014.699030107518
 20
469.5008557430141
 30
0.0
 11
1019.699030107518
 21
469.5008557430141
 31
0.0
  0
LINE
  5
171
330
1F
100
AcDbEntity
  8
HEWI
 62
     0
100
AcDbLine
 10
979.6990301075203
 20
469.5007797430148
 30
0.0
 11
984.6990301075202
 21
469.5007797430148
 31
0.0
  0
LINE
  5
172
330
1F
100
AcDbEntity
  8
HEWI
 62
     0
100
AcDbLine
 10
979.6990301075203
 20
497.5007717430148
 30
0.0
 11
984.6990301075202
 21
497.5007717430148
 31
0.0
  0
LINE
  5
173
330
1F
100
AcDbEntity
  8
HEWI
 62
     0
100
AcDbLine
 10
979.6990301075203
 20
469.5007797430148
 30
0.0
 11
979.6990301075203
 21
497.5007717430148
 31
0.0
  0
LINE
  5
174
330
1F
100
AcDbEntity
  8
HEWI
 62
     0
100
AcDbLine
 10
1014.699030107518
 20
469.5008557430141
 30
0.0
 11
1014.699030107518
 21
540.874909743015
 31
0.0
  0
LINE
  5
175
330
1F
100
AcDbEntity
  8
HEWI
 62
     0
100
AcDbLine
 10
1019.699030107518
 20
469.5008557430141
 30
0.0
 11
1019.699030107518
 21
540.874909743015
 31
0.0
  0
LWPOLYLINE
  5
19C
330
1F
100
AcDbEntity
  8
HEWI
 62
     0
100
AcDbPolyline
 90
       50
 70
     1
 43
0.0
 10
659.7346860396838
 20
73.35423013026897
 10
660.4916860277598
 20
73.9322301307645
 10
660.6236860256804
 20
74.13023013093422
 10
661.1256860177718
 20
75.30723013194162
 10
661.2516860157893
 20
76.58023013303179
 10
661.0266860193341
 20
77.73123013401672
 10
660.4916860277598
 20
78.7762301349106
 10
659.7346860396838
 20
79.35423013540557
 10
659.4776860437313
 20
79.35423013540557
 10
658.7166860557163
 20
79.35423013540557
 10
656.7966860859569
 20
79.35423013540557
 10
654.0456861292851
 20
79.35423013540557
 10
652.569686152533
 20
79.35423013540557
 10
650.1666861903804
 20
79.35423013540557
 10
647.6186862305121
 20
79.35423013540557
 10
646.2326862523414
 20
79.35423013540557
 10
76.27069522938928
 20
79.35423013540557
 10
73.64869527068458
 20
79.35423013540557
 10
71.12669531040683
 20
79.35423013540557
 10
67.86169536183024
 20
79.35423013540557
 10
65.2586954028311
 20
79.35423013540557
 10
64.34769541717924
 20
79.35423013540557
 10
63.35369543283468
 20
79.35423013540557
 10
62.83969544092997
 20
79.35423013540557
 10
62.76869544204692
 20
79.35423013540557
 10
62.01169545397078
 20
78.7762301349106
 10
61.47669546239649
 20
77.73123013401672
 10
61.25169546594134
 20
76.58023013303179
 10
61.37769546395521
 20
75.30723013194162
 10
61.87969545605028
 20
74.13023013093422
 10
62.01169545397078
 20
73.9322301307645
 10
62.76869544204692
 20
73.35423013026897
 10
63.00969543825067
 20
73.35423013026897
 10
63.72169542703796
 20
73.35423013026897
 10
64.45069541555586
 20
73.35423013026897
 10
65.90069539271735
 20
73.35423013026897
 10
67.71169536419711
 20
73.35423013026897
 10
69.09469534241089
 20
73.35423013026897
 10
71.12669531040683
 20
73.35423013026897
 10
73.64869527068458
 20
73.35423013026897
 10
76.27069522938928
 20
73.35423013026897
 10
646.2326862523414
 20
73.35423013026897
 10
647.9386862254732
 20
73.35423013026897
 10
651.0476861765027
 20
73.35423013026897
 10
653.872686132011
 20
73.35423013026897
 10
655.5376861057857
 20
73.35423013026897
 10
657.5506860740834
 20
73.35423013026897
 10
658.9376860522361
 20
73.35423013026897
 10
659.489686043541
 20
73.35423013026897
 10
659.6646860407827
 20
73.35423013026897
  0
LWPOLYLINE
  5
19D
330
1F
100
AcDbEntity
  8
HEWI
 62
     0
100
AcDbPolyline
 90
        4
 70
     1
 43
0.0
 10
511.2516883783255
 20
142.4262301893968
 10
511.2516883783255
 20
81.42623013717908
 10
211.2516931034051
 20
81.42623013717908
 10
211.2516931034051
 20
142.4262301893968
  0
LINE
  5
19E
330
1F
100
AcDbEntity
  8
HEWI
 62
     0
100
AcDbLine
 10
608.7516868426801
 20
85.85423014096974
 30
0.0
 11
608.7516868426801
 21
80.35423001705211
 31
0.0
  0
LWPOLYLINE
  5
19F
330
1F
100
AcDbEntity
  8
HEWI
 62
     0
100
AcDbPolyline
 90
        4
 70
     0
 43
0.0
 10
608.7516859486068
 20
85.85423014096974
 10
607.2516868663015
 20
85.85423014096974
 10
607.2516868663015
 20
80.35423013626186
 10
608.7516868426801
 20
80.35423013626186
  0
LINE
  5
1A0
330
1F
100
AcDbEntity
  8
HEWI
 62
     0
100
AcDbLine
 10
608.7516868426801
 20
80.35423013626186
 30
0.0
 11
608.7516868426801
 21
79.85423013583371
 31
0.0
  0
LINE
  5
1A1
330
1F
100
AcDbEntity
  8
HEWI
 62
     0
100
AcDbLine
 10
642.7516863071696
 20
79.35423013540557
 30
0.0
 11
642.7516863071696
 21
79.85423013583371
 31
0.0
  0
LINE
  5
1A2
330
1F
100
AcDbEntity
  8
HEWI
 62
     0
100
AcDbLine
 10
642.7516863742248
 20
85.85423014096974
 30
0.0
 11
608.7516859486068
 21
85.85423014096974
 31
0.0
  0
LWPOLYLINE
  5
1A3
330
1F
100
AcDbEntity
  8
HEWI
 62
     0
100
AcDbPolyline
 90
        8
 70
     0
 43
0.0
 10
599.7516869844303
 20
79.35423013540557
 10
599.7516869844303
 20
80.85423013668943
 10
605.7516868899265
 20
80.85423013668943
 10
605.7516868899265
 20
87.35423014225361
 10
645.7516862599195
 20
87.35423014225361
 10
645.7516862599195
 20
80.85423013668943
 10
651.7516861654158
 20
80.85423013668943
 10
651.7516861654158
 20
79.35423013540557
  0
LWPOLYLINE
  5
1A4
330
1F
100
AcDbEntity
  8
HEWI
 62
     0
100
AcDbPolyline
 90
        4
 70
     0
 43
0.0
 10
642.7516863071696
 20
80.35423013626186
 10
644.2516862835446
 20
80.35423013626186
 10
644.2516862835446
 20
85.85423014096974
 10
642.7516863742248
 20
85.85423014096974
  0
LINE
  5
1A5
330
1F
100
AcDbEntity
  8
HEWI
 62
     0
100
AcDbLine
 10
608.7516868426801
 20
79.85423013583314
 30
0.0
 11
642.7516863071696
 21
79.85423013583314
 31
0.0
  0
LINE
  5
1A6
330
1F
100
AcDbEntity
  8
HEWI
 62
     0
100
AcDbLine
 10
608.7516868426801
 20
79.85423013583371
 30
0.0
 11
608.7516868426801
 21
79.35423013540557
 31
0.0
  0
LINE
  5
1A7
330
1F
100
AcDbEntity
  8
HEWI
 62
     0
100
AcDbLine
 10
79.75169517456106
 20
85.85423014096974
 30
0.0
 11
113.7516946390506
 21
85.85423014096974
 31
0.0
  0
LINE
  5
1A8
330
1F
100
AcDbEntity
  8
HEWI
 62
     0
100
AcDbLine
 10
79.75169517456106
 20
79.85423013583314
 30
0.0
 11
113.7516946390506
 21
79.85423013583314
 31
0.0
  0
LINE
  5
1A9
330
1F
100
AcDbEntity
  8
HEWI
 62
     0
100
AcDbLine
 10
79.75169517456106
 20
85.85423014096974
 30
0.0
 11
79.75169517456106
 21
80.35423001705211
 31
0.0
  0
LINE
  5
1AA
330
1F
100
AcDbEntity
  8
HEWI
 62
     0
100
AcDbLine
 10
642.7516863071696
 20
85.85423014096974
 30
0.0
 11
642.7516863071696
 21
80.35423001705211
 31
0.0
  0
LINE
  5
1AB
330
1F
100
AcDbEntity
  8
HEWI
 62
     0
100
AcDbLine
 10
642.7516863071696
 20
79.85423013583371
 30
0.0
 11
642.7516863071696
 21
80.35423013626186
 31
0.0
  0
LWPOLYLINE
  5
1AC
330
1F
100
AcDbEntity
  8
HEWI
 62
     0
100
AcDbPolyline
 90
        8
 70
     0
 43
0.0
 10
70.75169531631491
 20
79.35423013540557
 10
70.75169531631491
 20
80.85423013668943
 10
76.75169522181113
 20
80.85423013668943
 10
76.75169522181113
 20
87.35423014225361
 10
116.7516945918005
 20
87.35423014225361
 10
116.7516945918005
 20
80.85423013668943
 10
122.7516944973004
 20
80.85423013668943
 10
122.7516944973004
 20
79.35423013540557
  0
LWPOLYLINE
  5
1AD
330
1F
100
AcDbEntity
  8
HEWI
 62
     0
100
AcDbPolyline
 90
        4
 70
     0
 43
0.0
 10
79.75169428049139
 20
85.85423014096974
 10
78.2516951981861
 20
85.85423014096974
 10
78.2516951981861
 20
80.35423013626186
 10
79.75169517456106
 20
80.35423013626186
  0
LINE
  5
1AE
330
1F
100
AcDbEntity
  8
HEWI
 62
     0
100
AcDbLine
 10
113.7516946390506
 20
80.35423001705211
 30
0.0
 11
113.7516946390506
 21
79.85423013583314
 31
0.0
  0
LWPOLYLINE
  5
1AF
330
1F
100
AcDbEntity
  8
HEWI
 62
     0
100
AcDbPolyline
 90
        4
 70
     0
 43
0.0
 10
113.7516946390506
 20
80.35423013626186
 10
115.2516946154292
 20
80.35423013626186
 10
115.2516946154292
 20
85.85423014096974
 10
113.7516947061094
 20
85.85423014096974
  0
LINE
  5
1B0
330
1F
100
AcDbEntity
  8
HEWI
 62
     0
100
AcDbLine
 10
79.75169517456106
 20
79.85423013583371
 30
0.0
 11
79.75169517456106
 21
79.35423013540557
 31
0.0
  0
LINE
  5
1B1
330
1F
100
AcDbEntity
  8
HEWI
 62
     0
100
AcDbLine
 10
113.7516946390506
 20
85.85423014096974
 30
0.0
 11
113.7516946390506
 21
80.35423001705211
 31
0.0
  0
LINE
  5
1B2
330
1F
100
AcDbEntity
  8
HEWI
 62
     0
100
AcDbLine
 10
79.75169517456106
 20
80.35423001705211
 30
0.0
 11
79.75169517456106
 21
79.85423013583314
 31
0.0
  0
LINE
  5
1B3
330
1F
100
AcDbEntity
  8
HEWI
 62
     0
100
AcDbLine
 10
113.7516946390506
 20
79.35423013540557
 30
0.0
 11
113.7516946390506
 21
79.85423013583371
 31
0.0
  0
LINE
  5
1BC
330
1F
100
AcDbEntity
  8
HEWI
 62
     0
100
AcDbLine
 10
492.2516947408649
 20
524.2162134809558
 30
0.0
 11
492.2516947408649
 21
737.5007824809553
 31
0.0
  0
LINE
  5
1BD
330
1F
100
AcDbEntity
  8
HEWI
 62
     0
100
AcDbLine
 10
490.2516867408658
 20
522.2315794809555
 30
0.0
 11
490.2516867408658
 21
737.5007824809553
 31
0.0
  0
LINE
  5
1BE
330
1F
100
AcDbEntity
  8
HEWI
 62
     0
100
AcDbLine
 10
501.1129497408664
 20
493.5632144809559
 30
0.0
 11
544.8228957408655
 21
536.9374284809554
 31
0.0
  0
LINE
  5
1BF
330
1F
100
AcDbEntity
  8
HEWI
 62
     0
100
AcDbLine
 10
502.2001287408648
 20
503.0948074809556
 30
0.0
 11
540.5966307408662
 21
541.1963854809554
 31
0.0
  0
ARC
  5
1C0
330
1F
100
AcDbEntity
  8
HEWI
 62
     0
100
AcDbCircle
 10
534.9616367408661
 20
546.8750194809553
 30
0.0
 40
14.000006
100
AcDbArc
 50
314.7791040000271
 51
134.7791040000271
  0
ARC
  5
1C1
330
1F
100
AcDbEntity
  8
HEWI
 62
     0
100
AcDbCircle
 10
534.9616367408661
 20
546.875010480955
 30
0.0
 40
7.999997
100
AcDbArc
 50
314.7790419999931
 51
134.7792349999696
  0
LINE
  5
1C2
330
1F
100
AcDbEntity
  8
HEWI
 62
     0
100
AcDbLine
 10
490.9792637408655
 20
514.5007904809553
 30
0.0
 11
492.2516947408649
 21
514.5007904809553
 31
0.0
  0
LINE
  5
1C3
330
1F
100
AcDbEntity
  8
HEWI
 62
     0
100
AcDbLine
 10
490.751144740866
 20
514.4893844809547
 30
0.0
 11
490.9491657408661
 21
514.4709214809544
 31
0.0
  0
LINE
  5
1C4
330
1F
100
AcDbEntity
  8
HEWI
 62
     0
100
AcDbLine
 10
487.7654487408663
 20
513.9336974809546
 30
0.0
 11
488.0834227408659
 21
513.9929014809557
 31
0.0
  0
LINE
  5
1C5
330
1F
100
AcDbEntity
  8
HEWI
 62
     0
100
AcDbLine
 10
492.2516947408649
 20
514.5007904809553
 30
0.0
 11
492.2516947408649
 21
515.7634554809554
 31
0.0
  0
LINE
  5
1C6
330
1F
100
AcDbEntity
  8
HEWI
 62
     0
100
AcDbLine
 10
481.3904407408654
 20
513.4383594809559
 30
0.0
 11
525.1003767408665
 21
556.8126114809555
 31
0.0
  0
LINE
  5
1C7
330
1F
100
AcDbEntity
  8
HEWI
 62
     0
100
AcDbLine
 10
490.9491657408661
 20
514.4709214809544
 30
0.0
 11
529.3266227408649
 21
552.5536164809554
 31
0.0
  0
LINE
  5
1C8
330
1F
100
AcDbEntity
  8
HEWI
 62
     0
100
AcDbLine
 10
487.7654487408663
 20
513.9336974809546
 30
0.0
 11
490.751144740866
 21
514.4893844809547
 31
0.0
  0
LINE
  5
1C9
330
1F
100
AcDbEntity
  8
HEWI
 62
     0
100
AcDbLine
 10
504.7746587408664
 20
507.1242334809547
 30
0.0
 11
504.9463677408648
 21
505.8199504809553
 31
0.0
  0
LINE
  5
1CA
330
1F
100
AcDbEntity
  8
HEWI
 62
     0
100
AcDbLine
 10
493.6802697408648
 20
517.1810344809554
 30
0.0
 11
494.8751567408662
 21
517.023754480955
 31
0.0
  0
ARC
  5
1CB
330
1F
100
AcDbEntity
  8
HEWI
 62
     0
100
AcDbCircle
 10
491.2516747408654
 20
503.5007804809555
 30
0.0
 40
10.999978
100
AcDbArc
 50
108.4773839999623
 51
251.3017679999948
  0
ARC
  5
1CC
330
1F
100
AcDbEntity
  8
HEWI
 62
     0
100
AcDbCircle
 10
491.2517177408654
 20
503.5008204809554
 30
0.0
 40
13.999967
100
AcDbArc
 50
14.999812000004
 51
75.00007699997697
  0
ARC
  5
1CD
330
1F
100
AcDbEntity
  8
HEWI
 62
     0
100
AcDbCircle
 10
491.2516937408663
 20
503.5007754809547
 30
0.0
 40
11.000001
100
AcDbArc
 50
359.9999560000164
 51
314.9999940000421
  0
ARC
  5
1CE
330
1F
100
AcDbEntity
  8
HEWI
 62
     0
100
AcDbCircle
 10
491.2515587408661
 20
503.5008284809545
 30
0.0
 40
13.999863
100
AcDbArc
 50
134.778867000002
 51
179.7793380000021
  0
LINE
  5
1CF
330
1F
100
AcDbEntity
  8
HEWI
 62
     0
100
AcDbLine
 10
492.7152087408658
 20
492.6934634809557
 30
0.0
 11
493.9048887408652
 21
492.8500944809555
 31
0.0
  0
LINE
  5
1D0
330
1F
100
AcDbEntity
  8
HEWI
 62
     0
100
AcDbLine
 10
487.7252607408654
 20
493.0813794809554
 30
0.0
 11
488.0628607408661
 21
493.0171784809544
 31
0.0
  0
LINE
  5
1D1
330
1F
100
AcDbEntity
  8
HEWI
 62
     0
100
AcDbLine
 10
490.7087927408656
 20
492.5142104809554
 30
0.0
 11
490.9715487408657
 21
492.5376704809558
 31
0.0
  0
LINE
  5
1D2
330
1F
100
AcDbEntity
  8
HEWI
 62
     0
100
AcDbLine
 10
477.2516947408648
 20
503.5007674809556
 30
0.0
 11
477.7148557408663
 21
499.9294864809552
 31
0.0
  0
LINE
  5
1D3
330
1F
100
AcDbEntity
  8
HEWI
 62
     0
100
AcDbLine
 10
501.8695287408654
 20
500.6264694809551
 30
0.0
 11
502.2516947408648
 21
503.5007674809556
 31
0.0
  0
LINE
  5
1D4
330
1F
100
AcDbEntity
  8
HEWI
 62
     0
100
AcDbLine
 10
487.7252607408654
 20
493.0813794809554
 30
0.0
 11
490.7087927408656
 21
492.5142104809554
 31
0.0
  0
LINE
  5
1D5
330
1F
100
AcDbEntity
  8
HEWI
 62
     0
100
AcDbLine
 10
500.7602617408656
 20
497.970219480955
 30
0.0
 11
501.8768817408663
 21
500.6537824809555
 31
0.0
  0
LINE
  5
1D6
330
1F
100
AcDbEntity
  8
HEWI
 62
     0
100
AcDbLine
 10
498.9998267408655
 20
495.6926924809549
 30
0.0
 11
500.7779717408657
 21
498.0007754809547
 31
0.0
  0
ARC
  5
1D7
330
1F
100
AcDbEntity
  8
HEWI
 62
     0
100
AcDbCircle
 10
491.2516687408651
 20
503.5007304809559
 30
0.0
 40
13.999968
100
AcDbArc
 50
194.7788870000087
 51
314.7793840000435
  0
ARC
  5
1D8
330
1F
100
AcDbEntity
  8
HEWI
 62
     0
100
AcDbCircle
 10
491.2516917408656
 20
503.5008404809549
 30
0.0
 40
11.000035
100
AcDbArc
 50
267.1710570000186
 51
314.7789670000289
  0
LWPOLYLINE
  5
1EE
330
1F
100
AcDbEntity
  8
HEWI
 62
     0
100
AcDbPolyline
 90
       38
 70
     0
 43
0.0
 10
1048.02455385903
 20
712.1533031530411
 10
1048.193033050847
 20
712.2647717046243
 10
1048.771033075685
 20
713.0207717057733
 10
1048.771033075685
 20
713.1287717059372
 10
1048.771033075685
 20
713.9067717071216
 10
1048.771033075685
 20
715.385771709371
 10
1048.771033075685
 20
716.7327717114208
 10
1048.771033075685
 20
719.1487717150953
 10
1048.771033075685
 20
721.9357717193356
 10
1048.771033075685
 20
723.9417717223882
 10
1048.771033075685
 20
725.1257717241883
 10
1048.771033075685
 20
726.500771726281
 10
1048.771033075685
 20
1236.512772502155
 10
1048.771033075685
 20
1239.049772506016
 10
1048.771033075685
 20
1241.489772509727
 10
1048.771033075685
 20
1243.028772512069
 10
1048.771033075685
 20
1245.145772515289
 10
1048.771033075685
 20
1246.938772518017
 10
1048.771033075685
 20
1247.931772519527
 10
1048.771033075685
 20
1248.975772521116
 10
1048.771033075685
 20
1249.735772522271
 10
1048.771033075685
 20
1249.992772522663
 10
1048.193033050847
 20
1250.747772523812
 10
1047.99503304234
 20
1250.879772524012
 10
1046.818032991759
 20
1251.380772524775
 10
1045.545032937058
 20
1251.506772524966
 10
1044.394032887598
 20
1251.281772524623
 10
1043.349032842689
 20
1250.747772523812
 10
1042.771032817852
 20
1249.992772522663
 10
1042.771032817852
 20
1249.735772522271
 10
1042.771032817852
 20
1248.975772521116
 10
1042.771032817852
 20
1247.059772518201
 10
1042.771032817852
 20
1244.312772514021
 10
1042.771032817852
 20
1242.838772511779
 10
1042.771032817852
 20
1240.440772508131
 10
1042.771032817852
 20
1237.896772504261
 10
1042.771032817852
 20
1236.512772502155
 10
1042.771032817852
 20
726.500771726281
  0
LWPOLYLINE
  5
1EF
330
1F
100
AcDbEntity
  8
HEWI
 62
     0
100
AcDbPolyline
 90
        4
 70
     0
 43
0.0
 10
1034.77103238902
 20
943.5007720563994
 10
979.6990301075203
 20
943.5007720563994
 10
979.6990301075203
 20
737.5007717430149
 10
1034.771033752477
 20
737.5007717430149
  0
LWPOLYLINE
  5
1F0
330
1F
100
AcDbEntity
  8
HEWI
 62
     0
100
AcDbPolyline
 90
       12
 70
     0
 43
0.0
 10
1042.771032817852
 20
726.500771726281
 10
1042.771032817852
 20
723.8837717222991
 10
1042.771032817852
 20
721.3647717184671
 10
1042.771032817852
 20
718.1057717135104
 10
1042.771032817852
 20
715.5067717095557
 10
1042.771032817852
 20
714.5977717081718
 10
1042.771032817852
 20
713.6057717066637
 10
1042.771032817852
 20
713.0917717058814
 10
1042.771032817852
 20
713.0207717057733
 10
1043.349032842689
 20
712.2647717046243
 10
1043.5470328512
 20
712.1337717044248
 10
1044.267749393972
 20
711.7917079049134
  0
LWPOLYLINE
  5
1F1
330
1F
100
AcDbEntity
  8
HEWI
 62
     0
100
AcDbPolyline
 90
        4
 70
     0
 43
0.0
 10
1041.271032753397
 20
726.500771726281
 10
1034.771032474076
 20
726.500771726281
 10
1034.771032474076
 20
1236.500772502137
 10
1041.271032753393
 20
1236.500772502137
  0
LINE
  5
1F2
330
1F
100
AcDbEntity
  8
HEWI
 62
     0
100
AcDbLine
 10
1045.99703295648
 20
711.5067717034703
 30
0.0
 11
1047.14803300594
 21
711.7317717038126
 31
0.0
  0
LINE
  5
1F3
330
1F
100
AcDbEntity
  8
HEWI
 62
     0
100
AcDbLine
 10
1042.771032817852
 20
726.500771726281
 30
0.0
 11
1041.271032753397
 21
726.500771726281
 31
0.0
  0
LINE
  5
1F4
330
1F
100
AcDbEntity
  8
HEWI
 62
     0
100
AcDbLine
 10
1047.868749548714
 20
712.0738355033231
 30
0.0
 11
1047.14803300594
 21
711.7317717038126
 31
0.0
  0
LWPOLYLINE
  5
1F5
330
1F
100
AcDbEntity
  8
HEWI
 62
     0
100
AcDbPolyline
 90
        3
 70
     0
 43
0.0
 10
1044.443234248747
 20
711.7170112960798
 10
1044.724032901777
 20
711.6327717036615
 10
1045.99703295648
 20
711.5067717034703
  0
LINE
  5
1F6
330
1F
100
AcDbEntity
  8
HEWI
 62
     0
100
AcDbLine
 10
1046.867234352912
 20
711.6475321113962
 30
0.0
 11
1047.14803300594
 21
711.7317717038126
 31
0.0
  0
LINE
  5
1F7
330
1F
100
AcDbEntity
  8
HEWI
 62
     0
100
AcDbLine
 10
1045.99703295648
 20
711.5067717034703
 30
0.0
 11
1045.612423892333
 21
711.5067717034703
 31
0.0
  0
LINE
  5
1F8
330
1F
100
AcDbEntity
  8
HEWI
 62
     0
100
AcDbLine
 10
1041.271032753393
 20
1236.500772502137
 30
0.0
 11
1042.771032817852
 21
1236.500772502137
 31
0.0
  0
LINE
  5
1F9
330
1F
100
AcDbEntity
  8
HEWI
 62
     0
100
AcDbLine
 10
1041.271032753397
 20
726.500771726281
 30
0.0
 11
1041.271032753393
 21
1236.500772502137
 31
0.0
  0
LINE
  5
1FA
330
1F
100
AcDbEntity
  8
HEWI
 62
     0
100
AcDbLine
 10
1047.868749548714
 20
712.0738355033231
 30
0.0
 11
1048.02455385903
 21
712.1533031530411
 31
0.0
  0
LINE
  5
1FB
330
1F
100
AcDbEntity
  8
HEWI
 62
     0
100
AcDbLine
 10
1044.267749393972
 20
711.7917079049134
 30
0.0
 11
1044.443234248747
 21
711.7170112960798
 31
0.0
  0
LINE
  5
1FC
330
1F
100
AcDbEntity
  8
HEWI
 62
     0
100
AcDbLine
 10
1046.563115968865
 20
711.6174308428949
 30
0.0
 11
1046.867234352912
 21
711.6475321113962
 31
0.0
  0
LINE
  5
1FD
330
1F
100
AcDbEntity
  8
HEWI
 62
     0
100
AcDbLine
 10
1045.217949307665
 20
711.5838844557479
 30
0.0
 11
1045.612423892333
 21
711.5067717034703
 31
0.0
  0
ENDSEC
  0
SECTION
  2
OBJECTS
  0
DICTIONARY
  5
C
330
0
100
AcDbDictionary
281
     1
  3
ACAD_CIP_PREVIOUS_PRODUCT_INFO
350
B9
  3
ACAD_COLOR
350
B3
  3
ACAD_DETAILVIEWSTYLE
350
AE
  3
ACAD_GROUP
350
D
  3
ACAD_IMAGE_DICT
350
6E
  3
ACAD_LAYOUT
350
1A
  3
ACAD_MATERIAL
350
43
  3
ACAD_MLEADERSTYLE
350
6B
  3
ACAD_MLINESTYLE
350
17
  3
ACAD_PLOTSETTINGS
350
19
  3
ACAD_PLOTSTYLENAME
350
E
  3
ACAD_SCALELIST
350
47
  3
ACAD_SECTIONVIEWSTYLE
350
AF
  3
ACAD_TABLESTYLE
350
69
  3
ACAD_VISUALSTYLE
350
2A
  3
ACDB_RECOMPOSE_DATA
350
202
  3
AcDbVariableDictionary
350
AA
  0
SUN
  5
6D
330
29
100
AcDbSun
 90
        1
290
     0
 63
     7
421
 16777215
 40
1.0
291
     1
 91
  2455826
 92
 54000000
292
     0
 70
     0
 71
   256
280
     1
1001
ACAD
1000
AcDbSavedByObjectVersion
1070
     0
  0
DICTIONARY
  5
C1
330
2
100
AcDbDictionary
280
     1
281
     1
  3
ACAD_LAYERSTATES
360
C2
  0
DICTIONARY
  5
BC
330
BB
100
AcDbDictionary
280
     1
281
     1
  0
XRECORD
  5
B9
102
{ACAD_REACTORS
330
C
102
}
330
C
100
AcDbXrecord
280
     1
300
ACDLT
300
2021
300
ACDLT_F_S
  0
DICTIONARY
  5
B3
102
{ACAD_REACTORS
330
C
102
}
330
C
100
AcDbDictionary
281
     1
  0
DICTIONARY
  5
AE
102
{ACAD_REACTORS
330
C
102
}
330
C
100
AcDbDictionary
281
     1
  3
Metric50
350
B5
  0
DICTIONARY
  5
D
102
{ACAD_REACTORS
330
C
102
}
330
C
100
AcDbDictionary
281
     1
  0
DICTIONARY
  5
6E
102
{ACAD_REACTORS
330
C
102
}
330
C
100
AcDbDictionary
281
     1
  0
DICTIONARY
  5
1A
102
{ACAD_REACTORS
330
C
102
}
330
C
100
AcDbDictionary
281
     1
  3
Layout1
350
1E
  3
Layout2
350
26
  3
Model
350
22
  0
DICTIONARY
  5
43
102
{ACAD_REACTORS
330
C
102
}
330
C
100
AcDbDictionary
281
     1
  3
ByBlock
350
45
  3
ByLayer
350
44
  3
Global
350
46
  0
DICTIONARY
  5
6B
102
{ACAD_REACTORS
330
C
102
}
330
C
100
AcDbDictionary
281
     1
  3
Standard
350
6C
  0
DICTIONARY
  5
17
102
{ACAD_REACTORS
330
C
102
}
330
C
100
AcDbDictionary
281
     1
  3
Standard
350
18
  0
DICTIONARY
  5
19
102
{ACAD_REACTORS
330
C
102
}
330
C
100
AcDbDictionary
281
     1
  0
ACDBDICTIONARYWDFLT
  5
E
102
{ACAD_REACTORS
330
C
102
}
330
C
100
AcDbDictionary
281
     1
  3
Normal
350
F
100
AcDbDictionaryWithDefault
340
F
  0
DICTIONARY
  5
47
102
{ACAD_REACTORS
330
C
102
}
330
C
100
AcDbDictionary
281
     1
  3
A0
350
48
  3
A1
350
49
  3
A2
350
4A
  3
A3
350
4B
  3
A4
350
4C
  3
A5
350
4D
  3
A6
350
4E
  3
A7
350
4F
  3
A8
350
50
  3
A9
350
51
  3
B0
350
52
  3
B1
350
53
  3
B2
350
54
  3
B3
350
55
  3
B4
350
56
  3
B5
350
57
  3
B6
350
58
  3
B7
350
59
  3
B8
350
5A
  3
B9
350
5B
  3
C0
350
5C
  3
C1
350
5D
  3
C2
350
5E
  3
C3
350
5F
  3
C4
350
60
  3
C5
350
61
  3
C6
350
62
  3
C7
350
63
  3
C8
350
64
  3
C9
350
65
  3
D0
350
66
  3
D1
350
67
  3
D2
350
68
  0
DICTIONARY
  5
AF
102
{ACAD_REACTORS
330
C
102
}
330
C
100
AcDbDictionary
281
     1
  3
Metric50
350
B4
  0
DICTIONARY
  5
69
102
{ACAD_REACTORS
330
C
102
}
330
C
100
AcDbDictionary
281
     1
  3
Standard
350
6A
  0
DICTIONARY
  5
2A
102
{ACAD_REACTORS
330
C
102
}
330
C
100
AcDbDictionary
281
     1
  3
2dWireframe
350
2F
  3
3dWireframe
350
C0
  3
Basic
350
32
  3
Brighten
350
36
  3
ColorChange
350
3A
  3
Conceptual
350
34
  3
Dim
350
35
  3
EdgeColorOff
350
3D
  3
Facepattern
350
39
  3
Flat
350
2B
  3
FlatWithEdges
350
2C
  3
Gouraud
350
2D
  3
GouraudWithEdges
350
2E
  3
Hidden
350
31
  3
JitterOff
350
3B
  3
Linepattern
350
38
  3
OverhangOff
350
3C
  3
Realistic
350
33
  3
Shaded
350
42
  3
Shaded with edges
350
41
  3
Shades of Gray
350
3E
  3
Sketchy
350
3F
  3
Thicken
350
37
  3
Wireframe
350
30
  3
X-Ray
350
40
  0
XRECORD
  5
202
102
{ACAD_REACTORS
330
C
102
}
330
C
100
AcDbXrecord
280
     1
 90
        1
330
6A
  0
DICTIONARY
  5
AA
102
{ACAD_REACTORS
330
C
102
}
330
C
100
AcDbDictionary
281
     1
  3
CANNOSCALE
350
AB
  3
CENTEREXE
350
B0
  3
CENTERLTYPEFILE
350
B1
  3
CMLEADERSTYLE
350
AD
  3
CTABLESTYLE
350
AC
  3
CVIEWDETAILSTYLE
350
1FE
  3
CVIEWSECTIONSTYLE
350
1FF
  0
DICTIONARY
  5
C2
102
{ACAD_REACTORS
330
C1
102
}
330
C1
100
AcDbDictionary
281
     1
  0
ACDBDETAILVIEWSTYLE
  5
B5
102
{ACAD_XDICTIONARY
360
205
102
}
102
{ACAD_REACTORS
330
AE
102
}
330
AE
100
AcDbModelDocViewStyle
 70
     0
  3
Metric50
290
     0
100
AcDbDetailViewStyle
 70
     0
 71
     0
 90
        3
 71
     1
340
11
 62
   256
 40
5.0
340
0
 62
   256
 40
5.0
300

 40
0.0
280
     1
 71
     2
340
16
 90
       25
 62
   256
 71
     3
340
11
 62
   256
 40
5.0
 90
        0
 40
15.0
 90
        1
300
%<\AcVar ViewDetailId>% (%<\AcVar ViewScale \f "%sn">%)
 71
     4
340
16
 90
       25
 62
   256
340
16
 90
       25
 62
   256
280
     0
  0
LAYOUT
  5
1E
102
{ACAD_REACTORS
330
1A
102
}
330
1A
100
AcDbPlotSettings
  1

  2
none_device
  4

  6

 40
0.0
 41
0.0
 42
0.0
 43
0.0
 44
0.0
 45
0.0
 46
0.0
 47
0.0
 48
0.0
 49
0.0
140
0.0
141
0.0
142
1.0
143
1.0
 70
   688
 72
     1
 73
     0
 74
     5
  7

 75
    16
147
1.0
 76
     0
 77
     2
 78
   300
148
0.0
149
0.0
100
AcDbLayout
  1
Layout1
 70
     1
 71
     1
 10
0.0
 20
0.0
 11
420.0
 21
297.0
 12
0.0
 22
0.0
 32
0.0
 14
1.000000000000000E+20
 24
1.000000000000000E+20
 34
1.000000000000000E+20
 15
-1.000000000000000E+20
 25
-1.000000000000000E+20
 35
-1.000000000000000E+20
146
0.0
 13
0.0
 23
0.0
 33
0.0
 16
1.0
 26
0.0
 36
0.0
 17
0.0
 27
1.0
 37
0.0
 76
     0
330
1B
  0
LAYOUT
  5
26
102
{ACAD_REACTORS
330
1A
102
}
330
1A
100
AcDbPlotSettings
  1

  2
none_device
  4

  6

 40
0.0
 41
0.0
 42
0.0
 43
0.0
 44
0.0
 45
0.0
 46
0.0
 47
0.0
 48
0.0
 49
0.0
140
0.0
141
0.0
142
1.0
143
1.0
 70
   688
 72
     1
 73
     0
 74
     5
  7

 75
    16
147
1.0
 76
     0
 77
     2
 78
   300
148
0.0
149
0.0
100
AcDbLayout
  1
Layout2
 70
     1
 71
     2
 10
0.0
 20
0.0
 11
0.0
 21
0.0
 12
0.0
 22
0.0
 32
0.0
 14
0.0
 24
0.0
 34
0.0
 15
0.0
 25
0.0
 35
0.0
146
0.0
 13
0.0
 23
0.0
 33
0.0
 16
1.0
 26
0.0
 36
0.0
 17
0.0
 27
1.0
 37
0.0
 76
     0
330
23
  0
LAYOUT
  5
22
102
{ACAD_REACTORS
330
1A
102
}
330
1A
100
AcDbPlotSettings
  1

  2
none_device
  4
Letter_(8.50_x_11.00_Inches)
  6

 40
6.349999999999999
 41
6.349999999999999
 42
6.350005079999999
 43
6.350005079999999
 44
215.9
 45
279.4
 46
0.0
 47
0.0
 48
0.0
 49
0.0
140
0.0
141
0.0
142
1.0
143
1.0
 70
  1712
 72
     1
 73
     0
 74
     0
  7

 75
     0
147
1.0
 76
     0
 77
     2
 78
   300
148
0.0
149
0.0
100
AcDbLayout
  1
Model
 70
     1
 71
     0
 10
0.0
 20
0.0
 11
420.0
 21
297.0
 12
0.0
 22
0.0
 32
0.0
 14
-94.21090036567466
 24
-139.8577612421526
 34
0.0
 15
-34.21089960388359
 25
-85.85776016835858
 35
0.0
146
0.0
 13
0.0
 23
0.0
 33
0.0
 16
1.0
 26
0.0
 36
0.0
 17
0.0
 27
1.0
 37
0.0
 76
     0
330
1F
331
29
  0
MATERIAL
  5
45
102
{ACAD_REACTORS
330
43
102
}
330
43
100
AcDbMaterial
  1
ByBlock
 73
     1
 78
     1
172
     1
176
     1
270
     1
274
     1
  0
MATERIAL
  5
44
102
{ACAD_REACTORS
330
43
102
}
330
43
100
AcDbMaterial
  1
ByLayer
 73
     1
 78
     1
172
     1
176
     1
270
     1
274
     1
  0
MATERIAL
  5
46
102
{ACAD_REACTORS
330
43
102
}
330
43
100
AcDbMaterial
  1
Global
 73
     1
 78
     1
172
     1
176
     1
270
     1
274
     1
  0
MLEADERSTYLE
  5
6C
102
{ACAD_REACTORS
330
6B
102
}
330
6B
100
AcDbMLeaderStyle
179
     2
170
     2
171
     1
172
     0
 90
        2
 40
0.0
 41
0.0
173
     1
 91
-1056964608
340
14
 92
       -2
290
     1
 42
2.0
291
     1
 43
8.0
  3
Standard
 44
4.0
300

342
11
174
     1
178
     6
175
     1
176
     0
 93
-1056964608
 45
4.0
292
     0
297
     0
 46
4.0
 94
-1056964608
 47
1.0
 49
1.0
140
1.0
293
     1
141
0.0
294
     1
177
     0
142
1.0
295
     0
296
     0
143
3.75
271
     0
272
     9
273
     9
298
     0
  0
MLINESTYLE
  5
18
102
{ACAD_REACTORS
330
17
102
}
330
17
100
AcDbMlineStyle
  2
STANDARD
 70
     0
  3

 62
   256
 51
90.0
 52
90.0
 71
     2
 49
0.5
 62
   256
  6
BYLAYER
 49
-0.5
 62
   256
  6
BYLAYER
  0
ACDBPLACEHOLDER
  5
F
102
{ACAD_REACTORS
330
E
102
}
330
E
  0
SCALE
  5
48
102
{ACAD_REACTORS
330
47
102
}
330
47
100
AcDbScale
 70
     0
300
1:1
140
1.0
141
1.0
290
     1
  0
SCALE
  5
49
102
{ACAD_REACTORS
330
47
102
}
330
47
100
AcDbScale
 70
     0
300
1:2
140
1.0
141
2.0
290
     0
  0
SCALE
  5
4A
102
{ACAD_REACTORS
330
47
102
}
330
47
100
AcDbScale
 70
     0
300
1:4
140
1.0
141
4.0
290
     0
  0
SCALE
  5
4B
102
{ACAD_REACTORS
330
47
102
}
330
47
100
AcDbScale
 70
     0
300
1:5
140
1.0
141
5.0
290
     0
  0
SCALE
  5
4C
102
{ACAD_REACTORS
330
47
102
}
330
47
100
AcDbScale
 70
     0
300
1:8
140
1.0
141
8.0
290
     0
  0
SCALE
  5
4D
102
{ACAD_REACTORS
330
47
102
}
330
47
100
AcDbScale
 70
     0
300
1:10
140
1.0
141
10.0
290
     0
  0
SCALE
  5
4E
102
{ACAD_REACTORS
330
47
102
}
330
47
100
AcDbScale
 70
     0
300
1:16
140
1.0
141
16.0
290
     0
  0
SCALE
  5
4F
102
{ACAD_REACTORS
330
47
102
}
330
47
100
AcDbScale
 70
     0
300
1:20
140
1.0
141
20.0
290
     0
  0
SCALE
  5
50
102
{ACAD_REACTORS
330
47
102
}
330
47
100
AcDbScale
 70
     0
300
1:30
140
1.0
141
30.0
290
     0
  0
SCALE
  5
51
102
{ACAD_REACTORS
330
47
102
}
330
47
100
AcDbScale
 70
     0
300
1:40
140
1.0
141
40.0
290
     0
  0
SCALE
  5
52
102
{ACAD_REACTORS
330
47
102
}
330
47
100
AcDbScale
 70
     0
300
1:50
140
1.0
141
50.0
290
     0
  0
SCALE
  5
53
102
{ACAD_REACTORS
330
47
102
}
330
47
100
AcDbScale
 70
     0
300
1:100
140
1.0
141
100.0
290
     0
  0
SCALE
  5
54
102
{ACAD_REACTORS
330
47
102
}
330
47
100
AcDbScale
 70
     0
300
2:1
140
2.0
141
1.0
290
     0
  0
SCALE
  5
55
102
{ACAD_REACTORS
330
47
102
}
330
47
100
AcDbScale
 70
     0
300
4:1
140
4.0
141
1.0
290
     0
  0
SCALE
  5
56
102
{ACAD_REACTORS
330
47
102
}
330
47
100
AcDbScale
 70
     0
300
8:1
140
8.0
141
1.0
290
     0
  0
SCALE
  5
57
102
{ACAD_REACTORS
330
47
102
}
330
47
100
AcDbScale
 70
     0
300
10:1
140
10.0
141
1.0
290
     0
  0
SCALE
  5
58
102
{ACAD_REACTORS
330
47
102
}
330
47
100
AcDbScale
 70
     0
300
100:1
140
100.0
141
1.0
290
     0
  0
SCALE
  5
59
102
{ACAD_REACTORS
330
47
102
}
330
47
100
AcDbScale
 70
     0
300
1/128" = 1'-0"
140
0.0078125
141
12.0
290
     0
  0
SCALE
  5
5A
102
{ACAD_REACTORS
330
47
102
}
330
47
100
AcDbScale
 70
     0
300
1/64" = 1'-0"
140
0.015625
141
12.0
290
     0
  0
SCALE
  5
5B
102
{ACAD_REACTORS
330
47
102
}
330
47
100
AcDbScale
 70
     0
300
1/32" = 1'-0"
140
0.03125
141
12.0
290
     0
  0
SCALE
  5
5C
102
{ACAD_REACTORS
330
47
102
}
330
47
100
AcDbScale
 70
     0
300
1/16" = 1'-0"
140
0.0625
141
12.0
290
     0
  0
SCALE
  5
5D
102
{ACAD_REACTORS
330
47
102
}
330
47
100
AcDbScale
 70
     0
300
3/32" = 1'-0"
140
0.09375
141
12.0
290
     0
  0
SCALE
  5
5E
102
{ACAD_REACTORS
330
47
102
}
330
47
100
AcDbScale
 70
     0
300
1/8" = 1'-0"
140
0.125
141
12.0
290
     0
  0
SCALE
  5
5F
102
{ACAD_REACTORS
330
47
102
}
330
47
100
AcDbScale
 70
     0
300
3/16" = 1'-0"
140
0.1875
141
12.0
290
     0
  0
SCALE
  5
60
102
{ACAD_REACTORS
330
47
102
}
330
47
100
AcDbScale
 70
     0
300
1/4" = 1'-0"
140
0.25
141
12.0
290
     0
  0
SCALE
  5
61
102
{ACAD_REACTORS
330
47
102
}
330
47
100
AcDbScale
 70
     0
300
3/8" = 1'-0"
140
0.375
141
12.0
290
     0
  0
SCALE
  5
62
102
{ACAD_REACTORS
330
47
102
}
330
47
100
AcDbScale
 70
     0
300
1/2" = 1'-0"
140
0.5
141
12.0
290
     0
  0
SCALE
  5
63
102
{ACAD_REACTORS
330
47
102
}
330
47
100
AcDbScale
 70
     0
300
3/4" = 1'-0"
140
0.75
141
12.0
290
     0
  0
SCALE
  5
64
102
{ACAD_REACTORS
330
47
102
}
330
47
100
AcDbScale
 70
     0
300
1" = 1'-0"
140
1.0
141
12.0
290
     0
  0
SCALE
  5
65
102
{ACAD_REACTORS
330
47
102
}
330
47
100
AcDbScale
 70
     0
300
1-1/2" = 1'-0"
140
1.5
141
12.0
290
     0
  0
SCALE
  5
66
102
{ACAD_REACTORS
330
47
102
}
330
47
100
AcDbScale
 70
     0
300
3" = 1'-0"
140
3.0
141
12.0
290
     0
  0
SCALE
  5
67
102
{ACAD_REACTORS
330
47
102
}
330
47
100
AcDbScale
 70
     0
300
6" = 1'-0"
140
6.0
141
12.0
290
     0
  0
SCALE
  5
68
102
{ACAD_REACTORS
330
47
102
}
330
47
100
AcDbScale
 70
     0
300
1'-0" = 1'-0"
140
12.0
141
12.0
290
     0
  0
ACDBSECTIONVIEWSTYLE
  5
B4
102
{ACAD_XDICTIONARY
360
203
102
}
102
{ACAD_REACTORS
330
AF
102
}
330
AF
100
AcDbModelDocViewStyle
 70
     0
  3
Metric50
290
     0
100
AcDbSectionViewStyle
 70
     0
 71
     0
 90
      102
 71
     1
340
11
 62
   256
 40
5.0
340
0
340
0
 62
   256
 40
5.0
300
I, O, Q, S, X, Z
 40
10.0
 90
        0
 40
2.5
 90
        0
 71
     2
340
16
 90
       25
 62
   256
340
16
 90
       50
 62
   256
 40
5.0
 40
2.5
 40
5.0
 71
     3
340
11
 62
   256
 40
5.0
 90
        0
 40
15.0
 90
        1
300
%<\AcVar ViewSectionStartId>%-%<\AcVar ViewSectionEndId>% (%<\AcVar ViewScale \f "%sn">%)
 71
     4
 62
   256
 62
   257
300
ANSI31
 40
1.0
 90
        0
290
     0
290
     0
 90
        6
 40
0.0
 40
1.570796326794896
 40
0.2617993877991494
 40
1.308996938995747
 40
-0.2617993877991494
 40
1.832595714594046
  0
TABLESTYLE
  5
6A
102
{ACAD_XDICTIONARY
360
200
102
}
102
{ACAD_REACTORS
330
69
102
}
330
69
100
AcDbTableStyle
280
     0
  3
Standard
 70
     0
 71
     0
 40
1.5
 41
1.5
280
     0
281
     0
  7
Standard
140
4.5
170
     2
 62
     0
 63
     7
283
     0
 90
        4
 91
        0
  1

274
    -2
284
     1
 64
     0
275
    -2
285
     1
 65
     0
276
    -2
286
     1
 66
     0
277
    -2
287
     1
 67
     0
278
    -2
288
     1
 68
     0
279
    -2
289
     1
 69
     0
  7
Standard
140
6.0
170
     5
 62
     0
 63
     7
283
     0
 90
        4
 91
        0
  1

274
    -2
284
     1
 64
     0
275
    -2
285
     1
 65
     0
276
    -2
286
     1
 66
     0
277
    -2
287
     1
 67
     0
278
    -2
288
     1
 68
     0
279
    -2
289
     1
 69
     0
  7
Standard
140
4.5
170
     5
 62
     0
 63
     7
283
     0
 90
        4
 91
        0
  1

274
    -2
284
     1
 64
     0
275
    -2
285
     1
 65
     0
276
    -2
286
     1
 66
     0
277
    -2
287
     1
 67
     0
278
    -2
288
     1
 68
     0
279
    -2
289
     1
 69
     0
  0
VISUALSTYLE
  5
2F
102
{ACAD_REACTORS
330
2A
102
}
330
2A
100
AcDbVisualStyle
  2
2dWireframe
 70
     4
177
     3
291
     0
 70
    58
 90
        0
176
     1
 90
        2
176
     1
 90
        0
176
     1
 90
        0
176
     1
 40
0.6
176
     1
 40
30.0
176
     1
 62
     7
420
 16777215
176
     1
 90
        1
176
     1
 90
        4
176
     1
 62
     7
176
     1
 62
   257
176
     1
 90
        1
176
     1
 90
        1
176
     1
 40
1.0
176
     1
 90
        0
176
     1
 62
   257
176
     1
 40
1.0
176
     1
 90
        1
176
     1
 90
        6
176
     1
 90
        2
176
     1
 62
     7
176
     1
 90
        5
176
     1
 90
        0
176
     1
 90
        0
176
     1
290
     0
176
     1
 90
        1
176
     1
 40
0.0
176
     1
 90
        0
176
     1
290
     1
176
     1
290
     1
176
     1
290
     0
176
     1
290
     0
176
     1
290
     0
176
     1
290
     0
176
     1
290
     0
176
     1
290
     0
176
     1
290
     0
176
     1
 90
       50
176
     1
 40
0.0
176
     1
 40
1.0
176
     1
 90
        0
176
     1
 62
    18
420
        0
176
     1
 90
       50
176
     1
 90
        3
176
     1
 62
     5
420
      255
176
     1
290
     0
176
     1
 90
       50
176
     1
 90
       50
176
     1
 90
       50
176
     1
290
     0
176
     1
 90
       50
176
     1
 62
   256
176
     0
 40
1.0
176
     0
 90
        2
176
     1
  1
strokes_ogs.tif
176
     1
290
     0
176
     1
 40
1.0
176
     1
 40
1.0
176
     1
1001
ACAD
1000
AcDbSavedByObjectVersion
1070
     0
  0
VISUALSTYLE
  5
C0
102
{ACAD_REACTORS
330
2A
102
}
330
2A
100
AcDbVisualStyle
  2
3dWireframe
 70
     5
177
     3
291
     0
 70
    58
 90
        0
176
     1
 90
        2
176
     1
 90
        0
176
     1
 90
        0
176
     1
 40
0.6
176
     1
 40
30.0
176
     1
 62
     7
420
 16777215
176
     1
 90
        1
176
     1
 90
        4
176
     1
 62
     7
176
     1
 62
   257
176
     1
 90
        1
176
     1
 90
        1
176
     1
 40
1.0
176
     1
 90
        0
176
     1
 62
   257
176
     1
 40
1.0
176
     1
 90
        1
176
     1
 90
        6
176
     1
 90
        2
176
     1
 62
     7
176
     1
 90
        5
176
     1
 90
        0
176
     1
 90
        0
176
     1
290
     0
176
     1
 90
        1
176
     1
 40
0.0
176
     1
 90
        0
176
     1
290
     0
176
     1
290
     1
176
     1
290
     1
176
     1
290
     0
176
     1
290
     0
176
     1
290
     0
176
     1
290
     0
176
     1
290
     0
176
     1
290
     0
176
     1
 90
       50
176
     1
 40
0.0
176
     1
 40
1.0
176
     1
 90
        0
176
     1
 62
    18
420
        0
176
     1
 90
       50
176
     1
 90
        3
176
     1
 62
     5
420
      255
176
     1
290
     0
176
     1
 90
       50
176
     1
 90
       50
176
     1
 90
       50
176
     1
290
     0
176
     1
 90
       50
176
     1
 62
   256
176
     0
 40
1.0
176
     0
 90
        2
176
     1
  1
strokes_ogs.tif
176
     1
290
     0
176
     1
 40
1.0
176
     1
 40
1.0
176
     1
1001
ACAD
1000
AcDbSavedByObjectVersion
1070
     0
  0
VISUALSTYLE
  5
32
102
{ACAD_REACTORS
330
2A
102
}
330
2A
100
AcDbVisualStyle
  2
Basic
 70
     7
177
     3
291
     1
 70
    58
 90
        1
176
     1
 90
        0
176
     1
 90
        1
176
     1
 90
        0
176
     1
 40
0.6
176
     1
 40
30.0
176
     1
 62
     7
420
 16777215
176
     1
 90
        0
176
     1
 90
        4
176
     1
 62
     7
176
     1
 62
   257
176
     1
 90
        1
176
     1
 90
        1
176
     1
 40
1.0
176
     1
 90
        8
176
     1
 62
     7
176
     1
 40
1.0
176
     1
 90
        1
176
     1
 90
        6
176
     1
 90
        2
176
     1
 62
     7
176
     1
 90
        5
176
     1
 90
        0
176
     1
 90
        0
176
     1
290
     0
176
     1
 90
        1
176
     1
 40
0.0
176
     1
 90
        0
176
     1
290
     0
176
     1
290
     1
176
     1
290
     1
176
     1
290
     0
176
     1
290
     0
176
     1
290
     0
176
     1
290
     0
176
     1
290
     0
176
     1
290
     0
176
     1
 90
       50
176
     1
 40
0.0
176
     1
 40
1.0
176
     1
 90
        0
176
     1
 62
    18
420
        0
176
     1
 90
       50
176
     1
 90
        3
176
     1
 62
     5
420
      255
176
     1
290
     0
176
     1
 90
       50
176
     1
 90
       50
176
     1
 90
       50
176
     1
290
     0
176
     1
 90
       50
176
     1
 62
   256
176
     0
 40
1.0
176
     0
 90
        2
176
     1
  1
strokes_ogs.tif
176
     1
290
     0
176
     1
 40
1.0
176
     1
 40
1.0
176
     1
1001
ACAD
1000
AcDbSavedByObjectVersion
1070
     0
  0
VISUALSTYLE
  5
36
102
{ACAD_REACTORS
330
2A
102
}
330
2A
100
AcDbVisualStyle
  2
Brighten
 70
    12
177
     3
291
     1
 70
    58
 90
        2
176
     1
 90
        2
176
     1
 90
        0
176
     1
 90
        0
176
     1
 40
0.6
176
     1
 40
30.0
176
     1
 62
     7
420
 16777215
176
     1
 90
        1
176
     1
 90
        4
176
     1
 62
     7
176
     1
 62
   257
176
     1
 90
        1
176
     1
 90
        1
176
     1
 40
1.0
176
     1
 90
        8
176
     1
 62
     7
176
     1
 40
1.0
176
     1
 90
        1
176
     1
 90
        6
176
     1
 90
        2
176
     1
 62
     7
176
     1
 90
        5
176
     1
 90
        0
176
     1
 90
        0
176
     1
290
     0
176
     1
 90
        1
176
     1
 40
50.0
176
     1
 90
        0
176
     1
290
     0
176
     1
290
     1
176
     1
290
     1
176
     1
290
     0
176
     1
290
     0
176
     1
290
     0
176
     1
290
     0
176
     1
290
     0
176
     1
290
     0
176
     1
 90
       50
176
     1
 40
0.0
176
     1
 40
1.0
176
     1
 90
        0
176
     1
 62
    18
420
        0
176
     1
 90
       50
176
     1
 90
        3
176
     1
 62
     5
420
      255
176
     1
290
     0
176
     1
 90
       50
176
     1
 90
       50
176
     1
 90
       50
176
     1
290
     0
176
     1
 90
       50
176
     1
 62
   256
176
     0
 40
1.0
176
     0
 90
        2
176
     1
  1
strokes_ogs.tif
176
     1
290
     0
176
     1
 40
1.0
176
     1
 40
1.0
176
     1
1001
ACAD
1000
AcDbSavedByObjectVersion
1070
     0
  0
VISUALSTYLE
  5
3A
102
{ACAD_REACTORS
330
2A
102
}
330
2A
100
AcDbVisualStyle
  2
ColorChange
 70
    16
177
     3
291
     1
 70
    58
 90
        2
176
     1
 90
        2
176
     1
 90
        3
176
     1
 90
        0
176
     1
 40
0.6
176
     1
 40
30.0
176
     1
 62
     8
420
  8421504
176
     1
 90
        1
176
     1
 90
        4
176
     1
 62
     7
176
     1
 62
   257
176
     1
 90
        1
176
     1
 90
        1
176
     1
 40
1.0
176
     1
 90
        8
176
     1
 62
     8
420
  8421504
176
     1
 40
1.0
176
     1
 90
        1
176
     1
 90
        6
176
     1
 90
        2
176
     1
 62
     7
176
     1
 90
        5
176
     1
 90
        0
176
     1
 90
        0
176
     1
290
     0
176
     1
 90
        1
176
     1
 40
0.0
176
     1
 90
        0
176
     1
290
     0
176
     1
290
     1
176
     1
290
     1
176
     1
290
     0
176
     1
290
     0
176
     1
290
     0
176
     1
290
     0
176
     1
290
     0
176
     1
290
     0
176
     1
 90
       50
176
     1
 40
0.0
176
     1
 40
1.0
176
     1
 90
        0
176
     1
 62
    18
420
        0
176
     1
 90
       50
176
     1
 90
        3
176
     1
 62
     5
420
      255
176
     1
290
     0
176
     1
 90
       50
176
     1
 90
       50
176
     1
 90
       50
176
     1
290
     0
176
     1
 90
       50
176
     1
 62
   256
176
     0
 40
1.0
176
     0
 90
        2
176
     1
  1
strokes_ogs.tif
176
     1
290
     0
176
     1
 40
1.0
176
     1
 40
1.0
176
     1
1001
ACAD
1000
AcDbSavedByObjectVersion
1070
     0
  0
VISUALSTYLE
  5
34
102
{ACAD_REACTORS
330
2A
102
}
330
2A
100
AcDbVisualStyle
  2
Conceptual
 70
     9
177
     3
291
     0
 70
    58
 90
        3
176
     1
 90
        2
176
     1
 90
        0
176
     1
 90
        0
176
     1
 40
0.6
176
     1
 40
30.0
176
     1
 62
     7
420
 16777215
176
     1
 90
        2
176
     1
 90
        2
176
     1
 62
     7
176
     1
 62
   257
176
     1
 90
        1
176
     1
 90
        1
176
     1
 40
179.0
176
     1
 90
        8
176
     1
 62
     7
176
     1
 40
1.0
176
     1
 90
        1
176
     1
 90
        6
176
     1
 90
        2
176
     1
 62
     7
176
     1
 90
        3
176
     1
 90
        0
176
     1
 90
        0
176
     1
290
     0
176
     1
 90
        1
176
     1
 40
0.0
176
     1
 90
        0
176
     1
290
     0
176
     1
290
     1
176
     1
290
     1
176
     1
290
     0
176
     1
290
     0
176
     1
290
     0
176
     1
290
     0
176
     1
290
     0
176
     1
290
     0
176
     1
 90
       50
176
     1
 40
0.0
176
     1
 40
1.0
176
     1
 90
        0
176
     1
 62
    18
420
        0
176
     1
 90
       50
176
     1
 90
        3
176
     1
 62
     5
420
      255
176
     1
290
     0
176
     1
 90
       50
176
     1
 90
       50
176
     1
 90
       50
176
     1
290
     0
176
     1
 90
       50
176
     1
 62
   256
176
     0
 40
1.0
176
     0
 90
        2
176
     1
  1
strokes_ogs.tif
176
     1
290
     0
176
     1
 40
1.0
176
     1
 40
1.0
176
     1
1001
ACAD
1000
AcDbSavedByObjectVersion
1070
     0
  0
VISUALSTYLE
  5
35
102
{ACAD_REACTORS
330
2A
102
}
330
2A
100
AcDbVisualStyle
  2
Dim
 70
    11
177
     3
291
     1
 70
    58
 90
        2
176
     1
 90
        2
176
     1
 90
        0
176
     1
 90
        0
176
     1
 40
0.6
176
     1
 40
30.0
176
     1
 62
     7
420
 16777215
176
     1
 90
        1
176
     1
 90
        4
176
     1
 62
     7
176
     1
 62
   257
176
     1
 90
        1
176
     1
 90
        1
176
     1
 40
1.0
176
     1
 90
        8
176
     1
 62
     7
176
     1
 40
1.0
176
     1
 90
        1
176
     1
 90
        6
176
     1
 90
        2
176
     1
 62
     7
176
     1
 90
        5
176
     1
 90
        0
176
     1
 90
        0
176
     1
290
     0
176
     1
 90
        1
176
     1
 40
-50.0
176
     1
 90
        0
176
     1
290
     0
176
     1
290
     1
176
     1
290
     1
176
     1
290
     0
176
     1
290
     0
176
     1
290
     0
176
     1
290
     0
176
     1
290
     0
176
     1
290
     0
176
     1
 90
       50
176
     1
 40
0.0
176
     1
 40
1.0
176
     1
 90
        0
176
     1
 62
    18
420
        0
176
     1
 90
       50
176
     1
 90
        3
176
     1
 62
     5
420
      255
176
     1
290
     0
176
     1
 90
       50
176
     1
 90
       50
176
     1
 90
       50
176
     1
290
     0
176
     1
 90
       50
176
     1
 62
   256
176
     0
 40
1.0
176
     0
 90
        2
176
     1
  1
strokes_ogs.tif
176
     1
290
     0
176
     1
 40
1.0
176
     1
 40
1.0
176
     1
1001
ACAD
1000
AcDbSavedByObjectVersion
1070
     0
  0
VISUALSTYLE
  5
3D
102
{ACAD_REACTORS
330
2A
102
}
330
2A
100
AcDbVisualStyle
  2
EdgeColorOff
 70
    22
177
     3
291
     1
 70
    58
 90
        2
176
     0
 90
        2
176
     0
 90
        0
176
     0
 90
        0
176
     0
 40
0.6
176
     0
 40
30.0
176
     0
 62
     7
420
 16777215
176
     0
 90
        1
176
     0
 90
        4
176
     0
 62
     7
176
     0
 62
   257
176
     0
 90
        1
176
     0
 90
        1
176
     0
 40
1.0
176
     0
 90
        8
176
     2
 62
     7
176
     0
 40
1.0
176
     0
 90
        1
176
     0
 90
        6
176
     0
 90
        2
176
     0
 62
     7
176
     0
 90
        5
176
     0
 90
        0
176
     0
 90
        0
176
     0
290
     0
176
     0
 90
        1
176
     0
 40
0.0
176
     0
 90
        0
176
     0
290
     0
176
     0
290
     1
176
     0
290
     1
176
     0
290
     0
176
     0
290
     0
176
     0
290
     0
176
     0
290
     0
176
     0
290
     0
176
     0
290
     0
176
     0
 90
       50
176
     0
 40
0.0
176
     0
 40
1.0
176
     0
 90
        0
176
     0
 62
    18
420
        0
176
     0
 90
       50
176
     0
 90
        3
176
     0
 62
     5
420
      255
176
     0
290
     0
176
     0
 90
       50
176
     0
 90
       50
176
     0
 90
       50
176
     0
290
     0
176
     0
 90
       50
176
     0
 62
   256
176
     0
 40
1.0
176
     0
 90
        2
176
     0
  1
strokes_ogs.tif
176
     0
290
     0
176
     0
 40
1.0
176
     0
 40
1.0
176
     0
1001
ACAD
1000
AcDbSavedByObjectVersion
1070
     0
  0
VISUALSTYLE
  5
39
102
{ACAD_REACTORS
330
2A
102
}
330
2A
100
AcDbVisualStyle
  2
Facepattern
 70
    15
177
     3
291
     1
 70
    58
 90
        2
176
     1
 90
        2
176
     1
 90
        0
176
     1
 90
        0
176
     1
 40
0.6
176
     1
 40
30.0
176
     1
 62
     7
420
 16777215
176
     1
 90
        1
176
     1
 90
        4
176
     1
 62
     7
176
     1
 62
   257
176
     1
 90
        1
176
     1
 90
        1
176
     1
 40
1.0
176
     1
 90
        8
176
     1
 62
     7
176
     1
 40
1.0
176
     1
 90
        1
176
     1
 90
        6
176
     1
 90
        2
176
     1
 62
     7
176
     1
 90
        5
176
     1
 90
        0
176
     1
 90
        0
176
     1
290
     0
176
     1
 90
        1
176
     1
 40
0.0
176
     1
 90
        0
176
     1
290
     0
176
     1
290
     1
176
     1
290
     1
176
     1
290
     0
176
     1
290
     0
176
     1
290
     0
176
     1
290
     0
176
     1
290
     0
176
     1
290
     0
176
     1
 90
       50
176
     1
 40
0.0
176
     1
 40
1.0
176
     1
 90
        0
176
     1
 62
    18
420
        0
176
     1
 90
       50
176
     1
 90
        3
176
     1
 62
     5
420
      255
176
     1
290
     0
176
     1
 90
       50
176
     1
 90
       50
176
     1
 90
       50
176
     1
290
     0
176
     1
 90
       50
176
     1
 62
   256
176
     0
 40
1.0
176
     0
 90
        2
176
     1
  1
strokes_ogs.tif
176
     1
290
     0
176
     1
 40
1.0
176
     1
 40
1.0
176
     1
1001
ACAD
1000
AcDbSavedByObjectVersion
1070
     0
  0
VISUALSTYLE
  5
2B
102
{ACAD_REACTORS
330
2A
102
}
330
2A
100
AcDbVisualStyle
  2
Flat
 70
     0
177
     3
291
     1
 70
    58
 90
        2
176
     1
 90
        1
176
     1
 90
        1
176
     1
 90
        2
176
     1
 40
0.6
176
     1
 40
30.0
176
     1
 62
     7
420
 16777215
176
     1
 90
        0
176
     1
 90
        0
176
     1
 62
     7
176
     1
 62
   257
176
     1
 90
        1
176
     1
 90
        1
176
     1
 40
1.0
176
     1
 90
        8
176
     1
 62
     7
176
     1
 40
1.0
176
     1
 90
        1
176
     1
 90
        6
176
     1
 90
        2
176
     1
 62
     7
176
     1
 90
        5
176
     1
 90
        0
176
     1
 90
        0
176
     1
290
     0
176
     1
 90
       13
176
     1
 40
0.0
176
     1
 90
        0
176
     1
290
     0
176
     1
290
     1
176
     1
290
     1
176
     1
290
     0
176
     1
290
     0
176
     1
290
     0
176
     1
290
     0
176
     1
290
     0
176
     1
290
     0
176
     1
 90
       50
176
     1
 40
0.0
176
     1
 40
1.0
176
     1
 90
        0
176
     1
 62
    18
420
        0
176
     1
 90
       50
176
     1
 90
        3
176
     1
 62
     5
420
      255
176
     1
290
     0
176
     1
 90
       50
176
     1
 90
       50
176
     1
 90
       50
176
     1
290
     0
176
     1
 90
       50
176
     1
 62
   256
176
     0
 40
1.0
176
     0
 90
        2
176
     1
  1
strokes_ogs.tif
176
     1
290
     0
176
     1
 40
1.0
176
     1
 40
1.0
176
     1
1001
ACAD
1000
AcDbSavedByObjectVersion
1070
     0
  0
VISUALSTYLE
  5
2C
102
{ACAD_REACTORS
330
2A
102
}
330
2A
100
AcDbVisualStyle
  2
FlatWithEdges
 70
     1
177
     3
291
     1
 70
    58
 90
        2
176
     1
 90
        1
176
     1
 90
        1
176
     1
 90
        2
176
     1
 40
0.6
176
     1
 40
30.0
176
     1
 62
     7
420
 16777215
176
     1
 90
        1
176
     1
 90
        0
176
     1
 62
     7
176
     1
 62
   257
176
     1
 90
        1
176
     1
 90
        1
176
     1
 40
1.0
176
     1
 90
        0
176
     1
 62
   257
176
     1
 40
1.0
176
     1
 90
        1
176
     1
 90
        6
176
     1
 90
        2
176
     1
 62
     7
176
     1
 90
        5
176
     1
 90
        0
176
     1
 90
        0
176
     1
290
     0
176
     1
 90
       13
176
     1
 40
0.0
176
     1
 90
        0
176
     1
290
     0
176
     1
290
     1
176
     1
290
     1
176
     1
290
     0
176
     1
290
     0
176
     1
290
     0
176
     1
290
     0
176
     1
290
     0
176
     1
290
     0
176
     1
 90
       50
176
     1
 40
0.0
176
     1
 40
1.0
176
     1
 90
        0
176
     1
 62
    18
420
        0
176
     1
 90
       50
176
     1
 90
        3
176
     1
 62
     5
420
      255
176
     1
290
     0
176
     1
 90
       50
176
     1
 90
       50
176
     1
 90
       50
176
     1
290
     0
176
     1
 90
       50
176
     1
 62
   256
176
     0
 40
1.0
176
     0
 90
        2
176
     1
  1
strokes_ogs.tif
176
     1
290
     0
176
     1
 40
1.0
176
     1
 40
1.0
176
     1
1001
ACAD
1000
AcDbSavedByObjectVersion
1070
     0
  0
VISUALSTYLE
  5
2D
102
{ACAD_REACTORS
330
2A
102
}
330
2A
100
AcDbVisualStyle
  2
Gouraud
 70
     2
177
     3
291
     1
 70
    58
 90
        2
176
     1
 90
        2
176
     1
 90
        1
176
     1
 90
        2
176
     1
 40
0.6
176
     1
 40
30.0
176
     1
 62
     7
420
 16777215
176
     1
 90
        0
176
     1
 90
        0
176
     1
 62
     7
176
     1
 62
   257
176
     1
 90
        1
176
     1
 90
        1
176
     1
 40
1.0
176
     1
 90
        0
176
     1
 62
     7
176
     1
 40
1.0
176
     1
 90
        1
176
     1
 90
        6
176
     1
 90
        2
176
     1
 62
     7
176
     1
 90
        5
176
     1
 90
        0
176
     1
 90
        0
176
     1
290
     0
176
     1
 90
       13
176
     1
 40
0.0
176
     1
 90
        0
176
     1
290
     0
176
     1
290
     1
176
     1
290
     1
176
     1
290
     0
176
     1
290
     0
176
     1
290
     0
176
     1
290
     0
176
     1
290
     0
176
     1
290
     0
176
     1
 90
       50
176
     1
 40
0.0
176
     1
 40
1.0
176
     1
 90
        0
176
     1
 62
    18
420
        0
176
     1
 90
       50
176
     1
 90
        3
176
     1
 62
     5
420
      255
176
     1
290
     0
176
     1
 90
       50
176
     1
 90
       50
176
     1
 90
       50
176
     1
290
     0
176
     1
 90
       50
176
     1
 62
   256
176
     0
 40
1.0
176
     0
 90
        2
176
     1
  1
strokes_ogs.tif
176
     1
290
     0
176
     1
 40
1.0
176
     1
 40
1.0
176
     1
1001
ACAD
1000
AcDbSavedByObjectVersion
1070
     0
  0
VISUALSTYLE
  5
2E
102
{ACAD_REACTORS
330
2A
102
}
330
2A
100
AcDbVisualStyle
  2
GouraudWithEdges
 70
     3
177
     3
291
     1
 70
    58
 90
        2
176
     1
 90
        2
176
     1
 90
        1
176
     1
 90
        2
176
     1
 40
0.6
176
     1
 40
30.0
176
     1
 62
     7
420
 16777215
176
     1
 90
        1
176
     1
 90
        0
176
     1
 62
     7
176
     1
 62
   257
176
     1
 90
        1
176
     1
 90
        1
176
     1
 40
1.0
176
     1
 90
        0
176
     1
 62
   257
176
     1
 40
1.0
176
     1
 90
        1
176
     1
 90
        6
176
     1
 90
        2
176
     1
 62
     7
176
     1
 90
        5
176
     1
 90
        0
176
     1
 90
        0
176
     1
290
     0
176
     1
 90
       13
176
     1
 40
0.0
176
     1
 90
        0
176
     1
290
     0
176
     1
290
     1
176
     1
290
     1
176
     1
290
     0
176
     1
290
     0
176
     1
290
     0
176
     1
290
     0
176
     1
290
     0
176
     1
290
     0
176
     1
 90
       50
176
     1
 40
0.0
176
     1
 40
1.0
176
     1
 90
        0
176
     1
 62
    18
420
        0
176
     1
 90
       50
176
     1
 90
        3
176
     1
 62
     5
420
      255
176
     1
290
     0
176
     1
 90
       50
176
     1
 90
       50
176
     1
 90
       50
176
     1
290
     0
176
     1
 90
       50
176
     1
 62
   256
176
     0
 40
1.0
176
     0
 90
        2
176
     1
  1
strokes_ogs.tif
176
     1
290
     0
176
     1
 40
1.0
176
     1
 40
1.0
176
     1
1001
ACAD
1000
AcDbSavedByObjectVersion
1070
     0
  0
VISUALSTYLE
  5
31
102
{ACAD_REACTORS
330
2A
102
}
330
2A
100
AcDbVisualStyle
  2
Hidden
 70
     6
177
     3
291
     0
 70
    58
 90
        1
176
     1
 90
        2
176
     1
 90
        2
176
     1
 90
        0
176
     1
 40
0.6
176
     1
 40
30.0
176
     1
 62
     7
420
 16777215
176
     1
 90
        2
176
     1
 90
        2
176
     1
 62
     7
176
     1
 62
   257
176
     1
 90
        2
176
     1
 90
        1
176
     1
 40
40.0
176
     1
 90
        0
176
     1
 62
   257
176
     1
 40
1.0
176
     1
 90
        1
176
     1
 90
        6
176
     1
 90
        2
176
     1
 62
     7
176
     1
 90
        3
176
     1
 90
        0
176
     1
 90
        0
176
     1
290
     0
176
     1
 90
        1
176
     1
 40
0.0
176
     1
 90
        0
176
     1
290
     0
176
     1
290
     1
176
     1
290
     1
176
     1
290
     0
176
     1
290
     0
176
     1
290
     0
176
     1
290
     0
176
     1
290
     0
176
     1
290
     0
176
     1
 90
       50
176
     1
 40
0.0
176
     1
 40
1.0
176
     1
 90
        0
176
     1
 62
    18
420
        0
176
     1
 90
       50
176
     1
 90
        3
176
     1
 62
     5
420
      255
176
     1
290
     0
176
     1
 90
       50
176
     1
 90
       50
176
     1
 90
       50
176
     1
290
     0
176
     1
 90
       50
176
     1
 62
   256
176
     0
 40
1.0
176
     0
 90
        2
176
     1
  1
strokes_ogs.tif
176
     1
290
     0
176
     1
 40
1.0
176
     1
 40
1.0
176
     1
1001
ACAD
1000
AcDbSavedByObjectVersion
1070
     0
  0
VISUALSTYLE
  5
3B
102
{ACAD_REACTORS
330
2A
102
}
330
2A
100
AcDbVisualStyle
  2
JitterOff
 70
    20
177
     3
291
     1
 70
    58
 90
        2
176
     0
 90
        2
176
     0
 90
        0
176
     0
 90
        0
176
     0
 40
0.6
176
     0
 40
30.0
176
     0
 62
     7
420
 16777215
176
     0
 90
        1
176
     0
 90
        4
176
     0
 62
     7
176
     0
 62
   257
176
     0
 90
        1
176
     0
 90
        1
176
     0
 40
1.0
176
     0
 90
       10
176
     2
 62
     7
176
     0
 40
1.0
176
     0
 90
        1
176
     0
 90
        6
176
     0
 90
        2
176
     0
 62
     7
176
     0
 90
        5
176
     0
 90
        0
176
     0
 90
        0
176
     0
290
     0
176
     0
 90
        1
176
     0
 40
0.0
176
     0
 90
        0
176
     0
290
     0
176
     0
290
     1
176
     0
290
     1
176
     0
290
     0
176
     0
290
     0
176
     0
290
     0
176
     0
290
     0
176
     0
290
     0
176
     0
290
     0
176
     0
 90
       50
176
     0
 40
0.0
176
     0
 40
1.0
176
     0
 90
        0
176
     0
 62
    18
420
        0
176
     0
 90
       50
176
     0
 90
        3
176
     0
 62
     5
420
      255
176
     0
290
     0
176
     0
 90
       50
176
     0
 90
       50
176
     0
 90
       50
176
     0
290
     0
176
     0
 90
       50
176
     0
 62
   256
176
     0
 40
1.0
176
     0
 90
        2
176
     0
  1
strokes_ogs.tif
176
     0
290
     0
176
     0
 40
1.0
176
     0
 40
1.0
176
     0
1001
ACAD
1000
AcDbSavedByObjectVersion
1070
     0
  0
VISUALSTYLE
  5
38
102
{ACAD_REACTORS
330
2A
102
}
330
2A
100
AcDbVisualStyle
  2
Linepattern
 70
    14
177
     3
291
     1
 70
    58
 90
        2
176
     1
 90
        2
176
     1
 90
        0
176
     1
 90
        0
176
     1
 40
0.6
176
     1
 40
30.0
176
     1
 62
     7
420
 16777215
176
     1
 90
        1
176
     1
 90
        4
176
     1
 62
     7
176
     1
 62
   257
176
     1
 90
        7
176
     1
 90
        7
176
     1
 40
1.0
176
     1
 90
        8
176
     1
 62
     7
176
     1
 40
1.0
176
     1
 90
        1
176
     1
 90
        6
176
     1
 90
        2
176
     1
 62
     7
176
     1
 90
        5
176
     1
 90
        0
176
     1
 90
        0
176
     1
290
     0
176
     1
 90
        1
176
     1
 40
0.0
176
     1
 90
        0
176
     1
290
     0
176
     1
290
     1
176
     1
290
     1
176
     1
290
     0
176
     1
290
     0
176
     1
290
     0
176
     1
290
     0
176
     1
290
     0
176
     1
290
     0
176
     1
 90
       50
176
     1
 40
0.0
176
     1
 40
1.0
176
     1
 90
        0
176
     1
 62
    18
420
        0
176
     1
 90
       50
176
     1
 90
        3
176
     1
 62
     5
420
      255
176
     1
290
     0
176
     1
 90
       50
176
     1
 90
       50
176
     1
 90
       50
176
     1
290
     0
176
     1
 90
       50
176
     1
 62
   256
176
     0
 40
1.0
176
     0
 90
        2
176
     1
  1
strokes_ogs.tif
176
     1
290
     0
176
     1
 40
1.0
176
     1
 40
1.0
176
     1
1001
ACAD
1000
AcDbSavedByObjectVersion
1070
     0
  0
VISUALSTYLE
  5
3C
102
{ACAD_REACTORS
330
2A
102
}
330
2A
100
AcDbVisualStyle
  2
OverhangOff
 70
    21
177
     3
291
     1
 70
    58
 90
        2
176
     0
 90
        2
176
     0
 90
        0
176
     0
 90
        0
176
     0
 40
0.6
176
     0
 40
30.0
176
     0
 62
     7
420
 16777215
176
     0
 90
        1
176
     0
 90
        4
176
     0
 62
     7
176
     0
 62
   257
176
     0
 90
        1
176
     0
 90
        1
176
     0
 40
1.0
176
     0
 90
        9
176
     2
 62
     7
176
     0
 40
1.0
176
     0
 90
        1
176
     0
 90
        6
176
     0
 90
        2
176
     0
 62
     7
176
     0
 90
        5
176
     0
 90
        0
176
     0
 90
        0
176
     0
290
     0
176
     0
 90
        1
176
     0
 40
0.0
176
     0
 90
        0
176
     0
290
     0
176
     0
290
     1
176
     0
290
     1
176
     0
290
     0
176
     0
290
     0
176
     0
290
     0
176
     0
290
     0
176
     0
290
     0
176
     0
290
     0
176
     0
 90
       50
176
     0
 40
0.0
176
     0
 40
1.0
176
     0
 90
        0
176
     0
 62
    18
420
        0
176
     0
 90
       50
176
     0
 90
        3
176
     0
 62
     5
420
      255
176
     0
290
     0
176
     0
 90
       50
176
     0
 90
       50
176
     0
 90
       50
176
     0
290
     0
176
     0
 90
       50
176
     0
 62
   256
176
     0
 40
1.0
176
     0
 90
        2
176
     0
  1
strokes_ogs.tif
176
     0
290
     0
176
     0
 40
1.0
176
     0
 40
1.0
176
     0
1001
ACAD
1000
AcDbSavedByObjectVersion
1070
     0
  0
VISUALSTYLE
  5
33
102
{ACAD_REACTORS
330
2A
102
}
330
2A
100
AcDbVisualStyle
  2
Realistic
 70
     8
177
     3
291
     0
 70
    58
 90
        2
176
     1
 90
        3
176
     1
 90
        0
176
     1
 90
        2
176
     1
 40
0.6
176
     1
 40
30.0
176
     1
 62
     7
420
 16777215
176
     1
 90
        0
176
     1
 90
        0
176
     1
 62
     7
176
     1
 62
   257
176
     1
 90
        1
176
     1
 90
        1
176
     1
 40
1.0
176
     1
 90
        8
176
     1
 62
   257
176
     1
 40
1.0
176
     1
 90
        1
176
     1
 90
        6
176
     1
 90
        2
176
     1
 62
     7
176
     1
 90
        3
176
     1
 90
        0
176
     1
 90
        0
176
     1
290
     0
176
     1
 90
       13
176
     1
 40
0.0
176
     1
 90
        0
176
     1
290
     0
176
     1
290
     1
176
     1
290
     1
176
     1
290
     0
176
     1
290
     0
176
     1
290
     0
176
     1
290
     0
176
     1
290
     0
176
     1
290
     0
176
     1
 90
       50
176
     1
 40
0.0
176
     1
 40
1.0
176
     1
 90
        0
176
     1
 62
    18
420
        0
176
     1
 90
       50
176
     1
 90
        3
176
     1
 62
     5
420
      255
176
     1
290
     0
176
     1
 90
       50
176
     1
 90
       50
176
     1
 90
       50
176
     1
290
     0
176
     1
 90
       50
176
     1
 62
   256
176
     0
 40
1.0
176
     0
 90
        2
176
     1
  1
strokes_ogs.tif
176
     1
290
     0
176
     1
 40
1.0
176
     1
 40
1.0
176
     1
1001
ACAD
1000
AcDbSavedByObjectVersion
1070
     0
  0
VISUALSTYLE
  5
42
102
{ACAD_REACTORS
330
2A
102
}
330
2A
100
AcDbVisualStyle
  2
Shaded
 70
    27
177
     3
291
     0
 70
    58
 90
        2
176
     1
 90
        2
176
     1
 90
        1
176
     1
 90
        2
176
     1
 40
0.6
176
     1
 40
30.0
176
     1
 62
     7
420
 16777215
176
     1
 90
        0
176
     1
 90
        4
176
     1
 62
     7
176
     1
 62
   257
176
     1
 90
        1
176
     1
 90
        1
176
     1
 40
1.0
176
     1
 90
        8
176
     1
 62
   257
176
     1
 40
1.0
176
     1
 90
        1
176
     1
 90
        6
176
     1
 90
        2
176
     1
 62
     8
420
  7895160
176
     1
 90
        3
176
     1
 90
        0
176
     1
 90
        0
176
     1
290
     0
176
     1
 90
        5
176
     1
 40
0.0
176
     1
 90
        0
176
     1
290
     0
176
     1
290
     1
176
     1
290
     1
176
     1
290
     0
176
     1
290
     0
176
     1
290
     0
176
     1
290
     0
176
     1
290
     0
176
     1
290
     0
176
     1
 90
       50
176
     1
 40
0.0
176
     1
 40
1.0
176
     1
 90
        0
176
     1
 62
    18
420
        0
176
     1
 90
       50
176
     1
 90
        3
176
     1
 62
     5
420
      255
176
     1
290
     0
176
     1
 90
       50
176
     1
 90
       50
176
     1
 90
       50
176
     1
290
     0
176
     1
 90
       50
176
     1
 62
   256
176
     0
 40
1.0
176
     0
 90
        2
176
     1
  1
strokes_ogs.tif
176
     1
290
     0
176
     1
 40
1.0
176
     1
 40
1.0
176
     1
1001
ACAD
1000
AcDbSavedByObjectVersion
1070
     0
  0
VISUALSTYLE
  5
41
102
{ACAD_REACTORS
330
2A
102
}
330
2A
100
AcDbVisualStyle
  2
Shaded with edges
 70
    26
177
     3
291
     0
 70
    58
 90
        2
176
     1
 90
        2
176
     1
 90
        1
176
     1
 90
        2
176
     1
 40
0.6
176
     1
 40
30.0
176
     1
 62
     7
420
 16777215
176
     1
 90
        1
176
     1
 90
        2
176
     1
 62
     7
176
     1
 62
   257
176
     1
 90
        2
176
     1
 90
        1
176
     1
 40
1.0
176
     1
 90
        8
176
     1
 62
   257
176
     1
 40
1.0
176
     1
 90
        1
176
     1
 90
        6
176
     1
 90
        2
176
     1
 62
     7
176
     1
 90
        3
176
     1
 90
        0
176
     1
 90
        0
176
     1
290
     0
176
     1
 90
        5
176
     1
 40
0.0
176
     1
 90
        0
176
     1
290
     0
176
     1
290
     1
176
     1
290
     1
176
     1
290
     0
176
     1
290
     0
176
     1
290
     0
176
     1
290
     0
176
     1
290
     0
176
     1
290
     0
176
     1
 90
       50
176
     1
 40
0.0
176
     1
 40
1.0
176
     1
 90
        0
176
     1
 62
    18
420
        0
176
     1
 90
       50
176
     1
 90
        3
176
     1
 62
     5
420
      255
176
     1
290
     0
176
     1
 90
       50
176
     1
 90
       50
176
     1
 90
       50
176
     1
290
     0
176
     1
 90
       50
176
     1
 62
   256
176
     0
 40
1.0
176
     0
 90
        2
176
     1
  1
strokes_ogs.tif
176
     1
290
     0
176
     1
 40
1.0
176
     1
 40
1.0
176
     1
1001
ACAD
1000
AcDbSavedByObjectVersion
1070
     0
  0
VISUALSTYLE
  5
3E
102
{ACAD_REACTORS
330
2A
102
}
330
2A
100
AcDbVisualStyle
  2
Shades of Gray
 70
    23
177
     3
291
     0
 70
    58
 90
        2
176
     1
 90
        2
176
     1
 90
        3
176
     1
 90
        0
176
     1
 40
0.6
176
     1
 40
30.0
176
     1
 62
     7
420
 16777215
176
     1
 90
        2
176
     1
 90
        2
176
     1
 62
     7
176
     1
 62
     7
176
     1
 90
        1
176
     1
 90
        1
176
     1
 40
40.0
176
     1
 90
        8
176
     1
 62
     7
176
     1
 40
1.0
176
     1
 90
        1
176
     1
 90
        6
176
     1
 90
        2
176
     1
 62
     7
176
     1
 90
        3
176
     1
 90
        0
176
     1
 90
        0
176
     1
290
     0
176
     1
 90
        1
176
     1
 40
0.0
176
     1
 90
        0
176
     1
290
     0
176
     1
290
     1
176
     1
290
     1
176
     1
290
     0
176
     1
290
     0
176
     1
290
     0
176
     1
290
     0
176
     1
290
     0
176
     1
290
     0
176
     1
 90
       50
176
     1
 40
0.0
176
     1
 40
1.0
176
     1
 90
        0
176
     1
 62
    18
420
        0
176
     1
 90
       50
176
     1
 90
        3
176
     1
 62
     5
420
      255
176
     1
290
     0
176
     1
 90
       50
176
     1
 90
       50
176
     1
 90
       50
176
     1
290
     0
176
     1
 90
       50
176
     1
 62
   256
176
     0
 40
1.0
176
     0
 90
        2
176
     1
  1
strokes_ogs.tif
176
     1
290
     0
176
     1
 40
1.0
176
     1
 40
1.0
176
     1
1001
ACAD
1000
AcDbSavedByObjectVersion
1070
     0
  0
VISUALSTYLE
  5
3F
102
{ACAD_REACTORS
330
2A
102
}
330
2A
100
AcDbVisualStyle
  2
Sketchy
 70
    24
177
     3
291
     0
 70
    58
 90
        1
176
     1
 90
        2
176
     1
 90
        2
176
     1
 90
        0
176
     1
 40
0.6
176
     1
 40
30.0
176
     1
 62
     7
420
 16777215
176
     1
 90
        2
176
     1
 90
        2
176
     1
 62
     7
176
     1
 62
     7
176
     1
 90
        1
176
     1
 90
        1
176
     1
 40
40.0
176
     1
 90
       11
176
     1
 62
     7
176
     1
 40
1.0
176
     1
 90
        1
176
     1
 90
        6
176
     1
 90
        2
176
     1
 62
     7
176
     1
 90
        6
176
     1
 90
        0
176
     1
 90
        0
176
     1
290
     0
176
     1
 90
        1
176
     1
 40
0.0
176
     1
 90
        0
176
     1
290
     0
176
     1
290
     1
176
     1
290
     1
176
     1
290
     0
176
     1
290
     0
176
     1
290
     0
176
     1
290
     0
176
     1
290
     0
176
     1
290
     0
176
     1
 90
       50
176
     1
 40
0.0
176
     1
 40
1.0
176
     1
 90
        0
176
     1
 62
    18
420
        0
176
     1
 90
       50
176
     1
 90
        3
176
     1
 62
     5
420
      255
176
     1
290
     0
176
     1
 90
       50
176
     1
 90
       50
176
     1
 90
       50
176
     1
290
     0
176
     1
 90
       50
176
     1
 62
   256
176
     0
 40
1.0
176
     0
 90
        2
176
     1
  1
strokes_ogs.tif
176
     1
290
     0
176
     1
 40
1.0
176
     1
 40
1.0
176
     1
1001
ACAD
1000
AcDbSavedByObjectVersion
1070
     0
  0
VISUALSTYLE
  5
37
102
{ACAD_REACTORS
330
2A
102
}
330
2A
100
AcDbVisualStyle
  2
Thicken
 70
    13
177
     3
291
     1
 70
    58
 90
        2
176
     1
 90
        2
176
     1
 90
        0
176
     1
 90
        0
176
     1
 40
0.6
176
     1
 40
30.0
176
     1
 62
     7
420
 16777215
176
     1
 90
        1
176
     1
 90
        4
176
     1
 62
     7
176
     1
 62
   257
176
     1
 90
        1
176
     1
 90
        1
176
     1
 40
1.0
176
     1
 90
       12
176
     1
 62
     7
176
     1
 40
1.0
176
     1
 90
        1
176
     1
 90
        6
176
     1
 90
        2
176
     1
 62
     7
176
     1
 90
        5
176
     1
 90
        0
176
     1
 90
        0
176
     1
290
     0
176
     1
 90
        1
176
     1
 40
0.0
176
     1
 90
        0
176
     1
290
     0
176
     1
290
     1
176
     1
290
     1
176
     1
290
     0
176
     1
290
     0
176
     1
290
     0
176
     1
290
     0
176
     1
290
     0
176
     1
290
     0
176
     1
 90
       50
176
     1
 40
0.0
176
     1
 40
1.0
176
     1
 90
        0
176
     1
 62
    18
420
        0
176
     1
 90
       50
176
     1
 90
        3
176
     1
 62
     5
420
      255
176
     1
290
     0
176
     1
 90
       50
176
     1
 90
       50
176
     1
 90
       50
176
     1
290
     0
176
     1
 90
       50
176
     1
 62
   256
176
     0
 40
1.0
176
     0
 90
        2
176
     1
  1
strokes_ogs.tif
176
     1
290
     0
176
     1
 40
1.0
176
     1
 40
1.0
176
     1
1001
ACAD
1000
AcDbSavedByObjectVersion
1070
     0
  0
VISUALSTYLE
  5
30
102
{ACAD_REACTORS
330
2A
102
}
330
2A
100
AcDbVisualStyle
  2
Wireframe
 70
     5
177
     3
291
     0
 70
    58
 90
        0
176
     1
 90
        2
176
     1
 90
        0
176
     1
 90
        0
176
     1
 40
0.6
176
     1
 40
30.0
176
     1
 62
     7
420
 16777215
176
     1
 90
        1
176
     1
 90
        4
176
     1
 62
     7
176
     1
 62
   257
176
     1
 90
        1
176
     1
 90
        1
176
     1
 40
1.0
176
     1
 90
        0
176
     1
 62
   257
176
     1
 40
1.0
176
     1
 90
        1
176
     1
 90
        6
176
     1
 90
        2
176
     1
 62
     7
176
     1
 90
        3
176
     1
 90
        0
176
     1
 90
        0
176
     1
290
     0
176
     1
 90
        1
176
     1
 40
0.0
176
     1
 90
        0
176
     1
290
     0
176
     1
290
     1
176
     1
290
     1
176
     1
290
     0
176
     1
290
     0
176
     1
290
     0
176
     1
290
     0
176
     1
290
     0
176
     1
290
     0
176
     1
 90
       50
176
     1
 40
0.0
176
     1
 40
1.0
176
     1
 90
        0
176
     1
 62
    18
420
        0
176
     1
 90
       50
176
     1
 90
        3
176
     1
 62
     5
420
      255
176
     1
290
     0
176
     1
 90
       50
176
     1
 90
       50
176
     1
 90
       50
176
     1
290
     0
176
     1
 90
       50
176
     1
 62
   256
176
     0
 40
1.0
176
     0
 90
        2
176
     1
  1
strokes_ogs.tif
176
     1
290
     0
176
     1
 40
1.0
176
     1
 40
1.0
176
     1
1001
ACAD
1000
AcDbSavedByObjectVersion
1070
     0
  0
VISUALSTYLE
  5
40
102
{ACAD_REACTORS
330
2A
102
}
330
2A
100
AcDbVisualStyle
  2
X-Ray
 70
    25
177
     3
291
     0
 70
    58
 90
        2
176
     1
 90
        2
176
     1
 90
        1
176
     1
 90
        1
176
     1
 40
0.5
176
     1
 40
30.0
176
     1
 62
     7
420
 16777215
176
     1
 90
        1
176
     1
 90
        0
176
     1
 62
     7
176
     1
 62
   257
176
     1
 90
        1
176
     1
 90
        1
176
     1
 40
1.0
176
     1
 90
        8
176
     1
 62
     7
176
     1
 40
1.0
176
     1
 90
        1
176
     1
 90
        6
176
     1
 90
        2
176
     1
 62
     7
176
     1
 90
        3
176
     1
 90
        0
176
     1
 90
        0
176
     1
290
     0
176
     1
 90
       13
176
     1
 40
0.0
176
     1
 90
        0
176
     1
290
     0
176
     1
290
     1
176
     1
290
     1
176
     1
290
     0
176
     1
290
     0
176
     1
290
     0
176
     1
290
     0
176
     1
290
     0
176
     1
290
     0
176
     1
 90
       50
176
     1
 40
0.0
176
     1
 40
1.0
176
     1
 90
        0
176
     1
 62
    18
420
        0
176
     1
 90
       50
176
     1
 90
        3
176
     1
 62
     5
420
      255
176
     1
290
     0
176
     1
 90
       50
176
     1
 90
       50
176
     1
 90
       50
176
     1
290
     0
176
     1
 90
       50
176
     1
 62
   256
176
     0
 40
1.0
176
     0
 90
        2
176
     1
  1
strokes_ogs.tif
176
     1
290
     0
176
     1
 40
1.0
176
     1
 40
1.0
176
     1
1001
ACAD
1000
AcDbSavedByObjectVersion
1070
     0
  0
DICTIONARYVAR
  5
AB
102
{ACAD_REACTORS
330
AA
102
}
330
AA
100
DictionaryVariables
280
     0
  1
1:1
  0
DICTIONARYVAR
  5
B0
102
{ACAD_REACTORS
330
AA
102
}
330
AA
100
DictionaryVariables
280
     0
  1
3.500000
  0
DICTIONARYVAR
  5
B1
102
{ACAD_REACTORS
330
AA
102
}
330
AA
100
DictionaryVariables
280
     0
  1
acadiso.lin
  0
DICTIONARYVAR
  5
AD
102
{ACAD_REACTORS
330
AA
102
}
330
AA
100
DictionaryVariables
280
     0
  1
STANDARD
  0
DICTIONARYVAR
  5
AC
102
{ACAD_REACTORS
330
AA
102
}
330
AA
100
DictionaryVariables
280
     0
  1
STANDARD
  0
DICTIONARYVAR
  5
1FE
102
{ACAD_REACTORS
330
AA
102
}
330
AA
100
DictionaryVariables
280
     0
  1
Metric50
  0
DICTIONARYVAR
  5
1FF
102
{ACAD_REACTORS
330
AA
102
}
330
AA
100
DictionaryVariables
280
     0
  1
Metric50
  0
DICTIONARY
  5
205
330
B5
100
AcDbDictionary
280
     1
281
     1
  3
ACAD_XREC_ROUNDTRIP
360
206
  0
DICTIONARY
  5
203
330
B4
100
AcDbDictionary
280
     1
281
     1
  3
ACAD_XREC_ROUNDTRIP
360
204
  0
DICTIONARY
  5
200
330
6A
100
AcDbDictionary
280
     1
281
     1
  3
ACAD_ROUNDTRIP_2008_TABLESTYLE_CELLSTYLEMAP
360
201
  0
XRECORD
  5
206
102
{ACAD_REACTORS
330
205
102
}
330
205
100
AcDbXrecord
280
     1
102
DISPLAYNAME
  1
Metric50
102
FLAGS
 90
        0
  0
XRECORD
  5
204
102
{ACAD_REACTORS
330
203
102
}
330
203
100
AcDbXrecord
280
     1
102
DISPLAYNAME
  1
Metric50
102
FLAGS
 90
        0
  0
CELLSTYLEMAP
  5
201
102
{ACAD_REACTORS
330
200
102
}
330
200
100
AcDbCellStyleMap
 90
        3
300
CELLSTYLE
  1
TABLEFORMAT_BEGIN
 90
        5
170
     1
 91
        0
 92
    32768
 62
   257
 93
        1
300
CONTENTFORMAT
  1
CONTENTFORMAT_BEGIN
 90
        0
 91
        0
 92
        4
 93
        0
300

 40
0.0
140
1.0
 94
        5
 62
     0
340
11
144
6.0
309
CONTENTFORMAT_END
171
     1
301
MARGIN
  1
CELLMARGIN_BEGIN
 40
1.5
 40
1.5
 40
1.5
 40
1.5
 40
1.5
 40
1.5
309
CELLMARGIN_END
 94
        6
 95
        1
302
GRIDFORMAT
  1
GRIDFORMAT_BEGIN
 90
        0
 91
        1
 62
     0
 92
       -2
340
14
 93
        0
 40
0.045
309
GRIDFORMAT_END
 95
        2
302
GRIDFORMAT
  1
GRIDFORMAT_BEGIN
 90
        0
 91
        1
 62
     0
 92
       -2
340
14
 93
        0
 40
0.045
309
GRIDFORMAT_END
 95
        4
302
GRIDFORMAT
  1
GRIDFORMAT_BEGIN
 90
        0
 91
        1
 62
     0
 92
       -2
340
14
 93
        0
 40
0.045
309
GRIDFORMAT_END
 95
        8
302
GRIDFORMAT
  1
GRIDFORMAT_BEGIN
 90
        0
 91
        1
 62
     0
 92
       -2
340
14
 93
        0
 40
0.045
309
GRIDFORMAT_END
 95
       16
302
GRIDFORMAT
  1
GRIDFORMAT_BEGIN
 90
        0
 91
        1
 62
     0
 92
       -2
340
14
 93
        0
 40
0.045
309
GRIDFORMAT_END
 95
       32
302
GRIDFORMAT
  1
GRIDFORMAT_BEGIN
 90
        0
 91
        1
 62
     0
 92
       -2
340
14
 93
        0
 40
0.045
309
GRIDFORMAT_END
309
TABLEFORMAT_END
  1
CELLSTYLE_BEGIN
 90
        1
 91
        1
300
_TITLE
309
CELLSTYLE_END
300
CELLSTYLE
  1
TABLEFORMAT_BEGIN
 90
        5
170
     1
 91
        0
 92
        0
 62
   257
 93
        1
300
CONTENTFORMAT
  1
CONTENTFORMAT_BEGIN
 90
        0
 91
        0
 92
        4
 93
        0
300

 40
0.0
140
1.0
 94
        5
 62
     0
340
11
144
4.5
309
CONTENTFORMAT_END
171
     1
301
MARGIN
  1
CELLMARGIN_BEGIN
 40
1.5
 40
1.5
 40
1.5
 40
1.5
 40
1.5
 40
1.5
309
CELLMARGIN_END
 94
        6
 95
        1
302
GRIDFORMAT
  1
GRIDFORMAT_BEGIN
 90
        0
 91
        1
 62
     0
 92
       -2
340
14
 93
        0
 40
0.045
309
GRIDFORMAT_END
 95
        2
302
GRIDFORMAT
  1
GRIDFORMAT_BEGIN
 90
        0
 91
        1
 62
     0
 92
       -2
340
14
 93
        0
 40
0.045
309
GRIDFORMAT_END
 95
        4
302
GRIDFORMAT
  1
GRIDFORMAT_BEGIN
 90
        0
 91
        1
 62
     0
 92
       -2
340
14
 93
        0
 40
0.045
309
GRIDFORMAT_END
 95
        8
302
GRIDFORMAT
  1
GRIDFORMAT_BEGIN
 90
        0
 91
        1
 62
     0
 92
       -2
340
14
 93
        0
 40
0.045
309
GRIDFORMAT_END
 95
       16
302
GRIDFORMAT
  1
GRIDFORMAT_BEGIN
 90
        0
 91
        1
 62
     0
 92
       -2
340
14
 93
        0
 40
0.045
309
GRIDFORMAT_END
 95
       32
302
GRIDFORMAT
  1
GRIDFORMAT_BEGIN
 90
        0
 91
        1
 62
     0
 92
       -2
340
14
 93
        0
 40
0.045
309
GRIDFORMAT_END
309
TABLEFORMAT_END
  1
CELLSTYLE_BEGIN
 90
        2
 91
        1
300
_HEADER
309
CELLSTYLE_END
300
CELLSTYLE
  1
TABLEFORMAT_BEGIN
 90
        5
170
     1
 91
        0
 92
        0
 62
   257
 93
        1
300
CONTENTFORMAT
  1
CONTENTFORMAT_BEGIN
 90
        0
 91
        0
 92
        4
 93
        0
300

 40
0.0
140
1.0
 94
        2
 62
     0
340
11
144
4.5
309
CONTENTFORMAT_END
171
     1
301
MARGIN
  1
CELLMARGIN_BEGIN
 40
1.5
 40
1.5
 40
1.5
 40
1.5
 40
1.5
 40
1.5
309
CELLMARGIN_END
 94
        6
 95
        1
302
GRIDFORMAT
  1
GRIDFORMAT_BEGIN
 90
        0
 91
        1
 62
     0
 92
       -2
340
14
 93
        0
 40
0.045
309
GRIDFORMAT_END
 95
        2
302
GRIDFORMAT
  1
GRIDFORMAT_BEGIN
 90
        0
 91
        1
 62
     0
 92
       -2
340
14
 93
        0
 40
0.045
309
GRIDFORMAT_END
 95
        4
302
GRIDFORMAT
  1
GRIDFORMAT_BEGIN
 90
        0
 91
        1
 62
     0
 92
       -2
340
14
 93
        0
 40
0.045
309
GRIDFORMAT_END
 95
        8
302
GRIDFORMAT
  1
GRIDFORMAT_BEGIN
 90
        0
 91
        1
 62
     0
 92
       -2
340
14
 93
        0
 40
0.045
309
GRIDFORMAT_END
 95
       16
302
GRIDFORMAT
  1
GRIDFORMAT_BEGIN
 90
        0
 91
        1
 62
     0
 92
       -2
340
14
 93
        0
 40
0.045
309
GRIDFORMAT_END
 95
       32
302
GRIDFORMAT
  1
GRIDFORMAT_BEGIN
 90
        0
 91
        1
 62
     0
 92
       -2
340
14
 93
        0
 40
0.045
309
GRIDFORMAT_END
309
TABLEFORMAT_END
  1
CELLSTYLE_BEGIN
 90
        3
 91
        2
300
_DATA
309
CELLSTYLE_END
  0
ENDSEC
  0
EOF
