  0
SECTION
  2
HEADER
  9
$ACADVER
  1
AC1027
  9
$ACADMAINTVER
 70
   125
  9
$DWGCODEPAGE
  3
ANSI_1252
  9
$LASTSAVEDBY
  1
kaschu
  9
$REQUIREDVERSIONS
160
                 0
  9
$INSBASE
 10
0.0
 20
0.0
 30
0.0
  9
$EXTMIN
 10
67.79365099999999
 20
103.017495
 30
-0.0000000000000019
  9
$EXTMAX
 10
1243.055009006803
 20
785.4211219999999
 30
0.0000000000000072
  9
$LIMMIN
 10
-0.5
 20
-0.5
  9
$LIMMAX
 10
5.0
 20
5.0
  9
$ORTHOMODE
 70
     0
  9
$REGENMODE
 70
     1
  9
$FILLMODE
 70
     1
  9
$QTEXTMODE
 70
     0
  9
$MIRRTEXT
 70
     1
  9
$LTSCALE
 40
1.0
  9
$ATTMODE
 70
     1
  9
$TEXTSIZE
 40
0.2
  9
$TRACEWID
 40
0.05
  9
$TEXTSTYLE
  7
Standard
  9
$CLAYER
  8
0
  9
$CELTYPE
  6
ByLayer
  9
$CECOLOR
 62
   256
  9
$CELTSCALE
 40
1.0
  9
$DISPSILH
 70
     0
  9
$DIMSCALE
 40
1.0
  9
$DIMASZ
 40
0.18
  9
$DIMEXO
 40
0.0625
  9
$DIMDLI
 40
0.38
  9
$DIMRND
 40
0.0
  9
$DIMDLE
 40
0.0
  9
$DIMEXE
 40
0.18
  9
$DIMTP
 40
0.0
  9
$DIMTM
 40
0.0
  9
$DIMTXT
 40
0.18
  9
$DIMCEN
 40
0.09
  9
$DIMTSZ
 40
0.0
  9
$DIMTOL
 70
     0
  9
$DIMLIM
 70
     0
  9
$DIMTIH
 70
     1
  9
$DIMTOH
 70
     1
  9
$DIMSE1
 70
     0
  9
$DIMSE2
 70
     0
  9
$DIMTAD
 70
     0
  9
$DIMZIN
 70
     0
  9
$DIMBLK
  1

  9
$DIMASO
 70
     1
  9
$DIMSHO
 70
     1
  9
$DIMPOST
  1

  9
$DIMAPOST
  1

  9
$DIMALT
 70
     0
  9
$DIMALTD
 70
     2
  9
$DIMALTF
 40
25.4
  9
$DIMLFAC
 40
1.0
  9
$DIMTOFL
 70
     0
  9
$DIMTVP
 40
0.0
  9
$DIMTIX
 70
     0
  9
$DIMSOXD
 70
     0
  9
$DIMSAH
 70
     0
  9
$DIMBLK1
  1

  9
$DIMBLK2
  1

  9
$DIMSTYLE
  2
Standard
  9
$DIMCLRD
 70
     0
  9
$DIMCLRE
 70
     0
  9
$DIMCLRT
 70
     0
  9
$DIMTFAC
 40
1.0
  9
$DIMGAP
 40
0.09
  9
$DIMJUST
 70
     0
  9
$DIMSD1
 70
     0
  9
$DIMSD2
 70
     0
  9
$DIMTOLJ
 70
     1
  9
$DIMTZIN
 70
     0
  9
$DIMALTZ
 70
     0
  9
$DIMALTTZ
 70
     0
  9
$DIMUPT
 70
     0
  9
$DIMDEC
 70
     4
  9
$DIMTDEC
 70
     4
  9
$DIMALTU
 70
     2
  9
$DIMALTTD
 70
     2
  9
$DIMTXSTY
  7
Standard
  9
$DIMAUNIT
 70
     0
  9
$DIMADEC
 70
     0
  9
$DIMALTRND
 40
0.0
  9
$DIMAZIN
 70
     0
  9
$DIMDSEP
 70
    46
  9
$DIMATFIT
 70
     3
  9
$DIMFRAC
 70
     0
  9
$DIMLDRBLK
  1

  9
$DIMLUNIT
 70
     2
  9
$DIMLWD
 70
    -2
  9
$DIMLWE
 70
    -2
  9
$DIMTMOVE
 70
     0
  9
$DIMFXL
 40
1.0
  9
$DIMFXLON
 70
     0
  9
$DIMJOGANG
 40
0.7853981633974483
  9
$DIMTFILL
 70
     0
  9
$DIMTFILLCLR
 70
     0
  9
$DIMARCSYM
 70
     0
  9
$DIMLTYPE
  6

  9
$DIMLTEX1
  6

  9
$DIMLTEX2
  6

  9
$DIMTXTDIRECTION
 70
     0
  9
$LUNITS
 70
     2
  9
$LUPREC
 70
     4
  9
$SKETCHINC
 40
0.1
  9
$FILLETRAD
 40
0.5
  9
$AUNITS
 70
     0
  9
$AUPREC
 70
     0
  9
$MENU
  1
.
  9
$ELEVATION
 40
0.0
  9
$PELEVATION
 40
0.0
  9
$THICKNESS
 40
0.0
  9
$LIMCHECK
 70
     0
  9
$CHAMFERA
 40
0.0
  9
$CHAMFERB
 40
0.0
  9
$CHAMFERC
 40
0.0
  9
$CHAMFERD
 40
0.0
  9
$SKPOLY
 70
     0
  9
$TDCREATE
 40
2460215.270474537
  9
$TDUCREATE
 40
2460215.187149954
  9
$TDUPDATE
 40
2460235.468807871
  9
$TDUUPDATE
 40
2460235.385474537
  9
$TDINDWG
 40
0.0008449190
  9
$TDUSRTIMER
 40
0.0008449190
  9
$USRTIMER
 70
     1
  9
$ANGBASE
 50
0.0
  9
$ANGDIR
 70
     0
  9
$PDMODE
 70
     0
  9
$PDSIZE
 40
0.0
  9
$PLINEWID
 40
0.0
  9
$SPLFRAME
 70
     0
  9
$SPLINETYPE
 70
     6
  9
$SPLINESEGS
 70
     8
  9
$HANDSEED
  5
30D
  9
$SURFTAB1
 70
     6
  9
$SURFTAB2
 70
     6
  9
$SURFTYPE
 70
     6
  9
$SURFU
 70
     6
  9
$SURFV
 70
     6
  9
$UCSBASE
  2

  9
$UCSNAME
  2

  9
$UCSORG
 10
0.0
 20
0.0
 30
0.0
  9
$UCSXDIR
 10
1.0
 20
0.0
 30
0.0
  9
$UCSYDIR
 10
0.0
 20
1.0
 30
0.0
  9
$UCSORTHOREF
  2

  9
$UCSORTHOVIEW
 70
     0
  9
$UCSORGTOP
 10
0.0
 20
0.0
 30
0.0
  9
$UCSORGBOTTOM
 10
0.0
 20
0.0
 30
0.0
  9
$UCSORGLEFT
 10
0.0
 20
0.0
 30
0.0
  9
$UCSORGRIGHT
 10
0.0
 20
0.0
 30
0.0
  9
$UCSORGFRONT
 10
0.0
 20
0.0
 30
0.0
  9
$UCSORGBACK
 10
0.0
 20
0.0
 30
0.0
  9
$PUCSBASE
  2

  9
$PUCSNAME
  2

  9
$PUCSORG
 10
0.0
 20
0.0
 30
0.0
  9
$PUCSXDIR
 10
1.0
 20
0.0
 30
0.0
  9
$PUCSYDIR
 10
0.0
 20
1.0
 30
0.0
  9
$PUCSORTHOREF
  2

  9
$PUCSORTHOVIEW
 70
     0
  9
$PUCSORGTOP
 10
0.0
 20
0.0
 30
0.0
  9
$PUCSORGBOTTOM
 10
0.0
 20
0.0
 30
0.0
  9
$PUCSORGLEFT
 10
0.0
 20
0.0
 30
0.0
  9
$PUCSORGRIGHT
 10
0.0
 20
0.0
 30
0.0
  9
$PUCSORGFRONT
 10
0.0
 20
0.0
 30
0.0
  9
$PUCSORGBACK
 10
0.0
 20
0.0
 30
0.0
  9
$USERI1
 70
     0
  9
$USERI2
 70
     0
  9
$USERI3
 70
     0
  9
$USERI4
 70
     0
  9
$USERI5
 70
     0
  9
$USERR1
 40
0.0
  9
$USERR2
 40
0.0
  9
$USERR3
 40
0.0
  9
$USERR4
 40
0.0
  9
$USERR5
 40
0.0
  9
$WORLDVIEW
 70
     1
  9
$SHADEDGE
 70
     3
  9
$SHADEDIF
 70
    70
  9
$TILEMODE
 70
     1
  9
$MAXACTVP
 70
    64
  9
$PINSBASE
 10
0.0
 20
0.0
 30
0.0
  9
$PLIMCHECK
 70
     0
  9
$PEXTMIN
 10
25.69999999999999
 20
19.5
 30
0.0
  9
$PEXTMAX
 10
231.3
 20
175.5
 30
0.0
  9
$PLIMMIN
 10
-20.0
 20
-7.5
  9
$PLIMMAX
 10
277.0
 20
202.5
  9
$UNITMODE
 70
     0
  9
$VISRETAIN
 70
     1
  9
$PLINEGEN
 70
     0
  9
$PSLTSCALE
 70
     1
  9
$TREEDEPTH
 70
  3020
  9
$CMLSTYLE
  2
Standard
  9
$CMLJUST
 70
     0
  9
$CMLSCALE
 40
1.0
  9
$PROXYGRAPHICS
 70
     1
  9
$MEASUREMENT
 70
     1
  9
$CELWEIGHT
370
    18
  9
$ENDCAPS
280
     0
  9
$JOINSTYLE
280
     0
  9
$LWDISPLAY
290
     1
  9
$INSUNITS
 70
     4
  9
$HYPERLINKBASE
  1

  9
$STYLESHEET
  1

  9
$XEDIT
290
     1
  9
$CEPSNTYPE
380
     0
  9
$PSTYLEMODE
290
     1
  9
$FINGERPRINTGUID
  2
{1F40F3AC-BAF2-4073-9552-4BF700814163}
  9
$VERSIONGUID
  2
{346B0B2B-A11A-9E4D-B67C-82E95B5CCD83}
  9
$EXTNAMES
290
     1
  9
$PSVPSCALE
 40
0.0
  9
$OLESTARTUP
290
     0
  9
$SORTENTS
280
   127
  9
$INDEXCTL
280
     0
  9
$HIDETEXT
280
     1
  9
$XCLIPFRAME
280
     2
  9
$HALOGAP
280
     0
  9
$OBSCOLOR
 70
   257
  9
$OBSLTYPE
280
     0
  9
$INTERSECTIONDISPLAY
280
     0
  9
$INTERSECTIONCOLOR
 70
   257
  9
$DIMASSOC
280
     2
  9
$PROJECTNAME
  1

  9
$CAMERADISPLAY
290
     0
  9
$LENSLENGTH
 40
50.0
  9
$CAMERAHEIGHT
 40
0.0
  9
$STEPSPERSEC
 40
2.0
  9
$STEPSIZE
 40
6.0
  9
$3DDWFPREC
 40
2.0
  9
$PSOLWIDTH
 40
0.25
  9
$PSOLHEIGHT
 40
4.0
  9
$LOFTANG1
 40
1.570796326794896
  9
$LOFTANG2
 40
1.570796326794896
  9
$LOFTMAG1
 40
0.0
  9
$LOFTMAG2
 40
0.0
  9
$LOFTPARAM
 70
     7
  9
$LOFTNORMALS
280
     1
  9
$LATITUDE
 40
37.795
  9
$LONGITUDE
 40
-122.394
  9
$NORTHDIRECTION
 40
0.0
  9
$TIMEZONE
 70
 -8000
  9
$LIGHTGLYPHDISPLAY
280
     1
  9
$TILEMODELIGHTSYNCH
280
     1
  9
$CMATERIAL
347
44
  9
$SOLIDHIST
280
     0
  9
$SHOWHIST
280
     1
  9
$DWFFRAME
280
     2
  9
$DGNFRAME
280
     0
  9
$REALWORLDSCALE
290
     1
  9
$INTERFERECOLOR
 62
     1
  9
$INTERFEREOBJVS
345
33
  9
$INTERFEREVPVS
346
30
  9
$CSHADOW
280
     0
  9
$SHADOWPLANELOCATION
 40
0.0
  0
ENDSEC
  0
SECTION
  2
CLASSES
  0
CLASS
  1
ACDBDICTIONARYWDFLT
  2
AcDbDictionaryWithDefault
  3
ObjectDBX Classes
 90
        0
 91
        1
280
     0
281
     0
  0
CLASS
  1
VISUALSTYLE
  2
AcDbVisualStyle
  3
ObjectDBX Classes
 90
     4095
 91
       24
280
     0
281
     0
  0
CLASS
  1
MATERIAL
  2
AcDbMaterial
  3
ObjectDBX Classes
 90
     1153
 91
        3
280
     0
281
     0
  0
CLASS
  1
SCALE
  2
AcDbScale
  3
ObjectDBX Classes
 90
     1153
 91
       33
280
     0
281
     0
  0
CLASS
  1
TABLESTYLE
  2
AcDbTableStyle
  3
ObjectDBX Classes
 90
     4095
 91
        1
280
     0
281
     0
  0
CLASS
  1
MLEADERSTYLE
  2
AcDbMLeaderStyle
  3
ACDB_MLEADERSTYLE_CLASS
 90
     4095
 91
        1
280
     0
281
     0
  0
CLASS
  1
SUN
  2
AcDbSun
  3
SCENEOE
 90
     1153
 91
        0
280
     0
281
     0
  0
CLASS
  1
DICTIONARYVAR
  2
AcDbDictionaryVar
  3
ObjectDBX Classes
 90
        0
 91
       10
280
     0
281
     0
  0
CLASS
  1
CELLSTYLEMAP
  2
AcDbCellStyleMap
  3
ObjectDBX Classes
 90
     1152
 91
        2
280
     0
281
     0
  0
CLASS
  1
ACDBSECTIONVIEWSTYLE
  2
AcDbSectionViewStyle
  3
ObjectDBX Classes
 90
     1025
 91
        1
280
     0
281
     0
  0
CLASS
  1
ACDBDETAILVIEWSTYLE
  2
AcDbDetailViewStyle
  3
ObjectDBX Classes
 90
     1025
 91
        1
280
     0
281
     0
  0
CLASS
  1
DIMASSOC
  2
AcDbDimAssoc
  3
"AcDbDimAssoc|Product Desc:     AcDim ARX App For Dimension|Company:          Autodesk, Inc.|WEB Address:      www.autodesk.com"
 90
        0
 91
        1
280
     0
281
     0
  0
ENDSEC
  0
SECTION
  2
TABLES
  0
TABLE
  2
VPORT
  5
8
330
0
100
AcDbSymbolTable
 70
    16
1001
ACAD
1000
DbSaveVer
1071
      224
  0
VPORT
  5
29
330
8
100
AcDbSymbolTableRecord
100
AcDbViewportTableRecord
  2
*Active
 70
     0
 10
0.0
 20
0.0
 11
1.0
 21
1.0
 12
686.0771886358113
 22
546.5553942302772
 13
0.0
 23
0.0
 14
0.5
 24
0.5
 15
0.5
 25
0.5
 16
0.0
 26
0.0
 36
1.0
 17
0.0
 27
0.0
 37
0.0
 40
1244.295834995293
 41
2.209601873536299
 42
50.0
 43
1934.496336
 44
-1934.496336
 50
0.0
 51
0.0
 71
     0
 72
   100
 73
     1
 74
     3
 75
     0
 76
     0
 77
     0
 78
     0
281
     0
 65
     1
110
0.0
120
0.0
130
0.0
111
1.0
121
0.0
131
0.0
112
0.0
122
1.0
132
0.0
 79
     0
146
0.0
348
2F
 60
     3
 61
     5
292
     1
282
     1
141
0.0
142
0.0
 63
   250
421
  3355443
1001
ACAD_NAV_VCDISPLAY
1070
     3
  0
VPORT
  5
23C
330
8
100
AcDbSymbolTableRecord
100
AcDbViewportTableRecord
  2
L1
 70
     0
 10
0.0
 20
0.0
 11
1.0
 21
1.0
 12
577.957296
 22
444.2432129999999
 13
0.0
 23
0.0
 14
0.5
 24
0.5
 15
0.5
 25
0.5
 16
0.0
 26
0.0
 36
1.0
 17
0.0
 27
0.0
 37
0.0
 40
225.160417
 41
0.078863
 42
50.0
 43
1934.496336
 44
-1934.496336
 50
0.0
 51
0.0
 71
     0
 72
   100
 73
     1
 74
     3
 75
     0
 76
     0
 77
     0
 78
     0
281
     0
 65
     1
110
0.0
120
0.0
130
0.0
111
1.0
121
0.0
131
0.0
112
0.0
122
1.0
132
0.0
 79
     0
146
0.0
348
2F
 60
     3
 61
     5
292
     1
282
     1
141
0.0
142
0.0
 63
   250
421
  3355443
  0
VPORT
  5
23D
330
8
100
AcDbSymbolTableRecord
100
AcDbViewportTableRecord
  2
L2
 70
     0
 10
0.0
 20
0.0
 11
0.5
 21
1.0
 12
0.0
 22
0.0
 13
0.0
 23
0.0
 14
0.5
 24
0.5
 15
0.5
 25
0.5
 16
0.0
 26
-1.0
 36
0.0
 17
0.0
 27
0.0
 37
0.0
 40
1798.645557
 41
0.009872
 42
50.0
 43
934.5038569999999
 44
-934.5038569999999
 50
0.0
 51
0.0
 71
     0
 72
   100
 73
     1
 74
     3
 75
     0
 76
     0
 77
     0
 78
     0
281
     0
 65
     1
110
0.0
120
0.0
130
0.0
111
1.0
121
0.0
131
0.0
112
0.0
122
1.0
132
0.0
 79
     0
146
0.0
348
2F
 60
     3
 61
     5
292
     1
282
     1
141
0.0
142
0.0
 63
   250
421
  3355443
  0
VPORT
  5
23E
330
8
100
AcDbSymbolTableRecord
100
AcDbViewportTableRecord
  2
L2
 70
     0
 10
0.5
 20
0.0
 11
1.0
 21
1.0
 12
0.0
 22
0.0
 13
0.0
 23
0.0
 14
0.5
 24
0.5
 15
0.5
 25
0.5
 16
1.0
 26
0.0
 36
0.0
 17
0.0
 27
0.0
 37
0.0
 40
1798.645557
 41
0.009872
 42
50.0
 43
906.3419679999999
 44
-906.3419679999999
 50
0.0
 51
0.0
 71
     0
 72
   100
 73
     1
 74
     3
 75
     0
 76
     0
 77
     0
 78
     0
281
     0
 65
     1
110
0.0
120
0.0
130
0.0
111
1.0
121
0.0
131
0.0
112
0.0
122
1.0
132
0.0
 79
     0
146
0.0
348
2F
 60
     3
 61
     5
292
     1
282
     1
141
0.0
142
0.0
 63
   250
421
  3355443
  0
VPORT
  5
23F
330
8
100
AcDbSymbolTableRecord
100
AcDbViewportTableRecord
  2
L3
 70
     0
 10
0.0
 20
0.5
 11
1.0
 21
1.0
 12
577.957296
 22
444.2432129999999
 13
0.0
 23
0.0
 14
0.5
 24
0.5
 15
0.5
 25
0.5
 16
0.0
 26
0.0
 36
1.0
 17
0.0
 27
0.0
 37
0.0
 40
225.160417
 41
0.078863
 42
50.0
 43
1934.496336
 44
-1934.496336
 50
0.0
 51
0.0
 71
     0
 72
   100
 73
     1
 74
     3
 75
     0
 76
     0
 77
     0
 78
     0
281
     0
 65
     1
110
0.0
120
0.0
130
0.0
111
1.0
121
0.0
131
0.0
112
0.0
122
1.0
132
0.0
 79
     0
146
0.0
348
2F
 60
     3
 61
     5
292
     1
282
     1
141
0.0
142
0.0
 63
   250
421
  3355443
  0
VPORT
  5
240
330
8
100
AcDbSymbolTableRecord
100
AcDbViewportTableRecord
  2
L3
 70
     0
 10
0.0
 20
0.0
 11
1.0
 21
0.5
 12
0.0
 22
0.0
 13
0.0
 23
0.0
 14
0.5
 24
0.5
 15
0.5
 25
0.5
 16
0.0
 26
-1.0
 36
0.0
 17
0.0
 27
0.0
 37
0.0
 40
1798.645557
 41
0.009872
 42
50.0
 43
934.5038569999999
 44
-934.5038569999999
 50
0.0
 51
0.0
 71
     0
 72
   100
 73
     1
 74
     3
 75
     0
 76
     0
 77
     0
 78
     0
281
     0
 65
     1
110
0.0
120
0.0
130
0.0
111
1.0
121
0.0
131
0.0
112
0.0
122
1.0
132
0.0
 79
     0
146
0.0
348
2F
 60
     3
 61
     5
292
     1
282
     1
141
0.0
142
0.0
 63
   250
421
  3355443
  0
VPORT
  5
241
330
8
100
AcDbSymbolTableRecord
100
AcDbViewportTableRecord
  2
L4
 70
     0
 10
0.0
 20
0.5
 11
0.5
 21
1.0
 12
577.957296
 22
444.2432129999999
 13
0.0
 23
0.0
 14
0.5
 24
0.5
 15
0.5
 25
0.5
 16
0.0
 26
0.0
 36
1.0
 17
0.0
 27
0.0
 37
0.0
 40
225.160417
 41
0.078863
 42
50.0
 43
1934.496336
 44
-1934.496336
 50
0.0
 51
0.0
 71
     0
 72
   100
 73
     1
 74
     3
 75
     0
 76
     0
 77
     0
 78
     0
281
     0
 65
     1
110
0.0
120
0.0
130
0.0
111
1.0
121
0.0
131
0.0
112
0.0
122
1.0
132
0.0
 79
     0
146
0.0
348
2F
 60
     3
 61
     5
292
     1
282
     1
141
0.0
142
0.0
 63
   250
421
  3355443
  0
VPORT
  5
242
330
8
100
AcDbSymbolTableRecord
100
AcDbViewportTableRecord
  2
L4
 70
     0
 10
0.0
 20
0.0
 11
0.5
 21
0.5
 12
0.0
 22
0.0
 13
0.0
 23
0.0
 14
0.5
 24
0.5
 15
0.5
 25
0.5
 16
0.0
 26
-1.0
 36
0.0
 17
0.0
 27
0.0
 37
0.0
 40
1798.645557
 41
0.009872
 42
50.0
 43
934.5038569999999
 44
-934.5038569999999
 50
0.0
 51
0.0
 71
     0
 72
   100
 73
     1
 74
     3
 75
     0
 76
     0
 77
     0
 78
     0
281
     0
 65
     1
110
0.0
120
0.0
130
0.0
111
1.0
121
0.0
131
0.0
112
0.0
122
1.0
132
0.0
 79
     0
146
0.0
348
2F
 60
     3
 61
     5
292
     1
282
     1
141
0.0
142
0.0
 63
   250
421
  3355443
  0
VPORT
  5
243
330
8
100
AcDbSymbolTableRecord
100
AcDbViewportTableRecord
  2
L4
 70
     0
 10
0.5
 20
0.0
 11
1.0
 21
0.5
 12
0.0
 22
0.0
 13
0.0
 23
0.0
 14
0.5
 24
0.5
 15
0.5
 25
0.5
 16
1.0
 26
0.0
 36
0.0
 17
0.0
 27
0.0
 37
0.0
 40
1798.645557
 41
0.009872
 42
50.0
 43
906.3419679999999
 44
-906.3419679999999
 50
0.0
 51
0.0
 71
     0
 72
   100
 73
     1
 74
     3
 75
     0
 76
     0
 77
     0
 78
     0
281
     0
 65
     1
110
0.0
120
0.0
130
0.0
111
1.0
121
0.0
131
0.0
112
0.0
122
1.0
132
0.0
 79
     0
146
0.0
348
2F
 60
     3
 61
     5
292
     1
282
     1
141
0.0
142
0.0
 63
   250
421
  3355443
  0
VPORT
  5
244
330
8
100
AcDbSymbolTableRecord
100
AcDbViewportTableRecord
  2
L4
 70
     0
 10
0.5
 20
0.5
 11
1.0
 21
1.0
 12
0.0
 22
0.0
 13
0.0
 23
0.0
 14
0.5
 24
0.5
 15
0.5
 25
0.5
 16
0.5773502691896259
 26
-0.5773502691896259
 36
0.5773502691896259
 17
0.0
 27
0.0
 37
0.0
 40
1767.899434
 41
0.010044
 42
50.0
 43
921.171877
 44
-921.171877
 50
0.0
 51
0.0
 71
     0
 72
   100
 73
     1
 74
     3
 75
     0
 76
     0
 77
     0
 78
     0
281
     0
 65
     1
110
0.0
120
0.0
130
0.0
111
1.0
121
0.0
131
0.0
112
0.0
122
1.0
132
0.0
 79
     0
146
0.0
348
2F
 60
     3
 61
     5
292
     1
282
     1
141
0.0
142
0.0
 63
   250
421
  3355443
  0
VPORT
  5
245
330
8
100
AcDbSymbolTableRecord
100
AcDbViewportTableRecord
  2
L6
 70
     0
 10
0.0
 20
0.5
 11
0.333333
 21
1.0
 12
0.0
 22
0.0
 13
0.0
 23
0.0
 14
0.5
 24
0.5
 15
0.5
 25
0.5
 16
0.7188730927569434
 26
-0.5850486126764433
 36
0.3754192287502549
 17
0.0
 27
0.0
 37
0.0
 40
1868.358352
 41
0.009504
 42
50.0
 43
966.4470769999999
 44
-966.4470769999999
 50
0.0
 51
0.0
 71
     0
 72
   100
 73
     1
 74
     3
 75
     0
 76
     0
 77
     0
 78
     0
281
     0
 65
     1
110
0.0
120
0.0
130
0.0
111
1.0
121
0.0
131
0.0
112
0.0
122
1.0
132
0.0
 79
     0
146
0.0
348
2F
 60
     3
 61
     5
292
     1
282
     1
141
0.0
142
0.0
 63
   250
421
  3355443
  0
VPORT
  5
246
330
8
100
AcDbSymbolTableRecord
100
AcDbViewportTableRecord
  2
L6
 70
     0
 10
0.0
 20
0.0
 11
0.333333
 21
0.5
 12
0.0
 22
0.0
 13
0.0
 23
0.0
 14
0.5
 24
0.5
 15
0.5
 25
0.5
 16
-1.0
 26
0.0
 36
0.0
 17
0.0
 27
0.0
 37
0.0
 40
1798.645557
 41
0.009872
 42
50.0
 43
906.3419679999999
 44
-906.3419679999999
 50
0.0
 51
0.0
 71
     0
 72
   100
 73
     1
 74
     3
 75
     0
 76
     0
 77
     0
 78
     0
281
     0
 65
     1
110
0.0
120
0.0
130
0.0
111
1.0
121
0.0
131
0.0
112
0.0
122
1.0
132
0.0
 79
     0
146
0.0
348
2F
 60
     3
 61
     5
292
     1
282
     1
141
0.0
142
0.0
 63
   250
421
  3355443
  0
VPORT
  5
247
330
8
100
AcDbSymbolTableRecord
100
AcDbViewportTableRecord
  2
L6
 70
     0
 10
0.333333
 20
0.5
 11
0.666667
 21
1.0
 12
577.957296
 22
444.2432129999999
 13
0.0
 23
0.0
 14
0.5
 24
0.5
 15
0.5
 25
0.5
 16
0.0
 26
0.0
 36
1.0
 17
0.0
 27
0.0
 37
0.0
 40
225.160417
 41
0.078863
 42
50.0
 43
1934.496336
 44
-1934.496336
 50
0.0
 51
0.0
 71
     0
 72
   100
 73
     1
 74
     3
 75
     0
 76
     0
 77
     0
 78
     0
281
     0
 65
     1
110
0.0
120
0.0
130
0.0
111
1.0
121
0.0
131
0.0
112
0.0
122
1.0
132
0.0
 79
     0
146
0.0
348
2F
 60
     3
 61
     5
292
     1
282
     1
141
0.0
142
0.0
 63
   250
421
  3355443
  0
VPORT
  5
248
330
8
100
AcDbSymbolTableRecord
100
AcDbViewportTableRecord
  2
L6
 70
     0
 10
0.333333
 20
0.0
 11
0.666667
 21
0.5
 12
0.0
 22
0.0
 13
0.0
 23
0.0
 14
0.5
 24
0.5
 15
0.5
 25
0.5
 16
0.0
 26
-1.0
 36
0.0
 17
0.0
 27
0.0
 37
0.0
 40
1798.645557
 41
0.009872
 42
50.0
 43
934.5038569999999
 44
-934.5038569999999
 50
0.0
 51
0.0
 71
     0
 72
   100
 73
     1
 74
     3
 75
     0
 76
     0
 77
     0
 78
     0
281
     0
 65
     1
110
0.0
120
0.0
130
0.0
111
1.0
121
0.0
131
0.0
112
0.0
122
1.0
132
0.0
 79
     0
146
0.0
348
2F
 60
     3
 61
     5
292
     1
282
     1
141
0.0
142
0.0
 63
   250
421
  3355443
  0
VPORT
  5
249
330
8
100
AcDbSymbolTableRecord
100
AcDbViewportTableRecord
  2
L6
 70
     0
 10
0.666667
 20
0.5
 11
1.0
 21
1.0
 12
0.0
 22
0.0
 13
0.0
 23
0.0
 14
0.5
 24
0.5
 15
0.5
 25
0.5
 16
0.5773502691896259
 26
-0.5773502691896259
 36
0.5773502691896259
 17
0.0
 27
0.0
 37
0.0
 40
1767.899434
 41
0.010044
 42
50.0
 43
921.171877
 44
-921.171877
 50
0.0
 51
0.0
 71
     0
 72
   100
 73
     1
 74
     3
 75
     0
 76
     0
 77
     0
 78
     0
281
     0
 65
     1
110
0.0
120
0.0
130
0.0
111
1.0
121
0.0
131
0.0
112
0.0
122
1.0
132
0.0
 79
     0
146
0.0
348
2F
 60
     3
 61
     5
292
     1
282
     1
141
0.0
142
0.0
 63
   250
421
  3355443
  0
VPORT
  5
24A
330
8
100
AcDbSymbolTableRecord
100
AcDbViewportTableRecord
  2
L6
 70
     0
 10
0.666667
 20
0.0
 11
1.0
 21
0.5
 12
0.0
 22
0.0
 13
0.0
 23
0.0
 14
0.5
 24
0.5
 15
0.5
 25
0.5
 16
1.0
 26
0.0
 36
0.0
 17
0.0
 27
0.0
 37
0.0
 40
1798.645557
 41
0.009872
 42
50.0
 43
906.3419679999999
 44
-906.3419679999999
 50
0.0
 51
0.0
 71
     0
 72
   100
 73
     1
 74
     3
 75
     0
 76
     0
 77
     0
 78
     0
281
     0
 65
     1
110
0.0
120
0.0
130
0.0
111
1.0
121
0.0
131
0.0
112
0.0
122
1.0
132
0.0
 79
     0
146
0.0
348
2F
 60
     3
 61
     5
292
     1
282
     1
141
0.0
142
0.0
 63
   250
421
  3355443
  0
ENDTAB
  0
TABLE
  2
LTYPE
  5
5
330
0
100
AcDbSymbolTable
 70
     6
  0
LTYPE
  5
14
330
5
100
AcDbSymbolTableRecord
100
AcDbLinetypeTableRecord
  2
ByBlock
 70
     0
  3

 72
    65
 73
     0
 40
0.0
  0
LTYPE
  5
15
330
5
100
AcDbSymbolTableRecord
100
AcDbLinetypeTableRecord
  2
ByLayer
 70
     0
  3

 72
    65
 73
     0
 40
0.0
  0
LTYPE
  5
16
330
5
100
AcDbSymbolTableRecord
100
AcDbLinetypeTableRecord
  2
Continuous
 70
     0
  3
Solid line
 72
    65
 73
     0
 40
0.0
  0
LTYPE
  5
6E
330
5
100
AcDbSymbolTableRecord
100
AcDbLinetypeTableRecord
  2
CENTER
 70
     0
  3
____ _ ____ _ ____ _ ____
 72
    65
 73
     4
 40
47.4
 49
22.0
 74
     4
 75
     0
340
0
 46
0.0
 50
0.0
 44
0.0
 45
0.0
 49
-8.5
 74
     4
 75
     0
340
0
 46
0.0
 50
0.0
 44
0.0
 45
0.0
 49
8.5
 74
     4
 75
     0
340
0
 46
0.0
 50
0.0
 44
0.0
 45
0.0
 49
-8.5
 74
     4
 75
     0
340
0
 46
0.0
 50
0.0
 44
0.0
 45
0.0
  0
LTYPE
  5
6F
330
5
100
AcDbSymbolTableRecord
100
AcDbLinetypeTableRecord
  2
DASHDOT
 70
     0
  3
_._._._._._._._._._._._._._._._.
 72
    65
 73
     4
 40
70.0
 49
31.0
 74
     4
 75
     0
340
0
 46
0.0
 50
0.0
 44
0.0
 45
0.0
 49
-13.0
 74
     4
 75
     0
340
0
 46
0.0
 50
0.0
 44
0.0
 45
0.0
 49
13.0
 74
     4
 75
     0
340
0
 46
0.0
 50
0.0
 44
0.0
 45
0.0
 49
-13.0
 74
     4
 75
     0
340
0
 46
0.0
 50
0.0
 44
0.0
 45
0.0
  0
LTYPE
  5
70
330
5
100
AcDbSymbolTableRecord
100
AcDbLinetypeTableRecord
  2
DASHED
 70
     0
  3
__ __ __ __ __ __ __ __ __
 72
    65
 73
     2
 40
25.72
 49
12.86
 74
     4
 75
     0
340
0
 46
0.0
 50
0.0
 44
0.0
 45
0.0
 49
-12.86
 74
     4
 75
     0
340
0
 46
0.0
 50
0.0
 44
0.0
 45
0.0
  0
LTYPE
  5
71
330
5
100
AcDbSymbolTableRecord
100
AcDbLinetypeTableRecord
  2
DOT
 70
     0
  3
.........................
 72
    65
 73
     2
 40
10.0
 49
0.0
 74
     4
 75
     0
340
0
 46
0.0
 50
0.0
 44
0.0
 45
0.0
 49
-10.0
 74
     4
 75
     0
340
0
 46
0.0
 50
0.0
 44
0.0
 45
0.0
  0
LTYPE
  5
72
330
5
100
AcDbSymbolTableRecord
100
AcDbLinetypeTableRecord
  2
PHANTOM
 70
     0
  3
____ _ _ ____ _ _ _____ _ _ ____
 72
    65
 73
     6
 40
50.5
 49
18.0
 74
     4
 75
     0
340
0
 46
0.0
 50
0.0
 44
0.0
 45
0.0
 49
-6.5
 74
     4
 75
     0
340
0
 46
0.0
 50
0.0
 44
0.0
 45
0.0
 49
6.5
 74
     4
 75
     0
340
0
 46
0.0
 50
0.0
 44
0.0
 45
0.0
 49
-6.5
 74
     4
 75
     0
340
0
 46
0.0
 50
0.0
 44
0.0
 45
0.0
 49
6.5
 74
     4
 75
     0
340
0
 46
0.0
 50
0.0
 44
0.0
 45
0.0
 49
-6.5
 74
     4
 75
     0
340
0
 46
0.0
 50
0.0
 44
0.0
 45
0.0
  0
ENDTAB
  0
TABLE
  2
LAYER
  5
2
102
{ACAD_XDICTIONARY
360
29D
102
}
330
0
100
AcDbSymbolTable
 70
     4
  0
LAYER
  5
10
102
{ACAD_XDICTIONARY
360
2FA
102
}
330
2
100
AcDbSymbolTableRecord
100
AcDbLayerTableRecord
  2
0
 70
     0
 62
     7
  6
Continuous
370
    -3
390
F
347
46
348
0
  0
LAYER
  5
74
102
{ACAD_XDICTIONARY
360
2FC
102
}
330
2
100
AcDbSymbolTableRecord
100
AcDbLayerTableRecord
  2
1
 70
     0
 62
     7
420
 16777215
  6
Continuous
370
    -3
390
F
347
46
348
0
  0
LAYER
  5
2CE
330
2
100
AcDbSymbolTableRecord
100
AcDbLayerTableRecord
  2
Defpoints
 70
     0
 62
     7
  6
Continuous
290
     0
370
    -3
390
F
347
46
348
0
  0
LAYER
  5
2E8
102
{ACAD_XDICTIONARY
360
2E9
102
}
330
2
100
AcDbSymbolTableRecord
100
AcDbLayerTableRecord
  2
HEWI
 70
     0
 62
     7
  6
Continuous
370
    -3
390
F
347
46
348
0
1001
AcAecLayerStandard
1000

1000

1001
AcCmTransparency
1071
        0
  0
ENDTAB
  0
TABLE
  2
STYLE
  5
3
330
0
100
AcDbSymbolTable
 70
     1
  0
STYLE
  5
11
330
3
100
AcDbSymbolTableRecord
100
AcDbTextStyleTableRecord
  2
Standard
 70
     0
 40
0.0
 41
1.0
 50
0.0
 71
     0
 42
0.2
  3
txt
  4

  0
ENDTAB
  0
TABLE
  2
VIEW
  5
6
330
0
100
AcDbSymbolTable
 70
     4
  0
ENDTAB
  0
TABLE
  2
UCS
  5
7
330
0
100
AcDbSymbolTable
 70
     0
  0
ENDTAB
  0
TABLE
  2
APPID
  5
9
330
0
100
AcDbSymbolTable
 70
     7
  0
APPID
  5
12
330
9
100
AcDbSymbolTableRecord
100
AcDbRegAppTableRecord
  2
ACAD
 70
     0
  0
APPID
  5
28A
330
9
100
AcDbSymbolTableRecord
100
AcDbRegAppTableRecord
  2
ACAD_MLEADERVER
 70
     0
  0
APPID
  5
2A3
330
9
100
AcDbSymbolTableRecord
100
AcDbRegAppTableRecord
  2
ACAD_NAV_VCDISPLAY
 70
     0
  0
APPID
  5
2A9
330
9
100
AcDbSymbolTableRecord
100
AcDbRegAppTableRecord
  2
ACAD_PSEXT
 70
     0
  0
APPID
  5
2EA
330
9
100
AcDbSymbolTableRecord
100
AcDbRegAppTableRecord
  2
ACAD_DSTYLE_DIMBREAK
 70
     0
  0
APPID
  5
2EB
330
9
100
AcDbSymbolTableRecord
100
AcDbRegAppTableRecord
  2
AcAecLayerStandard
 70
     0
  0
APPID
  5
2EC
330
9
100
AcDbSymbolTableRecord
100
AcDbRegAppTableRecord
  2
AcCmTransparency
 70
     0
  0
ENDTAB
  0
TABLE
  2
DIMSTYLE
  5
A
330
0
100
AcDbSymbolTable
 70
     1
100
AcDbDimStyleTable
 71
     1
340
27
  0
DIMSTYLE
105
27
330
A
100
AcDbSymbolTableRecord
100
AcDbDimStyleTableRecord
  2
Standard
 70
     0
340
11
  0
ENDTAB
  0
TABLE
  2
BLOCK_RECORD
  5
1
330
0
100
AcDbSymbolTable
 70
     3
  0
BLOCK_RECORD
  5
1F
330
1
100
AcDbSymbolTableRecord
100
AcDbBlockTableRecord
  2
*Model_Space
340
22
 70
     0
280
     1
281
     0
  0
BLOCK_RECORD
  5
1B
330
1
100
AcDbSymbolTableRecord
100
AcDbBlockTableRecord
  2
*Paper_Space
340
1E
 70
     0
280
     1
281
     0
  0
BLOCK_RECORD
  5
23
330
1
100
AcDbSymbolTableRecord
100
AcDbBlockTableRecord
  2
*Paper_Space0
340
26
 70
     0
280
     1
281
     0
  0
BLOCK_RECORD
  5
2CF
330
1
100
AcDbSymbolTableRecord
100
AcDbBlockTableRecord
  2
*D1
340
0
 70
     0
280
     1
281
     0
  0
ENDTAB
  0
ENDSEC
  0
SECTION
  2
BLOCKS
  0
BLOCK
  5
20
330
1F
100
AcDbEntity
  8
0
100
AcDbBlockBegin
  2
*Model_Space
 70
     0
 10
0.0
 20
0.0
 30
0.0
  3
*Model_Space
  1

  0
ENDBLK
  5
21
330
1F
100
AcDbEntity
  8
0
100
AcDbBlockEnd
  0
BLOCK
  5
1C
330
1B
100
AcDbEntity
 67
     1
  8
0
100
AcDbBlockBegin
  2
*Paper_Space
 70
     0
 10
0.0
 20
0.0
 30
0.0
  3
*Paper_Space
  1

  0
ENDBLK
  5
1D
330
1B
100
AcDbEntity
 67
     1
  8
0
100
AcDbBlockEnd
  0
BLOCK
  5
24
330
23
100
AcDbEntity
 67
     1
  8
0
100
AcDbBlockBegin
  2
*Paper_Space0
 70
     0
 10
0.0
 20
0.0
 30
0.0
  3
*Paper_Space0
  1

  0
VIEWPORT
  5
2B8
102
{ACAD_XDICTIONARY
360
2B9
102
}
330
23
100
AcDbEntity
 67
     1
  8
0
370
    18
100
AcDbViewport
 10
128.5
 20
97.5
 30
0.0
 40
490.9293442622951
 41
222.18
 68
     1
 69
     1
 12
128.5
 22
97.5
 13
0.0
 23
0.0
 14
10.0
 24
10.0
 15
10.0
 25
10.0
 16
0.0
 26
0.0
 36
1.0
 17
0.0
 27
0.0
 37
0.0
 42
50.0
 43
0.0
 44
0.0
 45
222.18
 50
0.0
 51
0.0
 72
   100
 90
   557088
  1

281
     0
 71
     1
 74
     0
110
0.0
120
0.0
130
0.0
111
1.0
121
0.0
131
0.0
112
0.0
122
1.0
132
0.0
 79
     0
146
0.0
170
     0
 61
     5
348
2F
292
     1
282
     1
141
0.0
142
0.0
 63
   250
421
  3355443
  0
VIEWPORT
  5
2BC
102
{ACAD_XDICTIONARY
360
2BD
102
}
330
23
100
AcDbEntity
 67
     1
  8
0
370
    18
100
AcDbViewport
 10
128.5
 20
97.5
 30
0.0
 40
205.6
 41
156.0
 68
     2
 69
     2
 12
577.9572964999999
 22
444.2193084999999
 13
0.0
 23
0.0
 14
0.5
 24
0.5
 15
0.5
 25
0.5
 16
0.0
 26
0.0
 36
1.0
 17
0.0
 27
0.0
 37
0.0
 42
50.0
 43
1934.496336
 44
-1934.496336
 45
780.0581298774565
 50
0.0
 51
0.0
 72
   100
 90
   819296
  1

281
     0
 71
     1
 74
     0
110
0.0
120
0.0
130
0.0
111
1.0
121
0.0
131
0.0
112
0.0
122
1.0
132
0.0
 79
     0
146
0.0
170
     0
 61
     5
348
2F
292
     1
282
     1
141
0.0
142
0.0
 63
   250
421
  3355443
  0
ENDBLK
  5
25
330
23
100
AcDbEntity
 67
     1
  8
0
100
AcDbBlockEnd
  0
BLOCK
  5
2D0
330
2CF
100
AcDbEntity
  8
0
370
    18
100
AcDbBlockBegin
  2
*D1
 70
     1
 10
0.0
 20
0.0
 30
0.0
  3
*D1
  1

  0
LINE
  5
2DD
330
2CF
100
AcDbEntity
  8
0
 62
     0
440
 16777216
370
    -2
100
AcDbLine
 10
67.79365099999999
 20
546.5938105
 30
0.0
 11
67.79365099999999
 21
603.4927470185554
 31
0.0
  0
LINE
  5
2DE
330
2CF
100
AcDbEntity
  8
0
 62
     0
440
 16777216
370
    -2
100
AcDbLine
 10
665.2736509999999
 20
545.185396
 30
0.0
 11
665.2736509999999
 21
603.4927470185554
 31
0.0
  0
LINE
  5
2DF
330
2CF
100
AcDbEntity
  8
0
 62
     0
440
 16777216
370
    -2
100
AcDbLine
 10
67.973651
 20
603.3127470185554
 30
0.0
 11
365.843651
 21
603.3127470185554
 31
0.0
  0
LINE
  5
2E0
330
2CF
100
AcDbEntity
  8
0
 62
     0
440
 16777216
370
    -2
100
AcDbLine
 10
665.093651
 20
603.3127470185554
 30
0.0
 11
367.223651
 21
603.3127470185554
 31
0.0
  0
SOLID
  5
2E1
330
2CF
100
AcDbEntity
  8
0
 62
     0
440
 16777216
370
    18
100
AcDbTrace
 10
67.973651
 20
603.3427470185554
 30
0.0
 11
67.973651
 21
603.2827470185554
 31
0.0
 12
67.79365099999999
 22
603.3127470185554
 32
0.0
 13
67.79365099999999
 23
603.3127470185554
 33
0.0
  0
SOLID
  5
2E2
330
2CF
100
AcDbEntity
  8
0
 62
     0
440
 16777216
370
    18
100
AcDbTrace
 10
665.093651
 20
603.3427470185554
 30
0.0
 11
665.093651
 21
603.2827470185554
 31
0.0
 12
665.2736509999999
 22
603.3127470185554
 32
0.0
 13
665.2736509999999
 23
603.3127470185554
 33
0.0
  0
MTEXT
  5
2E3
330
2CF
100
AcDbEntity
  8
0
 62
     0
440
 16777216
370
    18
100
AcDbMText
 10
366.533651
 20
603.3127470185554
 30
0.0
 40
0.18
 41
0.0
 46
0.0
 71
     5
 72
     1
  1
\A1;597.4800
 73
     1
 44
1.0
  0
POINT
  5
2E4
330
2CF
100
AcDbEntity
  8
Defpoints
 62
     0
440
 16777216
370
    18
100
AcDbPoint
 10
67.79365099999999
 20
546.5313104999999
 30
0.0
  0
POINT
  5
2E5
330
2CF
100
AcDbEntity
  8
Defpoints
 62
     0
440
 16777216
370
    18
100
AcDbPoint
 10
665.2736509999999
 20
545.1228959999999
 30
0.0
  0
POINT
  5
2E6
330
2CF
100
AcDbEntity
  8
Defpoints
 62
     0
440
 16777216
370
    18
100
AcDbPoint
 10
665.2736509999999
 20
603.3127470185554
 30
0.0
  0
ENDBLK
  5
2D1
330
2CF
100
AcDbEntity
  8
0
370
    18
100
AcDbBlockEnd
  0
ENDSEC
  0
SECTION
  2
ENTITIES
  0
LINE
  5
73
330
1F
100
AcDbEntity
  8
HEWI
100
AcDbLine
 10
1080.02657
 20
771.213475
 30
0.0
 11
1087.012215
 21
784.3515629999999
 31
0.0
  0
LINE
  5
75
330
1F
100
AcDbEntity
  8
HEWI
100
AcDbLine
 10
840.596073
 20
320.910203
 30
0.0
 11
1080.02657
 21
771.213475
 31
0.0
  0
LINE
  5
76
330
1F
100
AcDbEntity
  8
HEWI
100
AcDbLine
 10
1080.02657
 20
771.213475
 30
0.0
 11
840.596073
 21
320.910203
 31
0.0
  0
LINE
  5
77
330
1F
100
AcDbEntity
  8
HEWI
100
AcDbLine
 10
833.6104269999999
 20
307.772115
 30
0.0
 11
840.596073
 21
320.910203
 31
0.0
  0
LINE
  5
78
330
1F
100
AcDbEntity
  8
HEWI
100
AcDbLine
 10
840.596073
 20
320.910203
 30
0.0
 11
833.6104269999999
 21
307.772115
 31
0.0
  0
LINE
  5
79
330
1F
100
AcDbEntity
  8
HEWI
100
AcDbLine
 10
1087.012215
 20
784.3515629999999
 30
0.0
 11
1080.02657
 21
771.213475
 31
0.0
  0
LINE
  5
7A
330
1F
100
AcDbEntity
  8
HEWI
100
AcDbLine
 10
814.665328
 20
487.8414949999999
 30
0.0
 11
814.4653279999999
 21
487.8414949999999
 31
0.0
  0
LINE
  5
7B
330
1F
100
AcDbEntity
  8
HEWI
100
AcDbLine
 10
849.203495
 20
528.530613
 30
0.0
 11
848.2218869999998
 21
527.84145
 31
0.0
  0
LINE
  5
7C
330
1F
100
AcDbEntity
  8
HEWI
100
AcDbLine
 10
824.475628
 20
128.166495
 30
0.0
 11
824.475628
 21
124.666495
 31
0.0
  0
LINE
  5
7D
330
1F
100
AcDbEntity
  8
HEWI
100
AcDbLine
 10
824.475628
 20
124.666495
 30
0.0
 11
824.3756279999999
 21
124.666495
 31
0.0
  0
LINE
  5
7E
330
1F
100
AcDbEntity
  8
HEWI
100
AcDbLine
 10
824.475628
 20
128.166495
 30
0.0
 11
824.3756279999999
 21
128.166495
 31
0.0
  0
LINE
  5
7F
330
1F
100
AcDbEntity
  8
HEWI
100
AcDbLine
 10
849.665328
 20
528.2641429999999
 30
0.0
 11
849.665328
 21
527.841495
 31
0.0
  0
LINE
  5
80
330
1F
100
AcDbEntity
  8
HEWI
100
AcDbLine
 10
824.865066
 20
489.900687
 30
0.0
 11
814.465466
 21
489.191713
 31
0.0
  0
LINE
  5
81
330
1F
100
AcDbEntity
  8
HEWI
100
AcDbLine
 10
814.665328
 20
486.041986
 30
0.0
 11
814.665328
 21
487.8414949999999
 31
0.0
  0
LINE
  5
82
330
1F
100
AcDbEntity
  8
HEWI
100
AcDbLine
 10
814.665328
 20
452.896546
 30
0.0
 11
814.665328
 21
460.7885309999999
 31
0.0
  0
LINE
  5
83
330
1F
100
AcDbEntity
  8
HEWI
100
AcDbLine
 10
813.665328
 20
453.938937
 30
0.0
 11
813.665328
 21
459.7439259999999
 31
0.0
  0
LINE
  5
84
330
1F
100
AcDbEntity
  8
HEWI
100
AcDbLine
 10
836.225826
 20
453.521483
 30
0.0
 11
833.9693929999999
 21
453.109415
 31
0.0
  0
LINE
  5
85
330
1F
100
AcDbEntity
  8
HEWI
100
AcDbLine
 10
833.9693929999999
 20
453.109415
 30
0.0
 11
831.2512980000001
 21
452.6994779999999
 31
0.0
  0
LINE
  5
86
330
1F
100
AcDbEntity
  8
HEWI
100
AcDbLine
 10
826.707984
 20
452.20689
 30
0.0
 11
829.078544
 21
452.4348269999999
 31
0.0
  0
LINE
  5
87
330
1F
100
AcDbEntity
  8
HEWI
100
AcDbLine
 10
865.6653279999998
 20
489.16987
 30
0.0
 11
865.6653279999998
 21
507.8414949999999
 31
0.0
  0
LINE
  5
88
330
1F
100
AcDbEntity
  8
HEWI
100
AcDbLine
 10
809.6653279999999
 20
387.841495
 30
0.0
 11
809.6653279999999
 21
452.727181
 31
0.0
  0
LINE
  5
89
330
1F
100
AcDbEntity
  8
HEWI
100
AcDbLine
 10
865.6653279999998
 20
441.472554
 30
0.0
 11
865.6653279999998
 21
453.3116179999999
 31
0.0
  0
LINE
  5
8A
330
1F
100
AcDbEntity
  8
HEWI
100
AcDbLine
 10
811.9511880000001
 20
387.841495
 30
0.0
 11
809.6653279999999
 21
387.841495
 31
0.0
  0
LINE
  5
8B
330
1F
100
AcDbEntity
  8
HEWI
100
AcDbLine
 10
809.6653279999999
 20
460.955804
 30
0.0
 11
809.6653279999999
 21
485.841495
 31
0.0
  0
LINE
  5
8C
330
1F
100
AcDbEntity
  8
HEWI
100
AcDbLine
 10
809.6653279999999
 20
507.8414949999999
 30
0.0
 11
809.6653279999999
 21
527.841495
 31
0.0
  0
LINE
  5
8D
330
1F
100
AcDbEntity
  8
HEWI
100
AcDbLine
 10
865.6653279999998
 20
513.498349
 30
0.0
 11
865.6653279999998
 21
527.841495
 31
0.0
  0
LINE
  5
8E
330
1F
100
AcDbEntity
  8
HEWI
100
AcDbLine
 10
824.8653279999999
 20
490.241495
 30
0.0
 11
823.4653279999999
 21
490.241495
 31
0.0
  0
LINE
  5
8F
330
1F
100
AcDbEntity
  8
HEWI
100
AcDbLine
 10
816.75339
 20
486.041495
 30
0.0
 11
824.8653279999999
 21
486.041495
 31
0.0
  0
LINE
  5
90
330
1F
100
AcDbEntity
  8
HEWI
100
AcDbLine
 10
824.8653279999999
 20
486.041495
 30
0.0
 11
824.8653279999999
 21
490.241495
 31
0.0
  0
LINE
  5
91
330
1F
100
AcDbEntity
  8
HEWI
100
AcDbLine
 10
865.6653279999998
 20
527.841495
 30
0.0
 11
809.6653279999999
 21
527.841495
 31
0.0
  0
LINE
  5
92
330
1F
100
AcDbEntity
  8
HEWI
100
AcDbLine
 10
824.8653279999999
 20
517.841495
 30
0.0
 11
824.8653279999999
 21
522.041495
 31
0.0
  0
LINE
  5
93
330
1F
100
AcDbEntity
  8
HEWI
100
AcDbLine
 10
824.8653279999999
 20
517.841495
 30
0.0
 11
814.4653279999999
 21
517.841495
 31
0.0
  0
LINE
  5
94
330
1F
100
AcDbEntity
  8
HEWI
100
AcDbLine
 10
814.4653279999999
 20
517.841495
 30
0.0
 11
814.4653279999999
 21
522.041495
 31
0.0
  0
LINE
  5
95
330
1F
100
AcDbEntity
  8
HEWI
100
AcDbLine
 10
824.8653279999999
 20
522.041495
 30
0.0
 11
814.4653279999999
 21
522.041495
 31
0.0
  0
LINE
  5
96
330
1F
100
AcDbEntity
  8
HEWI
100
AcDbLine
 10
826.707984
 20
452.20689
 30
0.0
 11
824.6297049999999
 21
452.055974
 31
0.0
  0
LINE
  5
97
330
1F
100
AcDbEntity
  8
HEWI
100
AcDbLine
 10
846.2923599999999
 20
401.991602
 30
0.0
 11
844.581188
 21
401.533095
 31
0.0
  0
LINE
  5
98
330
1F
100
AcDbEntity
  8
HEWI
100
AcDbLine
 10
809.6653279999999
 20
490.841495
 30
0.0
 11
809.6653279999999
 21
485.841495
 31
0.0
  0
LINE
  5
99
330
1F
100
AcDbEntity
  8
HEWI
100
AcDbLine
 10
814.4653279999999
 20
486.041495
 30
0.0
 11
814.4653279999999
 21
490.241495
 31
0.0
  0
LINE
  5
9A
330
1F
100
AcDbEntity
  8
HEWI
100
AcDbLine
 10
814.4653279999999
 20
490.241495
 30
0.0
 11
814.665328
 21
490.241495
 31
0.0
  0
LINE
  5
9B
330
1F
100
AcDbEntity
  8
HEWI
100
AcDbLine
 10
814.665328
 20
486.041495
 30
0.0
 11
814.4653279999999
 21
486.041495
 31
0.0
  0
LINE
  5
9C
330
1F
100
AcDbEntity
  8
HEWI
100
AcDbLine
 10
809.6653279999999
 20
507.8414949999999
 30
0.0
 11
809.6653279999999
 21
502.841495
 31
0.0
  0
LINE
  5
9D
330
1F
100
AcDbEntity
  8
HEWI
100
AcDbLine
 10
865.6653279999998
 20
513.498349
 30
0.0
 11
865.6653279999998
 21
507.8414949999999
 31
0.0
  0
LINE
  5
9E
330
1F
100
AcDbEntity
  8
HEWI
100
AcDbLine
 10
865.6653279999998
 20
507.8414949999999
 30
0.0
 11
864.1653279999999
 21
506.341495
 31
0.0
  0
LINE
  5
9F
330
1F
100
AcDbEntity
  8
HEWI
100
AcDbLine
 10
864.1653279999999
 20
511.998349
 30
0.0
 11
865.6653279999998
 21
513.498349
 31
0.0
  0
LINE
  5
A0
330
1F
100
AcDbEntity
  8
HEWI
100
AcDbLine
 10
809.6653279999999
 20
452.727181
 30
0.0
 11
809.6653279999999
 21
460.955804
 31
0.0
  0
LINE
  5
A1
330
1F
100
AcDbEntity
  8
HEWI
100
AcDbLine
 10
849.642249
 20
476.377311
 30
0.0
 11
849.642249
 21
491.818415
 31
0.0
  0
LINE
  5
A2
330
1F
100
AcDbEntity
  8
HEWI
100
AcDbLine
 10
849.642249
 20
491.818415
 30
0.0
 11
864.1653279999999
 21
506.341495
 31
0.0
  0
LINE
  5
A3
330
1F
100
AcDbEntity
  8
HEWI
100
AcDbLine
 10
864.1653279999999
 20
506.341495
 30
0.0
 11
864.1653279999999
 21
511.998349
 31
0.0
  0
LINE
  5
A4
330
1F
100
AcDbEntity
  8
HEWI
100
AcDbLine
 10
845.7943199999998
 20
493.627341
 30
0.0
 11
864.1653279999999
 21
511.998349
 31
0.0
  0
LINE
  5
A5
330
1F
100
AcDbEntity
  8
HEWI
100
AcDbLine
 10
845.7943199999998
 20
472.643028
 30
0.0
 11
845.7943199999998
 21
493.627341
 31
0.0
  0
LINE
  5
A6
330
1F
100
AcDbEntity
  8
HEWI
100
AcDbLine
 10
809.6653279999999
 20
500.158119
 30
0.0
 11
809.6653279999999
 21
502.341495
 31
0.0
  0
LINE
  5
A7
330
1F
100
AcDbEntity
  8
HEWI
100
AcDbLine
 10
809.6653279999999
 20
491.3414949999999
 30
0.0
 11
809.6653279999999
 21
490.841495
 31
0.0
  0
LINE
  5
A8
330
1F
100
AcDbEntity
  8
HEWI
100
AcDbLine
 10
812.267413
 20
490.841495
 30
0.0
 11
809.6653279999999
 21
490.841495
 31
0.0
  0
LINE
  5
A9
330
1F
100
AcDbEntity
  8
HEWI
100
AcDbLine
 10
809.6653279999999
 20
502.841495
 30
0.0
 11
809.6653279999999
 21
502.341495
 31
0.0
  0
LINE
  5
AA
330
1F
100
AcDbEntity
  8
HEWI
100
AcDbLine
 10
809.6653279999999
 20
502.841495
 30
0.0
 11
812.267413
 21
502.841495
 31
0.0
  0
LINE
  5
AB
330
1F
100
AcDbEntity
  8
HEWI
100
AcDbLine
 10
809.6653279999999
 20
491.3414949999999
 30
0.0
 11
809.6653279999999
 21
493.52487
 31
0.0
  0
LINE
  5
AC
330
1F
100
AcDbEntity
  8
HEWI
100
AcDbLine
 10
809.6653279999999
 20
103.218695
 30
0.0
 11
809.6653279999999
 21
186.314295
 31
0.0
  0
LINE
  5
AD
330
1F
100
AcDbEntity
  8
HEWI
100
AcDbLine
 10
818.769628
 20
103.218695
 30
0.0
 11
818.769628
 21
186.314295
 31
0.0
  0
LINE
  5
AE
330
1F
100
AcDbEntity
  8
HEWI
100
AcDbLine
 10
818.8285590000001
 20
103.076425
 30
0.0
 11
819.775628
 21
104.023495
 31
0.0
  0
LINE
  5
AF
330
1F
100
AcDbEntity
  8
HEWI
100
AcDbLine
 10
819.775628
 20
104.023495
 30
0.0
 11
819.775628
 21
185.5094949999999
 31
0.0
  0
LINE
  5
B0
330
1F
100
AcDbEntity
  8
HEWI
100
AcDbLine
 10
818.8285590000001
 20
186.456564
 30
0.0
 11
819.775628
 21
185.5094949999999
 31
0.0
  0
LINE
  5
B1
330
1F
100
AcDbEntity
  8
HEWI
100
AcDbLine
 10
818.769628
 20
186.515495
 30
0.0
 11
818.8285590000001
 21
186.456564
 31
0.0
  0
LINE
  5
B2
330
1F
100
AcDbEntity
  8
HEWI
100
AcDbLine
 10
818.769628
 20
186.515495
 30
0.0
 11
809.6653279999999
 21
186.515495
 31
0.0
  0
LINE
  5
B3
330
1F
100
AcDbEntity
  8
HEWI
100
AcDbLine
 10
809.6653279999999
 20
186.314295
 30
0.0
 11
809.6653279999999
 21
186.515495
 31
0.0
  0
LINE
  5
B4
330
1F
100
AcDbEntity
  8
HEWI
100
AcDbLine
 10
818.769628
 20
103.017495
 30
0.0
 11
809.6653279999999
 21
103.017495
 31
0.0
  0
LINE
  5
B5
330
1F
100
AcDbEntity
  8
HEWI
100
AcDbLine
 10
818.769628
 20
103.017495
 30
0.0
 11
818.8285590000001
 21
103.076425
 31
0.0
  0
LINE
  5
B6
330
1F
100
AcDbEntity
  8
HEWI
100
AcDbLine
 10
809.6653279999999
 20
103.218695
 30
0.0
 11
809.6653279999999
 21
103.017495
 31
0.0
  0
LINE
  5
B7
330
1F
100
AcDbEntity
  8
HEWI
100
AcDbLine
 10
824.475628
 20
161.366495
 30
0.0
 11
824.3756279999999
 21
161.366495
 31
0.0
  0
LINE
  5
B8
330
1F
100
AcDbEntity
  8
HEWI
100
AcDbLine
 10
824.475628
 20
164.866495
 30
0.0
 11
824.475628
 21
161.366495
 31
0.0
  0
LINE
  5
B9
330
1F
100
AcDbEntity
  8
HEWI
100
AcDbLine
 10
824.475628
 20
164.866495
 30
0.0
 11
824.3756279999999
 21
164.866495
 31
0.0
  0
LINE
  5
BA
330
1F
100
AcDbEntity
  8
HEWI
100
AcDbLine
 10
868.6653279999999
 20
526.841495
 30
0.0
 11
868.6653279999999
 21
527.841495
 31
0.0
  0
LINE
  5
BB
330
1F
100
AcDbEntity
  8
HEWI
100
AcDbLine
 10
865.7739619999999
 20
530.041495
 30
0.0
 11
850.665328
 21
530.041495
 31
0.0
  0
LINE
  5
BC
330
1F
100
AcDbEntity
  8
HEWI
100
AcDbLine
 10
850.665328
 20
530.041495
 30
0.0
 11
850.665328
 21
535.041495
 31
0.0
  0
LINE
  5
BD
330
1F
100
AcDbEntity
  8
HEWI
100
AcDbLine
 10
850.665328
 20
535.041495
 30
0.0
 11
848.6653279999998
 21
535.041495
 31
0.0
  0
LINE
  5
BE
330
1F
100
AcDbEntity
  8
HEWI
100
AcDbLine
 10
848.6653279999998
 20
535.041495
 30
0.0
 11
848.6653279999998
 21
528.8414949999999
 31
0.0
  0
LINE
  5
BF
330
1F
100
AcDbEntity
  8
HEWI
100
AcDbLine
 10
848.6653279999998
 20
528.8414949999999
 30
0.0
 11
850.3973789999999
 21
527.841495
 31
0.0
  0
LINE
  5
C0
330
1F
100
AcDbEntity
  8
HEWI
100
AcDbLine
 10
865.665266
 20
527.841495
 30
0.0
 11
867.665328
 21
527.841495
 31
0.0
  0
LINE
  5
C1
330
1F
100
AcDbEntity
  8
HEWI
100
AcDbLine
 10
868.6653279999999
 20
447.240394
 30
0.0
 11
868.6653279999999
 21
449.934029
 31
0.0
  0
LINE
  5
C2
330
1F
100
AcDbEntity
  8
HEWI
100
AcDbLine
 10
868.6653279999999
 20
491.074937
 30
0.0
 11
868.6653279999999
 21
526.841495
 31
0.0
  0
LINE
  5
C3
330
1F
100
AcDbEntity
  8
HEWI
100
AcDbLine
 10
809.2642279999999
 20
105.016495
 30
0.0
 11
809.2642279999999
 21
110.016495
 31
0.0
  0
LINE
  5
C4
330
1F
100
AcDbEntity
  8
HEWI
100
AcDbLine
 10
809.6653190000001
 20
105.016495
 30
0.0
 11
809.2642279999999
 21
105.016495
 31
0.0
  0
LINE
  5
C5
330
1F
100
AcDbEntity
  8
HEWI
100
AcDbLine
 10
809.2642279999999
 20
179.516495
 30
0.0
 11
809.2642279999999
 21
184.516495
 31
0.0
  0
LINE
  5
C6
330
1F
100
AcDbEntity
  8
HEWI
100
AcDbLine
 10
809.2642279999999
 20
184.516495
 30
0.0
 11
809.6653190000001
 21
184.516495
 31
0.0
  0
LINE
  5
C7
330
1F
100
AcDbEntity
  8
HEWI
100
AcDbLine
 10
809.2642279999999
 20
110.016495
 30
0.0
 11
809.2642279999999
 21
179.516495
 31
0.0
  0
LINE
  5
C8
330
1F
100
AcDbEntity
  8
HEWI
100
AcDbLine
 10
836.431813
 20
336.828476
 30
0.0
 11
817.889914
 21
346.687379
 31
0.0
  0
LINE
  5
C9
330
1F
100
AcDbEntity
  8
HEWI
100
AcDbLine
 10
849.6717639999999
 20
356.404066
 30
0.0
 11
839.8128609999998
 21
337.862166
 31
0.0
  0
LINE
  5
CA
330
1F
100
AcDbEntity
  8
HEWI
100
AcDbLine
 10
816.856223
 20
350.068427
 30
0.0
 11
826.715126
 21
368.610327
 31
0.0
  0
LINE
  5
CB
330
1F
100
AcDbEntity
  8
HEWI
100
AcDbLine
 10
830.0961739999999
 20
369.644017
 30
0.0
 11
848.6380740000001
 21
359.785114
 31
0.0
  0
LINE
  5
CC
330
1F
100
AcDbEntity
  8
HEWI
100
AcDbLine
 10
840.1911999999999
 20
315.462627
 30
0.0
 11
840.0146099999998
 21
315.556522
 31
0.0
  0
LINE
  5
CD
330
1F
100
AcDbEntity
  8
HEWI
100
AcDbLine
 10
840.1911999999999
 20
315.462627
 30
0.0
 11
842.303822
 21
319.435891
 31
0.0
  0
LINE
  5
CE
330
1F
100
AcDbEntity
  8
HEWI
100
AcDbLine
 10
842.303822
 20
319.435891
 30
0.0
 11
842.1272319999999
 21
319.529786
 31
0.0
  0
LINE
  5
CF
330
1F
100
AcDbEntity
  8
HEWI
100
AcDbLine
 10
1088.120942
 20
782.176665
 30
0.0
 11
1087.965366
 21
783.115405
 31
0.0
  0
LINE
  5
D0
330
1F
100
AcDbEntity
  8
HEWI
100
AcDbLine
 10
1088.120942
 20
782.176665
 30
0.0
 11
1081.792465
 21
770.274532
 31
0.0
  0
LINE
  5
D1
330
1F
100
AcDbEntity
  8
HEWI
100
AcDbLine
 10
1082.823256
 20
784.993495
 30
0.0
 11
1083.688503
 21
785.3894529999999
 31
0.0
  0
LINE
  5
D2
330
1F
100
AcDbEntity
  8
HEWI
100
AcDbLine
 10
1082.823256
 20
784.993495
 30
0.0
 11
1076.494779
 21
773.0913609999999
 31
0.0
  0
LINE
  5
D3
330
1F
100
AcDbEntity
  8
HEWI
100
AcDbLine
 10
843.075565
 20
321.31334
 30
0.0
 11
842.3619679999999
 21
319.971259
 31
0.0
  0
LINE
  5
D4
330
1F
100
AcDbEntity
  8
HEWI
100
AcDbLine
 10
1081.078868
 20
768.932452
 30
0.0
 11
843.075565
 21
321.31334
 31
0.0
  0
LINE
  5
D5
330
1F
100
AcDbEntity
  8
HEWI
100
AcDbLine
 10
1081.792465
 20
770.274532
 30
0.0
 11
1081.078868
 21
768.932452
 31
0.0
  0
LINE
  5
D6
330
1F
100
AcDbEntity
  8
HEWI
100
AcDbLine
 10
1076.494779
 20
773.0913609999999
 30
0.0
 11
1075.781183
 21
771.749281
 31
0.0
  0
LINE
  5
D7
330
1F
100
AcDbEntity
  8
HEWI
100
AcDbLine
 10
837.777879
 20
324.130169
 30
0.0
 11
1075.781183
 21
771.749281
 31
0.0
  0
LINE
  5
D8
330
1F
100
AcDbEntity
  8
HEWI
100
AcDbLine
 10
837.777879
 20
324.130169
 30
0.0
 11
837.064282
 21
322.788089
 31
0.0
  0
LINE
  5
D9
330
1F
100
AcDbEntity
  8
HEWI
100
AcDbLine
 10
836.033491
 20
308.069126
 30
0.0
 11
835.1682440000001
 21
307.673168
 31
0.0
  0
LINE
  5
DA
330
1F
100
AcDbEntity
  8
HEWI
100
AcDbLine
 10
842.3619679999999
 20
319.971259
 30
0.0
 11
836.033491
 21
308.069126
 31
0.0
  0
LINE
  5
DB
330
1F
100
AcDbEntity
  8
HEWI
100
AcDbLine
 10
837.064282
 20
322.788089
 30
0.0
 11
830.7358059999998
 21
310.885955
 31
0.0
  0
LINE
  5
DC
330
1F
100
AcDbEntity
  8
HEWI
100
AcDbLine
 10
830.7358059999998
 20
310.885955
 30
0.0
 11
830.8913809999999
 21
309.947216
 31
0.0
  0
LINE
  5
DD
330
1F
100
AcDbEntity
  8
HEWI
100
AcDbLine
 10
1083.688503
 20
785.3894529999999
 30
0.0
 11
1077.005191
 21
772.819971
 31
0.0
  0
LINE
  5
DE
330
1F
100
AcDbEntity
  8
HEWI
100
AcDbLine
 10
1087.965366
 20
783.115405
 30
0.0
 11
1081.282054
 21
770.545922
 31
0.0
  0
LINE
  5
DF
330
1F
100
AcDbEntity
  8
HEWI
100
AcDbLine
 10
1077.005191
 20
772.819971
 30
0.0
 11
837.574694
 21
322.516698
 31
0.0
  0
LINE
  5
E0
330
1F
100
AcDbEntity
  8
HEWI
100
AcDbLine
 10
1081.282054
 20
770.545922
 30
0.0
 11
841.851557
 21
320.24265
 31
0.0
  0
LINE
  5
E1
330
1F
100
AcDbEntity
  8
HEWI
100
AcDbLine
 10
837.574694
 20
322.516698
 30
0.0
 11
830.8913809999999
 21
309.947216
 31
0.0
  0
LINE
  5
E2
330
1F
100
AcDbEntity
  8
HEWI
100
AcDbLine
 10
841.851557
 20
320.24265
 30
0.0
 11
835.1682440000001
 21
307.673168
 31
0.0
  0
LINE
  5
E3
330
1F
100
AcDbEntity
  8
HEWI
100
AcDbLine
 10
879.810082
 20
523.742329
 30
0.0
 11
875.925113
 21
525.808004
 31
0.0
  0
LINE
  5
E4
330
1F
100
AcDbEntity
  8
HEWI
100
AcDbLine
 10
869.262027
 20
491.9760179999999
 30
0.0
 11
882.1255480000001
 21
516.168782
 31
0.0
  0
LINE
  5
E5
330
1F
100
AcDbEntity
  8
HEWI
100
AcDbLine
 10
861.6884800000001
 20
489.6605519999999
 30
0.0
 11
857.803511
 21
491.7262269999999
 31
0.0
  0
LINE
  5
E6
330
1F
100
AcDbEntity
  8
HEWI
100
AcDbLine
 10
811.372773
 20
404.40271
 30
0.0
 11
857.803511
 21
491.7262269999999
 31
0.0
  0
LINE
  5
E7
330
1F
100
AcDbEntity
  8
HEWI
100
AcDbLine
 10
811.372773
 20
404.40271
 30
0.0
 11
813.2869499999999
 21
349.587846
 31
0.0
  0
LINE
  5
E8
330
1F
100
AcDbEntity
  8
HEWI
100
AcDbLine
 10
842.2284699999998
 20
332.500512
 30
0.0
 11
814.876708
 21
347.043702
 31
0.0
  0
LINE
  5
E9
330
1F
100
AcDbEntity
  8
HEWI
100
AcDbLine
 10
946.1281640000001
 20
551.338017
 30
0.0
 11
955.840588
 21
546.1738299999999
 31
0.0
  0
LINE
  5
EA
330
1F
100
AcDbEntity
  8
HEWI
100
AcDbLine
 10
946.1281640000001
 20
551.338017
 30
0.0
 11
920.7101249999999
 21
524.080507
 31
0.0
  0
LINE
  5
EB
330
1F
100
AcDbEntity
  8
HEWI
100
AcDbLine
 10
920.7101249999999
 20
524.080507
 30
0.0
 11
885.079808
 21
543.025482
 31
0.0
  0
LINE
  5
EC
330
1F
100
AcDbEntity
  8
HEWI
100
AcDbLine
 10
875.925113
 20
525.808004
 30
0.0
 11
885.079808
 21
543.025482
 31
0.0
  0
LINE
  5
ED
330
1F
100
AcDbEntity
  8
HEWI
100
AcDbLine
 10
893.5239939999998
 20
532.0147469999999
 30
0.0
 11
893.876728
 21
532.6781440000001
 31
0.0
  0
LINE
  5
EE
330
1F
100
AcDbEntity
  8
HEWI
100
AcDbLine
 10
891.532306
 20
528.2689269999999
 30
0.0
 11
891.88504
 21
528.9323239999999
 31
0.0
  0
LINE
  5
EF
330
1F
100
AcDbEntity
  8
HEWI
100
AcDbLine
 10
896.4123589999999
 20
528.9267549999999
 30
0.0
 11
895.0134619999998
 21
529.670562
 31
0.0
  0
LINE
  5
F0
330
1F
100
AcDbEntity
  8
HEWI
100
AcDbLine
 10
896.059625
 20
528.263358
 30
0.0
 11
896.4123589999999
 21
528.9267549999999
 31
0.0
  0
LINE
  5
F1
330
1F
100
AcDbEntity
  8
HEWI
100
AcDbLine
 10
895.284833
 20
526.273673
 30
0.0
 11
895.637568
 21
526.93707
 31
0.0
  0
LINE
  5
F2
330
1F
100
AcDbEntity
  8
HEWI
100
AcDbLine
 10
894.660988
 20
529.007026
 30
0.0
 11
896.059625
 21
528.263358
 31
0.0
  0
LINE
  5
F3
330
1F
100
AcDbEntity
  8
HEWI
100
AcDbLine
 10
897.2765210000002
 20
530.0194929999999
 30
0.0
 11
897.629255
 21
530.6828889999999
 31
0.0
  0
LINE
  5
F4
330
1F
100
AcDbEntity
  8
HEWI
100
AcDbLine
 10
851.247322
 20
477.2043499999999
 30
0.0
 11
886.0099949999998
 21
458.7207089999999
 31
0.0
  0
LINE
  5
F5
330
1F
100
AcDbEntity
  8
HEWI
100
AcDbLine
 10
849.3694359999999
 20
473.6725599999999
 30
0.0
 11
884.132109
 21
455.1889179999999
 31
0.0
  0
LINE
  5
F6
330
1F
100
AcDbEntity
  8
HEWI
100
AcDbLine
 10
851.22186
 20
477.217888
 30
0.0
 11
851.247322
 21
477.2043499999999
 31
0.0
  0
LINE
  5
F7
330
1F
100
AcDbEntity
  8
HEWI
100
AcDbLine
 10
849.3694359999999
 20
473.6725599999999
 30
0.0
 11
849.3439739999999
 21
473.6860980000001
 31
0.0
  0
LINE
  5
F8
330
1F
100
AcDbEntity
  8
HEWI
100
AcDbLine
 10
849.3694359999999
 20
473.6725599999999
 30
0.0
 11
851.247322
 21
477.2043499999999
 31
0.0
  0
LINE
  5
F9
330
1F
100
AcDbEntity
  8
HEWI
100
AcDbLine
 10
849.3439739999999
 20
473.6860980000001
 30
0.0
 11
851.22186
 21
477.217888
 31
0.0
  0
LINE
  5
FA
330
1F
100
AcDbEntity
  8
HEWI
100
AcDbLine
 10
886.0099949999998
 20
458.7207089999999
 30
0.0
 11
892.720397
 21
455.1527249999999
 31
0.0
  0
LINE
  5
FB
330
1F
100
AcDbEntity
  8
HEWI
100
AcDbLine
 10
884.132109
 20
455.1889179999999
 30
0.0
 11
890.8425109999999
 21
451.6209349999999
 31
0.0
  0
LINE
  5
FC
330
1F
100
AcDbEntity
  8
HEWI
100
AcDbLine
 10
886.0099949999998
 20
458.7207089999999
 30
0.0
 11
884.132109
 21
455.1889179999999
 31
0.0
  0
LINE
  5
FD
330
1F
100
AcDbEntity
  8
HEWI
100
AcDbLine
 10
892.720397
 20
455.1527249999999
 30
0.0
 11
900.6669249999999
 21
450.9274809999999
 31
0.0
  0
LINE
  5
FE
330
1F
100
AcDbEntity
  8
HEWI
100
AcDbLine
 10
890.8425109999999
 20
451.6209349999999
 30
0.0
 11
898.7890390000002
 21
447.395691
 31
0.0
  0
LINE
  5
FF
330
1F
100
AcDbEntity
  8
HEWI
100
AcDbLine
 10
890.8425109999999
 20
451.6209349999999
 30
0.0
 11
892.720397
 21
455.1527249999999
 31
0.0
  0
LINE
  5
100
330
1F
100
AcDbEntity
  8
HEWI
100
AcDbLine
 10
896.9111529999999
 20
443.8639
 30
0.0
 11
898.7890390000002
 21
447.395691
 31
0.0
  0
LINE
  5
101
330
1F
100
AcDbEntity
  8
HEWI
100
AcDbLine
 10
905.24965
 20
455.286223
 30
0.0
 11
907.0155449999999
 21
454.3472799999999
 31
0.0
  0
LINE
  5
102
330
1F
100
AcDbEntity
  8
HEWI
100
AcDbLine
 10
899.5039999999999
 20
440.220119
 30
0.0
 11
897.7381049999999
 21
441.159062
 31
0.0
  0
LINE
  5
103
330
1F
100
AcDbEntity
  8
HEWI
100
AcDbLine
 10
900.6669249999999
 20
450.9274809999999
 30
0.0
 11
902.5448119999998
 21
454.4592709999999
 31
0.0
  0
LINE
  5
104
330
1F
100
AcDbEntity
  8
HEWI
100
AcDbLine
 10
902.4328210000001
 20
449.988538
 30
0.0
 11
900.6669249999999
 21
450.9274809999999
 31
0.0
  0
LINE
  5
105
330
1F
100
AcDbEntity
  8
HEWI
100
AcDbLine
 10
898.7890390000002
 20
447.395691
 30
0.0
 11
900.6669249999999
 21
450.9274809999999
 31
0.0
  0
LINE
  5
106
330
1F
100
AcDbEntity
  8
HEWI
100
AcDbLine
 10
898.7890390000002
 20
447.395691
 30
0.0
 11
900.5549339999999
 21
446.4567469999999
 31
0.0
  0
LINE
  5
107
330
1F
100
AcDbEntity
  8
HEWI
100
AcDbLine
 10
824.3756279999999
 20
168.733074
 30
0.0
 11
824.3756279999999
 21
120.799915
 31
0.0
  0
LINE
  5
108
330
1F
100
AcDbEntity
  8
HEWI
100
AcDbLine
 10
823.946596
 20
120.304977
 30
0.0
 11
821.308244
 21
119.926674
 31
0.0
  0
LINE
  5
109
330
1F
100
AcDbEntity
  8
HEWI
100
AcDbLine
 10
821.308244
 20
169.606315
 30
0.0
 11
823.946596
 21
169.228012
 31
0.0
  0
LINE
  5
10A
330
1F
100
AcDbEntity
  8
HEWI
100
AcDbLine
 10
820.237894
 20
119.831526
 30
0.0
 11
819.775615
 21
119.815383
 31
0.0
  0
LINE
  5
10B
330
1F
100
AcDbEntity
  8
HEWI
100
AcDbLine
 10
819.775615
 20
169.717606
 30
0.0
 11
820.237894
 21
169.701463
 31
0.0
  0
LINE
  5
10C
330
1F
100
AcDbEntity
  8
HEWI
100
AcDbLine
 10
945.421806
 20
551.7135940000001
 30
0.0
 11
946.830221
 21
554.3624369999999
 31
0.0
  0
LINE
  5
10D
330
1F
100
AcDbEntity
  8
HEWI
100
AcDbLine
 10
955.575703
 20
546.314671
 30
0.0
 11
956.9841179999999
 21
548.9635139999998
 31
0.0
  0
LINE
  5
10E
330
1F
100
AcDbEntity
  8
HEWI
100
AcDbLine
 10
946.830221
 20
554.3624369999999
 30
0.0
 11
956.9841179999999
 21
548.9635139999998
 31
0.0
  0
LINE
  5
10F
330
1F
100
AcDbEntity
  8
HEWI
100
AcDbLine
 10
945.421806
 20
551.7135940000001
 30
0.0
 11
946.1282949999999
 21
551.337947
 31
0.0
  0
LINE
  5
110
330
1F
100
AcDbEntity
  8
HEWI
100
AcDbLine
 10
666.673456
 20
320.910203
 30
0.0
 11
666.673456
 21
771.213475
 31
0.0
  0
LINE
  5
111
330
1F
100
AcDbEntity
  8
HEWI
100
AcDbLine
 10
67.91384599999999
 20
771.213475
 30
0.0
 11
67.91384599999999
 21
320.910203
 31
0.0
  0
LINE
  5
112
330
1F
100
AcDbEntity
  8
HEWI
100
AcDbLine
 10
82.79365099999999
 20
307.772115
 30
0.0
 11
651.7936509999999
 21
307.772115
 31
0.0
  0
LINE
  5
113
330
1F
100
AcDbEntity
  8
HEWI
100
AcDbLine
 10
651.7936509999999
 20
784.3515629999999
 30
0.0
 11
82.79365099999999
 21
784.3515629999999
 31
0.0
  0
LINE
  5
114
330
1F
100
AcDbEntity
  8
HEWI
100
AcDbLine
 10
82.79365099999999
 20
307.641499
 30
0.0
 11
651.7936509999999
 21
307.641499
 31
0.0
  0
LINE
  5
115
330
1F
100
AcDbEntity
  8
HEWI
100
AcDbLine
 10
67.79365099999999
 20
771.682947
 30
0.0
 11
67.79365099999999
 21
321.379674
 31
0.0
  0
LINE
  5
116
330
1F
100
AcDbEntity
  8
HEWI
100
AcDbLine
 10
666.7936509999999
 20
321.379674
 30
0.0
 11
666.7936509999999
 21
771.682947
 31
0.0
  0
LINE
  5
117
330
1F
100
AcDbEntity
  8
HEWI
100
AcDbLine
 10
651.7936509999999
 20
785.4211219999999
 30
0.0
 11
82.79365099999999
 21
785.4211219999999
 31
0.0
  0
LINE
  5
118
330
1F
100
AcDbEntity
  8
HEWI
100
AcDbLine
 10
583.5446509999999
 20
103.218695
 30
0.0
 11
583.5446509999999
 21
186.314295
 31
0.0
  0
LINE
  5
119
330
1F
100
AcDbEntity
  8
HEWI
100
AcDbLine
 10
584.5506509999999
 20
104.023495
 30
0.0
 11
584.5506509999999
 21
185.5094949999999
 31
0.0
  0
LINE
  5
11A
330
1F
100
AcDbEntity
  8
HEWI
100
AcDbLine
 10
655.5742509999999
 20
174.242295
 30
0.0
 11
655.5742509999999
 21
115.290695
 31
0.0
  0
LINE
  5
11B
330
1F
100
AcDbEntity
  8
HEWI
100
AcDbLine
 10
595.817851
 20
114.485895
 30
0.0
 11
654.769451
 21
114.485895
 31
0.0
  0
LINE
  5
11C
330
1F
100
AcDbEntity
  8
HEWI
100
AcDbLine
 10
583.6035809999999
 20
186.456564
 30
0.0
 11
584.5506509999999
 21
185.5094949999999
 31
0.0
  0
LINE
  5
11D
330
1F
100
AcDbEntity
  8
HEWI
100
AcDbLine
 10
584.5506509999999
 20
185.5094949999999
 30
0.0
 11
666.036651
 21
185.5094949999999
 31
0.0
  0
LINE
  5
11E
330
1F
100
AcDbEntity
  8
HEWI
100
AcDbLine
 10
583.745851
 20
186.515495
 30
0.0
 11
666.8414509999999
 21
186.515495
 31
0.0
  0
LINE
  5
11F
330
1F
100
AcDbEntity
  8
HEWI
100
AcDbLine
 10
595.013051
 20
174.242295
 30
0.0
 11
595.013051
 21
115.290695
 31
0.0
  0
LINE
  5
120
330
1F
100
AcDbEntity
  8
HEWI
100
AcDbLine
 10
667.0426509999999
 20
103.218695
 30
0.0
 11
667.0426509999999
 21
186.314295
 31
0.0
  0
LINE
  5
121
330
1F
100
AcDbEntity
  8
HEWI
100
AcDbLine
 10
666.9837209999999
 20
186.456564
 30
0.0
 11
666.036651
 21
185.5094949999999
 31
0.0
  0
LINE
  5
122
330
1F
100
AcDbEntity
  8
HEWI
100
AcDbLine
 10
666.036651
 20
104.023495
 30
0.0
 11
666.036651
 21
185.5094949999999
 31
0.0
  0
LINE
  5
123
330
1F
100
AcDbEntity
  8
HEWI
100
AcDbLine
 10
595.817851
 20
175.047095
 30
0.0
 11
654.769451
 21
175.047095
 31
0.0
  0
LINE
  5
124
330
1F
100
AcDbEntity
  8
HEWI
100
AcDbLine
 10
666.9837209999999
 20
103.076425
 30
0.0
 11
666.036651
 21
104.023495
 31
0.0
  0
LINE
  5
125
330
1F
100
AcDbEntity
  8
HEWI
100
AcDbLine
 10
584.5506509999999
 20
104.023495
 30
0.0
 11
666.036651
 21
104.023495
 31
0.0
  0
LINE
  5
126
330
1F
100
AcDbEntity
  8
HEWI
100
AcDbLine
 10
583.6035809999999
 20
103.076425
 30
0.0
 11
584.5506509999999
 21
104.023495
 31
0.0
  0
LINE
  5
127
330
1F
100
AcDbEntity
  8
HEWI
100
AcDbLine
 10
583.745851
 20
103.017495
 30
0.0
 11
666.8414509999999
 21
103.017495
 31
0.0
  0
LINE
  5
128
330
1F
100
AcDbEntity
  8
HEWI
100
AcDbLine
 10
651.7936509999999
 20
308.069126
 30
0.0
 11
650.273651
 21
308.069126
 31
0.0
  0
LINE
  5
129
330
1F
100
AcDbEntity
  8
HEWI
100
AcDbLine
 10
651.7936509999999
 20
307.673168
 30
0.0
 11
82.79365099999999
 21
307.673168
 31
0.0
  0
LINE
  5
12A
330
1F
100
AcDbEntity
  8
HEWI
100
AcDbLine
 10
82.79365099999999
 20
308.069126
 30
0.0
 11
84.313651
 21
308.069126
 31
0.0
  0
LINE
  5
12B
330
1F
100
AcDbEntity
  8
HEWI
100
AcDbLine
 10
634.649901
 20
316.128149
 30
0.0
 11
634.649901
 21
316.222043
 31
0.0
  0
LINE
  5
12C
330
1F
100
AcDbEntity
  8
HEWI
100
AcDbLine
 10
634.498041
 20
317.851566
 30
0.0
 11
634.498041
 21
317.94546
 31
0.0
  0
LINE
  5
12D
330
1F
100
AcDbEntity
  8
HEWI
100
AcDbLine
 10
631.2299009999999
 20
315.462627
 30
0.0
 11
631.2299009999999
 21
319.435891
 31
0.0
  0
LINE
  5
12E
330
1F
100
AcDbEntity
  8
HEWI
100
AcDbLine
 10
628.5074009999999
 20
319.435891
 30
0.0
 11
628.5074009999999
 21
317.851566
 31
0.0
  0
LINE
  5
12F
330
1F
100
AcDbEntity
  8
HEWI
100
AcDbLine
 10
627.601761
 20
315.462627
 30
0.0
 11
627.601761
 21
319.435891
 31
0.0
  0
LINE
  5
130
330
1F
100
AcDbEntity
  8
HEWI
100
AcDbLine
 10
630.3242609999999
 20
317.851566
 30
0.0
 11
630.3242609999999
 21
319.435891
 31
0.0
  0
LINE
  5
131
330
1F
100
AcDbEntity
  8
HEWI
100
AcDbLine
 10
628.5074009999999
 20
317.851566
 30
0.0
 11
630.3242609999999
 21
317.851566
 31
0.0
  0
LINE
  5
132
330
1F
100
AcDbEntity
  8
HEWI
100
AcDbLine
 10
627.601761
 20
315.462627
 30
0.0
 11
628.5074009999999
 21
315.462627
 31
0.0
  0
LINE
  5
133
330
1F
100
AcDbEntity
  8
HEWI
100
AcDbLine
 10
628.5074009999999
 20
315.462627
 30
0.0
 11
628.5074009999999
 21
317.220797
 31
0.0
  0
LINE
  5
134
330
1F
100
AcDbEntity
  8
HEWI
100
AcDbLine
 10
628.5074009999999
 20
317.220797
 30
0.0
 11
630.3242609999999
 21
317.220797
 31
0.0
  0
LINE
  5
135
330
1F
100
AcDbEntity
  8
HEWI
100
AcDbLine
 10
630.3242609999999
 20
317.220797
 30
0.0
 11
630.3242609999999
 21
315.462627
 31
0.0
  0
LINE
  5
136
330
1F
100
AcDbEntity
  8
HEWI
100
AcDbLine
 10
630.3242609999999
 20
315.462627
 30
0.0
 11
631.2299009999999
 21
315.462627
 31
0.0
  0
LINE
  5
137
330
1F
100
AcDbEntity
  8
HEWI
100
AcDbLine
 10
628.5074009999999
 20
319.435891
 30
0.0
 11
628.5074009999999
 21
319.529786
 31
0.0
  0
LINE
  5
138
330
1F
100
AcDbEntity
  8
HEWI
100
AcDbLine
 10
627.601761
 20
319.435891
 30
0.0
 11
627.601761
 21
319.529786
 31
0.0
  0
LINE
  5
139
330
1F
100
AcDbEntity
  8
HEWI
100
AcDbLine
 10
627.601761
 20
319.435891
 30
0.0
 11
628.5074009999999
 21
319.435891
 31
0.0
  0
LINE
  5
13A
330
1F
100
AcDbEntity
  8
HEWI
100
AcDbLine
 10
634.649901
 20
319.435891
 30
0.0
 11
634.649901
 21
319.529786
 31
0.0
  0
LINE
  5
13B
330
1F
100
AcDbEntity
  8
HEWI
100
AcDbLine
 10
631.837401
 20
319.435891
 30
0.0
 11
631.837401
 21
319.529786
 31
0.0
  0
LINE
  5
13C
330
1F
100
AcDbEntity
  8
HEWI
100
AcDbLine
 10
641.7936509999999
 20
319.435891
 30
0.0
 11
641.7936509999999
 21
319.529786
 31
0.0
  0
LINE
  5
13D
330
1F
100
AcDbEntity
  8
HEWI
100
AcDbLine
 10
640.8599009999999
 20
319.435891
 30
0.0
 11
640.8599009999999
 21
319.529786
 31
0.0
  0
LINE
  5
13E
330
1F
100
AcDbEntity
  8
HEWI
100
AcDbLine
 10
634.784901
 20
319.435891
 30
0.0
 11
636.050511
 21
315.462627
 31
0.0
  0
LINE
  5
13F
330
1F
100
AcDbEntity
  8
HEWI
100
AcDbLine
 10
639.268041
 20
315.462627
 30
0.0
 11
640.6180410000001
 21
319.435891
 31
0.0
  0
LINE
  5
140
330
1F
100
AcDbEntity
  8
HEWI
100
AcDbLine
 10
636.050511
 20
315.462627
 30
0.0
 11
636.9336509999999
 21
315.462627
 31
0.0
  0
LINE
  5
141
330
1F
100
AcDbEntity
  8
HEWI
100
AcDbLine
 10
636.9336509999999
 20
315.462627
 30
0.0
 11
637.664901
 21
318.17438
 31
0.0
  0
LINE
  5
142
330
1F
100
AcDbEntity
  8
HEWI
100
AcDbLine
 10
637.664901
 20
318.17438
 30
0.0
 11
638.384901
 21
315.462627
 31
0.0
  0
LINE
  5
143
330
1F
100
AcDbEntity
  8
HEWI
100
AcDbLine
 10
638.384901
 20
315.462627
 30
0.0
 11
639.268041
 21
315.462627
 31
0.0
  0
LINE
  5
144
330
1F
100
AcDbEntity
  8
HEWI
100
AcDbLine
 10
634.649901
 20
318.74057
 30
0.0
 11
634.649901
 21
319.435891
 31
0.0
  0
LINE
  5
145
330
1F
100
AcDbEntity
  8
HEWI
100
AcDbLine
 10
631.837401
 20
319.435891
 30
0.0
 11
631.837401
 21
315.462627
 31
0.0
  0
LINE
  5
146
330
1F
100
AcDbEntity
  8
HEWI
100
AcDbLine
 10
634.649901
 20
315.462627
 30
0.0
 11
634.649901
 21
316.128149
 31
0.0
  0
LINE
  5
147
330
1F
100
AcDbEntity
  8
HEWI
100
AcDbLine
 10
634.649901
 20
316.128149
 30
0.0
 11
632.743041
 21
316.128149
 31
0.0
  0
LINE
  5
148
330
1F
100
AcDbEntity
  8
HEWI
100
AcDbLine
 10
632.743041
 20
316.128149
 30
0.0
 11
632.743041
 21
317.220797
 31
0.0
  0
LINE
  5
149
330
1F
100
AcDbEntity
  8
HEWI
100
AcDbLine
 10
632.743041
 20
317.220797
 30
0.0
 11
634.498041
 21
317.220797
 31
0.0
  0
LINE
  5
14A
330
1F
100
AcDbEntity
  8
HEWI
100
AcDbLine
 10
634.498041
 20
317.220797
 30
0.0
 11
634.498041
 21
317.851566
 31
0.0
  0
LINE
  5
14B
330
1F
100
AcDbEntity
  8
HEWI
100
AcDbLine
 10
634.498041
 20
317.851566
 30
0.0
 11
632.743041
 21
317.851566
 31
0.0
  0
LINE
  5
14C
330
1F
100
AcDbEntity
  8
HEWI
100
AcDbLine
 10
632.743041
 20
317.851566
 30
0.0
 11
632.743041
 21
318.74057
 31
0.0
  0
LINE
  5
14D
330
1F
100
AcDbEntity
  8
HEWI
100
AcDbLine
 10
632.743041
 20
318.74057
 30
0.0
 11
634.649901
 21
318.74057
 31
0.0
  0
LINE
  5
14E
330
1F
100
AcDbEntity
  8
HEWI
100
AcDbLine
 10
634.649901
 20
319.435891
 30
0.0
 11
631.837401
 21
319.435891
 31
0.0
  0
LINE
  5
14F
330
1F
100
AcDbEntity
  8
HEWI
100
AcDbLine
 10
631.837401
 20
315.462627
 30
0.0
 11
634.649901
 21
315.462627
 31
0.0
  0
LINE
  5
150
330
1F
100
AcDbEntity
  8
HEWI
100
AcDbLine
 10
640.6180410000001
 20
319.435891
 30
0.0
 11
640.6180410000001
 21
319.529786
 31
0.0
  0
LINE
  5
151
330
1F
100
AcDbEntity
  8
HEWI
100
AcDbLine
 10
640.6180410000001
 20
319.435891
 30
0.0
 11
639.622401
 21
319.435891
 31
0.0
  0
LINE
  5
152
330
1F
100
AcDbEntity
  8
HEWI
100
AcDbLine
 10
637.2149009999999
 20
319.435891
 30
0.0
 11
636.5230109999999
 21
316.684406
 31
0.0
  0
LINE
  5
153
330
1F
100
AcDbEntity
  8
HEWI
100
AcDbLine
 10
641.7936509999999
 20
315.462627
 30
0.0
 11
641.7936509999999
 21
319.435891
 31
0.0
  0
LINE
  5
154
330
1F
100
AcDbEntity
  8
HEWI
100
AcDbLine
 10
641.7936509999999
 20
319.435891
 30
0.0
 11
640.8599009999999
 21
319.435891
 31
0.0
  0
LINE
  5
155
330
1F
100
AcDbEntity
  8
HEWI
100
AcDbLine
 10
640.8599009999999
 20
319.435891
 30
0.0
 11
640.8599009999999
 21
315.462627
 31
0.0
  0
LINE
  5
156
330
1F
100
AcDbEntity
  8
HEWI
100
AcDbLine
 10
640.8599009999999
 20
315.462627
 30
0.0
 11
641.7936509999999
 21
315.462627
 31
0.0
  0
LINE
  5
157
330
1F
100
AcDbEntity
  8
HEWI
100
AcDbLine
 10
639.622401
 20
319.435891
 30
0.0
 11
638.818041
 21
316.66454
 31
0.0
  0
LINE
  5
158
330
1F
100
AcDbEntity
  8
HEWI
100
AcDbLine
 10
639.622401
 20
319.435891
 30
0.0
 11
639.622401
 21
319.529786
 31
0.0
  0
LINE
  5
159
330
1F
100
AcDbEntity
  8
HEWI
100
AcDbLine
 10
638.818041
 20
316.66454
 30
0.0
 11
638.1317609999999
 21
319.435891
 31
0.0
  0
LINE
  5
15A
330
1F
100
AcDbEntity
  8
HEWI
100
AcDbLine
 10
638.818041
 20
316.66454
 30
0.0
 11
638.818041
 21
316.758434
 31
0.0
  0
LINE
  5
15B
330
1F
100
AcDbEntity
  8
HEWI
100
AcDbLine
 10
634.784901
 20
319.435891
 30
0.0
 11
634.784901
 21
319.529786
 31
0.0
  0
LINE
  5
15C
330
1F
100
AcDbEntity
  8
HEWI
100
AcDbLine
 10
635.7411509999999
 20
319.435891
 30
0.0
 11
634.784901
 21
319.435891
 31
0.0
  0
LINE
  5
15D
330
1F
100
AcDbEntity
  8
HEWI
100
AcDbLine
 10
635.7411509999999
 20
319.435891
 30
0.0
 11
635.7411509999999
 21
319.529786
 31
0.0
  0
LINE
  5
15E
330
1F
100
AcDbEntity
  8
HEWI
100
AcDbLine
 10
636.5230109999999
 20
316.684406
 30
0.0
 11
635.7411509999999
 21
319.435891
 31
0.0
  0
LINE
  5
15F
330
1F
100
AcDbEntity
  8
HEWI
100
AcDbLine
 10
636.5230109999999
 20
316.684406
 30
0.0
 11
636.5230109999999
 21
316.7783
 31
0.0
  0
LINE
  5
160
330
1F
100
AcDbEntity
  8
HEWI
100
AcDbLine
 10
637.2149009999999
 20
319.435891
 30
0.0
 11
637.2149009999999
 21
319.529786
 31
0.0
  0
LINE
  5
161
330
1F
100
AcDbEntity
  8
HEWI
100
AcDbLine
 10
638.1317609999999
 20
319.435891
 30
0.0
 11
637.2149009999999
 21
319.435891
 31
0.0
  0
LINE
  5
162
330
1F
100
AcDbEntity
  8
HEWI
100
AcDbLine
 10
638.1317609999999
 20
319.435891
 30
0.0
 11
638.1317609999999
 21
319.529786
 31
0.0
  0
LINE
  5
163
330
1F
100
AcDbEntity
  8
HEWI
100
AcDbLine
 10
631.2299009999999
 20
319.435891
 30
0.0
 11
631.2299009999999
 21
319.529786
 31
0.0
  0
LINE
  5
164
330
1F
100
AcDbEntity
  8
HEWI
100
AcDbLine
 10
630.3242609999999
 20
319.435891
 30
0.0
 11
630.3242609999999
 21
319.529786
 31
0.0
  0
LINE
  5
165
330
1F
100
AcDbEntity
  8
HEWI
100
AcDbLine
 10
630.3242609999999
 20
319.435891
 30
0.0
 11
631.2299009999999
 21
319.435891
 31
0.0
  0
LINE
  5
166
330
1F
100
AcDbEntity
  8
HEWI
100
AcDbLine
 10
665.2736509999999
 20
770.274532
 30
0.0
 11
665.2736509999999
 21
768.932452
 31
0.0
  0
LINE
  5
167
330
1F
100
AcDbEntity
  8
HEWI
100
AcDbLine
 10
665.2736509999999
 20
321.31334
 30
0.0
 11
665.2736509999999
 21
319.971259
 31
0.0
  0
LINE
  5
168
330
1F
100
AcDbEntity
  8
HEWI
100
AcDbLine
 10
666.02947
 20
770.545922
 30
0.0
 11
666.02947
 21
320.24265
 31
0.0
  0
LINE
  5
169
330
1F
100
AcDbEntity
  8
HEWI
100
AcDbLine
 10
68.55783199999999
 20
770.545922
 30
0.0
 11
68.55783199999999
 21
320.24265
 31
0.0
  0
LINE
  5
16A
330
1F
100
AcDbEntity
  8
HEWI
100
AcDbLine
 10
69.313651
 20
321.31334
 30
0.0
 11
69.313651
 21
319.971259
 31
0.0
  0
LINE
  5
16B
330
1F
100
AcDbEntity
  8
HEWI
100
AcDbLine
 10
69.313651
 20
770.274532
 30
0.0
 11
69.313651
 21
768.932452
 31
0.0
  0
LINE
  5
16C
330
1F
100
AcDbEntity
  8
HEWI
100
AcDbLine
 10
641.7936509999999
 20
319.529786
 30
0.0
 11
640.8599009999999
 21
319.529786
 31
0.0
  0
LINE
  5
16D
330
1F
100
AcDbEntity
  8
HEWI
100
AcDbLine
 10
69.313651
 20
768.932452
 30
0.0
 11
69.313651
 21
321.31334
 31
0.0
  0
LINE
  5
16E
330
1F
100
AcDbEntity
  8
HEWI
100
AcDbLine
 10
650.273651
 20
308.069126
 30
0.0
 11
84.313651
 21
308.069126
 31
0.0
  0
LINE
  5
16F
330
1F
100
AcDbEntity
  8
HEWI
100
AcDbLine
 10
665.2736509999999
 20
768.932452
 30
0.0
 11
665.2736509999999
 21
321.31334
 31
0.0
  0
LINE
  5
170
330
1F
100
AcDbEntity
  8
HEWI
100
AcDbLine
 10
634.649901
 20
316.222043
 30
0.0
 11
632.743041
 21
316.222043
 31
0.0
  0
LINE
  5
171
330
1F
100
AcDbEntity
  8
HEWI
100
AcDbLine
 10
634.649901
 20
319.529786
 30
0.0
 11
631.837401
 21
319.529786
 31
0.0
  0
LINE
  5
172
330
1F
100
AcDbEntity
  8
HEWI
100
AcDbLine
 10
634.498041
 20
317.94546
 30
0.0
 11
632.743041
 21
317.94546
 31
0.0
  0
LINE
  5
173
330
1F
100
AcDbEntity
  8
HEWI
100
AcDbLine
 10
628.5074009999999
 20
317.94546
 30
0.0
 11
630.3242609999999
 21
317.94546
 31
0.0
  0
LINE
  5
174
330
1F
100
AcDbEntity
  8
HEWI
100
AcDbLine
 10
630.3242609999999
 20
319.529786
 30
0.0
 11
631.2299009999999
 21
319.529786
 31
0.0
  0
LINE
  5
175
330
1F
100
AcDbEntity
  8
HEWI
100
AcDbLine
 10
627.601761
 20
319.529786
 30
0.0
 11
628.5074009999999
 21
319.529786
 31
0.0
  0
LINE
  5
176
330
1F
100
AcDbEntity
  8
HEWI
100
AcDbLine
 10
635.7411509999999
 20
319.529786
 30
0.0
 11
634.784901
 21
319.529786
 31
0.0
  0
LINE
  5
177
330
1F
100
AcDbEntity
  8
HEWI
100
AcDbLine
 10
636.5230109999999
 20
316.7783
 30
0.0
 11
635.7411509999999
 21
319.529786
 31
0.0
  0
LINE
  5
178
330
1F
100
AcDbEntity
  8
HEWI
100
AcDbLine
 10
637.2149009999999
 20
319.529786
 30
0.0
 11
636.5230109999999
 21
316.7783
 31
0.0
  0
LINE
  5
179
330
1F
100
AcDbEntity
  8
HEWI
100
AcDbLine
 10
638.1317609999999
 20
319.529786
 30
0.0
 11
637.2149009999999
 21
319.529786
 31
0.0
  0
LINE
  5
17A
330
1F
100
AcDbEntity
  8
HEWI
100
AcDbLine
 10
638.818041
 20
316.758434
 30
0.0
 11
638.1317609999999
 21
319.529786
 31
0.0
  0
LINE
  5
17B
330
1F
100
AcDbEntity
  8
HEWI
100
AcDbLine
 10
639.622401
 20
319.529786
 30
0.0
 11
638.818041
 21
316.758434
 31
0.0
  0
LINE
  5
17C
330
1F
100
AcDbEntity
  8
HEWI
100
AcDbLine
 10
640.6180410000001
 20
319.529786
 30
0.0
 11
639.622401
 21
319.529786
 31
0.0
  0
LINE
  5
17D
330
1F
100
AcDbEntity
  8
HEWI
100
AcDbLine
 10
651.7936509999999
 20
783.115405
 30
0.0
 11
82.79365099999999
 21
783.115405
 31
0.0
  0
LINE
  5
17E
330
1F
100
AcDbEntity
  8
HEWI
100
AcDbLine
 10
82.79365099999999
 20
782.176665
 30
0.0
 11
84.313651
 21
782.176665
 31
0.0
  0
LINE
  5
17F
330
1F
100
AcDbEntity
  8
HEWI
100
AcDbLine
 10
84.313651
 20
782.176665
 30
0.0
 11
650.273651
 21
782.176665
 31
0.0
  0
LINE
  5
180
330
1F
100
AcDbEntity
  8
HEWI
100
AcDbLine
 10
651.7936509999999
 20
782.176665
 30
0.0
 11
650.273651
 21
782.176665
 31
0.0
  0
LINE
  5
181
330
1F
100
AcDbEntity
  8
HEWI
100
AcDbLine
 10
645.893651
 20
169.766479
 30
0.0
 11
645.893651
 21
170.266495
 31
0.0
  0
LINE
  5
182
330
1F
100
AcDbEntity
  8
HEWI
100
AcDbLine
 10
646.6936509999999
 20
170.266495
 30
0.0
 11
646.6936509999999
 21
169.766479
 31
0.0
  0
LINE
  5
183
330
1F
100
AcDbEntity
  8
HEWI
100
AcDbLine
 10
603.893651
 20
119.266495
 30
0.0
 11
603.893651
 21
119.76651
 31
0.0
  0
LINE
  5
184
330
1F
100
AcDbEntity
  8
HEWI
100
AcDbLine
 10
604.6936509999999
 20
119.76651
 30
0.0
 11
604.6936509999999
 21
119.266495
 31
0.0
  0
LINE
  5
185
330
1F
100
AcDbEntity
  8
HEWI
100
AcDbLine
 10
620.6936509999999
 20
119.76651
 30
0.0
 11
620.6936509999999
 21
119.266495
 31
0.0
  0
LINE
  5
186
330
1F
100
AcDbEntity
  8
HEWI
100
AcDbLine
 10
619.893651
 20
119.266495
 30
0.0
 11
619.893651
 21
119.76651
 31
0.0
  0
LINE
  5
187
330
1F
100
AcDbEntity
  8
HEWI
100
AcDbLine
 10
602.6936509999999
 20
170.266495
 30
0.0
 11
602.6936509999999
 21
169.766495
 31
0.0
  0
LINE
  5
188
330
1F
100
AcDbEntity
  8
HEWI
100
AcDbLine
 10
620.6936509999999
 20
169.766479
 30
0.0
 11
620.6936509999999
 21
170.266495
 31
0.0
  0
LINE
  5
189
330
1F
100
AcDbEntity
  8
HEWI
100
AcDbLine
 10
619.893651
 20
170.266495
 30
0.0
 11
619.893651
 21
169.766479
 31
0.0
  0
LINE
  5
18A
330
1F
100
AcDbEntity
  8
HEWI
100
AcDbLine
 10
647.8936509999999
 20
119.266495
 30
0.0
 11
647.8936509999999
 21
119.766495
 31
0.0
  0
LINE
  5
18B
330
1F
100
AcDbEntity
  8
HEWI
100
AcDbLine
 10
630.6936509999999
 20
119.266495
 30
0.0
 11
630.6936509999999
 21
119.76651
 31
0.0
  0
LINE
  5
18C
330
1F
100
AcDbEntity
  8
HEWI
100
AcDbLine
 10
629.8936509999999
 20
119.76651
 30
0.0
 11
629.8936509999999
 21
119.266495
 31
0.0
  0
LINE
  5
18D
330
1F
100
AcDbEntity
  8
HEWI
100
AcDbLine
 10
603.893651
 20
170.266495
 30
0.0
 11
603.893651
 21
169.766479
 31
0.0
  0
LINE
  5
18E
330
1F
100
AcDbEntity
  8
HEWI
100
AcDbLine
 10
604.6936509999999
 20
169.766479
 30
0.0
 11
604.6936509999999
 21
170.266495
 31
0.0
  0
LINE
  5
18F
330
1F
100
AcDbEntity
  8
HEWI
100
AcDbLine
 10
650.7936509999999
 20
122.166495
 30
0.0
 11
650.2936509999999
 21
122.166495
 31
0.0
  0
LINE
  5
190
330
1F
100
AcDbEntity
  8
HEWI
100
AcDbLine
 10
650.7936509999999
 20
167.366495
 30
0.0
 11
650.2936509999999
 21
167.366495
 31
0.0
  0
LINE
  5
191
330
1F
100
AcDbEntity
  8
HEWI
100
AcDbLine
 10
629.8936509999999
 20
169.766479
 30
0.0
 11
629.8936509999999
 21
170.266495
 31
0.0
  0
LINE
  5
192
330
1F
100
AcDbEntity
  8
HEWI
100
AcDbLine
 10
630.6936509999999
 20
170.266495
 30
0.0
 11
630.6936509999999
 21
169.766479
 31
0.0
  0
LINE
  5
193
330
1F
100
AcDbEntity
  8
HEWI
100
AcDbLine
 10
647.8936509999999
 20
170.266495
 30
0.0
 11
647.8936509999999
 21
169.766495
 31
0.0
  0
LINE
  5
194
330
1F
100
AcDbEntity
  8
HEWI
100
AcDbLine
 10
646.6936509999999
 20
119.266495
 30
0.0
 11
646.6936509999999
 21
119.76651
 31
0.0
  0
LINE
  5
195
330
1F
100
AcDbEntity
  8
HEWI
100
AcDbLine
 10
645.893651
 20
119.76651
 30
0.0
 11
645.893651
 21
119.266495
 31
0.0
  0
LINE
  5
196
330
1F
100
AcDbEntity
  8
HEWI
100
AcDbLine
 10
602.6936509999999
 20
119.266495
 30
0.0
 11
602.6936509999999
 21
119.766495
 31
0.0
  0
LINE
  5
197
330
1F
100
AcDbEntity
  8
HEWI
100
AcDbLine
 10
599.7936509999999
 20
122.166495
 30
0.0
 11
600.2936509999999
 21
122.166495
 31
0.0
  0
LINE
  5
198
330
1F
100
AcDbEntity
  8
HEWI
100
AcDbLine
 10
599.7936509999999
 20
167.366495
 30
0.0
 11
600.2936509999999
 21
167.366495
 31
0.0
  0
LINE
  5
199
330
1F
100
AcDbEntity
  8
HEWI
100
AcDbLine
 10
654.543651
 20
174.516495
 30
0.0
 11
596.043651
 21
174.516495
 31
0.0
  0
LINE
  5
19A
330
1F
100
AcDbEntity
  8
HEWI
100
AcDbLine
 10
650.7936509999999
 20
169.766495
 30
0.0
 11
650.7936509999999
 21
119.766495
 31
0.0
  0
LINE
  5
19B
330
1F
100
AcDbEntity
  8
HEWI
100
AcDbLine
 10
600.2936509999999
 20
119.266495
 30
0.0
 11
650.2936509999999
 21
119.266495
 31
0.0
  0
LINE
  5
19C
330
1F
100
AcDbEntity
  8
HEWI
100
AcDbLine
 10
600.2936509999999
 20
170.266495
 30
0.0
 11
650.2936509999999
 21
170.266495
 31
0.0
  0
LINE
  5
19D
330
1F
100
AcDbEntity
  8
HEWI
100
AcDbLine
 10
654.543651
 20
115.016495
 30
0.0
 11
596.043651
 21
115.016495
 31
0.0
  0
LINE
  5
19E
330
1F
100
AcDbEntity
  8
HEWI
100
AcDbLine
 10
655.0436509999999
 20
174.016495
 30
0.0
 11
655.0436509999999
 21
115.516495
 31
0.0
  0
LINE
  5
19F
330
1F
100
AcDbEntity
  8
HEWI
100
AcDbLine
 10
599.7936509999999
 20
169.766495
 30
0.0
 11
599.7936509999999
 21
119.766495
 31
0.0
  0
LINE
  5
1A0
330
1F
100
AcDbEntity
  8
HEWI
100
AcDbLine
 10
595.5436509999999
 20
174.016495
 30
0.0
 11
595.5436509999999
 21
115.516495
 31
0.0
  0
LINE
  5
1A1
330
1F
100
AcDbEntity
  8
HEWI
100
AcDbLine
 10
600.7933469999999
 20
169.766495
 30
0.0
 11
649.7939559999999
 21
169.766495
 31
0.0
  0
LINE
  5
1A2
330
1F
100
AcDbEntity
  8
HEWI
100
AcDbLine
 10
649.7939559999999
 20
119.766495
 30
0.0
 11
600.7933469999999
 21
119.766495
 31
0.0
  0
LINE
  5
1A3
330
1F
100
AcDbEntity
  8
HEWI
100
AcDbLine
 10
650.2936509999999
 20
120.26619
 30
0.0
 11
650.2936509999999
 21
135.266495
 31
0.0
  0
LINE
  5
1A4
330
1F
100
AcDbEntity
  8
HEWI
100
AcDbLine
 10
650.2936509999999
 20
154.266495
 30
0.0
 11
650.2936509999999
 21
135.266495
 31
0.0
  0
LINE
  5
1A5
330
1F
100
AcDbEntity
  8
HEWI
100
AcDbLine
 10
650.2936509999999
 20
169.266799
 30
0.0
 11
650.2936509999999
 21
154.266495
 31
0.0
  0
LINE
  5
1A6
330
1F
100
AcDbEntity
  8
HEWI
100
AcDbLine
 10
600.2936509999999
 20
154.266495
 30
0.0
 11
600.2936509999999
 21
169.266799
 31
0.0
  0
LINE
  5
1A7
330
1F
100
AcDbEntity
  8
HEWI
100
AcDbLine
 10
600.2936509999999
 20
135.266495
 30
0.0
 11
600.2936509999999
 21
154.266495
 31
0.0
  0
LINE
  5
1A8
330
1F
100
AcDbEntity
  8
HEWI
100
AcDbLine
 10
600.2936509999999
 20
135.266495
 30
0.0
 11
600.2936509999999
 21
120.26619
 31
0.0
  0
LINE
  5
1A9
330
1F
100
AcDbEntity
  8
HEWI
100
AcDbLine
 10
627.941236
 20
161.666495
 30
0.0
 11
622.646066
 21
161.666495
 31
0.0
  0
LINE
  5
1AA
330
1F
100
AcDbEntity
  8
HEWI
100
AcDbLine
 10
628.6436509999999
 20
161.366495
 30
0.0
 11
625.2936509999999
 21
164.866495
 31
0.0
  0
LINE
  5
1AB
330
1F
100
AcDbEntity
  8
HEWI
100
AcDbLine
 10
622.646066
 20
161.666495
 30
0.0
 11
625.2936509999999
 21
164.432628
 31
0.0
  0
LINE
  5
1AC
330
1F
100
AcDbEntity
  8
HEWI
100
AcDbLine
 10
621.9436509999999
 20
161.366495
 30
0.0
 11
628.6436509999999
 21
161.366495
 31
0.0
  0
LINE
  5
1AD
330
1F
100
AcDbEntity
  8
HEWI
100
AcDbLine
 10
625.2936509999999
 20
164.866495
 30
0.0
 11
621.9436509999999
 21
161.366495
 31
0.0
  0
LINE
  5
1AE
330
1F
100
AcDbEntity
  8
HEWI
100
AcDbLine
 10
625.2936509999999
 20
164.432628
 30
0.0
 11
627.941236
 21
161.666495
 31
0.0
  0
LINE
  5
1AF
330
1F
100
AcDbEntity
  8
HEWI
100
AcDbLine
 10
625.2936509999999
 20
124.666495
 30
0.0
 11
628.6436509999999
 21
128.166495
 31
0.0
  0
LINE
  5
1B0
330
1F
100
AcDbEntity
  8
HEWI
100
AcDbLine
 10
621.9436509999999
 20
128.166495
 30
0.0
 11
625.2936509999999
 21
124.666495
 31
0.0
  0
LINE
  5
1B1
330
1F
100
AcDbEntity
  8
HEWI
100
AcDbLine
 10
628.6436509999999
 20
128.166495
 30
0.0
 11
621.9436509999999
 21
128.166495
 31
0.0
  0
LINE
  5
1B2
330
1F
100
AcDbEntity
  8
1
  6
Continuous
 62
   163
 60
     1
370
    18
100
AcDbLine
 10
625.2936509999999
 20
164.866495
 30
0.0
 11
621.9436509999999
 21
161.366495
 31
0.0
  0
LINE
  5
1B3
330
1F
100
AcDbEntity
  8
1
  6
Continuous
 62
   163
 60
     1
370
    18
100
AcDbLine
 10
628.6436509999999
 20
161.366495
 30
0.0
 11
625.2936509999999
 21
164.866495
 31
0.0
  0
LINE
  5
1B4
330
1F
100
AcDbEntity
  8
1
  6
Continuous
 62
   163
 60
     1
370
    18
100
AcDbLine
 10
621.9436509999999
 20
161.366495
 30
0.0
 11
628.6436509999999
 21
161.366495
 31
0.0
  0
LINE
  5
1B5
330
1F
100
AcDbEntity
  8
1
  6
Continuous
 62
   163
 60
     1
370
    18
100
AcDbLine
 10
622.646066
 20
161.666495
 30
0.0
 11
625.2936509999999
 21
164.432628
 31
0.0
  0
LINE
  5
1B6
330
1F
100
AcDbEntity
  8
1
  6
Continuous
 62
   163
 60
     1
370
    18
100
AcDbLine
 10
627.941236
 20
161.666495
 30
0.0
 11
622.646066
 21
161.666495
 31
0.0
  0
LINE
  5
1B7
330
1F
100
AcDbEntity
  8
1
  6
Continuous
 62
   163
 60
     1
370
    18
100
AcDbLine
 10
625.2936509999999
 20
164.432628
 30
0.0
 11
627.941236
 21
161.666495
 31
0.0
  0
LINE
  5
1B8
330
1F
100
AcDbEntity
  8
1
  6
Continuous
 62
   163
 60
     1
370
    18
100
AcDbLine
 10
621.9436509999999
 20
128.166495
 30
0.0
 11
625.2936509999999
 21
124.666495
 31
0.0
  0
LINE
  5
1B9
330
1F
100
AcDbEntity
  8
1
  6
Continuous
 62
   163
 60
     1
370
    18
100
AcDbLine
 10
628.6436509999999
 20
128.166495
 30
0.0
 11
621.9436509999999
 21
128.166495
 31
0.0
  0
LINE
  5
1BA
330
1F
100
AcDbEntity
  8
1
  6
Continuous
 62
   163
 60
     1
370
    18
100
AcDbLine
 10
625.2936509999999
 20
124.666495
 30
0.0
 11
628.6436509999999
 21
128.166495
 31
0.0
  0
ARC
  5
1BB
330
1F
100
AcDbEntity
  8
HEWI
100
AcDbCircle
 10
855.165328
 20
522.941495
 30
0.0
 40
7.999999999999981
100
AcDbArc
 50
62.55932999999999
 51
117.438474
  0
ARC
  5
1BC
330
1F
100
AcDbEntity
  8
HEWI
100
AcDbCircle
 10
856.742249
 20
476.8004509999999
 30
0.0
 40
7.100000000000001
100
AcDbArc
 50
120.7516449999999
 51
180.0
  0
ARC
  5
1BD
330
1F
100
AcDbEntity
  8
HEWI
100
AcDbCircle
 10
817.73719
 20
456.841432
 30
0.0
 40
5.000453388889826
100
AcDbArc
 50
90.719696
 51
269.176569
  0
ARC
  5
1BE
330
1F
100
AcDbEntity
  8
HEWI
100
AcDbCircle
 10
817.6698549999999
 20
456.8414929999999
 30
0.0
 40
4.999999999999993
100
AcDbArc
 50
89.94813200000001
 51
269.948132
  0
ARC
  5
1BF
330
1F
100
AcDbEntity
  8
HEWI
100
AcDbCircle
 10
817.6698549999999
 20
456.8414929999999
 30
0.0
 40
8.999999999999994
100
AcDbArc
 50
89.94813200000001
 51
152.796922
  0
ARC
  5
1C0
330
1F
100
AcDbEntity
  8
HEWI
100
AcDbCircle
 10
817.6698549999999
 20
456.8414929999999
 30
0.0
 40
8.999999999999994
100
AcDbArc
 50
207.203078
 51
269.948132
  0
ARC
  5
1C1
330
1F
100
AcDbEntity
  8
HEWI
100
AcDbCircle
 10
814.665328
 20
496.841495
 30
0.0
 40
6.0
100
AcDbArc
 50
270.0
 51
90.0
  0
CIRCLE
  5
1C2
330
1F
100
AcDbEntity
  8
HEWI
100
AcDbCircle
 10
814.665328
 20
496.841495
 30
0.0
 40
3.0
  0
ARC
  5
1C3
330
1F
100
AcDbEntity
  8
HEWI
100
AcDbCircle
 10
818.9708279999999
 20
186.314295
 30
0.0
 40
0.2012000000247246
100
AcDbArc
 50
135.0
 51
180.0
  0
ARC
  5
1C4
330
1F
100
AcDbEntity
  8
HEWI
100
AcDbCircle
 10
818.9708279999999
 20
103.218695
 30
0.0
 40
0.2011999999911044
100
AcDbArc
 50
180.0
 51
225.0
  0
ARC
  5
1C5
330
1F
100
AcDbEntity
  8
HEWI
100
AcDbCircle
 10
865.7739619999999
 20
527.0414950000001
 30
0.0
 40
3.0
100
AcDbArc
 50
15.46601
 51
90.0
  0
ARC
  5
1C6
330
1F
100
AcDbEntity
  8
HEWI
100
AcDbCircle
 10
867.665328
 20
526.841495
 30
0.0
 40
1.000000000000109
100
AcDbArc
 50
0.0
 51
90.0
  0
ARC
  5
1C7
330
1F
100
AcDbEntity
  8
HEWI
100
AcDbCircle
 10
837.6054919999999
 20
339.035845
 30
0.0
 40
2.5
100
AcDbArc
 50
242.0
 51
332.0
  0
ARC
  5
1C8
330
1F
100
AcDbEntity
  8
HEWI
100
AcDbCircle
 10
819.063592
 20
348.894748
 30
0.0
 40
2.5
100
AcDbArc
 50
152.0
 51
242.0
  0
ARC
  5
1C9
330
1F
100
AcDbEntity
  8
HEWI
100
AcDbCircle
 10
828.9224950000001
 20
367.436648
 30
0.0
 40
2.5
100
AcDbArc
 50
62.0
 51
152.0
  0
ARC
  5
1CA
330
1F
100
AcDbEntity
  8
HEWI
100
AcDbCircle
 10
847.4643949999999
 20
357.577745
 30
0.0
 40
2.5
100
AcDbArc
 50
332.0
 51
62.0
  0
ARC
  5
1CB
330
1F
100
AcDbEntity
  8
HEWI
100
AcDbCircle
 10
1084.204526
 20
781.2011219999999
 30
0.0
 40
4.220000000000026
100
AcDbArc
 50
26.976279
 51
97.02372099999999
  0
ARC
  5
1CC
330
1F
100
AcDbEntity
  8
HEWI
100
AcDbCircle
 10
834.6522219999998
 20
311.8614990000001
 30
0.0
 40
4.220000000000026
100
AcDbArc
 50
206.976279
 51
277.023721
  0
CIRCLE
  5
1CD
330
1F
100
AcDbEntity
  8
HEWI
100
AcDbCircle
 10
845.3167499999999
 20
402.2103579999999
 30
0.0
 40
1.0
  0
ARC
  5
1CE
330
1F
100
AcDbEntity
  8
HEWI
100
AcDbCircle
 10
877.1810420000001
 20
518.7978219999999
 30
0.0
 40
5.599999999999999
100
AcDbArc
 50
332.0
 51
62.0
  0
ARC
  5
1CF
330
1F
100
AcDbEntity
  8
HEWI
100
AcDbCircle
 10
864.317521
 20
494.6050579999999
 30
0.0
 40
5.599999999999999
100
AcDbArc
 50
242.0
 51
332.0
  0
ARC
  5
1D0
330
1F
100
AcDbEntity
  8
HEWI
100
AcDbCircle
 10
816.2851229999999
 20
349.692545
 30
0.0
 40
3.0
100
AcDbArc
 50
182.0
 51
242.0
  0
CIRCLE
  5
1D1
330
1F
100
AcDbEntity
  8
HEWI
100
AcDbCircle
 10
845.3167499999999
 20
402.2103579999999
 30
0.0
 40
1.5
  0
ARC
  5
1D2
330
1F
100
AcDbEntity
  8
HEWI
100
AcDbCircle
 10
892.594148
 20
530.532219
 30
0.0
 40
1.750000000000006
100
AcDbArc
 50
57.903956
 51
246.096044
  0
ARC
  5
1D3
330
1F
100
AcDbEntity
  8
HEWI
100
AcDbCircle
 10
892.594148
 20
530.532219
 30
0.0
 40
2.500000000000003
100
AcDbArc
 50
59.134016
 51
244.865984
  0
ARC
  5
1D4
330
1F
100
AcDbEntity
  8
HEWI
100
AcDbCircle
 10
896.3466760000001
 20
528.5369649999999
 30
0.0
 40
2.500000000000003
100
AcDbArc
 50
59.134016
 51
244.865984
  0
ARC
  5
1D5
330
1F
100
AcDbEntity
  8
HEWI
100
AcDbCircle
 10
896.3466760000001
 20
528.5369649999999
 30
0.0
 40
1.750000000000006
100
AcDbArc
 50
57.903956
 51
139.626375
  0
ARC
  5
1D6
330
1F
100
AcDbEntity
  8
HEWI
100
AcDbCircle
 10
896.3466760000001
 20
528.5369649999999
 30
0.0
 40
1.750000000000001
100
AcDbArc
 50
164.418646
 51
246.096044
  0
ARC
  5
1D7
330
1F
100
AcDbEntity
  8
HEWI
100
AcDbCircle
 10
851.7666590000001
 20
453.887362
 30
0.0
 40
8.000000000000001
100
AcDbArc
 50
285.793196
 51
336.131782
  0
ARC
  5
1D8
330
1F
100
AcDbEntity
  8
HEWI
100
AcDbCircle
 10
855.332033
 20
441.2818829999999
 30
0.0
 40
5.099999999999993
100
AcDbArc
 50
105.793196
 51
276.715384
  0
ARC
  5
1D9
330
1F
100
AcDbEntity
  8
HEWI
100
AcDbCircle
 10
854.1743529999999
 20
451.113962
 30
0.0
 40
15.0
100
AcDbArc
 50
276.715384
 51
345.209594
  0
ARC
  5
1DA
330
1F
100
AcDbEntity
  8
HEWI
100
AcDbCircle
 10
863.746328
 20
448.586652
 30
0.0
 40
5.100000000000001
100
AcDbArc
 50
345.209594
 51
156.131782
  0
ARC
  5
1DB
330
1F
100
AcDbEntity
  8
HEWI
100
AcDbCircle
 10
854.1743529999999
 20
451.113962
 30
0.0
 40
15.50000000000001
100
AcDbArc
 50
276.715384
 51
345.209594
  0
ARC
  5
1DC
330
1F
100
AcDbEntity
  8
HEWI
100
AcDbCircle
 10
855.332033
 20
441.2818829999999
 30
0.0
 40
5.599999999999988
100
AcDbArc
 50
105.793196
 51
276.715384
  0
ARC
  5
1DD
330
1F
100
AcDbEntity
  8
HEWI
100
AcDbCircle
 10
851.7666590000001
 20
453.887362
 30
0.0
 40
7.500000000000003
100
AcDbArc
 50
285.793196
 51
336.131782
  0
ARC
  5
1DE
330
1F
100
AcDbEntity
  8
HEWI
100
AcDbCircle
 10
863.746328
 20
448.586652
 30
0.0
 40
5.600000000000001
100
AcDbArc
 50
345.209594
 51
156.131782
  0
ARC
  5
1DF
330
1F
100
AcDbEntity
  8
HEWI
100
AcDbCircle
 10
854.1743529999999
 20
451.113962
 30
0.0
 40
17.0
100
AcDbArc
 50
276.715384
 51
345.209594
  0
ARC
  5
1E0
330
1F
100
AcDbEntity
  8
HEWI
100
AcDbCircle
 10
863.746328
 20
448.586652
 30
0.0
 40
7.100000000000008
100
AcDbArc
 50
345.209594
 51
156.131782
  0
ARC
  5
1E1
330
1F
100
AcDbEntity
  8
HEWI
100
AcDbCircle
 10
851.7666590000001
 20
453.887362
 30
0.0
 40
5.999999999999985
100
AcDbArc
 50
285.793196
 51
336.131782
  0
ARC
  5
1E2
330
1F
100
AcDbEntity
  8
HEWI
100
AcDbCircle
 10
855.332033
 20
441.2818829999999
 30
0.0
 40
7.100000000000005
100
AcDbArc
 50
105.793196
 51
276.715384
  0
ARC
  5
1E3
330
1F
100
AcDbEntity
  8
HEWI
100
AcDbCircle
 10
904.3107069999999
 20
453.520328
 30
0.0
 40
2.0
100
AcDbArc
 50
62.0
 51
152.0
  0
ARC
  5
1E4
330
1F
100
AcDbEntity
  8
HEWI
100
AcDbCircle
 10
898.677048
 20
442.924957
 30
0.0
 40
2.0
100
AcDbArc
 50
152.0
 51
242.0
  0
ARC
  5
1E5
330
1F
100
AcDbEntity
  8
HEWI
100
AcDbCircle
 10
823.875628
 20
168.733074
 30
0.0
 40
0.4999999999994
100
AcDbArc
 50
360.0
 51
81.84019599999999
  0
ARC
  5
1E6
330
1F
100
AcDbEntity
  8
HEWI
100
AcDbCircle
 10
823.875628
 20
120.799915
 30
0.0
 40
0.4999999999992001
100
AcDbArc
 50
278.159804
 51
0.0
  0
ARC
  5
1E7
330
1F
100
AcDbEntity
  8
HEWI
100
AcDbCircle
 10
595.817851
 20
174.242295
 30
0.0
 40
0.8048
100
AcDbArc
 50
90.0
 51
180.0
  0
ARC
  5
1E8
330
1F
100
AcDbEntity
  8
HEWI
100
AcDbCircle
 10
583.745851
 20
186.314295
 30
0.0
 40
0.2012000000247246
100
AcDbArc
 50
135.0
 51
180.0
  0
ARC
  5
1E9
330
1F
100
AcDbEntity
  8
HEWI
100
AcDbCircle
 10
583.745851
 20
103.218695
 30
0.0
 40
0.2011999999911044
100
AcDbArc
 50
180.0
 51
225.0
  0
ARC
  5
1EA
330
1F
100
AcDbEntity
  8
HEWI
100
AcDbCircle
 10
654.769451
 20
174.242295
 30
0.0
 40
0.8048
100
AcDbArc
 50
0.0
 51
90.0
  0
ARC
  5
1EB
330
1F
100
AcDbEntity
  8
HEWI
100
AcDbCircle
 10
595.817851
 20
115.290695
 30
0.0
 40
0.8048
100
AcDbArc
 50
180.0
 51
270.0
  0
ARC
  5
1EC
330
1F
100
AcDbEntity
  8
HEWI
100
AcDbCircle
 10
583.745851
 20
186.314295
 30
0.0
 40
0.2011999999727664
100
AcDbArc
 50
90.0
 51
135.0
  0
ARC
  5
1ED
330
1F
100
AcDbEntity
  8
HEWI
100
AcDbCircle
 10
666.8414509999999
 20
186.314295
 30
0.0
 40
0.2011999999990088
100
AcDbArc
 50
45.0
 51
90.0
  0
ARC
  5
1EE
330
1F
100
AcDbEntity
  8
HEWI
100
AcDbCircle
 10
666.8414509999999
 20
186.314295
 30
0.0
 40
0.2011999999968334
100
AcDbArc
 50
0.0
 51
45.0
  0
ARC
  5
1EF
330
1F
100
AcDbEntity
  8
HEWI
100
AcDbCircle
 10
583.745851
 20
103.218695
 30
0.0
 40
0.2011999999968377
100
AcDbArc
 50
225.0
 51
270.0
  0
ARC
  5
1F0
330
1F
100
AcDbEntity
  8
HEWI
100
AcDbCircle
 10
666.8414509999999
 20
103.218695
 30
0.0
 40
0.2011999999703936
100
AcDbArc
 50
270.0
 51
315.0
  0
ARC
  5
1F1
330
1F
100
AcDbEntity
  8
HEWI
100
AcDbCircle
 10
654.769451
 20
115.290695
 30
0.0
 40
0.8048
100
AcDbArc
 50
270.0
 51
0.0
  0
ARC
  5
1F2
330
1F
100
AcDbEntity
  8
HEWI
100
AcDbCircle
 10
649.2936509999999
 20
168.766495
 30
0.0
 40
1.5
100
AcDbArc
 50
0.0
 51
90.0
  0
ARC
  5
1F3
330
1F
100
AcDbEntity
  8
HEWI
100
AcDbCircle
 10
649.2936509999999
 20
120.766495
 30
0.0
 40
1.5
100
AcDbArc
 50
270.0
 51
0.0
  0
ARC
  5
1F4
330
1F
100
AcDbEntity
  8
HEWI
100
AcDbCircle
 10
601.2936509999999
 20
168.766495
 30
0.0
 40
1.5
100
AcDbArc
 50
90.0
 51
180.0
  0
ARC
  5
1F5
330
1F
100
AcDbEntity
  8
HEWI
100
AcDbCircle
 10
601.2936509999999
 20
120.766495
 30
0.0
 40
1.5
100
AcDbArc
 50
180.0
 51
270.0
  0
ARC
  5
1F6
330
1F
100
AcDbEntity
  8
HEWI
100
AcDbCircle
 10
654.543651
 20
115.516495
 30
0.0
 40
0.5
100
AcDbArc
 50
270.0
 51
341.565051
  0
ARC
  5
1F7
330
1F
100
AcDbEntity
  8
HEWI
100
AcDbCircle
 10
596.043651
 20
174.016495
 30
0.0
 40
0.5
100
AcDbArc
 50
90.0
 51
161.565051
  0
ARC
  5
1F8
330
1F
100
AcDbEntity
  8
HEWI
100
AcDbCircle
 10
596.043651
 20
115.516495
 30
0.0
 40
0.5
100
AcDbArc
 50
180.0
 51
251.565051
  0
ARC
  5
1F9
330
1F
100
AcDbEntity
  8
HEWI
100
AcDbCircle
 10
654.543651
 20
174.016495
 30
0.0
 40
0.5
100
AcDbArc
 50
18.434949
 51
90.0
  0
ARC
  5
1FA
330
1F
100
AcDbEntity
  8
HEWI
100
AcDbCircle
 10
600.2936509999999
 20
169.766495
 30
0.0
 40
0.5
100
AcDbArc
 50
90.0
 51
180.0
  0
ARC
  5
1FB
330
1F
100
AcDbEntity
  8
HEWI
100
AcDbCircle
 10
600.2936509999999
 20
119.766495
 30
0.0
 40
0.5
100
AcDbArc
 50
180.0
 51
270.0
  0
ARC
  5
1FC
330
1F
100
AcDbEntity
  8
HEWI
100
AcDbCircle
 10
654.543651
 20
115.516495
 30
0.0
 40
0.5
100
AcDbArc
 50
341.565051
 51
0.0
  0
ARC
  5
1FD
330
1F
100
AcDbEntity
  8
HEWI
100
AcDbCircle
 10
654.543651
 20
174.016495
 30
0.0
 40
0.5
100
AcDbArc
 50
360.0
 51
18.434949
  0
ARC
  5
1FE
330
1F
100
AcDbEntity
  8
HEWI
100
AcDbCircle
 10
650.2936509999999
 20
169.766495
 30
0.0
 40
0.5
100
AcDbArc
 50
360.0
 51
90.0
  0
ARC
  5
1FF
330
1F
100
AcDbEntity
  8
HEWI
100
AcDbCircle
 10
596.043651
 20
174.016495
 30
0.0
 40
0.5
100
AcDbArc
 50
161.565051
 51
180.0
  0
ARC
  5
200
330
1F
100
AcDbEntity
  8
HEWI
100
AcDbCircle
 10
650.2936509999999
 20
119.766495
 30
0.0
 40
0.5
100
AcDbArc
 50
270.0
 51
0.0
  0
ARC
  5
201
330
1F
100
AcDbEntity
  8
HEWI
100
AcDbCircle
 10
596.043651
 20
115.516495
 30
0.0
 40
0.5
100
AcDbArc
 50
251.565051
 51
270.0
  0
ELLIPSE
  5
202
330
1F
100
AcDbEntity
  8
HEWI
100
AcDbEllipse
 10
821.2372769999999
 20
169.111377
 30
0.0
 11
0.0709672596339164
 21
0.4949380244652378
 31
0.0
210
0.0
220
0.0
230
1.0
 40
0.034547
 41
4.717342443928485
 42
6.283185305559678
  0
ELLIPSE
  5
203
330
1F
100
AcDbEntity
  8
HEWI
100
AcDbEllipse
 10
821.2372769999999
 20
120.421612
 30
0.0
 11
0.0709672596332041
 21
-0.4949380244638247
 31
0.0
210
0.0
220
0.0
230
1.0
 40
0.034547
 41
0.0
 42
1.565842863251086
  0
ELLIPSE
  5
204
330
1F
100
AcDbEntity
  8
HEWI
100
AcDbEllipse
 10
820.220444
 20
120.331222
 30
0.0
 11
0.0174497483512622
 21
-0.4996954135100479
 31
0.0
210
0.0
220
0.0
230
1.0
 40
0.034878
 41
0.0
 42
1.569578351623788
  0
ELLIPSE
  5
205
330
1F
100
AcDbEntity
  8
HEWI
100
AcDbEllipse
 10
820.220444
 20
169.201767
 30
0.0
 11
0.0174497483512243
 21
0.4996954135091487
 31
0.0
210
0.0
220
0.0
230
1.0
 40
0.034878
 41
4.713606955555801
 42
6.283185305559191
  0
ELLIPSE
  5
206
330
1F
100
AcDbEntity
  8
HEWI
100
AcDbEllipse
 10
651.7936509999999
 20
771.213475
 30
0.0
 11
14.87980487340538
 21
0.0
 31
0.0
210
0.0
220
0.0
230
1.0
 40
0.882948
 41
0.0
 42
1.570796326794889
  0
ELLIPSE
  5
207
330
1F
100
AcDbEntity
  8
HEWI
100
AcDbEllipse
 10
651.7936509999999
 20
320.910203
 30
0.0
 11
14.87980487340538
 21
0.0
 31
0.0
210
0.0
220
0.0
230
1.0
 40
0.882948
 41
4.712388980384666
 42
6.283185307179566
  0
ELLIPSE
  5
208
330
1F
100
AcDbEntity
  8
HEWI
100
AcDbEllipse
 10
82.79365099999999
 20
320.910203
 30
0.0
 11
14.87980487340538
 21
0.0
 31
0.0
210
0.0
220
0.0
230
1.0
 40
0.882948
 41
3.141592653589813
 42
4.712388980384712
  0
ELLIPSE
  5
209
330
1F
100
AcDbEntity
  8
HEWI
100
AcDbEllipse
 10
82.79365099999999
 20
771.213475
 30
0.0
 11
14.87980487340538
 21
0.0
 31
0.0
210
0.0
220
0.0
230
1.0
 40
0.882948
 41
1.570796326794904
 42
3.141592653589792
  0
ELLIPSE
  5
20A
330
1F
100
AcDbEntity
  8
HEWI
100
AcDbEllipse
 10
666.8414509999999
 20
103.218695
 30
0.0
 11
-0.1842946788671456
 21
0.0807273892352487
 31
0.0
210
0.0
220
0.0
230
0.9999999999999998
 40
1.0
 41
2.769053299057453
 42
3.554451462296771
  0
ELLIPSE
  5
20B
330
1F
100
AcDbEntity
  8
HEWI
100
AcDbEllipse
 10
82.79365099999999
 20
320.24265
 30
0.0
 11
14.23581921742056
 21
0.0
 31
0.0
210
0.0
220
0.0
230
1.0
 40
0.8829479999999998
 41
3.141592653589813
 42
4.712388980384713
  0
ELLIPSE
  5
20C
330
1F
100
AcDbEntity
  8
HEWI
100
AcDbEllipse
 10
82.79365099999999
 20
319.971259
 30
0.0
 11
13.47999999999994
 21
0.0
 31
0.0
210
0.0
220
0.0
230
1.0
 40
0.882948
 41
3.141592653589813
 42
4.712388980384714
  0
ELLIPSE
  5
20D
330
1F
100
AcDbEntity
  8
HEWI
100
AcDbEllipse
 10
651.7936509999999
 20
319.971259
 30
0.0
 11
-13.47999999999994
 21
0.0
 31
0.0
210
0.0
220
0.0
230
1.0
 40
0.882948
 41
1.57079632679487
 42
3.141592653589771
  0
ELLIPSE
  5
20E
330
1F
100
AcDbEntity
  8
HEWI
100
AcDbEllipse
 10
651.7936509999999
 20
320.24265
 30
0.0
 11
-14.23581921742056
 21
0.0
 31
0.0
210
0.0
220
0.0
230
1.0
 40
0.8829479999999998
 41
1.570796326794873
 42
3.141592653589771
  0
ELLIPSE
  5
20F
330
1F
100
AcDbEntity
  8
HEWI
100
AcDbEllipse
 10
84.313651
 20
768.932452
 30
0.0
 11
-15.0
 21
0.0
 31
0.0
210
0.0
220
0.0
230
1.0
 40
0.882948
 41
4.71238898038469
 42
6.283185307179585
  0
ELLIPSE
  5
210
330
1F
100
AcDbEntity
  8
HEWI
100
AcDbEllipse
 10
84.313651
 20
321.31334
 30
0.0
 11
-15.0
 21
0.0
 31
0.0
210
0.0
220
0.0
230
1.0
 40
0.882948
 41
0.0
 42
1.570796326794897
  0
ELLIPSE
  5
211
330
1F
100
AcDbEntity
  8
HEWI
100
AcDbEllipse
 10
650.273651
 20
321.31334
 30
0.0
 11
15.0
 21
0.0
 31
0.0
210
0.0
220
0.0
230
1.0
 40
0.882948
 41
4.71238898038469
 42
6.283185307179585
  0
ELLIPSE
  5
212
330
1F
100
AcDbEntity
  8
HEWI
100
AcDbEllipse
 10
650.273651
 20
768.932452
 30
0.0
 11
15.0
 21
0.0
 31
0.0
210
0.0
220
0.0
230
1.0
 40
0.882948
 41
0.0
 42
1.570796326794897
  0
ELLIPSE
  5
213
330
1F
100
AcDbEntity
  8
HEWI
100
AcDbEllipse
 10
82.79365099999999
 20
770.545922
 30
0.0
 11
14.23581921742056
 21
0.0
 31
0.0
210
0.0
220
0.0
230
1.0
 40
0.8829479999999998
 41
1.570796326794904
 42
3.141592653589816
  0
ELLIPSE
  5
214
330
1F
100
AcDbEntity
  8
HEWI
100
AcDbEllipse
 10
82.79365099999999
 20
770.274532
 30
0.0
 11
13.47999999999994
 21
0.0
 31
0.0
210
0.0
220
0.0
230
1.0
 40
0.882948
 41
1.570796326794904
 42
3.141592653589816
  0
ELLIPSE
  5
215
330
1F
100
AcDbEntity
  8
HEWI
100
AcDbEllipse
 10
651.7936509999999
 20
770.274532
 30
0.0
 11
-13.47999999999994
 21
0.0
 31
0.0
210
0.0
220
0.0
230
1.0
 40
0.882948
 41
3.14159265358977
 42
4.712388980384681
  0
ELLIPSE
  5
216
330
1F
100
AcDbEntity
  8
HEWI
100
AcDbEllipse
 10
651.7936509999999
 20
770.545922
 30
0.0
 11
-14.23581921742056
 21
0.0
 31
0.0
210
0.0
220
0.0
230
1.0
 40
0.8829479999999998
 41
3.14159265358977
 42
4.712388980384681
  0
ELLIPSE
  5
217
330
1F
100
AcDbEntity
  8
HEWI
100
AcDbEllipse
 10
649.793346
 20
169.26619
 30
0.0
 11
-0.3539842722990691
 21
-0.3539842722989167
 31
0.000000000000009
210
0.0000000000000053
220
0.0000000000000202
230
0.9999999999999998
 40
0.9987829999999998
 41
2.356803477782384
 42
3.926381829398616
  0
ELLIPSE
  5
218
330
1F
100
AcDbEntity
  8
HEWI
100
AcDbEllipse
 10
600.7939559999999
 20
169.26619
 30
0.0
 11
-0.3539842722994789
 21
0.3539842722994277
 31
-0.0000000000000056
210
-0.0000000000000054
220
0.0000000000000105
230
1.0
 40
0.998783
 41
5.498396131368565
 42
7.067974482989625
  0
ELLIPSE
  5
219
330
1F
100
AcDbEntity
  8
HEWI
100
AcDbEllipse
 10
649.793346
 20
120.266799
 30
0.0
 11
0.3539842722996658
 21
-0.3539842722996656
 31
-0.0000000000000034
210
0.0000000000000048
220
-0.0000000000000048
230
1.0
 40
0.9987829999999998
 41
5.498396131367901
 42
7.067974482995826
  0
ELLIPSE
  5
21A
330
1F
100
AcDbEntity
  8
HEWI
100
AcDbEllipse
 10
600.7939559999999
 20
120.266799
 30
0.0
 11
0.353984272299772
 21
0.3539842722997719
 31
0.0000000000000034
210
-0.0000000000000047
220
-0.0000000000000048
230
0.9999999999999998
 40
0.998783
 41
2.35680347777261
 42
3.926381829402794
  0
ELLIPSE
  5
21B
330
1F
100
AcDbEntity
  8
HEWI
100
AcDbEllipse
 10
600.858378
 20
120.331222
 30
0.0
 11
0.3535533905936275
 21
-0.3535533905936273
 31
-0.0000000000000034
210
0.0000000000000048
220
-0.0000000000000048
230
1.0
 40
0.9987829999999998
 41
3.927599804572691
 42
5.497178154576108
  0
ELLIPSE
  5
21C
330
1F
100
AcDbEntity
  8
HEWI
100
AcDbEllipse
 10
600.858378
 20
169.201767
 30
0.0
 11
0.3535533905929911
 21
0.3535533905929908
 31
0.0000000000000034
210
-0.0000000000000047
220
-0.0000000000000048
230
1.0
 40
0.9987829999999998
 41
0.7860071526044019
 42
2.355585502606693
  0
ELLIPSE
  5
21D
330
1F
100
AcDbEntity
  8
HEWI
100
AcDbEllipse
 10
649.728924
 20
120.331222
 30
0.0
 11
-0.3535533905934913
 21
-0.353553390593339
 31
0.000000000000009
210
0.0000000000000053
220
0.0000000000000202
230
0.9999999999999998
 40
0.9987829999999998
 41
0.7860071526021902
 42
2.355585502606853
  0
ELLIPSE
  5
21E
330
1F
100
AcDbEntity
  8
HEWI
100
AcDbEllipse
 10
649.728924
 20
169.201767
 30
0.0
 11
-0.3535533905920973
 21
0.3535533905920462
 31
-0.0000000000000056
210
-0.0000000000000054
220
0.0000000000000105
230
1.0
 40
0.9987829999999998
 41
3.927599804573214
 42
5.497178154573898
  0
ELLIPSE
  5
21F
330
1F
100
AcDbEntity
  8
HEWI
100
AcDbEllipse
 10
600.893887
 20
120.421612
 30
0.0
 11
0.485800280511927
 21
-0.1183135134062596
 31
0.0
210
0.0
220
0.0
230
1.0
 40
0.9892850000000001
 41
3.382974043336193
 42
4.948816904967117
  0
ELLIPSE
  5
220
330
1F
100
AcDbEntity
  8
HEWI
100
AcDbEllipse
 10
649.6934160000001
 20
169.111377
 30
0.0
 11
-0.4858002805123687
 21
0.1183135134065589
 31
0.0
210
0.0
220
0.0
230
1.0
 40
0.9892850000000001
 41
3.382974043336593
 42
4.948816906589105
  0
ELLIPSE
  5
221
330
1F
100
AcDbEntity
  8
HEWI
100
AcDbEllipse
 10
649.6934160000001
 20
120.421612
 30
0.0
 11
-0.4858002805129051
 21
-0.1183135134068923
 31
0.0
210
0.0
220
0.0
230
1.0
 40
0.9892850000000001
 41
1.334368402208542
 42
2.900211263842413
  0
ELLIPSE
  5
222
330
1F
100
AcDbEntity
  8
HEWI
100
AcDbEllipse
 10
600.893887
 20
169.111377
 30
0.0
 11
0.485800280513403
 21
0.1183135134065381
 31
0.0
210
0.0
220
0.0
230
1.0
 40
0.9892850000000001
 41
1.334368402212619
 42
2.900211263843468
  0
SPLINE
  5
223
330
1F
100
AcDbEntity
  8
HEWI
100
AcDbSpline
210
0.0
220
0.0
230
1.0
 70
    24
 71
     3
 72
    10
 73
     6
 74
     0
 42
0.000000001
 43
0.0000000001
 40
0.0
 40
0.0
 40
0.0
 40
0.0
 40
0.5
 40
0.5
 40
1.0
 40
1.0
 40
1.0
 40
1.0
 10
816.7533897615683
 20
486.0414945609255
 30
0.0
 10
816.4053845381758
 20
486.0414945609255
 30
0.0
 10
816.0573700496787
 20
486.0414945609255
 30
0.0
 10
815.3613445874803
 20
486.0414945609253
 30
0.0
 10
815.0133336831792
 20
486.0414945609255
 30
0.0
 10
814.6653284597862
 20
486.0414945609253
 30
0.0
  0
SPLINE
  5
224
330
1F
100
AcDbEntity
  8
HEWI
100
AcDbSpline
210
0.0
220
0.0
230
1.0
 70
    24
 71
     3
 72
    46
 73
    42
 74
     0
 42
0.000000001
 43
0.0000000001
 40
0.0
 40
0.0
 40
0.0
 40
0.0
 40
0.0156250000000084
 40
0.0156250000000084
 40
0.0312500000000167
 40
0.0312500000000167
 40
0.062500000000035
 40
0.1250000000000722
 40
0.1250000000000722
 40
0.1562500000000907
 40
0.1562500000000907
 40
0.1875000000001092
 40
0.1875000000001092
 40
0.250000000000145
 40
0.250000000000145
 40
0.3125000000001808
 40
0.3125000000001808
 40
0.3750000000002166
 40
0.3750000000002166
 40
0.4375000000002525
 40
0.4375000000002525
 40
0.4687500000002693
 40
0.4687500000002693
 40
0.4765625000002728
 40
0.4765625000002728
 40
0.4804687500002728
 40
0.4804687500002728
 40
0.4843750000002726
 40
0.500000000000266
 40
0.500000000000266
 40
0.6250000000002016
 40
0.6250000000002016
 40
0.7500000000001372
 40
0.7500000000001372
 40
0.8750000000000724
 40
0.8750000000000724
 40
0.9062500000000543
 40
0.9062500000000543
 40
0.9375000000000362
 40
0.9375000000000362
 40
1.0
 40
1.0
 40
1.0
 40
1.0
 10
814.6653284597865
 20
490.2414945609254
 30
0.0
 10
814.7137996047353
 20
490.2414945609254
 30
0.0
 10
814.7623864391226
 20
490.2414945609254
 30
0.0
 10
814.8597935220003
 20
490.2414945609254
 30
0.0
 10
814.9087250904452
 20
490.2414945609254
 30
0.0
 10
815.0547917001063
 20
490.2414945609254
 30
0.0
 10
815.3442828957574
 20
490.2414945609254
 30
0.0
 10
815.6267307246112
 20
490.2414945609254
 30
0.0
 10
815.9058250566571
 20
490.2414945609254
 30
0.0
 10
815.9982982806518
 20
490.2414945609254
 30
0.0
 10
816.1823424211169
 20
490.2414945609254
 30
0.0
 10
816.2739855800666
 20
490.2414945609254
 30
0.0
 10
816.5468346166898
 20
490.2414945609254
 30
0.0
 10
816.7263033346706
 20
490.2414945609254
 30
0.0
 10
817.0826985187167
 20
490.2414945609254
 30
0.0
 10
817.259616741969
 20
490.2414945609254
 30
0.0
 10
817.6125508127391
 20
490.2414945609254
 30
0.0
 10
817.7885500370646
 20
490.2414945609254
 30
0.0
 10
818.1408495177375
 20
490.2414945609254
 30
0.0
 10
818.3171527258094
 20
490.2414945609254
 30
0.0
 10
818.5825748390545
 20
490.2414945609254
 30
0.0
 10
818.6712081459027
 20
490.2414945609254
 30
0.0
 10
818.7822636102946
 20
490.2414945609254
 30
0.0
 10
818.8044878694398
 20
490.2414945609254
 30
0.0
 10
818.8378451494415
 20
490.2414945609254
 30
0.0
 10
818.8490138895208
 20
490.2414945609254
 30
0.0
 10
818.8709970972102
 20
490.2414945609254
 30
0.0
 10
818.9259671929759
 20
490.2414945609254
 30
0.0
 10
818.9809992198597
 20
490.2414945609254
 30
0.0
 10
819.3776201794074
 20
490.2414945609254
 30
0.0
 10
819.7329898959113
 20
490.2414945609254
 30
0.0
 10
820.4525309578626
 20
490.2414945609254
 30
0.0
 10
820.816675719756
 20
490.2414945609254
 30
0.0
 10
821.5563719862469
 20
490.2414945609254
 30
0.0
 10
821.9318980666633
 20
490.2414945609254
 30
0.0
 10
822.4102179025337
 20
490.2414945609254
 30
0.0
 10
822.5064078504653
 20
490.2414945609254
 30
0.0
 10
822.6984070499327
 20
490.2414945609254
 30
0.0
 10
822.7943679616517
 20
490.2414945609254
 30
0.0
 10
823.0821312925161
 20
490.2414945609254
 30
0.0
 10
823.2738144273882
 20
490.2414945609255
 30
0.0
 10
823.4653284597861
 20
490.2414945609254
 30
0.0
  0
SPLINE
  5
225
330
1F
100
AcDbEntity
  8
HEWI
100
AcDbSpline
210
0.0
220
0.0
230
1.0
 70
     8
 71
     3
 72
    11
 73
     7
 74
     0
 42
0.000000001
 43
0.0000000001
 40
0.0
 40
0.0
 40
0.0
 40
0.0
 40
0.2523631511401105
 40
0.502591976809776
 40
0.7515527415836106
 40
1.0
 40
1.0
 40
1.0
 40
1.0
 10
837.6615169453611
 20
453.8206600317618
 30
0.0
 10
836.0062585047804
 20
453.4582892395467
 30
0.0
 10
832.6871756539429
 20
452.8541586506911
 30
0.0
 10
827.6779949137697
 20
452.2467319109363
 30
0.0
 10
822.6697924297047
 20
451.9153859813676
 30
0.0
 10
819.3337121849362
 20
451.839984228206
 30
0.0
 10
817.6653284597865
 20
451.8414945609253
 30
0.0
  0
SPLINE
  5
226
330
1F
100
AcDbEntity
  8
HEWI
100
AcDbSpline
210
0.0
220
0.0
230
1.0
 70
     8
 71
     3
 72
    21
 73
    17
 74
     0
 42
0.000000001
 43
0.0000000001
 40
0.0
 40
0.0
 40
0.0
 40
0.0
 40
0.0037683746658184
 40
0.0254255839122136
 40
0.0470827931586089
 40
0.1337116301441899
 40
0.2203404671297709
 40
0.3069693041153519
 40
0.3935981411009329
 40
0.4802269780865139
 40
0.566855815072095
 40
0.653484652057676
 40
0.740113489043257
 40
0.826742326028838
 40
0.913371163014419
 40
1.0
 40
1.0
 40
1.0
 40
1.0
 10
844.3707698215995
 20
466.459679045219
 30
0.0
 10
844.3437196008165
 20
466.4472901700988
 30
0.0
 10
844.160102684936
 20
466.3635374698501
 30
0.0
 10
843.8063234932961
 20
466.2063980430705
 30
0.0
 10
842.7959682999377
 20
465.7748549102763
 30
0.0
 10
841.2667010867068
 20
465.1831477339531
 30
0.0
 10
839.1806650802672
 20
464.5038312777568
 30
0.0
 10
836.9969741078095
 20
463.9150467738818
 30
0.0
 10
834.7084102946388
 20
463.4018857892833
 30
0.0
 10
832.3580436482004
 20
462.9651402714318
 30
0.0
 10
829.97446829473
 20
462.605034510639
 30
0.0
 10
827.5624168253482
 20
462.3174235638856
 30
0.0
 10
825.1278442731393
 20
462.1018434246019
 30
0.0
 10
822.6525101357912
 20
461.9516498888231
 30
0.0
 10
820.1591453989934
 20
461.8605478916706
 30
0.0
 10
818.5011633344835
 20
461.8407420047419
 30
0.0
 10
817.6743811260154
 20
461.8414904633863
 30
0.0
  0
SPLINE
  5
227
330
1F
100
AcDbEntity
  8
HEWI
100
AcDbSpline
210
0.0
220
0.0
230
1.0
 70
     8
 71
     3
 72
    14
 73
    10
 74
     0
 42
0.000000001
 43
0.0000000001
 40
0.0
 40
0.0
 40
0.0
 40
0.0
 40
0.0339932988494501
 40
0.1949944157078751
 40
0.3559955325663001
 40
0.5169966494247249
 40
0.6779977662831501
 40
0.8389988831415749
 40
1.0
 40
1.0
 40
1.0
 40
1.0
 10
835.2737126826694
 20
449.2748656796875
 30
0.0
 10
835.0745305287528
 20
449.2398704263845
 30
0.0
 10
833.9318363450633
 20
449.0433714665737
 30
0.0
 10
831.8446213627577
 20
448.7282045698893
 30
0.0
 10
829.0047433163479
 20
448.3897652970776
 30
0.0
 10
826.1614967962
 20
448.1382613406577
 30
0.0
 10
823.3276164915109
 20
447.9665852114499
 30
0.0
 10
820.5000815953424
 20
447.8632906008743
 30
0.0
 10
818.6085684412049
 20
447.8406390378866
 30
0.0
 10
817.6617073932947
 20
447.8414961999411
 30
0.0
  0
SPLINE
  5
228
330
1F
100
AcDbEntity
  8
HEWI
100
AcDbSpline
210
0.0
220
0.0
230
1.0
 70
     8
 71
     3
 72
    26
 73
    22
 74
     0
 42
0.000000001
 43
0.0000000001
 40
0.0
 40
0.0
 40
0.0
 40
0.0
 40
0.0625
 40
0.125
 40
0.15625
 40
0.171875
 40
0.1875
 40
0.21875
 40
0.25
 40
0.28125
 40
0.3125
 40
0.375
 40
0.4375
 40
0.5
 40
0.5625
 40
0.625
 40
0.75
 40
0.8125
 40
0.875
 40
0.9375
 40
1.0
 40
1.0
 40
1.0
 40
1.0
 10
845.7943201814412
 20
472.6430282606037
 30
0.0
 10
845.5680863861527
 20
472.2811592230995
 30
0.0
 10
845.1549823686391
 20
471.7119933477063
 30
0.0
 10
844.7558537982532
 20
471.2979957452768
 30
0.0
 10
844.5339910579512
 20
471.1109111365646
 30
0.0
 10
844.4150600581554
 20
471.021355989895
 30
0.0
 10
844.2678266318385
 20
470.9187834513705
 30
0.0
 10
843.9501618662179
 20
470.7212947764353
 30
0.0
 10
843.3924301381171
 20
470.4199440876771
 30
0.0
 10
842.6641715692161
 20
470.0718696864043
 30
0.0
 10
841.4531477152157
 20
469.5447922578666
 30
0.0
 10
839.9252538286281
 20
468.9536675760348
 30
0.0
 10
838.0456877649427
 20
468.3412922625986
 30
0.0
 10
836.0452399185142
 20
467.8014140177641
 30
0.0
 10
833.9085478347987
 20
467.3220028883126
 30
0.0
 10
830.9582367059604
 20
466.7737181118139
 30
0.0
 10
827.9222991311943
 20
466.3652777004805
 30
0.0
 10
824.8329646958833
 20
466.0914716662256
 30
0.0
 10
822.4596084781209
 20
465.947378167613
 30
0.0
 10
820.0614885984418
 20
465.8597559715843
 30
0.0
 10
818.4704234828705
 20
465.8407714715312
 30
0.0
 10
817.678002192507
 20
465.8414888243706
 30
0.0
  0
SPLINE
  5
229
330
1F
100
AcDbEntity
  8
HEWI
100
AcDbSpline
210
0.0
220
0.0
230
1.0
 70
    24
 71
     3
 72
    14
 73
    10
 74
     0
 42
0.000000001
 43
0.0000000001
 40
0.0
 40
0.0
 40
0.0
 40
0.0
 40
0.25
 40
0.25
 40
0.5
 40
0.5
 40
0.75
 40
0.75
 40
1.0
 40
1.0
 40
1.0
 40
1.0
 10
814.6653284597862
 20
490.8414945609253
 30
0.0
 10
814.4654134829943
 20
490.8414945609253
 30
0.0
 10
814.2655470604548
 20
490.8414945609253
 30
0.0
 10
813.8658907504176
 20
490.8414945609253
 30
0.0
 10
813.6661005608878
 20
490.8414945609253
 30
0.0
 10
813.2665394914166
 20
490.8414945609253
 30
0.0
 10
813.0667682171132
 20
490.8414945609253
 30
0.0
 10
812.6671624396488
 20
490.8414945609253
 30
0.0
 10
812.4673276749216
 20
490.8414945609253
 30
0.0
 10
812.26741269813
 20
490.8414945609253
 30
0.0
  0
SPLINE
  5
22A
330
1F
100
AcDbEntity
  8
HEWI
100
AcDbSpline
210
0.0
220
0.0
230
1.0
 70
    24
 71
     3
 72
    14
 73
    10
 74
     0
 42
0.000000001
 43
0.0000000001
 40
0.0
 40
0.0
 40
0.0
 40
0.0
 40
0.25
 40
0.25
 40
0.5
 40
0.5
 40
0.75
 40
0.75
 40
1.0
 40
1.0
 40
1.0
 40
1.0
 10
812.2674126981298
 20
502.8414945609253
 30
0.0
 10
812.4673276749216
 20
502.8414945609253
 30
0.0
 10
812.6671624396486
 20
502.8414945609253
 30
0.0
 10
813.0667682171132
 20
502.8414945609253
 30
0.0
 10
813.2665394914166
 20
502.8414945609253
 30
0.0
 10
813.6661005608878
 20
502.8414945609253
 30
0.0
 10
813.8658907504172
 20
502.8414945609253
 30
0.0
 10
814.2655470604548
 20
502.8414945609253
 30
0.0
 10
814.4654134829943
 20
502.8414945609253
 30
0.0
 10
814.6653284597862
 20
502.8414945609253
 30
0.0
  0
SPLINE
  5
22B
330
1F
100
AcDbEntity
  8
HEWI
100
AcDbSpline
210
0.0
220
0.0
230
1.0
 70
    24
 71
     3
 72
    26
 73
    22
 74
     0
 42
0.000000001
 43
0.0000000001
 40
0.0
 40
0.0
 40
0.0
 40
0.0
 40
0.2499999999999964
 40
0.2499999999999964
 40
0.3124999999999973
 40
0.3124999999999973
 40
0.3749999999999982
 40
0.3749999999999982
 40
0.4374999999999992
 40
0.4374999999999992
 40
0.5
 40
0.5
 40
0.5625000000000009
 40
0.5625000000000009
 40
0.6250000000000018
 40
0.6250000000000018
 40
0.6875000000000027
 40
0.6875000000000027
 40
0.7500000000000036
 40
0.7500000000000036
 40
1.0
 40
1.0
 40
1.0
 40
1.0
 10
809.6653284597861
 20
500.1581193512808
 30
0.0
 10
809.6653284597861
 20
499.6038692753403
 30
0.0
 10
809.6653284597861
 20
499.0520487795794
 30
0.0
 10
809.6653284597861
 20
498.3620640845201
 30
0.0
 10
809.6653284597861
 20
498.2240567755916
 30
0.0
 10
809.6653284597861
 20
497.9479476532403
 30
0.0
 10
809.6653284597861
 20
497.8098456013066
 30
0.0
 10
809.6653284597861
 20
497.5334854936476
 30
0.0
 10
809.6653284597861
 20
497.395227205274
 30
0.0
 10
809.6653284597861
 20
497.1185130762694
 30
0.0
 10
809.6653284597861
 20
496.9800570799106
 30
0.0
 10
809.6653284597861
 20
496.7029320419403
 30
0.0
 10
809.6653284597861
 20
496.5644760455814
 30
0.0
 10
809.6653284597861
 20
496.2877619165769
 30
0.0
 10
809.6653284597861
 20
496.1495036282031
 30
0.0
 10
809.6653284597861
 20
495.8731435205441
 30
0.0
 10
809.6653284597861
 20
495.7350414686104
 30
0.0
 10
809.6653284597861
 20
495.4589323462591
 30
0.0
 10
809.6653284597861
 20
495.3209250373306
 30
0.0
 10
809.6653284597861
 20
494.6309403422713
 30
0.0
 10
809.6653284597861
 20
494.0791198465104
 30
0.0
 10
809.6653284597861
 20
493.5248697705699
 30
0.0
  0
SPLINE
  5
22C
330
1F
100
AcDbEntity
  8
HEWI
100
AcDbSpline
210
0.0
220
0.0
230
1.0
 70
     8
 71
     3
 72
     8
 73
     4
 74
     0
 42
0.000000001
 43
0.0000000001
 40
0.0
 40
0.0
 40
0.0
 40
0.0
 40
1.0
 40
1.0
 40
1.0
 40
1.0
 10
820.2378935735776
 20
169.7014628307966
 30
0.0
 10
820.5960257231176
 20
169.6889565805567
 30
0.0
 10
820.9535171858576
 20
169.6571779345767
 30
0.0
 10
821.3082437992273
 20
169.6063150498767
 30
0.0
  0
SPLINE
  5
22D
330
1F
100
AcDbEntity
  8
HEWI
100
AcDbSpline
210
0.0
220
0.0
230
1.0
 70
     8
 71
     3
 72
     8
 73
     4
 74
     0
 42
0.000000001
 43
0.0000000001
 40
0.0
 40
0.0
 40
0.0
 40
0.0
 40
1.0
 40
1.0
 40
1.0
 40
1.0
 10
820.2378935735776
 20
119.8315262923367
 30
0.0
 10
820.5960257231176
 20
119.8440325425767
 30
0.0
 10
820.9535171858576
 20
119.8758111885567
 30
0.0
 10
821.3082437992273
 20
119.9266740732567
 30
0.0
  0
SPLINE
  5
22E
330
1F
100
AcDbEntity
  8
HEWI
100
AcDbSpline
210
0.0
220
0.0
230
1.0
 70
     8
 71
     3
 72
    21
 73
    17
 74
     0
 42
0.000000001
 43
0.0000000001
 40
0.0
 40
0.0
 40
0.0
 40
0.0
 40
0.0449440031724452
 40
0.120719217905073
 40
0.1965765810503613
 40
0.272447215439062
 40
0.3482812052675789
 40
0.4240169227919141
 40
0.4995823754780969
 40
0.574900670023694
 40
0.6498993798274155
 40
0.7245222694076836
 40
0.7987406467528385
 40
0.872561340691535
 40
0.9460291874541693
 40
1.0
 40
1.0
 40
1.0
 40
1.0
 10
651.7936512270299
 20
307.641499132654
 30
0.0
 10
652.1428682588589
 20
307.6415279970282
 30
0.0
 10
653.0776849319157
 20
307.67125575102
 30
0.0
 10
654.5940482723166
 20
307.8500349696025
 30
0.0
 10
656.3101874909243
 20
308.2438715540077
 30
0.0
 10
657.9667092381487
 20
308.820432150731
 30
0.0
 10
659.5393377694277
 20
309.5724908357653
 30
0.0
 10
661.0054799407961
 20
310.4901669411187
 30
0.0
 10
662.3436534341736
 20
311.5608168168005
 30
0.0
 10
663.5342140708411
 20
312.7691052401591
 30
0.0
 10
664.5598470635217
 20
314.09724805099
 30
0.0
 10
665.4060728502138
 20
315.5253529202835
 30
0.0
 10
666.0616148918402
 20
317.0322220769739
 30
0.0
 10
666.5184811004218
 20
318.5950841640069
 30
0.0
 10
666.7500234630467
 20
320.0541892157202
 30
0.0
 10
666.7935445854388
 20
320.9838825808835
 30
0.0
 10
666.79365122703
 20
321.3796741836728
 30
0.0
  0
SPLINE
  5
22F
330
1F
100
AcDbEntity
  8
HEWI
100
AcDbSpline
210
0.0
220
0.0
230
1.0
 70
     8
 71
     3
 72
    21
 73
    17
 74
     0
 42
0.000000001
 43
0.0000000001
 40
0.0
 40
0.0
 40
0.0
 40
0.0
 40
0.0469812365055873
 40
0.119944713549556
 40
0.192890460414619
 40
0.2659167148004034
 40
0.3391314716048978
 40
0.4126188588839056
 40
0.4864327435484948
 40
0.5605951730841858
 40
0.6350996736507599
 40
0.7099183093856877
 40
0.7850105045374175
 40
0.8603313603742591
 40
0.9358376702451913
 40
1.0
 40
1.0
 40
1.0
 40
1.0
 10
67.79365122703052
 20
321.3796741836728
 30
0.0
 10
67.79371825878394
 20
321.0353645651925
 30
0.0
 10
67.82938476399511
 20
320.1600288157769
 30
0.0
 10
68.03369815298328
 20
318.7592714744732
 30
0.0
 10
68.46404052213955
 20
317.2090947287193
 30
0.0
 10
69.08642143583063
 20
315.7170028440996
 30
0.0
 10
69.89242726104283
 20
314.302327526718
 30
0.0
 10
70.87185711940549
 20
312.9827839408857
 30
0.0
 10
72.01252177046082
 20
311.7754228480554
 30
0.0
 10
73.30013456110719
 20
310.6962563799449
 30
0.0
 10
74.71828030878537
 20
309.7600487346249
 30
0.0
 10
76.24843223007196
 20
308.9799720397521
 30
0.0
 10
77.87042474345087
 20
308.3672682016705
 30
0.0
 10
79.56184117188358
 20
307.9310322673346
 30
0.0
 10
81.21363518516188
 20
307.6906884242547
 30
0.0
 10
82.2942921391604
 20
307.6415991083492
 30
0.0
 10
82.79365122703064
 20
307.641499132654
 30
0.0
  0
SPLINE
  5
230
330
1F
100
AcDbEntity
  8
HEWI
100
AcDbSpline
210
0.0
220
0.0
230
1.0
 70
     8
 71
     3
 72
    21
 73
    17
 74
     0
 42
0.000000001
 43
0.0000000001
 40
0.0
 40
0.0
 40
0.0
 40
0.0
 40
0.0469812365055851
 40
0.1199447135496229
 40
0.1928904604146598
 40
0.2659167148004448
 40
0.3391314716049091
 40
0.412618858883959
 40
0.4864327435485423
 40
0.5605951730842318
 40
0.6350996736507805
 40
0.709918309385713
 40
0.785010504537424
 40
0.8603313603742925
 40
0.9358376702452162
 40
1.0
 40
1.0
 40
1.0
 40
1.0
 10
666.79365122703
 20
771.6829465417263
 30
0.0
 10
666.7935841952767
 20
772.0272561602067
 30
0.0
 10
666.7579176900657
 20
772.902591909623
 30
0.0
 10
666.5536043010769
 20
774.3033492509267
 30
0.0
 10
666.1232619319208
 20
775.853525996681
 30
0.0
 10
665.5008810182297
 20
777.3456178813001
 30
0.0
 10
664.6948751930177
 20
778.7602931986818
 30
0.0
 10
663.715445334655
 20
780.0798367845146
 30
0.0
 10
662.5747806835992
 20
781.2871978773448
 30
0.0
 10
661.2871678929532
 20
782.3663643454552
 30
0.0
 10
659.8690221452748
 20
783.3025719907753
 30
0.0
 10
658.3388702239886
 20
784.0826486856477
 30
0.0
 10
656.7168777106097
 20
784.6953525237292
 30
0.0
 10
655.0254612821769
 20
785.1315884580651
 30
0.0
 10
653.3736672688984
 20
785.3719323011452
 30
0.0
 10
652.2930103149006
 20
785.4210216170508
 30
0.0
 10
651.7936512270304
 20
785.4211215927458
 30
0.0
  0
SPLINE
  5
231
330
1F
100
AcDbEntity
  8
HEWI
100
AcDbSpline
210
0.0
220
0.0
230
1.0
 70
     8
 71
     3
 72
    21
 73
    17
 74
     0
 42
0.000000001
 43
0.0000000001
 40
0.0
 40
0.0
 40
0.0
 40
0.0
 40
0.0449440031724448
 40
0.1207192179050479
 40
0.1965765810503299
 40
0.2724472154390243
 40
0.3482812052675482
 40
0.4240169227918754
 40
0.4995823754780365
 40
0.5749006700236441
 40
0.6498993798273596
 40
0.7245222694076431
 40
0.7987406467527595
 40
0.8725613406914721
 40
0.9460291874541244
 40
1.0
 40
1.0
 40
1.0
 40
1.0
 10
82.79365122703019
 20
785.4211215927458
 30
0.0
 10
82.44443419520115
 20
785.4210927283716
 30
0.0
 10
81.50961752214469
 20
785.3913649743796
 30
0.0
 10
79.99325418174383
 20
785.2125857557974
 30
0.0
 10
78.27711496313646
 20
784.8187491713923
 30
0.0
 10
76.62059321591219
 20
784.242188574669
 30
0.0
 10
75.04796468463303
 20
783.4901298896347
 30
0.0
 10
73.58182251326491
 20
782.5724537842813
 30
0.0
 10
72.24364901988718
 20
781.5018039085997
 30
0.0
 10
71.05308838321986
 20
780.2935154852414
 30
0.0
 10
70.02745539053904
 20
778.96537267441
 30
0.0
 10
69.18122960384692
 20
777.5372678051171
 30
0.0
 10
68.52568756222075
 20
776.0303986484264
 30
0.0
 10
68.06882135363901
 20
774.4675365613938
 30
0.0
 10
67.83727899101376
 20
773.0084315096795
 30
0.0
 10
67.79375786862164
 20
772.0787381445165
 30
0.0
 10
67.79365122703052
 20
771.6829465417263
 30
0.0
  0
LINE
  5
232
102
{ACAD_REACTORS
330
23B
102
}
330
1F
100
AcDbEntity
  8
1
  6
Continuous
 62
   163
 60
     1
370
    18
100
AcDbLine
 10
625.2936509999999
 20
164.866495
 30
0.0
 11
621.9436509999999
 21
161.366495
 31
0.0
  0
LINE
  5
233
102
{ACAD_REACTORS
330
23B
102
}
330
1F
100
AcDbEntity
  8
1
  6
Continuous
 62
   163
 60
     1
370
    18
100
AcDbLine
 10
628.6436509999999
 20
161.366495
 30
0.0
 11
625.2936509999999
 21
164.866495
 31
0.0
  0
LINE
  5
234
102
{ACAD_REACTORS
330
23B
102
}
330
1F
100
AcDbEntity
  8
1
  6
Continuous
 62
   163
 60
     1
370
    18
100
AcDbLine
 10
621.9436509999999
 20
161.366495
 30
0.0
 11
628.6436509999999
 21
161.366495
 31
0.0
  0
LINE
  5
235
102
{ACAD_REACTORS
330
23B
102
}
330
1F
100
AcDbEntity
  8
1
  6
Continuous
 62
   163
 60
     1
370
    18
100
AcDbLine
 10
622.646066
 20
161.666495
 30
0.0
 11
625.2936509999999
 21
164.432628
 31
0.0
  0
LINE
  5
236
102
{ACAD_REACTORS
330
23B
102
}
330
1F
100
AcDbEntity
  8
1
  6
Continuous
 62
   163
 60
     1
370
    18
100
AcDbLine
 10
627.941236
 20
161.666495
 30
0.0
 11
622.646066
 21
161.666495
 31
0.0
  0
LINE
  5
237
102
{ACAD_REACTORS
330
23B
102
}
330
1F
100
AcDbEntity
  8
1
  6
Continuous
 62
   163
 60
     1
370
    18
100
AcDbLine
 10
625.2936509999999
 20
164.432628
 30
0.0
 11
627.941236
 21
161.666495
 31
0.0
  0
LINE
  5
238
102
{ACAD_REACTORS
330
23B
102
}
330
1F
100
AcDbEntity
  8
1
  6
Continuous
 62
   163
 60
     1
370
    18
100
AcDbLine
 10
621.9436509999999
 20
128.166495
 30
0.0
 11
625.2936509999999
 21
124.666495
 31
0.0
  0
LINE
  5
239
102
{ACAD_REACTORS
330
23B
102
}
330
1F
100
AcDbEntity
  8
1
  6
Continuous
 62
   163
 60
     1
370
    18
100
AcDbLine
 10
628.6436509999999
 20
128.166495
 30
0.0
 11
621.9436509999999
 21
128.166495
 31
0.0
  0
LINE
  5
23A
102
{ACAD_REACTORS
330
23B
102
}
330
1F
100
AcDbEntity
  8
1
  6
Continuous
 62
   163
 60
     1
370
    18
100
AcDbLine
 10
625.2936509999999
 20
124.666495
 30
0.0
 11
628.6436509999999
 21
128.166495
 31
0.0
  0
HATCH
  5
23B
330
1F
100
AcDbEntity
  8
HEWI
100
AcDbHatch
 10
0.0
 20
0.0
 30
0.0
210
0.0
220
0.0
230
1.0
  2
SOLID
 70
     1
 71
     1
 91
        3
 92
        0
 93
        3
 72
     1
 10
625.29365122703
 20
164.8664945615666
 11
621.9436512270302
 21
161.3664945615666
 72
     1
 10
621.9436512270302
 20
161.3664945615666
 11
628.6436512270301
 21
161.3664945615666
 72
     1
 10
628.6436512270301
 20
161.3664945615666
 11
625.29365122703
 21
164.8664945615666
 97
        3
330
232
330
233
330
234
 92
        0
 93
        3
 72
     1
 10
622.6460663086332
 20
161.6664945615665
 11
625.29365122703
 21
164.4326280583991
 72
     1
 10
625.29365122703
 20
164.4326280583991
 11
627.941236145427
 21
161.6664945615665
 72
     1
 10
627.941236145427
 20
161.6664945615665
 11
622.6460663086332
 21
161.6664945615665
 97
        3
330
235
330
236
330
237
 92
        0
 93
        3
 72
     1
 10
621.9436512270302
 20
128.1664945615665
 11
625.29365122703
 21
124.6664945615665
 72
     1
 10
625.29365122703
 20
124.6664945615665
 11
628.6436512270301
 21
128.1664945615665
 72
     1
 10
628.6436512270301
 20
128.1664945615665
 11
621.9436512270302
 21
128.1664945615665
 97
        3
330
238
330
239
330
23A
 75
     0
 76
     1
 98
        0
450
        0
451
        0
460
0.0
461
0.0
452
        0
462
0.0
453
        0
470

  0
VIEWPORT
  5
2A6
102
{ACAD_XDICTIONARY
360
2A7
102
}
330
1B
100
AcDbEntity
 67
     1
  8
0
370
    18
100
AcDbViewport
 10
128.5
 20
97.5
 30
0.0
 40
490.9293442622951
 41
222.18
 68
     1
 69
     1
 12
128.5
 22
97.5
 13
0.0
 23
0.0
 14
10.0
 24
10.0
 15
10.0
 25
10.0
 16
0.0
 26
0.0
 36
1.0
 17
0.0
 27
0.0
 37
0.0
 42
50.0
 43
0.0
 44
0.0
 45
222.18
 50
0.0
 51
0.0
 72
   100
 90
   557088
  1

281
     0
 71
     1
 74
     0
110
0.0
120
0.0
130
0.0
111
1.0
121
0.0
131
0.0
112
0.0
122
1.0
132
0.0
 79
     0
146
0.0
170
     0
 61
     5
348
2F
292
     1
282
     1
141
0.0
142
0.0
 63
   250
421
  3355443
  0
VIEWPORT
  5
2AB
102
{ACAD_XDICTIONARY
360
2AC
102
}
330
1B
100
AcDbEntity
 67
     1
  8
0
370
    18
100
AcDbViewport
 10
128.5
 20
97.5
 30
0.0
 40
205.6
 41
156.0
 68
     2
 69
     2
 12
577.9572964999999
 22
444.2193084999999
 13
0.0
 23
0.0
 14
0.5
 24
0.5
 15
0.5
 25
0.5
 16
0.0
 26
0.0
 36
1.0
 17
0.0
 27
0.0
 37
0.0
 42
50.0
 43
1934.496336
 44
-1934.496336
 45
780.0581298774565
 50
0.0
 51
0.0
 72
   100
 90
   819296
  1

281
     0
 71
     1
 74
     0
110
0.0
120
0.0
130
0.0
111
1.0
121
0.0
131
0.0
112
0.0
122
1.0
132
0.0
 79
     0
146
0.0
170
     0
 61
     5
348
2F
292
     1
282
     1
141
0.0
142
0.0
 63
   250
421
  3355443
  0
ENDSEC
  0
SECTION
  2
OBJECTS
  0
DICTIONARY
  5
C
330
0
100
AcDbDictionary
281
     1
  3
ACAD_CIP_PREVIOUS_PRODUCT_INFO
350
299
  3
ACAD_COLOR
350
294
  3
ACAD_DETAILVIEWSTYLE
350
290
  3
ACAD_GROUP
350
D
  3
ACAD_LAYOUT
350
1A
  3
ACAD_MATERIAL
350
43
  3
ACAD_MLEADERSTYLE
350
6B
  3
ACAD_MLINESTYLE
350
17
  3
ACAD_PLOTSETTINGS
350
19
  3
ACAD_PLOTSTYLENAME
350
E
  3
ACAD_SCALELIST
350
47
  3
ACAD_SECTIONVIEWSTYLE
350
291
  3
ACAD_TABLESTYLE
350
69
  3
ACAD_VISUALSTYLE
350
2A
  3
ACDB_RECOMPOSE_DATA
350
300
  3
AcDbVariableDictionary
350
24D
  3
AcDsDecomposeData
350
306
  0
DICTIONARY
  5
29D
330
2
100
AcDbDictionary
280
     1
281
     1
  3
ACAD_LAYERSTATES
360
29E
  0
DICTIONARY
  5
2FA
330
10
100
AcDbDictionary
280
     1
281
     1
  3
ADSK_XREC_LAYER_RECONCILED
360
2FB
  0
DICTIONARY
  5
2FC
330
74
100
AcDbDictionary
280
     1
281
     1
  3
ADSK_XREC_LAYER_RECONCILED
360
2FD
  0
DICTIONARY
  5
2E9
330
2E8
100
AcDbDictionary
280
     1
281
     1
  3
ADSK_XREC_LAYER_RECONCILED
360
2FE
  0
DICTIONARY
  5
2B9
330
2B8
100
AcDbDictionary
280
     1
281
     1
  3
ASDK_XREC_ANNOTATION_SCALE_INFO
360
2BA
  0
DICTIONARY
  5
2BD
330
2BC
100
AcDbDictionary
280
     1
281
     1
  3
ASDK_XREC_ANNOTATION_SCALE_INFO
360
2BE
  0
DICTIONARY
  5
2A7
330
2A6
100
AcDbDictionary
280
     1
281
     1
  3
ASDK_XREC_ANNOTATION_SCALE_INFO
360
2A8
  0
DICTIONARY
  5
2AC
330
2AB
100
AcDbDictionary
280
     1
281
     1
  3
ASDK_XREC_ANNOTATION_SCALE_INFO
360
2AD
  0
XRECORD
  5
299
102
{ACAD_REACTORS
330
C
102
}
330
C
100
AcDbXrecord
280
     1
300
ACDLT
300
2021
300
ACDLT_F_S
  0
DICTIONARY
  5
294
102
{ACAD_REACTORS
330
C
102
}
330
C
100
AcDbDictionary
281
     1
  0
DICTIONARY
  5
290
102
{ACAD_REACTORS
330
C
102
}
330
C
100
AcDbDictionary
281
     1
  3
Metric50
350
296
  0
DICTIONARY
  5
D
102
{ACAD_REACTORS
330
C
102
}
330
C
100
AcDbDictionary
281
     1
  0
DICTIONARY
  5
1A
102
{ACAD_REACTORS
330
C
102
}
330
C
100
AcDbDictionary
281
     1
  3
Layout1
350
1E
  3
Layout2
350
26
  3
Model
350
22
  0
DICTIONARY
  5
43
102
{ACAD_REACTORS
330
C
102
}
330
C
100
AcDbDictionary
281
     1
  3
ByBlock
350
45
  3
ByLayer
350
44
  3
Global
350
46
  0
DICTIONARY
  5
6B
102
{ACAD_REACTORS
330
C
102
}
330
C
100
AcDbDictionary
281
     1
  3
Standard
350
6C
  0
DICTIONARY
  5
17
102
{ACAD_REACTORS
330
C
102
}
330
C
100
AcDbDictionary
281
     1
  3
Standard
350
18
  0
DICTIONARY
  5
19
102
{ACAD_REACTORS
330
C
102
}
330
C
100
AcDbDictionary
281
     1
  0
ACDBDICTIONARYWDFLT
  5
E
102
{ACAD_REACTORS
330
C
102
}
330
C
100
AcDbDictionary
281
     1
  3
Normal
350
F
100
AcDbDictionaryWithDefault
340
F
  0
DICTIONARY
  5
47
102
{ACAD_REACTORS
330
C
102
}
330
C
100
AcDbDictionary
281
     1
  3
A0
350
48
  3
A1
350
49
  3
A2
350
4A
  3
A3
350
4B
  3
A4
350
4C
  3
A5
350
4D
  3
A6
350
4E
  3
A7
350
4F
  3
A8
350
50
  3
A9
350
51
  3
B0
350
52
  3
B1
350
53
  3
B2
350
54
  3
B3
350
55
  3
B4
350
56
  3
B5
350
57
  3
B6
350
58
  3
B7
350
59
  3
B8
350
5A
  3
B9
350
5B
  3
C0
350
5C
  3
C1
350
5D
  3
C2
350
5E
  3
C3
350
5F
  3
C4
350
60
  3
C5
350
61
  3
C6
350
62
  3
C7
350
63
  3
C8
350
64
  3
C9
350
65
  3
D0
350
66
  3
D1
350
67
  3
D2
350
68
  0
DICTIONARY
  5
291
102
{ACAD_REACTORS
330
C
102
}
330
C
100
AcDbDictionary
281
     1
  3
Metric50
350
295
  0
DICTIONARY
  5
69
102
{ACAD_REACTORS
330
C
102
}
330
C
100
AcDbDictionary
281
     1
  3
Standard
350
6A
  0
DICTIONARY
  5
2A
102
{ACAD_REACTORS
330
C
102
}
330
C
100
AcDbDictionary
281
     1
  3
2dWireframe
350
2F
  3
Basic
350
32
  3
Brighten
350
36
  3
ColorChange
350
3A
  3
Conceptual
350
34
  3
Dim
350
35
  3
EdgeColorOff
350
3D
  3
Facepattern
350
39
  3
Flat
350
2B
  3
FlatWithEdges
350
2C
  3
Gouraud
350
2D
  3
GouraudWithEdges
350
2E
  3
Hidden
350
31
  3
JitterOff
350
3B
  3
Linepattern
350
38
  3
OverhangOff
350
3C
  3
Realistic
350
33
  3
Shaded
350
42
  3
Shaded with edges
350
41
  3
Shades of Gray
350
3E
  3
Sketchy
350
3F
  3
Thicken
350
37
  3
Wireframe
350
30
  3
X-Ray
350
40
  0
XRECORD
  5
300
102
{ACAD_REACTORS
330
C
102
}
330
C
100
AcDbXrecord
280
     1
 90
        1
330
6A
  0
DICTIONARY
  5
24D
102
{ACAD_REACTORS
330
C
102
}
330
C
100
AcDbDictionary
281
     1
  3
CANNOSCALE
350
24E
  3
CMLEADERSTYLE
350
28F
  3
CTABLESTYLE
350
28E
  3
CVIEWDETAILSTYLE
350
2F5
  3
CVIEWSECTIONSTYLE
350
2F6
  3
LAYEREVAL
350
2F8
  3
LAYERNOTIFY
350
2F9
  3
LIGHTINGUNITS
350
2F7
  3
MSLTSCALE
350
24F
  0
DICTIONARY
  5
306
102
{ACAD_REACTORS
330
C
102
}
330
C
100
AcDbDictionary
281
     1
  3
AcDsRecords
350
308
  3
AcDsSchemas
350
307
1001
ACAD
1070
     2
  0
DICTIONARY
  5
29E
102
{ACAD_REACTORS
330
29D
102
}
330
29D
100
AcDbDictionary
281
     1
  0
XRECORD
  5
2FB
102
{ACAD_REACTORS
330
2FA
102
}
330
2FA
100
AcDbXrecord
280
     1
290
     1
  0
XRECORD
  5
2FD
102
{ACAD_REACTORS
330
2FC
102
}
330
2FC
100
AcDbXrecord
280
     1
290
     1
  0
XRECORD
  5
2FE
102
{ACAD_REACTORS
330
2E9
102
}
330
2E9
100
AcDbXrecord
280
     1
290
     1
  0
XRECORD
  5
2BA
102
{ACAD_REACTORS
330
2B9
102
}
330
2B9
100
AcDbXrecord
280
     1
 90
        1
340
48
  0
XRECORD
  5
2BE
102
{ACAD_REACTORS
330
2BD
102
}
330
2BD
100
AcDbXrecord
280
     1
 90
        1
340
48
  0
XRECORD
  5
2A8
102
{ACAD_REACTORS
330
2A7
102
}
330
2A7
100
AcDbXrecord
280
     1
 90
        1
340
48
  0
XRECORD
  5
2AD
102
{ACAD_REACTORS
330
2AC
102
}
330
2AC
100
AcDbXrecord
280
     1
 90
        1
340
48
  0
ACDBDETAILVIEWSTYLE
  5
296
102
{ACAD_XDICTIONARY
360
30B
102
}
102
{ACAD_REACTORS
330
290
102
}
330
290
100
AcDbModelDocViewStyle
 70
     0
  3
Metric50
290
     0
100
AcDbDetailViewStyle
 70
     0
 71
     0
 90
        3
 71
     1
340
11
 62
   256
 40
5.0
340
0
 62
   256
 40
5.0
300

 40
0.0
280
     1
 71
     2
340
16
 90
       25
 62
   256
 71
     3
340
11
 62
   256
 40
5.0
 90
        0
 40
15.0
 90
        1
300
%<\AcVar ViewDetailId>% (%<\AcVar ViewScale \f "%sn">%)
 71
     4
340
16
 90
       25
 62
   256
340
16
 90
       25
 62
   256
280
     0
  0
LAYOUT
  5
1E
102
{ACAD_REACTORS
330
1A
102
}
330
1A
100
AcDbPlotSettings
  1

  2
none_device
  4
ISO_A4_(210.00_x_297.00_MM)
  6

 40
7.5
 41
20.0
 42
7.5
 43
20.0
 44
210.0
 45
297.0
 46
0.0
 47
0.0
 48
0.0
 49
0.0
140
0.0
141
0.0
142
1.0
143
1.0
 70
   688
 72
     1
 73
     1
 74
     5
  7

 75
    16
147
1.0
 76
     0
 77
     2
 78
   300
148
0.0
149
0.0
100
AcDbLayout
  1
Layout1
 70
     1
 71
     1
 10
-20.0
 20
-7.5
 11
277.0
 21
202.5
 12
0.0
 22
0.0
 32
0.0
 14
25.69999999999999
 24
19.5
 34
0.0
 15
231.3
 25
175.5
 35
0.0
146
0.0
 13
0.0
 23
0.0
 33
0.0
 16
1.0
 26
0.0
 36
0.0
 17
0.0
 27
1.0
 37
0.0
 76
     0
330
1B
331
2A6
1001
ACAD_PSEXT
1000
Kein
1000
Kein
1000
Nicht anwendbar
1000
Das Layout wird erst geplottet, wenn ein neuer Plotter-Konfigurationsname ausgewählt wird.
1070
     0
  0
LAYOUT
  5
26
102
{ACAD_REACTORS
330
1A
102
}
330
1A
100
AcDbPlotSettings
  1

  2
none_device
  4
ISO_A4_(210.00_x_297.00_MM)
  6

 40
7.5
 41
20.0
 42
7.5
 43
20.0
 44
210.0
 45
297.0
 46
0.0
 47
0.0
 48
0.0
 49
0.0
140
0.0
141
0.0
142
1.0
143
1.0
 70
   688
 72
     1
 73
     1
 74
     5
  7

 75
    16
147
1.0
 76
     0
 77
     2
 78
   300
148
0.0
149
0.0
100
AcDbLayout
  1
Layout2
 70
     1
 71
     2
 10
-20.0
 20
-7.5
 11
277.0
 21
202.5
 12
0.0
 22
0.0
 32
0.0
 14
25.69999999999999
 24
19.5
 34
0.0
 15
231.3
 25
175.5
 35
0.0
146
0.0
 13
0.0
 23
0.0
 33
0.0
 16
1.0
 26
0.0
 36
0.0
 17
0.0
 27
1.0
 37
0.0
 76
     0
330
23
331
2B8
1001
ACAD_PSEXT
1000
Kein
1000
Kein
1000
Nicht anwendbar
1000
Das Layout wird erst geplottet, wenn ein neuer Plotter-Konfigurationsname ausgewählt wird.
1070
     0
  0
LAYOUT
  5
22
102
{ACAD_REACTORS
330
1A
102
}
330
1A
100
AcDbPlotSettings
  1

  2
none_device
  4
Letter_(8.50_x_11.00_Inches)
  6

 40
6.349999999999999
 41
6.349999999999999
 42
6.350005
 43
6.350005
 44
215.9
 45
279.4
 46
0.0
 47
0.0
 48
0.0
 49
0.0
140
0.0
141
0.0
142
1.0
143
1.0
 70
  1712
 72
     0
 73
     0
 74
     0
  7

 75
     0
147
1.0
 76
     0
 77
     2
 78
   300
148
0.0
149
0.0
100
AcDbLayout
  1
Model
 70
     1
 71
     0
 10
-0.5
 20
-0.5
 11
5.0
 21
5.0
 12
0.0
 22
0.0
 32
0.0
 14
-0.5
 24
-0.5
 34
-0.5
 15
5.0
 25
5.0
 35
5.0
146
0.0
 13
0.0
 23
0.0
 33
0.0
 16
1.0
 26
0.0
 36
0.0
 17
0.0
 27
1.0
 37
0.0
 76
     0
330
1F
331
29
  0
MATERIAL
  5
45
102
{ACAD_XDICTIONARY
360
283
102
}
102
{ACAD_REACTORS
330
43
102
}
330
43
100
AcDbMaterial
  1
ByBlock
  0
MATERIAL
  5
44
102
{ACAD_XDICTIONARY
360
281
102
}
102
{ACAD_REACTORS
330
43
102
}
330
43
100
AcDbMaterial
  1
ByLayer
  0
MATERIAL
  5
46
102
{ACAD_XDICTIONARY
360
285
102
}
102
{ACAD_REACTORS
330
43
102
}
330
43
100
AcDbMaterial
  1
Global
  0
MLEADERSTYLE
  5
6C
102
{ACAD_REACTORS
330
6B
102
}
330
6B
100
AcDbMLeaderStyle
179
     2
170
     2
171
     1
172
     0
 90
        2
 40
0.0
 41
0.0
173
     1
 91
-1056964608
340
14
 92
       -2
290
     1
 42
0.09
291
     1
 43
0.36
  3
Standard
 44
0.18
300

342
11
174
     1
178
     6
175
     1
176
     0
 93
-1056964608
 45
0.18
292
     0
297
     0
 46
0.18
 94
-1056964608
 47
1.0
 49
1.0
140
1.0
293
     1
141
0.0
294
     1
177
     0
142
1.0
295
     0
296
     0
143
0.125
271
     0
272
     9
273
     9
298
     0
1001
ACAD_MLEADERVER
1070
     2
  0
MLINESTYLE
  5
18
102
{ACAD_REACTORS
330
17
102
}
330
17
100
AcDbMlineStyle
  2
STANDARD
 70
     0
  3

 62
   256
 51
90.0
 52
90.0
 71
     2
 49
0.5
 62
   256
  6
BYLAYER
 49
-0.5
 62
   256
  6
BYLAYER
  0
ACDBPLACEHOLDER
  5
F
102
{ACAD_REACTORS
330
E
102
}
330
E
  0
SCALE
  5
48
102
{ACAD_REACTORS
330
47
102
}
330
47
100
AcDbScale
 70
     0
300
1:1
140
1.0
141
1.0
290
     1
  0
SCALE
  5
49
102
{ACAD_REACTORS
330
47
102
}
330
47
100
AcDbScale
 70
     0
300
1:2
140
1.0
141
2.0
290
     0
  0
SCALE
  5
4A
102
{ACAD_REACTORS
330
47
102
}
330
47
100
AcDbScale
 70
     0
300
1:4
140
1.0
141
4.0
290
     0
  0
SCALE
  5
4B
102
{ACAD_REACTORS
330
47
102
}
330
47
100
AcDbScale
 70
     0
300
1:5
140
1.0
141
5.0
290
     0
  0
SCALE
  5
4C
102
{ACAD_REACTORS
330
47
102
}
330
47
100
AcDbScale
 70
     0
300
1:8
140
1.0
141
8.0
290
     0
  0
SCALE
  5
4D
102
{ACAD_REACTORS
330
47
102
}
330
47
100
AcDbScale
 70
     0
300
1:10
140
1.0
141
10.0
290
     0
  0
SCALE
  5
4E
102
{ACAD_REACTORS
330
47
102
}
330
47
100
AcDbScale
 70
     0
300
1:16
140
1.0
141
16.0
290
     0
  0
SCALE
  5
4F
102
{ACAD_REACTORS
330
47
102
}
330
47
100
AcDbScale
 70
     0
300
1:20
140
1.0
141
20.0
290
     0
  0
SCALE
  5
50
102
{ACAD_REACTORS
330
47
102
}
330
47
100
AcDbScale
 70
     0
300
1:30
140
1.0
141
30.0
290
     0
  0
SCALE
  5
51
102
{ACAD_REACTORS
330
47
102
}
330
47
100
AcDbScale
 70
     0
300
1:40
140
1.0
141
40.0
290
     0
  0
SCALE
  5
52
102
{ACAD_REACTORS
330
47
102
}
330
47
100
AcDbScale
 70
     0
300
1:50
140
1.0
141
50.0
290
     0
  0
SCALE
  5
53
102
{ACAD_REACTORS
330
47
102
}
330
47
100
AcDbScale
 70
     0
300
1:100
140
1.0
141
100.0
290
     0
  0
SCALE
  5
54
102
{ACAD_REACTORS
330
47
102
}
330
47
100
AcDbScale
 70
     0
300
2:1
140
2.0
141
1.0
290
     0
  0
SCALE
  5
55
102
{ACAD_REACTORS
330
47
102
}
330
47
100
AcDbScale
 70
     0
300
4:1
140
4.0
141
1.0
290
     0
  0
SCALE
  5
56
102
{ACAD_REACTORS
330
47
102
}
330
47
100
AcDbScale
 70
     0
300
8:1
140
8.0
141
1.0
290
     0
  0
SCALE
  5
57
102
{ACAD_REACTORS
330
47
102
}
330
47
100
AcDbScale
 70
     0
300
10:1
140
10.0
141
1.0
290
     0
  0
SCALE
  5
58
102
{ACAD_REACTORS
330
47
102
}
330
47
100
AcDbScale
 70
     0
300
100:1
140
100.0
141
1.0
290
     0
  0
SCALE
  5
59
102
{ACAD_REACTORS
330
47
102
}
330
47
100
AcDbScale
 70
     0
300
1/128" = 1'-0"
140
0.007812
141
12.0
290
     0
  0
SCALE
  5
5A
102
{ACAD_REACTORS
330
47
102
}
330
47
100
AcDbScale
 70
     0
300
1/64" = 1'-0"
140
0.015625
141
12.0
290
     0
  0
SCALE
  5
5B
102
{ACAD_REACTORS
330
47
102
}
330
47
100
AcDbScale
 70
     0
300
1/32" = 1'-0"
140
0.03125
141
12.0
290
     0
  0
SCALE
  5
5C
102
{ACAD_REACTORS
330
47
102
}
330
47
100
AcDbScale
 70
     0
300
1/16" = 1'-0"
140
0.0625
141
12.0
290
     0
  0
SCALE
  5
5D
102
{ACAD_REACTORS
330
47
102
}
330
47
100
AcDbScale
 70
     0
300
3/32" = 1'-0"
140
0.09375
141
12.0
290
     0
  0
SCALE
  5
5E
102
{ACAD_REACTORS
330
47
102
}
330
47
100
AcDbScale
 70
     0
300
1/8" = 1'-0"
140
0.125
141
12.0
290
     0
  0
SCALE
  5
5F
102
{ACAD_REACTORS
330
47
102
}
330
47
100
AcDbScale
 70
     0
300
3/16" = 1'-0"
140
0.1875
141
12.0
290
     0
  0
SCALE
  5
60
102
{ACAD_REACTORS
330
47
102
}
330
47
100
AcDbScale
 70
     0
300
1/4" = 1'-0"
140
0.25
141
12.0
290
     0
  0
SCALE
  5
61
102
{ACAD_REACTORS
330
47
102
}
330
47
100
AcDbScale
 70
     0
300
3/8" = 1'-0"
140
0.375
141
12.0
290
     0
  0
SCALE
  5
62
102
{ACAD_REACTORS
330
47
102
}
330
47
100
AcDbScale
 70
     0
300
1/2" = 1'-0"
140
0.5
141
12.0
290
     0
  0
SCALE
  5
63
102
{ACAD_REACTORS
330
47
102
}
330
47
100
AcDbScale
 70
     0
300
3/4" = 1'-0"
140
0.75
141
12.0
290
     0
  0
SCALE
  5
64
102
{ACAD_REACTORS
330
47
102
}
330
47
100
AcDbScale
 70
     0
300
1" = 1'-0"
140
1.0
141
12.0
290
     0
  0
SCALE
  5
65
102
{ACAD_REACTORS
330
47
102
}
330
47
100
AcDbScale
 70
     0
300
1-1/2" = 1'-0"
140
1.5
141
12.0
290
     0
  0
SCALE
  5
66
102
{ACAD_REACTORS
330
47
102
}
330
47
100
AcDbScale
 70
     0
300
3" = 1'-0"
140
3.0
141
12.0
290
     0
  0
SCALE
  5
67
102
{ACAD_REACTORS
330
47
102
}
330
47
100
AcDbScale
 70
     0
300
6" = 1'-0"
140
6.0
141
12.0
290
     0
  0
SCALE
  5
68
102
{ACAD_REACTORS
330
47
102
}
330
47
100
AcDbScale
 70
     0
300
1'-0" = 1'-0"
140
12.0
141
12.0
290
     0
  0
ACDBSECTIONVIEWSTYLE
  5
295
102
{ACAD_XDICTIONARY
360
309
102
}
102
{ACAD_REACTORS
330
291
102
}
330
291
100
AcDbModelDocViewStyle
 70
     0
  3
Metric50
290
     0
100
AcDbSectionViewStyle
 70
     0
 71
     0
 90
      102
 71
     1
340
11
 62
   256
 40
5.0
340
0
340
0
 62
   256
 40
5.0
300
I, O, Q, S, X, Z
 40
10.0
 90
        0
 40
2.5
 90
        0
 71
     2
340
16
 90
       25
 62
   256
340
16
 90
       50
 62
   256
 40
5.0
 40
2.5
 40
5.0
 71
     3
340
11
 62
   256
 40
5.0
 90
        0
 40
15.0
 90
        1
300
%<\AcVar ViewSectionStartId>%-%<\AcVar ViewSectionEndId>% (%<\AcVar ViewScale \f "%sn">%)
 71
     4
 62
   256
 62
   257
300
ANSI31
 40
1.0
 90
        0
290
     0
290
     0
 90
        6
 40
0.0
 40
1.570796326794896
 40
0.2617993877991494
 40
1.308996938995747
 40
-0.2617993877991494
 40
1.832595714594046
  0
TABLESTYLE
  5
6A
102
{ACAD_XDICTIONARY
360
287
102
}
102
{ACAD_REACTORS
330
69
102
}
330
69
100
AcDbTableStyle
280
     0
  3
Standard
 70
     0
 71
     0
 40
0.06
 41
0.06
280
     0
281
     0
  7
Standard
140
0.18
170
     2
 62
     0
 63
     7
283
     0
 90
        4
 91
        0
  1

274
    -2
284
     1
 64
     0
275
    -2
285
     1
 65
     0
276
    -2
286
     1
 66
     0
277
    -2
287
     1
 67
     0
278
    -2
288
     1
 68
     0
279
    -2
289
     1
 69
     0
  7
Standard
140
0.25
170
     5
 62
     0
 63
     7
283
     0
 90
        4
 91
        0
  1

274
    -2
284
     1
 64
     0
275
    -2
285
     1
 65
     0
276
    -2
286
     1
 66
     0
277
    -2
287
     1
 67
     0
278
    -2
288
     1
 68
     0
279
    -2
289
     1
 69
     0
  7
Standard
140
0.18
170
     5
 62
     0
 63
     7
283
     0
 90
        4
 91
        0
  1

274
    -2
284
     1
 64
     0
275
    -2
285
     1
 65
     0
276
    -2
286
     1
 66
     0
277
    -2
287
     1
 67
     0
278
    -2
288
     1
 68
     0
279
    -2
289
     1
 69
     0
  0
VISUALSTYLE
  5
2F
102
{ACAD_REACTORS
330
2A
102
}
330
2A
100
AcDbVisualStyle
  2

 70
     4
177
     3
291
     0
 70
    58
 90
        0
176
     1
 90
        2
176
     1
 90
        0
176
     1
 90
        0
176
     1
 40
0.6
176
     1
 40
30.0
176
     1
 62
     7
420
 16777215
176
     1
 90
        1
176
     1
 90
        4
176
     1
 62
     7
176
     1
 62
   257
176
     1
 90
        1
176
     1
 90
        1
176
     1
 40
1.0
176
     1
 90
        0
176
     1
 62
   257
176
     1
 40
1.0
176
     1
 90
        1
176
     1
 90
        6
176
     1
 90
        2
176
     1
 62
     7
176
     1
 90
        5
176
     1
 90
        0
176
     1
 90
        0
176
     1
290
     0
176
     1
 90
        1
176
     1
 40
0.0
176
     1
 90
        0
176
     1
290
     1
176
     1
290
     1
176
     1
290
     0
176
     1
290
     0
176
     1
290
     0
176
     1
290
     0
176
     1
290
     0
176
     1
290
     0
176
     1
290
     0
176
     1
 90
       50
176
     1
 40
0.0
176
     1
 40
1.0
176
     1
 90
        0
176
     1
 62
    18
420
        0
176
     1
 90
       50
176
     1
 90
        3
176
     1
 62
     5
420
      255
176
     1
290
     0
176
     1
 90
       50
176
     1
 90
       50
176
     1
 90
       50
176
     1
290
     0
176
     1
 90
       50
176
     1
 62
   256
176
     0
 40
1.0
176
     0
 90
        2
176
     1
  1
strokes_ogs.tif
176
     1
290
     0
176
     1
 40
1.0
176
     1
 40
1.0
176
     1
1001
ACAD
1000
AcDbSavedByObjectVersion
1070
     0
  0
VISUALSTYLE
  5
32
102
{ACAD_REACTORS
330
2A
102
}
330
2A
100
AcDbVisualStyle
  2

 70
     7
177
     3
291
     1
 70
    58
 90
        1
176
     1
 90
        0
176
     1
 90
        1
176
     1
 90
        0
176
     1
 40
0.6
176
     1
 40
30.0
176
     1
 62
     7
420
 16777215
176
     1
 90
        0
176
     1
 90
        4
176
     1
 62
     7
176
     1
 62
   257
176
     1
 90
        1
176
     1
 90
        1
176
     1
 40
1.0
176
     1
 90
        8
176
     1
 62
     7
176
     1
 40
1.0
176
     1
 90
        1
176
     1
 90
        6
176
     1
 90
        2
176
     1
 62
     7
176
     1
 90
        5
176
     1
 90
        0
176
     1
 90
        0
176
     1
290
     0
176
     1
 90
        1
176
     1
 40
0.0
176
     1
 90
        0
176
     1
290
     0
176
     1
290
     1
176
     1
290
     1
176
     1
290
     0
176
     1
290
     0
176
     1
290
     0
176
     1
290
     0
176
     1
290
     0
176
     1
290
     0
176
     1
 90
       50
176
     1
 40
0.0
176
     1
 40
1.0
176
     1
 90
        0
176
     1
 62
    18
420
        0
176
     1
 90
       50
176
     1
 90
        3
176
     1
 62
     5
420
      255
176
     1
290
     0
176
     1
 90
       50
176
     1
 90
       50
176
     1
 90
       50
176
     1
290
     0
176
     1
 90
       50
176
     1
 62
   256
176
     0
 40
1.0
176
     0
 90
        2
176
     1
  1
strokes_ogs.tif
176
     1
290
     0
176
     1
 40
1.0
176
     1
 40
1.0
176
     1
1001
ACAD
1000
AcDbSavedByObjectVersion
1070
     0
  0
VISUALSTYLE
  5
36
102
{ACAD_REACTORS
330
2A
102
}
330
2A
100
AcDbVisualStyle
  2

 70
    12
177
     3
291
     1
 70
    58
 90
        2
176
     1
 90
        2
176
     1
 90
        0
176
     1
 90
        0
176
     1
 40
0.6
176
     1
 40
30.0
176
     1
 62
     7
420
 16777215
176
     1
 90
        1
176
     1
 90
        4
176
     1
 62
     7
176
     1
 62
   257
176
     1
 90
        1
176
     1
 90
        1
176
     1
 40
1.0
176
     1
 90
        8
176
     1
 62
     7
176
     1
 40
1.0
176
     1
 90
        1
176
     1
 90
        6
176
     1
 90
        2
176
     1
 62
     7
176
     1
 90
        5
176
     1
 90
        0
176
     1
 90
        0
176
     1
290
     0
176
     1
 90
        1
176
     1
 40
50.0
176
     1
 90
        0
176
     1
290
     0
176
     1
290
     1
176
     1
290
     1
176
     1
290
     0
176
     1
290
     0
176
     1
290
     0
176
     1
290
     0
176
     1
290
     0
176
     1
290
     0
176
     1
 90
       50
176
     1
 40
0.0
176
     1
 40
1.0
176
     1
 90
        0
176
     1
 62
    18
420
        0
176
     1
 90
       50
176
     1
 90
        3
176
     1
 62
     5
420
      255
176
     1
290
     0
176
     1
 90
       50
176
     1
 90
       50
176
     1
 90
       50
176
     1
290
     0
176
     1
 90
       50
176
     1
 62
   256
176
     0
 40
1.0
176
     0
 90
        2
176
     1
  1
strokes_ogs.tif
176
     1
290
     0
176
     1
 40
1.0
176
     1
 40
1.0
176
     1
1001
ACAD
1000
AcDbSavedByObjectVersion
1070
     0
  0
VISUALSTYLE
  5
3A
102
{ACAD_REACTORS
330
2A
102
}
330
2A
100
AcDbVisualStyle
  2

 70
    16
177
     3
291
     1
 70
    58
 90
        2
176
     1
 90
        2
176
     1
 90
        3
176
     1
 90
        0
176
     1
 40
0.6
176
     1
 40
30.0
176
     1
 62
     8
420
  8421504
176
     1
 90
        1
176
     1
 90
        4
176
     1
 62
     7
176
     1
 62
   257
176
     1
 90
        1
176
     1
 90
        1
176
     1
 40
1.0
176
     1
 90
        8
176
     1
 62
     8
420
  8421504
176
     1
 40
1.0
176
     1
 90
        1
176
     1
 90
        6
176
     1
 90
        2
176
     1
 62
     7
176
     1
 90
        5
176
     1
 90
        0
176
     1
 90
        0
176
     1
290
     0
176
     1
 90
        1
176
     1
 40
0.0
176
     1
 90
        0
176
     1
290
     0
176
     1
290
     1
176
     1
290
     1
176
     1
290
     0
176
     1
290
     0
176
     1
290
     0
176
     1
290
     0
176
     1
290
     0
176
     1
290
     0
176
     1
 90
       50
176
     1
 40
0.0
176
     1
 40
1.0
176
     1
 90
        0
176
     1
 62
    18
420
        0
176
     1
 90
       50
176
     1
 90
        3
176
     1
 62
     5
420
      255
176
     1
290
     0
176
     1
 90
       50
176
     1
 90
       50
176
     1
 90
       50
176
     1
290
     0
176
     1
 90
       50
176
     1
 62
   256
176
     0
 40
1.0
176
     0
 90
        2
176
     1
  1
strokes_ogs.tif
176
     1
290
     0
176
     1
 40
1.0
176
     1
 40
1.0
176
     1
1001
ACAD
1000
AcDbSavedByObjectVersion
1070
     0
  0
VISUALSTYLE
  5
34
102
{ACAD_REACTORS
330
2A
102
}
330
2A
100
AcDbVisualStyle
  2

 70
     9
177
     3
291
     0
 70
    58
 90
        3
176
     1
 90
        2
176
     1
 90
        0
176
     1
 90
        0
176
     1
 40
0.6
176
     1
 40
30.0
176
     1
 62
     7
420
 16777215
176
     1
 90
        2
176
     1
 90
        2
176
     1
 62
     7
176
     1
 62
   257
176
     1
 90
        1
176
     1
 90
        1
176
     1
 40
179.0
176
     1
 90
        8
176
     1
 62
     7
176
     1
 40
1.0
176
     1
 90
        1
176
     1
 90
        6
176
     1
 90
        2
176
     1
 62
     7
176
     1
 90
        3
176
     1
 90
        0
176
     1
 90
        0
176
     1
290
     0
176
     1
 90
        1
176
     1
 40
0.0
176
     1
 90
        0
176
     1
290
     0
176
     1
290
     1
176
     1
290
     1
176
     1
290
     0
176
     1
290
     0
176
     1
290
     0
176
     1
290
     0
176
     1
290
     0
176
     1
290
     0
176
     1
 90
       50
176
     1
 40
0.0
176
     1
 40
1.0
176
     1
 90
        0
176
     1
 62
    18
420
        0
176
     1
 90
       50
176
     1
 90
        3
176
     1
 62
     5
420
      255
176
     1
290
     0
176
     1
 90
       50
176
     1
 90
       50
176
     1
 90
       50
176
     1
290
     0
176
     1
 90
       50
176
     1
 62
   256
176
     0
 40
1.0
176
     0
 90
        2
176
     1
  1
strokes_ogs.tif
176
     1
290
     0
176
     1
 40
1.0
176
     1
 40
1.0
176
     1
1001
ACAD
1000
AcDbSavedByObjectVersion
1070
     0
  0
VISUALSTYLE
  5
35
102
{ACAD_REACTORS
330
2A
102
}
330
2A
100
AcDbVisualStyle
  2

 70
    11
177
     3
291
     1
 70
    58
 90
        2
176
     1
 90
        2
176
     1
 90
        0
176
     1
 90
        0
176
     1
 40
0.6
176
     1
 40
30.0
176
     1
 62
     7
420
 16777215
176
     1
 90
        1
176
     1
 90
        4
176
     1
 62
     7
176
     1
 62
   257
176
     1
 90
        1
176
     1
 90
        1
176
     1
 40
1.0
176
     1
 90
        8
176
     1
 62
     7
176
     1
 40
1.0
176
     1
 90
        1
176
     1
 90
        6
176
     1
 90
        2
176
     1
 62
     7
176
     1
 90
        5
176
     1
 90
        0
176
     1
 90
        0
176
     1
290
     0
176
     1
 90
        1
176
     1
 40
-50.0
176
     1
 90
        0
176
     1
290
     0
176
     1
290
     1
176
     1
290
     1
176
     1
290
     0
176
     1
290
     0
176
     1
290
     0
176
     1
290
     0
176
     1
290
     0
176
     1
290
     0
176
     1
 90
       50
176
     1
 40
0.0
176
     1
 40
1.0
176
     1
 90
        0
176
     1
 62
    18
420
        0
176
     1
 90
       50
176
     1
 90
        3
176
     1
 62
     5
420
      255
176
     1
290
     0
176
     1
 90
       50
176
     1
 90
       50
176
     1
 90
       50
176
     1
290
     0
176
     1
 90
       50
176
     1
 62
   256
176
     0
 40
1.0
176
     0
 90
        2
176
     1
  1
strokes_ogs.tif
176
     1
290
     0
176
     1
 40
1.0
176
     1
 40
1.0
176
     1
1001
ACAD
1000
AcDbSavedByObjectVersion
1070
     0
  0
VISUALSTYLE
  5
3D
102
{ACAD_REACTORS
330
2A
102
}
330
2A
100
AcDbVisualStyle
  2

 70
    22
177
     3
291
     1
 70
    58
 90
        2
176
     0
 90
        2
176
     0
 90
        0
176
     0
 90
        0
176
     0
 40
0.6
176
     0
 40
30.0
176
     0
 62
     7
420
 16777215
176
     0
 90
        1
176
     0
 90
        4
176
     0
 62
     7
176
     0
 62
   257
176
     0
 90
        1
176
     0
 90
        1
176
     0
 40
1.0
176
     0
 90
        8
176
     2
 62
     7
176
     0
 40
1.0
176
     0
 90
        1
176
     0
 90
        6
176
     0
 90
        2
176
     0
 62
     7
176
     0
 90
        5
176
     0
 90
        0
176
     0
 90
        0
176
     0
290
     0
176
     0
 90
        1
176
     0
 40
0.0
176
     0
 90
        0
176
     0
290
     0
176
     0
290
     1
176
     0
290
     1
176
     0
290
     0
176
     0
290
     0
176
     0
290
     0
176
     0
290
     0
176
     0
290
     0
176
     0
290
     0
176
     0
 90
       50
176
     0
 40
0.0
176
     0
 40
1.0
176
     0
 90
        0
176
     0
 62
    18
420
        0
176
     0
 90
       50
176
     0
 90
        3
176
     0
 62
     5
420
      255
176
     0
290
     0
176
     0
 90
       50
176
     0
 90
       50
176
     0
 90
       50
176
     0
290
     0
176
     0
 90
       50
176
     0
 62
   256
176
     0
 40
1.0
176
     0
 90
        2
176
     0
  1
strokes_ogs.tif
176
     0
290
     0
176
     0
 40
1.0
176
     0
 40
1.0
176
     0
1001
ACAD
1000
AcDbSavedByObjectVersion
1070
     0
  0
VISUALSTYLE
  5
39
102
{ACAD_REACTORS
330
2A
102
}
330
2A
100
AcDbVisualStyle
  2

 70
    15
177
     3
291
     1
 70
    58
 90
        2
176
     1
 90
        2
176
     1
 90
        0
176
     1
 90
        0
176
     1
 40
0.6
176
     1
 40
30.0
176
     1
 62
     7
420
 16777215
176
     1
 90
        1
176
     1
 90
        4
176
     1
 62
     7
176
     1
 62
   257
176
     1
 90
        1
176
     1
 90
        1
176
     1
 40
1.0
176
     1
 90
        8
176
     1
 62
     7
176
     1
 40
1.0
176
     1
 90
        1
176
     1
 90
        6
176
     1
 90
        2
176
     1
 62
     7
176
     1
 90
        5
176
     1
 90
        0
176
     1
 90
        0
176
     1
290
     0
176
     1
 90
        1
176
     1
 40
0.0
176
     1
 90
        0
176
     1
290
     0
176
     1
290
     1
176
     1
290
     1
176
     1
290
     0
176
     1
290
     0
176
     1
290
     0
176
     1
290
     0
176
     1
290
     0
176
     1
290
     0
176
     1
 90
       50
176
     1
 40
0.0
176
     1
 40
1.0
176
     1
 90
        0
176
     1
 62
    18
420
        0
176
     1
 90
       50
176
     1
 90
        3
176
     1
 62
     5
420
      255
176
     1
290
     0
176
     1
 90
       50
176
     1
 90
       50
176
     1
 90
       50
176
     1
290
     0
176
     1
 90
       50
176
     1
 62
   256
176
     0
 40
1.0
176
     0
 90
        2
176
     1
  1
strokes_ogs.tif
176
     1
290
     0
176
     1
 40
1.0
176
     1
 40
1.0
176
     1
1001
ACAD
1000
AcDbSavedByObjectVersion
1070
     0
  0
VISUALSTYLE
  5
2B
102
{ACAD_REACTORS
330
2A
102
}
330
2A
100
AcDbVisualStyle
  2

 70
     0
177
     3
291
     1
 70
    58
 90
        2
176
     1
 90
        1
176
     1
 90
        1
176
     1
 90
        2
176
     1
 40
0.6
176
     1
 40
30.0
176
     1
 62
     7
420
 16777215
176
     1
 90
        0
176
     1
 90
        0
176
     1
 62
     7
176
     1
 62
   257
176
     1
 90
        1
176
     1
 90
        1
176
     1
 40
1.0
176
     1
 90
        8
176
     1
 62
     7
176
     1
 40
1.0
176
     1
 90
        1
176
     1
 90
        6
176
     1
 90
        2
176
     1
 62
     7
176
     1
 90
        5
176
     1
 90
        0
176
     1
 90
        0
176
     1
290
     0
176
     1
 90
       13
176
     1
 40
0.0
176
     1
 90
        0
176
     1
290
     0
176
     1
290
     1
176
     1
290
     1
176
     1
290
     0
176
     1
290
     0
176
     1
290
     0
176
     1
290
     0
176
     1
290
     0
176
     1
290
     0
176
     1
 90
       50
176
     1
 40
0.0
176
     1
 40
1.0
176
     1
 90
        0
176
     1
 62
    18
420
        0
176
     1
 90
       50
176
     1
 90
        3
176
     1
 62
     5
420
      255
176
     1
290
     0
176
     1
 90
       50
176
     1
 90
       50
176
     1
 90
       50
176
     1
290
     0
176
     1
 90
       50
176
     1
 62
   256
176
     0
 40
1.0
176
     0
 90
        2
176
     1
  1
strokes_ogs.tif
176
     1
290
     0
176
     1
 40
1.0
176
     1
 40
1.0
176
     1
1001
ACAD
1000
AcDbSavedByObjectVersion
1070
     0
  0
VISUALSTYLE
  5
2C
102
{ACAD_REACTORS
330
2A
102
}
330
2A
100
AcDbVisualStyle
  2

 70
     1
177
     3
291
     1
 70
    58
 90
        2
176
     1
 90
        1
176
     1
 90
        1
176
     1
 90
        2
176
     1
 40
0.6
176
     1
 40
30.0
176
     1
 62
     7
420
 16777215
176
     1
 90
        1
176
     1
 90
        0
176
     1
 62
     7
176
     1
 62
   257
176
     1
 90
        1
176
     1
 90
        1
176
     1
 40
1.0
176
     1
 90
        0
176
     1
 62
   257
176
     1
 40
1.0
176
     1
 90
        1
176
     1
 90
        6
176
     1
 90
        2
176
     1
 62
     7
176
     1
 90
        5
176
     1
 90
        0
176
     1
 90
        0
176
     1
290
     0
176
     1
 90
       13
176
     1
 40
0.0
176
     1
 90
        0
176
     1
290
     0
176
     1
290
     1
176
     1
290
     1
176
     1
290
     0
176
     1
290
     0
176
     1
290
     0
176
     1
290
     0
176
     1
290
     0
176
     1
290
     0
176
     1
 90
       50
176
     1
 40
0.0
176
     1
 40
1.0
176
     1
 90
        0
176
     1
 62
    18
420
        0
176
     1
 90
       50
176
     1
 90
        3
176
     1
 62
     5
420
      255
176
     1
290
     0
176
     1
 90
       50
176
     1
 90
       50
176
     1
 90
       50
176
     1
290
     0
176
     1
 90
       50
176
     1
 62
   256
176
     0
 40
1.0
176
     0
 90
        2
176
     1
  1
strokes_ogs.tif
176
     1
290
     0
176
     1
 40
1.0
176
     1
 40
1.0
176
     1
1001
ACAD
1000
AcDbSavedByObjectVersion
1070
     0
  0
VISUALSTYLE
  5
2D
102
{ACAD_REACTORS
330
2A
102
}
330
2A
100
AcDbVisualStyle
  2

 70
     2
177
     3
291
     1
 70
    58
 90
        2
176
     1
 90
        2
176
     1
 90
        1
176
     1
 90
        2
176
     1
 40
0.6
176
     1
 40
30.0
176
     1
 62
     7
420
 16777215
176
     1
 90
        0
176
     1
 90
        0
176
     1
 62
     7
176
     1
 62
   257
176
     1
 90
        1
176
     1
 90
        1
176
     1
 40
1.0
176
     1
 90
        0
176
     1
 62
     7
176
     1
 40
1.0
176
     1
 90
        1
176
     1
 90
        6
176
     1
 90
        2
176
     1
 62
     7
176
     1
 90
        5
176
     1
 90
        0
176
     1
 90
        0
176
     1
290
     0
176
     1
 90
       13
176
     1
 40
0.0
176
     1
 90
        0
176
     1
290
     0
176
     1
290
     1
176
     1
290
     1
176
     1
290
     0
176
     1
290
     0
176
     1
290
     0
176
     1
290
     0
176
     1
290
     0
176
     1
290
     0
176
     1
 90
       50
176
     1
 40
0.0
176
     1
 40
1.0
176
     1
 90
        0
176
     1
 62
    18
420
        0
176
     1
 90
       50
176
     1
 90
        3
176
     1
 62
     5
420
      255
176
     1
290
     0
176
     1
 90
       50
176
     1
 90
       50
176
     1
 90
       50
176
     1
290
     0
176
     1
 90
       50
176
     1
 62
   256
176
     0
 40
1.0
176
     0
 90
        2
176
     1
  1
strokes_ogs.tif
176
     1
290
     0
176
     1
 40
1.0
176
     1
 40
1.0
176
     1
1001
ACAD
1000
AcDbSavedByObjectVersion
1070
     0
  0
VISUALSTYLE
  5
2E
102
{ACAD_REACTORS
330
2A
102
}
330
2A
100
AcDbVisualStyle
  2

 70
     3
177
     3
291
     1
 70
    58
 90
        2
176
     1
 90
        2
176
     1
 90
        1
176
     1
 90
        2
176
     1
 40
0.6
176
     1
 40
30.0
176
     1
 62
     7
420
 16777215
176
     1
 90
        1
176
     1
 90
        0
176
     1
 62
     7
176
     1
 62
   257
176
     1
 90
        1
176
     1
 90
        1
176
     1
 40
1.0
176
     1
 90
        0
176
     1
 62
   257
176
     1
 40
1.0
176
     1
 90
        1
176
     1
 90
        6
176
     1
 90
        2
176
     1
 62
     7
176
     1
 90
        5
176
     1
 90
        0
176
     1
 90
        0
176
     1
290
     0
176
     1
 90
       13
176
     1
 40
0.0
176
     1
 90
        0
176
     1
290
     0
176
     1
290
     1
176
     1
290
     1
176
     1
290
     0
176
     1
290
     0
176
     1
290
     0
176
     1
290
     0
176
     1
290
     0
176
     1
290
     0
176
     1
 90
       50
176
     1
 40
0.0
176
     1
 40
1.0
176
     1
 90
        0
176
     1
 62
    18
420
        0
176
     1
 90
       50
176
     1
 90
        3
176
     1
 62
     5
420
      255
176
     1
290
     0
176
     1
 90
       50
176
     1
 90
       50
176
     1
 90
       50
176
     1
290
     0
176
     1
 90
       50
176
     1
 62
   256
176
     0
 40
1.0
176
     0
 90
        2
176
     1
  1
strokes_ogs.tif
176
     1
290
     0
176
     1
 40
1.0
176
     1
 40
1.0
176
     1
1001
ACAD
1000
AcDbSavedByObjectVersion
1070
     0
  0
VISUALSTYLE
  5
31
102
{ACAD_REACTORS
330
2A
102
}
330
2A
100
AcDbVisualStyle
  2

 70
     6
177
     3
291
     0
 70
    58
 90
        1
176
     1
 90
        2
176
     1
 90
        2
176
     1
 90
        0
176
     1
 40
0.6
176
     1
 40
30.0
176
     1
 62
     7
420
 16777215
176
     1
 90
        2
176
     1
 90
        2
176
     1
 62
     7
176
     1
 62
   257
176
     1
 90
        2
176
     1
 90
        1
176
     1
 40
40.0
176
     1
 90
        0
176
     1
 62
   257
176
     1
 40
1.0
176
     1
 90
        1
176
     1
 90
        6
176
     1
 90
        2
176
     1
 62
     7
176
     1
 90
        3
176
     1
 90
        0
176
     1
 90
        0
176
     1
290
     0
176
     1
 90
        1
176
     1
 40
0.0
176
     1
 90
        0
176
     1
290
     0
176
     1
290
     1
176
     1
290
     1
176
     1
290
     0
176
     1
290
     0
176
     1
290
     0
176
     1
290
     0
176
     1
290
     0
176
     1
290
     0
176
     1
 90
       50
176
     1
 40
0.0
176
     1
 40
1.0
176
     1
 90
        0
176
     1
 62
    18
420
        0
176
     1
 90
       50
176
     1
 90
        3
176
     1
 62
     5
420
      255
176
     1
290
     0
176
     1
 90
       50
176
     1
 90
       50
176
     1
 90
       50
176
     1
290
     0
176
     1
 90
       50
176
     1
 62
   256
176
     0
 40
1.0
176
     0
 90
        2
176
     1
  1
strokes_ogs.tif
176
     1
290
     0
176
     1
 40
1.0
176
     1
 40
1.0
176
     1
1001
ACAD
1000
AcDbSavedByObjectVersion
1070
     0
  0
VISUALSTYLE
  5
3B
102
{ACAD_REACTORS
330
2A
102
}
330
2A
100
AcDbVisualStyle
  2

 70
    20
177
     3
291
     1
 70
    58
 90
        2
176
     0
 90
        2
176
     0
 90
        0
176
     0
 90
        0
176
     0
 40
0.6
176
     0
 40
30.0
176
     0
 62
     7
420
 16777215
176
     0
 90
        1
176
     0
 90
        4
176
     0
 62
     7
176
     0
 62
   257
176
     0
 90
        1
176
     0
 90
        1
176
     0
 40
1.0
176
     0
 90
       10
176
     2
 62
     7
176
     0
 40
1.0
176
     0
 90
        1
176
     0
 90
        6
176
     0
 90
        2
176
     0
 62
     7
176
     0
 90
        5
176
     0
 90
        0
176
     0
 90
        0
176
     0
290
     0
176
     0
 90
        1
176
     0
 40
0.0
176
     0
 90
        0
176
     0
290
     0
176
     0
290
     1
176
     0
290
     1
176
     0
290
     0
176
     0
290
     0
176
     0
290
     0
176
     0
290
     0
176
     0
290
     0
176
     0
290
     0
176
     0
 90
       50
176
     0
 40
0.0
176
     0
 40
1.0
176
     0
 90
        0
176
     0
 62
    18
420
        0
176
     0
 90
       50
176
     0
 90
        3
176
     0
 62
     5
420
      255
176
     0
290
     0
176
     0
 90
       50
176
     0
 90
       50
176
     0
 90
       50
176
     0
290
     0
176
     0
 90
       50
176
     0
 62
   256
176
     0
 40
1.0
176
     0
 90
        2
176
     0
  1
strokes_ogs.tif
176
     0
290
     0
176
     0
 40
1.0
176
     0
 40
1.0
176
     0
1001
ACAD
1000
AcDbSavedByObjectVersion
1070
     0
  0
VISUALSTYLE
  5
38
102
{ACAD_REACTORS
330
2A
102
}
330
2A
100
AcDbVisualStyle
  2

 70
    14
177
     3
291
     1
 70
    58
 90
        2
176
     1
 90
        2
176
     1
 90
        0
176
     1
 90
        0
176
     1
 40
0.6
176
     1
 40
30.0
176
     1
 62
     7
420
 16777215
176
     1
 90
        1
176
     1
 90
        4
176
     1
 62
     7
176
     1
 62
   257
176
     1
 90
        7
176
     1
 90
        7
176
     1
 40
1.0
176
     1
 90
        8
176
     1
 62
     7
176
     1
 40
1.0
176
     1
 90
        1
176
     1
 90
        6
176
     1
 90
        2
176
     1
 62
     7
176
     1
 90
        5
176
     1
 90
        0
176
     1
 90
        0
176
     1
290
     0
176
     1
 90
        1
176
     1
 40
0.0
176
     1
 90
        0
176
     1
290
     0
176
     1
290
     1
176
     1
290
     1
176
     1
290
     0
176
     1
290
     0
176
     1
290
     0
176
     1
290
     0
176
     1
290
     0
176
     1
290
     0
176
     1
 90
       50
176
     1
 40
0.0
176
     1
 40
1.0
176
     1
 90
        0
176
     1
 62
    18
420
        0
176
     1
 90
       50
176
     1
 90
        3
176
     1
 62
     5
420
      255
176
     1
290
     0
176
     1
 90
       50
176
     1
 90
       50
176
     1
 90
       50
176
     1
290
     0
176
     1
 90
       50
176
     1
 62
   256
176
     0
 40
1.0
176
     0
 90
        2
176
     1
  1
strokes_ogs.tif
176
     1
290
     0
176
     1
 40
1.0
176
     1
 40
1.0
176
     1
1001
ACAD
1000
AcDbSavedByObjectVersion
1070
     0
  0
VISUALSTYLE
  5
3C
102
{ACAD_REACTORS
330
2A
102
}
330
2A
100
AcDbVisualStyle
  2

 70
    21
177
     3
291
     1
 70
    58
 90
        2
176
     0
 90
        2
176
     0
 90
        0
176
     0
 90
        0
176
     0
 40
0.6
176
     0
 40
30.0
176
     0
 62
     7
420
 16777215
176
     0
 90
        1
176
     0
 90
        4
176
     0
 62
     7
176
     0
 62
   257
176
     0
 90
        1
176
     0
 90
        1
176
     0
 40
1.0
176
     0
 90
        9
176
     2
 62
     7
176
     0
 40
1.0
176
     0
 90
        1
176
     0
 90
        6
176
     0
 90
        2
176
     0
 62
     7
176
     0
 90
        5
176
     0
 90
        0
176
     0
 90
        0
176
     0
290
     0
176
     0
 90
        1
176
     0
 40
0.0
176
     0
 90
        0
176
     0
290
     0
176
     0
290
     1
176
     0
290
     1
176
     0
290
     0
176
     0
290
     0
176
     0
290
     0
176
     0
290
     0
176
     0
290
     0
176
     0
290
     0
176
     0
 90
       50
176
     0
 40
0.0
176
     0
 40
1.0
176
     0
 90
        0
176
     0
 62
    18
420
        0
176
     0
 90
       50
176
     0
 90
        3
176
     0
 62
     5
420
      255
176
     0
290
     0
176
     0
 90
       50
176
     0
 90
       50
176
     0
 90
       50
176
     0
290
     0
176
     0
 90
       50
176
     0
 62
   256
176
     0
 40
1.0
176
     0
 90
        2
176
     0
  1
strokes_ogs.tif
176
     0
290
     0
176
     0
 40
1.0
176
     0
 40
1.0
176
     0
1001
ACAD
1000
AcDbSavedByObjectVersion
1070
     0
  0
VISUALSTYLE
  5
33
102
{ACAD_REACTORS
330
2A
102
}
330
2A
100
AcDbVisualStyle
  2

 70
     8
177
     3
291
     0
 70
    58
 90
        2
176
     1
 90
        3
176
     1
 90
        0
176
     1
 90
        2
176
     1
 40
0.6
176
     1
 40
30.0
176
     1
 62
     7
420
 16777215
176
     1
 90
        0
176
     1
 90
        0
176
     1
 62
     7
176
     1
 62
   257
176
     1
 90
        1
176
     1
 90
        1
176
     1
 40
1.0
176
     1
 90
        8
176
     1
 62
   257
176
     1
 40
1.0
176
     1
 90
        1
176
     1
 90
        6
176
     1
 90
        2
176
     1
 62
     7
176
     1
 90
        3
176
     1
 90
        0
176
     1
 90
        0
176
     1
290
     0
176
     1
 90
       13
176
     1
 40
0.0
176
     1
 90
        0
176
     1
290
     0
176
     1
290
     1
176
     1
290
     1
176
     1
290
     0
176
     1
290
     0
176
     1
290
     0
176
     1
290
     0
176
     1
290
     0
176
     1
290
     0
176
     1
 90
       50
176
     1
 40
0.0
176
     1
 40
1.0
176
     1
 90
        0
176
     1
 62
    18
420
        0
176
     1
 90
       50
176
     1
 90
        3
176
     1
 62
     5
420
      255
176
     1
290
     0
176
     1
 90
       50
176
     1
 90
       50
176
     1
 90
       50
176
     1
290
     0
176
     1
 90
       50
176
     1
 62
   256
176
     0
 40
1.0
176
     0
 90
        2
176
     1
  1
strokes_ogs.tif
176
     1
290
     0
176
     1
 40
1.0
176
     1
 40
1.0
176
     1
1001
ACAD
1000
AcDbSavedByObjectVersion
1070
     0
  0
VISUALSTYLE
  5
42
102
{ACAD_REACTORS
330
2A
102
}
330
2A
100
AcDbVisualStyle
  2

 70
    27
177
     3
291
     0
 70
    58
 90
        2
176
     1
 90
        2
176
     1
 90
        1
176
     1
 90
        2
176
     1
 40
0.6
176
     1
 40
30.0
176
     1
 62
     7
420
 16777215
176
     1
 90
        0
176
     1
 90
        4
176
     1
 62
     7
176
     1
 62
   257
176
     1
 90
        1
176
     1
 90
        1
176
     1
 40
1.0
176
     1
 90
        8
176
     1
 62
   257
176
     1
 40
1.0
176
     1
 90
        1
176
     1
 90
        6
176
     1
 90
        2
176
     1
 62
     8
420
  7895160
176
     1
 90
        3
176
     1
 90
        0
176
     1
 90
        0
176
     1
290
     0
176
     1
 90
        5
176
     1
 40
0.0
176
     1
 90
        0
176
     1
290
     0
176
     1
290
     1
176
     1
290
     1
176
     1
290
     0
176
     1
290
     0
176
     1
290
     0
176
     1
290
     0
176
     1
290
     0
176
     1
290
     0
176
     1
 90
       50
176
     1
 40
0.0
176
     1
 40
1.0
176
     1
 90
        0
176
     1
 62
    18
420
        0
176
     1
 90
       50
176
     1
 90
        3
176
     1
 62
     5
420
      255
176
     1
290
     0
176
     1
 90
       50
176
     1
 90
       50
176
     1
 90
       50
176
     1
290
     0
176
     1
 90
       50
176
     1
 62
   256
176
     0
 40
1.0
176
     0
 90
        2
176
     1
  1
strokes_ogs.tif
176
     1
290
     0
176
     1
 40
1.0
176
     1
 40
1.0
176
     1
1001
ACAD
1000
AcDbSavedByObjectVersion
1070
     0
  0
VISUALSTYLE
  5
41
102
{ACAD_REACTORS
330
2A
102
}
330
2A
100
AcDbVisualStyle
  2

 70
    26
177
     3
291
     0
 70
    58
 90
        2
176
     1
 90
        2
176
     1
 90
        1
176
     1
 90
        2
176
     1
 40
0.6
176
     1
 40
30.0
176
     1
 62
     7
420
 16777215
176
     1
 90
        1
176
     1
 90
       10
176
     1
 62
     7
176
     1
 62
   257
176
     1
 90
        2
176
     1
 90
        1
176
     1
 40
1.0
176
     1
 90
        8
176
     1
 62
   257
176
     1
 40
1.0
176
     1
 90
        1
176
     1
 90
        6
176
     1
 90
        2
176
     1
 62
     7
176
     1
 90
        3
176
     1
 90
        0
176
     1
 90
        0
176
     1
290
     0
176
     1
 90
        5
176
     1
 40
0.0
176
     1
 90
        0
176
     1
290
     0
176
     1
290
     1
176
     1
290
     1
176
     1
290
     0
176
     1
290
     0
176
     1
290
     0
176
     1
290
     0
176
     1
290
     0
176
     1
290
     0
176
     1
 90
       50
176
     1
 40
0.0
176
     1
 40
1.0
176
     1
 90
        0
176
     1
 62
    18
420
        0
176
     1
 90
       50
176
     1
 90
        3
176
     1
 62
     5
420
      255
176
     1
290
     0
176
     1
 90
       50
176
     1
 90
       50
176
     1
 90
       50
176
     1
290
     0
176
     1
 90
       50
176
     1
 62
   256
176
     0
 40
1.0
176
     0
 90
        2
176
     1
  1
strokes_ogs.tif
176
     1
290
     0
176
     1
 40
1.0
176
     1
 40
1.0
176
     1
1001
ACAD
1000
AcDbSavedByObjectVersion
1070
     0
  0
VISUALSTYLE
  5
3E
102
{ACAD_REACTORS
330
2A
102
}
330
2A
100
AcDbVisualStyle
  2

 70
    23
177
     3
291
     0
 70
    58
 90
        2
176
     1
 90
        2
176
     1
 90
        3
176
     1
 90
        0
176
     1
 40
0.6
176
     1
 40
30.0
176
     1
 62
     7
420
 16777215
176
     1
 90
        2
176
     1
 90
        2
176
     1
 62
     7
176
     1
 62
     7
176
     1
 90
        1
176
     1
 90
        1
176
     1
 40
40.0
176
     1
 90
        8
176
     1
 62
     7
176
     1
 40
1.0
176
     1
 90
        1
176
     1
 90
        6
176
     1
 90
        2
176
     1
 62
     7
176
     1
 90
        3
176
     1
 90
        0
176
     1
 90
        0
176
     1
290
     0
176
     1
 90
        1
176
     1
 40
0.0
176
     1
 90
        0
176
     1
290
     0
176
     1
290
     1
176
     1
290
     1
176
     1
290
     0
176
     1
290
     0
176
     1
290
     0
176
     1
290
     0
176
     1
290
     0
176
     1
290
     0
176
     1
 90
       50
176
     1
 40
0.0
176
     1
 40
1.0
176
     1
 90
        0
176
     1
 62
    18
420
        0
176
     1
 90
       50
176
     1
 90
        3
176
     1
 62
     5
420
      255
176
     1
290
     0
176
     1
 90
       50
176
     1
 90
       50
176
     1
 90
       50
176
     1
290
     0
176
     1
 90
       50
176
     1
 62
   256
176
     0
 40
1.0
176
     0
 90
        2
176
     1
  1
strokes_ogs.tif
176
     1
290
     0
176
     1
 40
1.0
176
     1
 40
1.0
176
     1
1001
ACAD
1000
AcDbSavedByObjectVersion
1070
     0
  0
VISUALSTYLE
  5
3F
102
{ACAD_REACTORS
330
2A
102
}
330
2A
100
AcDbVisualStyle
  2

 70
    24
177
     3
291
     0
 70
    58
 90
        1
176
     1
 90
        2
176
     1
 90
        2
176
     1
 90
        0
176
     1
 40
0.6
176
     1
 40
30.0
176
     1
 62
     7
420
 16777215
176
     1
 90
        2
176
     1
 90
        2
176
     1
 62
     7
176
     1
 62
     7
176
     1
 90
        1
176
     1
 90
        1
176
     1
 40
40.0
176
     1
 90
       11
176
     1
 62
     7
176
     1
 40
1.0
176
     1
 90
        1
176
     1
 90
        6
176
     1
 90
        2
176
     1
 62
     7
176
     1
 90
        6
176
     1
 90
        0
176
     1
 90
        0
176
     1
290
     0
176
     1
 90
        1
176
     1
 40
0.0
176
     1
 90
        0
176
     1
290
     0
176
     1
290
     1
176
     1
290
     1
176
     1
290
     0
176
     1
290
     0
176
     1
290
     0
176
     1
290
     0
176
     1
290
     0
176
     1
290
     0
176
     1
 90
       50
176
     1
 40
0.0
176
     1
 40
1.0
176
     1
 90
        0
176
     1
 62
    18
420
        0
176
     1
 90
       50
176
     1
 90
        3
176
     1
 62
     5
420
      255
176
     1
290
     0
176
     1
 90
       50
176
     1
 90
       50
176
     1
 90
       50
176
     1
290
     0
176
     1
 90
       50
176
     1
 62
   256
176
     0
 40
1.0
176
     0
 90
        2
176
     1
  1
strokes_ogs.tif
176
     1
290
     0
176
     1
 40
1.0
176
     1
 40
1.0
176
     1
1001
ACAD
1000
AcDbSavedByObjectVersion
1070
     0
  0
VISUALSTYLE
  5
37
102
{ACAD_REACTORS
330
2A
102
}
330
2A
100
AcDbVisualStyle
  2

 70
    13
177
     3
291
     1
 70
    58
 90
        2
176
     1
 90
        2
176
     1
 90
        0
176
     1
 90
        0
176
     1
 40
0.6
176
     1
 40
30.0
176
     1
 62
     7
420
 16777215
176
     1
 90
        1
176
     1
 90
        4
176
     1
 62
     7
176
     1
 62
   257
176
     1
 90
        1
176
     1
 90
        1
176
     1
 40
1.0
176
     1
 90
       12
176
     1
 62
     7
176
     1
 40
1.0
176
     1
 90
        1
176
     1
 90
        6
176
     1
 90
        2
176
     1
 62
     7
176
     1
 90
        5
176
     1
 90
        0
176
     1
 90
        0
176
     1
290
     0
176
     1
 90
        1
176
     1
 40
0.0
176
     1
 90
        0
176
     1
290
     0
176
     1
290
     1
176
     1
290
     1
176
     1
290
     0
176
     1
290
     0
176
     1
290
     0
176
     1
290
     0
176
     1
290
     0
176
     1
290
     0
176
     1
 90
       50
176
     1
 40
0.0
176
     1
 40
1.0
176
     1
 90
        0
176
     1
 62
    18
420
        0
176
     1
 90
       50
176
     1
 90
        3
176
     1
 62
     5
420
      255
176
     1
290
     0
176
     1
 90
       50
176
     1
 90
       50
176
     1
 90
       50
176
     1
290
     0
176
     1
 90
       50
176
     1
 62
   256
176
     0
 40
1.0
176
     0
 90
        2
176
     1
  1
strokes_ogs.tif
176
     1
290
     0
176
     1
 40
1.0
176
     1
 40
1.0
176
     1
1001
ACAD
1000
AcDbSavedByObjectVersion
1070
     0
  0
VISUALSTYLE
  5
30
102
{ACAD_REACTORS
330
2A
102
}
330
2A
100
AcDbVisualStyle
  2

 70
     5
177
     3
291
     0
 70
    58
 90
        0
176
     1
 90
        2
176
     1
 90
        0
176
     1
 90
        0
176
     1
 40
0.6
176
     1
 40
30.0
176
     1
 62
     7
420
 16777215
176
     1
 90
        1
176
     1
 90
        4
176
     1
 62
     7
176
     1
 62
   257
176
     1
 90
        1
176
     1
 90
        1
176
     1
 40
1.0
176
     1
 90
        0
176
     1
 62
   257
176
     1
 40
1.0
176
     1
 90
        1
176
     1
 90
        6
176
     1
 90
        2
176
     1
 62
     7
176
     1
 90
        3
176
     1
 90
        0
176
     1
 90
        0
176
     1
290
     0
176
     1
 90
        1
176
     1
 40
0.0
176
     1
 90
        0
176
     1
290
     0
176
     1
290
     1
176
     1
290
     1
176
     1
290
     0
176
     1
290
     0
176
     1
290
     0
176
     1
290
     0
176
     1
290
     0
176
     1
290
     0
176
     1
 90
       50
176
     1
 40
0.0
176
     1
 40
1.0
176
     1
 90
        0
176
     1
 62
    18
420
        0
176
     1
 90
       50
176
     1
 90
        3
176
     1
 62
     5
420
      255
176
     1
290
     0
176
     1
 90
       50
176
     1
 90
       50
176
     1
 90
       50
176
     1
290
     0
176
     1
 90
       50
176
     1
 62
   256
176
     0
 40
1.0
176
     0
 90
        2
176
     1
  1
strokes_ogs.tif
176
     1
290
     0
176
     1
 40
1.0
176
     1
 40
1.0
176
     1
1001
ACAD
1000
AcDbSavedByObjectVersion
1070
     0
  0
VISUALSTYLE
  5
40
102
{ACAD_REACTORS
330
2A
102
}
330
2A
100
AcDbVisualStyle
  2

 70
    25
177
     3
291
     0
 70
    58
 90
        2
176
     1
 90
        2
176
     1
 90
        1
176
     1
 90
        1
176
     1
 40
0.5
176
     1
 40
30.0
176
     1
 62
     7
420
 16777215
176
     1
 90
        1
176
     1
 90
        0
176
     1
 62
     7
176
     1
 62
   257
176
     1
 90
        1
176
     1
 90
        1
176
     1
 40
1.0
176
     1
 90
        8
176
     1
 62
     7
176
     1
 40
1.0
176
     1
 90
        1
176
     1
 90
        6
176
     1
 90
        2
176
     1
 62
     7
176
     1
 90
        3
176
     1
 90
        0
176
     1
 90
        0
176
     1
290
     0
176
     1
 90
       13
176
     1
 40
0.0
176
     1
 90
        0
176
     1
290
     0
176
     1
290
     1
176
     1
290
     1
176
     1
290
     0
176
     1
290
     0
176
     1
290
     0
176
     1
290
     0
176
     1
290
     0
176
     1
290
     0
176
     1
 90
       50
176
     1
 40
0.0
176
     1
 40
1.0
176
     1
 90
        0
176
     1
 62
    18
420
        0
176
     1
 90
       50
176
     1
 90
        3
176
     1
 62
     5
420
      255
176
     1
290
     0
176
     1
 90
       50
176
     1
 90
       50
176
     1
 90
       50
176
     1
290
     0
176
     1
 90
       50
176
     1
 62
   256
176
     0
 40
1.0
176
     0
 90
        2
176
     1
  1
strokes_ogs.tif
176
     1
290
     0
176
     1
 40
1.0
176
     1
 40
1.0
176
     1
1001
ACAD
1000
AcDbSavedByObjectVersion
1070
     0
  0
DICTIONARYVAR
  5
24E
102
{ACAD_REACTORS
330
24D
102
}
330
24D
100
DictionaryVariables
280
     0
  1
1:1
  0
DICTIONARYVAR
  5
28F
102
{ACAD_REACTORS
330
24D
102
}
330
24D
100
DictionaryVariables
280
     0
  1
STANDARD
  0
DICTIONARYVAR
  5
28E
102
{ACAD_REACTORS
330
24D
102
}
330
24D
100
DictionaryVariables
280
     0
  1
STANDARD
  0
DICTIONARYVAR
  5
2F5
102
{ACAD_REACTORS
330
24D
102
}
330
24D
100
DictionaryVariables
280
     0
  1
Metric50
  0
DICTIONARYVAR
  5
2F6
102
{ACAD_REACTORS
330
24D
102
}
330
24D
100
DictionaryVariables
280
     0
  1
Metric50
  0
DICTIONARYVAR
  5
2F8
102
{ACAD_REACTORS
330
24D
102
}
330
24D
100
DictionaryVariables
280
     0
  1
1
  0
DICTIONARYVAR
  5
2F9
102
{ACAD_REACTORS
330
24D
102
}
330
24D
100
DictionaryVariables
280
     0
  1
15
  0
DICTIONARYVAR
  5
2F7
102
{ACAD_REACTORS
330
24D
102
}
330
24D
100
DictionaryVariables
280
     0
  1
0
  0
DICTIONARYVAR
  5
24F
102
{ACAD_REACTORS
330
24D
102
}
330
24D
100
DictionaryVariables
280
     0
  1
1
  0
DICTIONARY
  5
308
102
{ACAD_REACTORS
330
306
102
}
330
306
100
AcDbDictionary
281
     1
  0
DICTIONARY
  5
307
102
{ACAD_REACTORS
330
306
102
}
330
306
100
AcDbDictionary
281
     1
  3
2556750793488
350
301
  3
2556750793504
350
302
  3
2556750793520
350
303
  3
2556750793536
350
304
  3
2556750793552
350
305
  0
DICTIONARY
  5
30B
330
296
100
AcDbDictionary
280
     1
281
     1
  3
ACAD_XREC_ROUNDTRIP
360
30C
  0
DICTIONARY
  5
283
330
45
100
AcDbDictionary
280
     1
281
     1
  3
ACAD_XREC_ROUNDTRIP
360
284
  0
DICTIONARY
  5
281
330
44
100
AcDbDictionary
280
     1
281
     1
  3
ACAD_XREC_ROUNDTRIP
360
282
  0
DICTIONARY
  5
285
330
46
100
AcDbDictionary
280
     1
281
     1
  3
ACAD_XREC_ROUNDTRIP
360
286
  0
DICTIONARY
  5
309
330
295
100
AcDbDictionary
280
     1
281
     1
  3
ACAD_XREC_ROUNDTRIP
360
30A
  0
DICTIONARY
  5
287
330
6A
100
AcDbDictionary
280
     1
281
     1
  3
ACAD_ROUNDTRIP_2008_TABLESTYLE_CELLSTYLEMAP
360
2FF
  0
XRECORD
  5
301
102
{ACAD_REACTORS
330
307
102
}
330
307
100
AcDbXrecord
280
     1
  1
AcDb_Thumbnail_Schema
102
{ATTRRECORD
341
302
  2
AcDbDs::TreatedAsObjectData
280
     1
291
     1
102
ATTRRECORD}
102
{ATTRRECORD
341
303
  2
AcDbDs::Legacy
280
     1
291
     1
102
ATTRRECORD}
  2
AcDbDs::ID
280
    10
 91
        8
102
{ATTRRECORD
341
304
  2
AcDs:Indexable
280
     1
291
     1
102
ATTRRECORD}
102
{ATTRRECORD
341
305
  2
AcDbDs::HandleAttribute
280
     7
282
     1
102
ATTRRECORD}
  2
Thumbnail_Data
280
    15
 91
        0
  0
XRECORD
  5
302
102
{ACAD_REACTORS
330
307
102
}
330
307
100
AcDbXrecord
280
     1
  1
AcDbDs::TreatedAsObjectDataSchema
  2
AcDbDs::TreatedAsObjectData
280
     1
 91
        0
  0
XRECORD
  5
303
102
{ACAD_REACTORS
330
307
102
}
330
307
100
AcDbXrecord
280
     1
  1
AcDbDs::LegacySchema
  2
AcDbDs::Legacy
280
     1
 91
        0
  0
XRECORD
  5
304
102
{ACAD_REACTORS
330
307
102
}
330
307
100
AcDbXrecord
280
     1
  1
AcDbDs::IndexedPropertySchema
  2
AcDs:Indexable
280
     1
 91
        0
  0
XRECORD
  5
305
102
{ACAD_REACTORS
330
307
102
}
330
307
100
AcDbXrecord
280
     1
  1
AcDbDs::HandleAttributeSchema
  2
AcDbDs::HandleAttribute
280
     7
 91
        1
284
     1
  0
XRECORD
  5
30C
102
{ACAD_REACTORS
330
30B
102
}
330
30B
100
AcDbXrecord
280
     1
102
DISPLAYNAME
  1
Metric50
102
FLAGS
 90
        0
  0
XRECORD
  5
284
102
{ACAD_REACTORS
330
283
102
}
330
283
100
AcDbXrecord
280
     1
102
MATERIAL
148
0.0
149
0.0
149
0.0
 93
        0
 94
      127
282
     0
 72
     1
 77
     1
171
     1
175
     1
179
     1
273
     0
  0
XRECORD
  5
282
102
{ACAD_REACTORS
330
281
102
}
330
281
100
AcDbXrecord
280
     1
102
MATERIAL
148
0.0
149
0.0
149
0.0
 93
        0
 94
      127
282
     0
 72
     1
 77
     1
171
     1
175
     1
179
     1
273
     0
  0
XRECORD
  5
286
102
{ACAD_REACTORS
330
285
102
}
330
285
100
AcDbXrecord
280
     1
102
MATERIAL
148
0.0
149
0.0
149
0.0
 93
        0
 94
      127
282
     0
 72
     1
 77
     1
171
     1
175
     1
179
     1
273
     0
  0
XRECORD
  5
30A
102
{ACAD_REACTORS
330
309
102
}
330
309
100
AcDbXrecord
280
     1
102
DISPLAYNAME
  1
Metric50
102
FLAGS
 90
        0
  0
CELLSTYLEMAP
  5
2FF
102
{ACAD_REACTORS
330
287
102
}
330
287
100
AcDbCellStyleMap
 90
        3
300
CELLSTYLE
  1
TABLEFORMAT_BEGIN
 90
        5
170
     1
 91
        0
 92
    32768
 62
   257
 93
        1
300
CONTENTFORMAT
  1
CONTENTFORMAT_BEGIN
 90
        0
 91
        0
 92
        4
 93
        0
300

 40
0.0
140
1.0
 94
        5
 62
     0
340
11
144
0.25
309
CONTENTFORMAT_END
171
     1
301
MARGIN
  1
CELLMARGIN_BEGIN
 40
0.06
 40
0.06
 40
0.06
 40
0.06
 40
0.18
 40
0.18
309
CELLMARGIN_END
 94
        6
 95
        1
302
GRIDFORMAT
  1
GRIDFORMAT_BEGIN
 90
        0
 91
        1
 62
     0
 92
       -2
340
14
 93
        0
 40
0.045
309
GRIDFORMAT_END
 95
        2
302
GRIDFORMAT
  1
GRIDFORMAT_BEGIN
 90
        0
 91
        1
 62
     0
 92
       -2
340
14
 93
        0
 40
0.045
309
GRIDFORMAT_END
 95
        4
302
GRIDFORMAT
  1
GRIDFORMAT_BEGIN
 90
        0
 91
        1
 62
     0
 92
       -2
340
14
 93
        0
 40
0.045
309
GRIDFORMAT_END
 95
        8
302
GRIDFORMAT
  1
GRIDFORMAT_BEGIN
 90
        0
 91
        1
 62
     0
 92
       -2
340
14
 93
        0
 40
0.045
309
GRIDFORMAT_END
 95
       16
302
GRIDFORMAT
  1
GRIDFORMAT_BEGIN
 90
        0
 91
        1
 62
     0
 92
       -2
340
14
 93
        0
 40
0.045
309
GRIDFORMAT_END
 95
       32
302
GRIDFORMAT
  1
GRIDFORMAT_BEGIN
 90
        0
 91
        1
 62
     0
 92
       -2
340
14
 93
        0
 40
0.045
309
GRIDFORMAT_END
309
TABLEFORMAT_END
  1
CELLSTYLE_BEGIN
 90
        1
 91
        1
300
_TITLE
309
CELLSTYLE_END
300
CELLSTYLE
  1
TABLEFORMAT_BEGIN
 90
        5
170
     1
 91
        0
 92
        0
 62
   257
 93
        1
300
CONTENTFORMAT
  1
CONTENTFORMAT_BEGIN
 90
        0
 91
        0
 92
        4
 93
        0
300

 40
0.0
140
1.0
 94
        5
 62
     0
340
11
144
0.18
309
CONTENTFORMAT_END
171
     1
301
MARGIN
  1
CELLMARGIN_BEGIN
 40
0.06
 40
0.06
 40
0.06
 40
0.06
 40
0.18
 40
0.18
309
CELLMARGIN_END
 94
        6
 95
        1
302
GRIDFORMAT
  1
GRIDFORMAT_BEGIN
 90
        0
 91
        1
 62
     0
 92
       -2
340
14
 93
        0
 40
0.045
309
GRIDFORMAT_END
 95
        2
302
GRIDFORMAT
  1
GRIDFORMAT_BEGIN
 90
        0
 91
        1
 62
     0
 92
       -2
340
14
 93
        0
 40
0.045
309
GRIDFORMAT_END
 95
        4
302
GRIDFORMAT
  1
GRIDFORMAT_BEGIN
 90
        0
 91
        1
 62
     0
 92
       -2
340
14
 93
        0
 40
0.045
309
GRIDFORMAT_END
 95
        8
302
GRIDFORMAT
  1
GRIDFORMAT_BEGIN
 90
        0
 91
        1
 62
     0
 92
       -2
340
14
 93
        0
 40
0.045
309
GRIDFORMAT_END
 95
       16
302
GRIDFORMAT
  1
GRIDFORMAT_BEGIN
 90
        0
 91
        1
 62
     0
 92
       -2
340
14
 93
        0
 40
0.045
309
GRIDFORMAT_END
 95
       32
302
GRIDFORMAT
  1
GRIDFORMAT_BEGIN
 90
        0
 91
        1
 62
     0
 92
       -2
340
14
 93
        0
 40
0.045
309
GRIDFORMAT_END
309
TABLEFORMAT_END
  1
CELLSTYLE_BEGIN
 90
        2
 91
        1
300
_HEADER
309
CELLSTYLE_END
300
CELLSTYLE
  1
TABLEFORMAT_BEGIN
 90
        5
170
     1
 91
        0
 92
        0
 62
   257
 93
        1
300
CONTENTFORMAT
  1
CONTENTFORMAT_BEGIN
 90
        0
 91
        0
 92
        4
 93
        0
300

 40
0.0
140
1.0
 94
        2
 62
     0
340
11
144
0.18
309
CONTENTFORMAT_END
171
     1
301
MARGIN
  1
CELLMARGIN_BEGIN
 40
0.06
 40
0.06
 40
0.06
 40
0.06
 40
0.18
 40
0.18
309
CELLMARGIN_END
 94
        6
 95
        1
302
GRIDFORMAT
  1
GRIDFORMAT_BEGIN
 90
        0
 91
        1
 62
     0
 92
       -2
340
14
 93
        0
 40
0.045
309
GRIDFORMAT_END
 95
        2
302
GRIDFORMAT
  1
GRIDFORMAT_BEGIN
 90
        0
 91
        1
 62
     0
 92
       -2
340
14
 93
        0
 40
0.045
309
GRIDFORMAT_END
 95
        4
302
GRIDFORMAT
  1
GRIDFORMAT_BEGIN
 90
        0
 91
        1
 62
     0
 92
       -2
340
14
 93
        0
 40
0.045
309
GRIDFORMAT_END
 95
        8
302
GRIDFORMAT
  1
GRIDFORMAT_BEGIN
 90
        0
 91
        1
 62
     0
 92
       -2
340
14
 93
        0
 40
0.045
309
GRIDFORMAT_END
 95
       16
302
GRIDFORMAT
  1
GRIDFORMAT_BEGIN
 90
        0
 91
        1
 62
     0
 92
       -2
340
14
 93
        0
 40
0.045
309
GRIDFORMAT_END
 95
       32
302
GRIDFORMAT
  1
GRIDFORMAT_BEGIN
 90
        0
 91
        1
 62
     0
 92
       -2
340
14
 93
        0
 40
0.045
309
GRIDFORMAT_END
309
TABLEFORMAT_END
  1
CELLSTYLE_BEGIN
 90
        3
 91
        2
300
_DATA
309
CELLSTYLE_END
  0
ENDSEC
  0
SECTION
  2
ACDSDATA
 70
     2
 71
     8
  0
ACDSSCHEMA
 90
        0
  1
AcDb_Thumbnail_Schema
  2
AcDbDs::ID
280
    10
 91
        8
  2
Thumbnail_Data
280
    15
 91
        0
101
ACDSRECORD
 95
        0
 90
        1
  2
AcDbDs::TreatedAsObjectData
280
     1
291
     1
101
ACDSRECORD
 95
        0
 90
        2
  2
AcDbDs::Legacy
280
     1
291
     1
101
ACDSRECORD
  1
AcDbDs::ID
 90
        3
  2
AcDs:Indexable
280
     1
291
     1
101
ACDSRECORD
  1
AcDbDs::ID
 90
        4
  2
AcDbDs::HandleAttribute
280
     7
282
     1
  0
ACDSSCHEMA
 90
        1
  1
AcDbDs::TreatedAsObjectDataSchema
  2
AcDbDs::TreatedAsObjectData
280
     1
 91
        0
  0
ACDSSCHEMA
 90
        2
  1
AcDbDs::LegacySchema
  2
AcDbDs::Legacy
280
     1
 91
        0
  0
ACDSSCHEMA
 90
        3
  1
AcDbDs::IndexedPropertySchema
  2
AcDs:Indexable
280
     1
 91
        0
  0
ACDSSCHEMA
 90
        4
  1
AcDbDs::HandleAttributeSchema
  2
AcDbDs::HandleAttribute
280
     7
 91
        1
284
     1
  0
ACDSRECORD
 90
        0
  2
AcDbDs::ID
280
    10
320
22
  2
Thumbnail_Data
280
    15
 94
     1124
310
89504E470D0A1A0A0000000D4948445200000100000000730803000000406D2C8F00000300504C5445FFFFFFFFFFFFFFFFFF0000000000000000000000000000000000000000000000000000330000660000990000CC0000FF0033000033330033660033990033CC0033FF0066000066330066660066990066CC0066FF0099
310
000099330099660099990099CC0099FF00CC0000CC3300CC6600CC9900CCCC00CCFF00FF0000FF3300FF6600FF9900FFCC00FFFF3300003300333300663300993300CC3300FF3333003333333333663333993333CC3333FF3366003366333366663366993366CC3366FF3399003399333399663399993399CC3399FF33CC00
310
33CC3333CC6633CC9933CCCC33CCFF33FF0033FF3333FF6633FF9933FFCC33FFFF6600006600336600666600996600CC6600FF6633006633336633666633996633CC6633FF6666006666336666666666996666CC6666FF6699006699336699666699996699CC6699FF66CC0066CC3366CC6666CC9966CCCC66CCFF66FF0066
310
FF3366FF6666FF9966FFCC66FFFF9900009900339900669900999900CC9900FF9933009933339933669933999933CC9933FF9966009966339966669966999966CC9966FF9999009999339999669999999999CC9999FF99CC0099CC3399CC6699CC9999CCCC99CCFF99FF0099FF3399FF6699FF9999FFCC99FFFFCC0000CC00
310
33CC0066CC0099CC00CCCC00FFCC3300CC3333CC3366CC3399CC33CCCC33FFCC6600CC6633CC6666CC6699CC66CCCC66FFCC9900CC9933CC9966CC9999CC99CCCC99FFCCCC00CCCC33CCCC66CCCC99CCCCCCCCCCFFCCFF00CCFF33CCFF66CCFF99CCFFCCCCFFFFFF0000FF0033FF0066FF0099FF00CCFF00FFFF3300FF3333
310
FF3366FF3399FF33CCFF33FFFF6600FF6633FF6666FF6699FF66CCFF66FFFF9900FF9933FF9966FF9999FF99CCFF99FFFFCC00FFCC33FFCC66FFCC99FFCCCCFFCCFFFFFF00FFFF33FFFF66FFFF99FFFFCCFFFFFF0000000D0D0D1A1A1A2828283535354343435050505D5D5D6B6B6B787878868686939393A1A1A1AEAEAEBB
310
BBBBC9C9C9D6D6D6E4E4E4F1F1F1FFFFFF000000000000000000000000000000000000000000000000000000000000AD4AB4E40000011F4944415478DAEDDA4B6E02410C4041AF398C4FC0FDCF15E5B383C564642B71BB4AAC9040F253F7D0C0440000000000000000C00579D7D5773F75FEBCFAEE8706785C9A6C4880B697
310
0D98FFF626BD1A2036074801FEFFFC9D01528001F33706480126CCDF17200518317F5B801460C6FC5D0172798039F3F70588CD01528031F3B704C8DD0172D4FCA501BE9F5B1B20E3973F999F14E0D67F060705183CBF00C501669D01EA030C3B0334058895011E33AF001D17C158BE022296AF80B501E2EB316EFEC200033F
310
026BB7408C5C0065017EBE0CC6E6153072FEF293E0EE0021C0EE00B126C0CBBCB30354DC293A76FEAA7B85E70688B200010070B8B707A145C7A0B747C15C741014E0D3D30A10C01610C01610606580F52741000000F8531FE6CAC2070FEFCCDB0000000049454E44AE426082
  0
ACDSRECORD
 90
        0
  2
AcDbDs::ID
280
    10
320
1E
  2
Thumbnail_Data
280
    15
 94
     1577
310
89504E470D0A1A0A0000000D4948445200000100000000B5080300000087DCD12600000300504C5445FFFFFFFFFFFFFFFFFF0000000000000000000000000000000000000000000000000000330000660000990000CC0000FF0033000033330033660033990033CC0033FF0066000066330066660066990066CC0066FF0099
310
000099330099660099990099CC0099FF00CC0000CC3300CC6600CC9900CCCC00CCFF00FF0000FF3300FF6600FF9900FFCC00FFFF3300003300333300663300993300CC3300FF3333003333333333663333993333CC3333FF3366003366333366663366993366CC3366FF3399003399333399663399993399CC3399FF33CC00
310
33CC3333CC6633CC9933CCCC33CCFF33FF0033FF3333FF6633FF9933FFCC33FFFF6600006600336600666600996600CC6600FF6633006633336633666633996633CC6633FF6666006666336666666666996666CC6666FF6699006699336699666699996699CC6699FF66CC0066CC3366CC6666CC9966CCCC66CCFF66FF0066
310
FF3366FF6666FF9966FFCC66FFFF9900009900339900669900999900CC9900FF9933009933339933669933999933CC9933FF9966009966339966669966999966CC9966FF9999009999339999669999999999CC9999FF99CC0099CC3399CC6699CC9999CCCC99CCFF99FF0099FF3399FF6699FF9999FFCC99FFFFCC0000CC00
310
33CC0066CC0099CC00CCCC00FFCC3300CC3333CC3366CC3399CC33CCCC33FFCC6600CC6633CC6666CC6699CC66CCCC66FFCC9900CC9933CC9966CC9999CC99CCCC99FFCCCC00CCCC33CCCC66CCCC99CCCCCCCCCCFFCCFF00CCFF33CCFF66CCFF99CCFFCCCCFFFFFF0000FF0033FF0066FF0099FF00CCFF00FFFF3300FF3333
310
FF3366FF3399FF33CCFF33FFFF6600FF6633FF6666FF6699FF66CCFF66FFFF9900FF9933FF9966FF9999FF99CCFF99FFFFCC00FFCC33FFCC66FFCC99FFCCCCFFCCFFFFFF00FFFF33FFFF66FFFF99FFFFCCFFFFFF0000000D0D0D1A1A1A2828283535354343435050505D5D5D6B6B6B787878868686939393A1A1A1AEAEAEBB
310
BBBBC9C9C9D6D6D6E4E4E4F1F1F1FFFFFF000000000000000000000000000000000000000000000000000000000000AD4AB4E4000002E44944415478DAEDDD5D76C22010866156F4ADC0FD2FA4D7BD7009D5AAA9F843872658F9E6E578ECE95D790233302169F94CDE4A7A80D40D00000000E0B67D1C3E87E6F91D04B06D00
310
640720086607200600000059802C4016200600000059A03B087ECCD63607987DB0AF9D02000000800140FA2048162006AC00D02BDA56FDD7F600DA4F24A001007B8D1FB75B01E819C09A20A857CCDC6D008E8E9302146DC53820064C0320004A6A00013066293C0B800018B4149E04400094D40002605841640A000130AE20
310
3203800028A90104C06FBDF00E824A0E501714134E81BA9E980F400094D4000A011807C1DB3B0AD9001403F09D0277B79492010880921A405100D720F8E0A6722A0085014CA7C0A3530599000440490DA00E00BF2078E8FCE373457900D403E03205963EEBE9C93A6B80A5DB7A7EB0CE14E034E0BFBF8F9FC6D14A3B80FA3C
310
EDC9A1344E56DA05C1E5529FAF7C2B05BA035C75FAF9D15ABF297005A1F61AC83606F40C00C711A0BB858F520148770BBFD6E17AD320587559B900EEAF79F3E90AD32C108D00BE2BC1EB8D50F32F3205F8E9F96F4F985966816500049EB073CC02CB46B05107F1CE02AAD643A5E49A02F5F6372D4009F6DF762F104A81FE00
310
FA2BC0D459A06B00B802283A004CF702976A78E06F71DD0C4507806F4D3038009C01B40260FA824878005802A86300582E84E229C015A048E117CD7896C5E3FD77BE2FB00660E22078AE89855F34E47846A8EB5D5B9E27443A5EB505C07400F55D8FB5FD1F01A0F100ED1E76BD6B6E4010FCF7D709765D02DE29BAF9140000
310
0000E607481F04C902C4000000200B9005C802C4000000200B9005C802C480F7000856457BFFFDC844008DDF9200540F058F0578C7207806D8A50638FCD8ED2ECF45679C024B2701000080AC41303D40EE2CF0B2851000EC0592EF06A9085111A2220400009901C8026481BF4F81D9DAD6001E0D80EC002B8220004C010000
310
00802008005300000000700F82A7CDB4EB37691000000000A006F84CDED2037C01FC31442992F012680000000049454E44AE426082
  0
ACDSRECORD
 90
        0
  2
AcDbDs::ID
280
    10
320
26
  2
Thumbnail_Data
280
    15
 94
     1577
310
89504E470D0A1A0A0000000D4948445200000100000000B5080300000087DCD12600000300504C5445FFFFFFFFFFFFFFFFFF0000000000000000000000000000000000000000000000000000330000660000990000CC0000FF0033000033330033660033990033CC0033FF0066000066330066660066990066CC0066FF0099
310
000099330099660099990099CC0099FF00CC0000CC3300CC6600CC9900CCCC00CCFF00FF0000FF3300FF6600FF9900FFCC00FFFF3300003300333300663300993300CC3300FF3333003333333333663333993333CC3333FF3366003366333366663366993366CC3366FF3399003399333399663399993399CC3399FF33CC00
310
33CC3333CC6633CC9933CCCC33CCFF33FF0033FF3333FF6633FF9933FFCC33FFFF6600006600336600666600996600CC6600FF6633006633336633666633996633CC6633FF6666006666336666666666996666CC6666FF6699006699336699666699996699CC6699FF66CC0066CC3366CC6666CC9966CCCC66CCFF66FF0066
310
FF3366FF6666FF9966FFCC66FFFF9900009900339900669900999900CC9900FF9933009933339933669933999933CC9933FF9966009966339966669966999966CC9966FF9999009999339999669999999999CC9999FF99CC0099CC3399CC6699CC9999CCCC99CCFF99FF0099FF3399FF6699FF9999FFCC99FFFFCC0000CC00
310
33CC0066CC0099CC00CCCC00FFCC3300CC3333CC3366CC3399CC33CCCC33FFCC6600CC6633CC6666CC6699CC66CCCC66FFCC9900CC9933CC9966CC9999CC99CCCC99FFCCCC00CCCC33CCCC66CCCC99CCCCCCCCCCFFCCFF00CCFF33CCFF66CCFF99CCFFCCCCFFFFFF0000FF0033FF0066FF0099FF00CCFF00FFFF3300FF3333
310
FF3366FF3399FF33CCFF33FFFF6600FF6633FF6666FF6699FF66CCFF66FFFF9900FF9933FF9966FF9999FF99CCFF99FFFFCC00FFCC33FFCC66FFCC99FFCCCCFFCCFFFFFF00FFFF33FFFF66FFFF99FFFFCCFFFFFF0000000D0D0D1A1A1A2828283535354343435050505D5D5D6B6B6B787878868686939393A1A1A1AEAEAEBB
310
BBBBC9C9C9D6D6D6E4E4E4F1F1F1FFFFFF000000000000000000000000000000000000000000000000000000000000AD4AB4E4000002E44944415478DAEDDD5D76C22010866156F4ADC0FD2FA4D7BD7009D5AAA9F843872658F9E6E578ECE95D790233302169F94CDE4A7A80D40D00000000E0B67D1C3E87E6F91D04B06D00
310
640720086607200600000059802C4016200600000059A03B087ECCD63607987DB0AF9D02000000800140FA2048162006AC00D02BDA56FDD7F600DA4F24A001007B8D1FB75B01E819C09A20A857CCDC6D008E8E9302146DC53820064C0320004A6A00013066293C0B800018B4149E04400094D40002605841640A000130AE20
310
3203800028A90104C06FBDF00E824A0E501714134E81BA9E980F400094D4000A011807C1DB3B0AD9001403F09D0277B79492010880921A405100D720F8E0A6722A0085014CA7C0A3530599000440490DA00E00BF2078E8FCE373457900D403E03205963EEBE9C93A6B80A5DB7A7EB0CE14E034E0BFBF8F9FC6D14A3B80FA3C
310
EDC9A1344E56DA05C1E5529FAF7C2B05BA035C75FAF9D15ABF297005A1F61AC83606F40C00C711A0BB858F520148770BBFD6E17AD320587559B900EEAF79F3E90AD32C108D00BE2BC1EB8D50F32F3205F8E9F96F4F985966816500049EB073CC02CB46B05107F1CE02AAD643A5E49A02F5F6372D4009F6DF762F104A81FE00
310
FA2BC0D459A06B00B802283A004CF702976A78E06F71DD0C4507806F4D3038009C01B40260FA824878005802A86300582E84E229C015A048E117CD7896C5E3FD77BE2FB00660E22078AE89855F34E47846A8EB5D5B9E27443A5EB505C07400F55D8FB5FD1F01A0F100ED1E76BD6B6E4010FCF7D709765D02DE29BAF9140000
310
0000E607481F04C902C4000000200B9005C802C4000000200B9005C802C480F7000856457BFFFDC844008DDF9200540F058F0578C7207806D8A50638FCD8ED2ECF45679C024B2701000080AC41303D40EE2CF0B2851000EC0592EF06A9085111A2220400009901C8026481BF4F81D9DAD6001E0D80EC002B8220004C010000
310
00802008005300000000700F82A7CDB4EB37691000000000A006F84CDED2037C01FC31442992F012680000000049454E44AE426082
  0
ENDSEC
  0
EOF
