  0
SECTION
  2
HEADER
  9
$ACADVER
  1
AC1027
  9
$ACADMAINTVER
 70
   125
  9
$DWGCODEPAGE
  3
ANSI_1252
  9
$LASTSAVEDBY
  1
kaschu
  9
$REQUIREDVERSIONS
160
                 0
  9
$INSBASE
 10
0.0
 20
0.0
 30
0.0
  9
$EXTMIN
 10
89.72309796336435
 20
84.32132499999999
 30
-0.0000000000000019
  9
$EXTMAX
 10
2424.345829165166
 20
942.549339909195
 30
0.0000000000000072
  9
$LIMMIN
 10
-0.5
 20
-0.5
  9
$LIMMAX
 10
5.0
 20
5.0
  9
$ORTHOMODE
 70
     0
  9
$REGENMODE
 70
     1
  9
$FILLMODE
 70
     1
  9
$QTEXTMODE
 70
     0
  9
$MIRRTEXT
 70
     1
  9
$LTSCALE
 40
1.0
  9
$ATTMODE
 70
     1
  9
$TEXTSIZE
 40
0.2
  9
$TRACEWID
 40
0.05
  9
$TEXTSTYLE
  7
Standard
  9
$CLAYER
  8
0
  9
$CELTYPE
  6
ByLayer
  9
$CECOLOR
 62
   256
  9
$CELTSCALE
 40
1.0
  9
$DISPSILH
 70
     0
  9
$DIMSCALE
 40
1.0
  9
$DIMASZ
 40
0.18
  9
$DIMEXO
 40
0.0625
  9
$DIMDLI
 40
0.38
  9
$DIMRND
 40
0.0
  9
$DIMDLE
 40
0.0
  9
$DIMEXE
 40
0.18
  9
$DIMTP
 40
0.0
  9
$DIMTM
 40
0.0
  9
$DIMTXT
 40
0.18
  9
$DIMCEN
 40
0.09
  9
$DIMTSZ
 40
0.0
  9
$DIMTOL
 70
     0
  9
$DIMLIM
 70
     0
  9
$DIMTIH
 70
     1
  9
$DIMTOH
 70
     1
  9
$DIMSE1
 70
     0
  9
$DIMSE2
 70
     0
  9
$DIMTAD
 70
     0
  9
$DIMZIN
 70
     0
  9
$DIMBLK
  1

  9
$DIMASO
 70
     1
  9
$DIMSHO
 70
     1
  9
$DIMPOST
  1

  9
$DIMAPOST
  1

  9
$DIMALT
 70
     0
  9
$DIMALTD
 70
     2
  9
$DIMALTF
 40
25.4
  9
$DIMLFAC
 40
1.0
  9
$DIMTOFL
 70
     0
  9
$DIMTVP
 40
0.0
  9
$DIMTIX
 70
     0
  9
$DIMSOXD
 70
     0
  9
$DIMSAH
 70
     0
  9
$DIMBLK1
  1

  9
$DIMBLK2
  1

  9
$DIMSTYLE
  2
Standard
  9
$DIMCLRD
 70
     0
  9
$DIMCLRE
 70
     0
  9
$DIMCLRT
 70
     0
  9
$DIMTFAC
 40
1.0
  9
$DIMGAP
 40
0.09
  9
$DIMJUST
 70
     0
  9
$DIMSD1
 70
     0
  9
$DIMSD2
 70
     0
  9
$DIMTOLJ
 70
     1
  9
$DIMTZIN
 70
     0
  9
$DIMALTZ
 70
     0
  9
$DIMALTTZ
 70
     0
  9
$DIMUPT
 70
     0
  9
$DIMDEC
 70
     4
  9
$DIMTDEC
 70
     4
  9
$DIMALTU
 70
     2
  9
$DIMALTTD
 70
     2
  9
$DIMTXSTY
  7
Standard
  9
$DIMAUNIT
 70
     0
  9
$DIMADEC
 70
     0
  9
$DIMALTRND
 40
0.0
  9
$DIMAZIN
 70
     0
  9
$DIMDSEP
 70
    46
  9
$DIMATFIT
 70
     3
  9
$DIMFRAC
 70
     0
  9
$DIMLDRBLK
  1

  9
$DIMLUNIT
 70
     2
  9
$DIMLWD
 70
    -2
  9
$DIMLWE
 70
    -2
  9
$DIMTMOVE
 70
     0
  9
$DIMFXL
 40
1.0
  9
$DIMFXLON
 70
     0
  9
$DIMJOGANG
 40
0.7853981633974483
  9
$DIMTFILL
 70
     0
  9
$DIMTFILLCLR
 70
     0
  9
$DIMARCSYM
 70
     0
  9
$DIMLTYPE
  6

  9
$DIMLTEX1
  6

  9
$DIMLTEX2
  6

  9
$DIMTXTDIRECTION
 70
     0
  9
$LUNITS
 70
     2
  9
$LUPREC
 70
     4
  9
$SKETCHINC
 40
0.1
  9
$FILLETRAD
 40
0.5
  9
$AUNITS
 70
     0
  9
$AUPREC
 70
     0
  9
$MENU
  1
.
  9
$ELEVATION
 40
0.0
  9
$PELEVATION
 40
0.0
  9
$THICKNESS
 40
0.0
  9
$LIMCHECK
 70
     0
  9
$CHAMFERA
 40
0.0
  9
$CHAMFERB
 40
0.0
  9
$CHAMFERC
 40
0.0
  9
$CHAMFERD
 40
0.0
  9
$SKPOLY
 70
     0
  9
$TDCREATE
 40
2460215.271064815
  9
$TDUCREATE
 40
2460215.187732905
  9
$TDUPDATE
 40
2460235.469282407
  9
$TDUUPDATE
 40
2460235.385949074
  9
$TDINDWG
 40
0.0003472338
  9
$TDUSRTIMER
 40
0.0003472338
  9
$USRTIMER
 70
     1
  9
$ANGBASE
 50
0.0
  9
$ANGDIR
 70
     0
  9
$PDMODE
 70
     0
  9
$PDSIZE
 40
0.0
  9
$PLINEWID
 40
0.0
  9
$SPLFRAME
 70
     0
  9
$SPLINETYPE
 70
     6
  9
$SPLINESEGS
 70
     8
  9
$HANDSEED
  5
6CB
  9
$SURFTAB1
 70
     6
  9
$SURFTAB2
 70
     6
  9
$SURFTYPE
 70
     6
  9
$SURFU
 70
     6
  9
$SURFV
 70
     6
  9
$UCSBASE
  2

  9
$UCSNAME
  2

  9
$UCSORG
 10
0.0
 20
0.0
 30
0.0
  9
$UCSXDIR
 10
1.0
 20
0.0
 30
0.0
  9
$UCSYDIR
 10
0.0
 20
1.0
 30
0.0
  9
$UCSORTHOREF
  2

  9
$UCSORTHOVIEW
 70
     0
  9
$UCSORGTOP
 10
0.0
 20
0.0
 30
0.0
  9
$UCSORGBOTTOM
 10
0.0
 20
0.0
 30
0.0
  9
$UCSORGLEFT
 10
0.0
 20
0.0
 30
0.0
  9
$UCSORGRIGHT
 10
0.0
 20
0.0
 30
0.0
  9
$UCSORGFRONT
 10
0.0
 20
0.0
 30
0.0
  9
$UCSORGBACK
 10
0.0
 20
0.0
 30
0.0
  9
$PUCSBASE
  2

  9
$PUCSNAME
  2

  9
$PUCSORG
 10
0.0
 20
0.0
 30
0.0
  9
$PUCSXDIR
 10
1.0
 20
0.0
 30
0.0
  9
$PUCSYDIR
 10
0.0
 20
1.0
 30
0.0
  9
$PUCSORTHOREF
  2

  9
$PUCSORTHOVIEW
 70
     0
  9
$PUCSORGTOP
 10
0.0
 20
0.0
 30
0.0
  9
$PUCSORGBOTTOM
 10
0.0
 20
0.0
 30
0.0
  9
$PUCSORGLEFT
 10
0.0
 20
0.0
 30
0.0
  9
$PUCSORGRIGHT
 10
0.0
 20
0.0
 30
0.0
  9
$PUCSORGFRONT
 10
0.0
 20
0.0
 30
0.0
  9
$PUCSORGBACK
 10
0.0
 20
0.0
 30
0.0
  9
$USERI1
 70
     0
  9
$USERI2
 70
     0
  9
$USERI3
 70
     0
  9
$USERI4
 70
     0
  9
$USERI5
 70
     0
  9
$USERR1
 40
0.0
  9
$USERR2
 40
0.0
  9
$USERR3
 40
0.0
  9
$USERR4
 40
0.0
  9
$USERR5
 40
0.0
  9
$WORLDVIEW
 70
     1
  9
$SHADEDGE
 70
     3
  9
$SHADEDIF
 70
    70
  9
$TILEMODE
 70
     1
  9
$MAXACTVP
 70
    64
  9
$PINSBASE
 10
0.0
 20
0.0
 30
0.0
  9
$PLIMCHECK
 70
     0
  9
$PEXTMIN
 10
-0.5
 20
-0.5
 30
-0.5
  9
$PEXTMAX
 10
5.0
 20
5.0
 30
5.0
  9
$PLIMMIN
 10
-0.5
 20
-0.5
  9
$PLIMMAX
 10
5.0
 20
5.0
  9
$UNITMODE
 70
     0
  9
$VISRETAIN
 70
     1
  9
$PLINEGEN
 70
     0
  9
$PSLTSCALE
 70
     1
  9
$TREEDEPTH
 70
  3020
  9
$CMLSTYLE
  2
Standard
  9
$CMLJUST
 70
     0
  9
$CMLSCALE
 40
1.0
  9
$PROXYGRAPHICS
 70
     1
  9
$MEASUREMENT
 70
     1
  9
$CELWEIGHT
370
    18
  9
$ENDCAPS
280
     0
  9
$JOINSTYLE
280
     0
  9
$LWDISPLAY
290
     1
  9
$INSUNITS
 70
     4
  9
$HYPERLINKBASE
  1

  9
$STYLESHEET
  1

  9
$XEDIT
290
     1
  9
$CEPSNTYPE
380
     0
  9
$PSTYLEMODE
290
     1
  9
$FINGERPRINTGUID
  2
{9214980B-B590-41BD-B5DD-3BDE1F8FF92C}
  9
$VERSIONGUID
  2
{1AB6AE4F-9148-C142-A799-6EFA88D49F55}
  9
$EXTNAMES
290
     1
  9
$PSVPSCALE
 40
0.0
  9
$OLESTARTUP
290
     0
  9
$SORTENTS
280
   127
  9
$INDEXCTL
280
     0
  9
$HIDETEXT
280
     1
  9
$XCLIPFRAME
280
     2
  9
$HALOGAP
280
     0
  9
$OBSCOLOR
 70
   257
  9
$OBSLTYPE
280
     0
  9
$INTERSECTIONDISPLAY
280
     0
  9
$INTERSECTIONCOLOR
 70
   257
  9
$DIMASSOC
280
     2
  9
$PROJECTNAME
  1

  9
$CAMERADISPLAY
290
     0
  9
$LENSLENGTH
 40
50.0
  9
$CAMERAHEIGHT
 40
0.0
  9
$STEPSPERSEC
 40
2.0
  9
$STEPSIZE
 40
6.0
  9
$3DDWFPREC
 40
2.0
  9
$PSOLWIDTH
 40
0.25
  9
$PSOLHEIGHT
 40
4.0
  9
$LOFTANG1
 40
1.570796326794896
  9
$LOFTANG2
 40
1.570796326794896
  9
$LOFTMAG1
 40
0.0
  9
$LOFTMAG2
 40
0.0
  9
$LOFTPARAM
 70
     7
  9
$LOFTNORMALS
280
     1
  9
$LATITUDE
 40
37.795
  9
$LONGITUDE
 40
-122.394
  9
$NORTHDIRECTION
 40
0.0
  9
$TIMEZONE
 70
 -8000
  9
$LIGHTGLYPHDISPLAY
280
     1
  9
$TILEMODELIGHTSYNCH
280
     1
  9
$CMATERIAL
347
44
  9
$SOLIDHIST
280
     0
  9
$SHOWHIST
280
     1
  9
$DWFFRAME
280
     2
  9
$DGNFRAME
280
     0
  9
$REALWORLDSCALE
290
     1
  9
$INTERFERECOLOR
 62
     1
  9
$INTERFEREOBJVS
345
33
  9
$INTERFEREVPVS
346
30
  9
$CSHADOW
280
     0
  9
$SHADOWPLANELOCATION
 40
0.0
  0
ENDSEC
  0
SECTION
  2
CLASSES
  0
CLASS
  1
ACDBDICTIONARYWDFLT
  2
AcDbDictionaryWithDefault
  3
ObjectDBX Classes
 90
        0
 91
        1
280
     0
281
     0
  0
CLASS
  1
VISUALSTYLE
  2
AcDbVisualStyle
  3
ObjectDBX Classes
 90
     4095
 91
       24
280
     0
281
     0
  0
CLASS
  1
MATERIAL
  2
AcDbMaterial
  3
ObjectDBX Classes
 90
     1153
 91
        3
280
     0
281
     0
  0
CLASS
  1
SCALE
  2
AcDbScale
  3
ObjectDBX Classes
 90
     1153
 91
       33
280
     0
281
     0
  0
CLASS
  1
TABLESTYLE
  2
AcDbTableStyle
  3
ObjectDBX Classes
 90
     4095
 91
        1
280
     0
281
     0
  0
CLASS
  1
MLEADERSTYLE
  2
AcDbMLeaderStyle
  3
ACDB_MLEADERSTYLE_CLASS
 90
     4095
 91
        1
280
     0
281
     0
  0
CLASS
  1
SUN
  2
AcDbSun
  3
SCENEOE
 90
     1153
 91
        0
280
     0
281
     0
  0
CLASS
  1
DICTIONARYVAR
  2
AcDbDictionaryVar
  3
ObjectDBX Classes
 90
        0
 91
       10
280
     0
281
     0
  0
CLASS
  1
CELLSTYLEMAP
  2
AcDbCellStyleMap
  3
ObjectDBX Classes
 90
     1152
 91
        2
280
     0
281
     0
  0
CLASS
  1
ACDBSECTIONVIEWSTYLE
  2
AcDbSectionViewStyle
  3
ObjectDBX Classes
 90
     1025
 91
        1
280
     0
281
     0
  0
CLASS
  1
ACDBDETAILVIEWSTYLE
  2
AcDbDetailViewStyle
  3
ObjectDBX Classes
 90
     1025
 91
        1
280
     0
281
     0
  0
ENDSEC
  0
SECTION
  2
TABLES
  0
TABLE
  2
VPORT
  5
8
330
0
100
AcDbSymbolTable
 70
    16
1001
ACAD
1000
DbSaveVer
1071
      224
  0
VPORT
  5
29
330
8
100
AcDbSymbolTableRecord
100
AcDbViewportTableRecord
  2
*Active
 70
     0
 10
0.0
 20
0.0
 11
1.0
 21
1.0
 12
907.9723613073474
 22
657.4289249930098
 13
0.0
 23
0.0
 14
0.5
 24
0.5
 15
0.5
 25
0.5
 16
0.0
 26
0.0
 36
1.0
 17
0.0
 27
0.0
 37
0.0
 40
2256.816900545734
 41
2.209601873536299
 42
50.0
 43
1886.316404
 44
-1886.316404
 50
0.0
 51
0.0
 71
     0
 72
   100
 73
     1
 74
     3
 75
     0
 76
     0
 77
     0
 78
     0
281
     0
 65
     1
110
0.0
120
0.0
130
0.0
111
1.0
121
0.0
131
0.0
112
0.0
122
1.0
132
0.0
 79
     0
146
0.0
348
2F
 60
     3
 61
     5
292
     1
282
     1
141
0.0
142
0.0
 63
   250
421
  3355443
1001
ACAD_NAV_VCDISPLAY
1070
     3
  0
VPORT
  5
313
330
8
100
AcDbSymbolTableRecord
100
AcDbViewportTableRecord
  2
L1
 70
     0
 10
0.0
 20
0.0
 11
1.0
 21
1.0
 12
580.6947029999999
 22
426.5470599999999
 13
0.0
 23
0.0
 14
0.5
 24
0.5
 15
0.5
 25
0.5
 16
0.0
 26
0.0
 36
1.0
 17
0.0
 27
0.0
 37
0.0
 40
254.0
 41
0.069908
 42
50.0
 43
1886.316404
 44
-1886.316404
 50
0.0
 51
0.0
 71
     0
 72
   100
 73
     1
 74
     3
 75
     0
 76
     0
 77
     0
 78
     0
281
     0
 65
     1
110
0.0
120
0.0
130
0.0
111
1.0
121
0.0
131
0.0
112
0.0
122
1.0
132
0.0
 79
     0
146
0.0
348
2F
 60
     3
 61
     5
292
     1
282
     1
141
0.0
142
0.0
 63
   250
421
  3355443
  0
VPORT
  5
314
330
8
100
AcDbSymbolTableRecord
100
AcDbViewportTableRecord
  2
L2
 70
     0
 10
0.0
 20
0.0
 11
0.5
 21
1.0
 12
0.0
 22
0.0
 13
0.0
 23
0.0
 14
0.5
 24
0.5
 15
0.5
 25
0.5
 16
0.0
 26
-1.0
 36
0.0
 17
0.0
 27
0.0
 37
0.0
 40
1319.822715
 41
0.013454
 42
50.0
 43
672.020833
 44
-672.020833
 50
0.0
 51
0.0
 71
     0
 72
   100
 73
     1
 74
     3
 75
     0
 76
     0
 77
     0
 78
     0
281
     0
 65
     1
110
0.0
120
0.0
130
0.0
111
1.0
121
0.0
131
0.0
112
0.0
122
1.0
132
0.0
 79
     0
146
0.0
348
2F
 60
     3
 61
     5
292
     1
282
     1
141
0.0
142
0.0
 63
   250
421
  3355443
  0
VPORT
  5
315
330
8
100
AcDbSymbolTableRecord
100
AcDbViewportTableRecord
  2
L2
 70
     0
 10
0.5
 20
0.0
 11
1.0
 21
1.0
 12
0.0
 22
0.0
 13
0.0
 23
0.0
 14
0.5
 24
0.5
 15
0.5
 25
0.5
 16
1.0
 26
0.0
 36
0.0
 17
0.0
 27
0.0
 37
0.0
 40
1319.822715
 41
0.013454
 42
50.0
 43
672.020833
 44
-672.020833
 50
0.0
 51
0.0
 71
     0
 72
   100
 73
     1
 74
     3
 75
     0
 76
     0
 77
     0
 78
     0
281
     0
 65
     1
110
0.0
120
0.0
130
0.0
111
1.0
121
0.0
131
0.0
112
0.0
122
1.0
132
0.0
 79
     0
146
0.0
348
2F
 60
     3
 61
     5
292
     1
282
     1
141
0.0
142
0.0
 63
   250
421
  3355443
  0
VPORT
  5
316
330
8
100
AcDbSymbolTableRecord
100
AcDbViewportTableRecord
  2
L3
 70
     0
 10
0.0
 20
0.5
 11
1.0
 21
1.0
 12
580.6947029999999
 22
426.5470599999999
 13
0.0
 23
0.0
 14
0.5
 24
0.5
 15
0.5
 25
0.5
 16
0.0
 26
0.0
 36
1.0
 17
0.0
 27
0.0
 37
0.0
 40
254.0
 41
0.069908
 42
50.0
 43
1886.316404
 44
-1886.316404
 50
0.0
 51
0.0
 71
     0
 72
   100
 73
     1
 74
     3
 75
     0
 76
     0
 77
     0
 78
     0
281
     0
 65
     1
110
0.0
120
0.0
130
0.0
111
1.0
121
0.0
131
0.0
112
0.0
122
1.0
132
0.0
 79
     0
146
0.0
348
2F
 60
     3
 61
     5
292
     1
282
     1
141
0.0
142
0.0
 63
   250
421
  3355443
  0
VPORT
  5
317
330
8
100
AcDbSymbolTableRecord
100
AcDbViewportTableRecord
  2
L3
 70
     0
 10
0.0
 20
0.0
 11
1.0
 21
0.5
 12
0.0
 22
0.0
 13
0.0
 23
0.0
 14
0.5
 24
0.5
 15
0.5
 25
0.5
 16
0.0
 26
-1.0
 36
0.0
 17
0.0
 27
0.0
 37
0.0
 40
1319.822715
 41
0.013454
 42
50.0
 43
672.020833
 44
-672.020833
 50
0.0
 51
0.0
 71
     0
 72
   100
 73
     1
 74
     3
 75
     0
 76
     0
 77
     0
 78
     0
281
     0
 65
     1
110
0.0
120
0.0
130
0.0
111
1.0
121
0.0
131
0.0
112
0.0
122
1.0
132
0.0
 79
     0
146
0.0
348
2F
 60
     3
 61
     5
292
     1
282
     1
141
0.0
142
0.0
 63
   250
421
  3355443
  0
VPORT
  5
318
330
8
100
AcDbSymbolTableRecord
100
AcDbViewportTableRecord
  2
L4
 70
     0
 10
0.0
 20
0.5
 11
0.5
 21
1.0
 12
580.6947029999999
 22
426.5470599999999
 13
0.0
 23
0.0
 14
0.5
 24
0.5
 15
0.5
 25
0.5
 16
0.0
 26
0.0
 36
1.0
 17
0.0
 27
0.0
 37
0.0
 40
254.0
 41
0.069908
 42
50.0
 43
1886.316404
 44
-1886.316404
 50
0.0
 51
0.0
 71
     0
 72
   100
 73
     1
 74
     3
 75
     0
 76
     0
 77
     0
 78
     0
281
     0
 65
     1
110
0.0
120
0.0
130
0.0
111
1.0
121
0.0
131
0.0
112
0.0
122
1.0
132
0.0
 79
     0
146
0.0
348
2F
 60
     3
 61
     5
292
     1
282
     1
141
0.0
142
0.0
 63
   250
421
  3355443
  0
VPORT
  5
319
330
8
100
AcDbSymbolTableRecord
100
AcDbViewportTableRecord
  2
L4
 70
     0
 10
0.0
 20
0.0
 11
0.5
 21
0.5
 12
0.0
 22
0.0
 13
0.0
 23
0.0
 14
0.5
 24
0.5
 15
0.5
 25
0.5
 16
0.0
 26
-1.0
 36
0.0
 17
0.0
 27
0.0
 37
0.0
 40
1319.822715
 41
0.013454
 42
50.0
 43
672.020833
 44
-672.020833
 50
0.0
 51
0.0
 71
     0
 72
   100
 73
     1
 74
     3
 75
     0
 76
     0
 77
     0
 78
     0
281
     0
 65
     1
110
0.0
120
0.0
130
0.0
111
1.0
121
0.0
131
0.0
112
0.0
122
1.0
132
0.0
 79
     0
146
0.0
348
2F
 60
     3
 61
     5
292
     1
282
     1
141
0.0
142
0.0
 63
   250
421
  3355443
  0
VPORT
  5
31A
330
8
100
AcDbSymbolTableRecord
100
AcDbViewportTableRecord
  2
L4
 70
     0
 10
0.5
 20
0.0
 11
1.0
 21
0.5
 12
0.0
 22
0.0
 13
0.0
 23
0.0
 14
0.5
 24
0.5
 15
0.5
 25
0.5
 16
1.0
 26
0.0
 36
0.0
 17
0.0
 27
0.0
 37
0.0
 40
1319.822715
 41
0.013454
 42
50.0
 43
672.020833
 44
-672.020833
 50
0.0
 51
0.0
 71
     0
 72
   100
 73
     1
 74
     3
 75
     0
 76
     0
 77
     0
 78
     0
281
     0
 65
     1
110
0.0
120
0.0
130
0.0
111
1.0
121
0.0
131
0.0
112
0.0
122
1.0
132
0.0
 79
     0
146
0.0
348
2F
 60
     3
 61
     5
292
     1
282
     1
141
0.0
142
0.0
 63
   250
421
  3355443
  0
VPORT
  5
31B
330
8
100
AcDbSymbolTableRecord
100
AcDbViewportTableRecord
  2
L4
 70
     0
 10
0.5
 20
0.5
 11
1.0
 21
1.0
 12
0.0
 22
0.0
 13
0.0
 23
0.0
 14
0.5
 24
0.5
 15
0.5
 25
0.5
 16
0.5773502691896259
 26
-0.5773502691896259
 36
0.5773502691896259
 17
0.0
 27
0.0
 37
0.0
 40
1285.020866
 41
0.013818
 42
50.0
 43
667.141407
 44
-667.141407
 50
0.0
 51
0.0
 71
     0
 72
   100
 73
     1
 74
     3
 75
     0
 76
     0
 77
     0
 78
     0
281
     0
 65
     1
110
0.0
120
0.0
130
0.0
111
1.0
121
0.0
131
0.0
112
0.0
122
1.0
132
0.0
 79
     0
146
0.0
348
2F
 60
     3
 61
     5
292
     1
282
     1
141
0.0
142
0.0
 63
   250
421
  3355443
  0
VPORT
  5
31C
330
8
100
AcDbSymbolTableRecord
100
AcDbViewportTableRecord
  2
L6
 70
     0
 10
0.0
 20
0.5
 11
0.333333
 21
1.0
 12
0.0
 22
0.0
 13
0.0
 23
0.0
 14
0.5
 24
0.5
 15
0.5
 25
0.5
 16
0.7188730927569434
 26
-0.5850486126764433
 36
0.3754192287502549
 17
0.0
 27
0.0
 37
0.0
 40
1357.434192
 41
0.013081
 42
50.0
 43
701.839477
 44
-701.839477
 50
0.0
 51
0.0
 71
     0
 72
   100
 73
     1
 74
     3
 75
     0
 76
     0
 77
     0
 78
     0
281
     0
 65
     1
110
0.0
120
0.0
130
0.0
111
1.0
121
0.0
131
0.0
112
0.0
122
1.0
132
0.0
 79
     0
146
0.0
348
2F
 60
     3
 61
     5
292
     1
282
     1
141
0.0
142
0.0
 63
   250
421
  3355443
  0
VPORT
  5
31D
330
8
100
AcDbSymbolTableRecord
100
AcDbViewportTableRecord
  2
L6
 70
     0
 10
0.0
 20
0.0
 11
0.333333
 21
0.5
 12
0.0
 22
0.0
 13
0.0
 23
0.0
 14
0.5
 24
0.5
 15
0.5
 25
0.5
 16
-1.0
 26
0.0
 36
0.0
 17
0.0
 27
0.0
 37
0.0
 40
1319.822715
 41
0.013454
 42
50.0
 43
672.020833
 44
-672.020833
 50
0.0
 51
0.0
 71
     0
 72
   100
 73
     1
 74
     3
 75
     0
 76
     0
 77
     0
 78
     0
281
     0
 65
     1
110
0.0
120
0.0
130
0.0
111
1.0
121
0.0
131
0.0
112
0.0
122
1.0
132
0.0
 79
     0
146
0.0
348
2F
 60
     3
 61
     5
292
     1
282
     1
141
0.0
142
0.0
 63
   250
421
  3355443
  0
VPORT
  5
31E
330
8
100
AcDbSymbolTableRecord
100
AcDbViewportTableRecord
  2
L6
 70
     0
 10
0.333333
 20
0.5
 11
0.666667
 21
1.0
 12
580.6947029999999
 22
426.5470599999999
 13
0.0
 23
0.0
 14
0.5
 24
0.5
 15
0.5
 25
0.5
 16
0.0
 26
0.0
 36
1.0
 17
0.0
 27
0.0
 37
0.0
 40
254.0
 41
0.069908
 42
50.0
 43
1886.316404
 44
-1886.316404
 50
0.0
 51
0.0
 71
     0
 72
   100
 73
     1
 74
     3
 75
     0
 76
     0
 77
     0
 78
     0
281
     0
 65
     1
110
0.0
120
0.0
130
0.0
111
1.0
121
0.0
131
0.0
112
0.0
122
1.0
132
0.0
 79
     0
146
0.0
348
2F
 60
     3
 61
     5
292
     1
282
     1
141
0.0
142
0.0
 63
   250
421
  3355443
  0
VPORT
  5
31F
330
8
100
AcDbSymbolTableRecord
100
AcDbViewportTableRecord
  2
L6
 70
     0
 10
0.333333
 20
0.0
 11
0.666667
 21
0.5
 12
0.0
 22
0.0
 13
0.0
 23
0.0
 14
0.5
 24
0.5
 15
0.5
 25
0.5
 16
0.0
 26
-1.0
 36
0.0
 17
0.0
 27
0.0
 37
0.0
 40
1319.822715
 41
0.013454
 42
50.0
 43
672.020833
 44
-672.020833
 50
0.0
 51
0.0
 71
     0
 72
   100
 73
     1
 74
     3
 75
     0
 76
     0
 77
     0
 78
     0
281
     0
 65
     1
110
0.0
120
0.0
130
0.0
111
1.0
121
0.0
131
0.0
112
0.0
122
1.0
132
0.0
 79
     0
146
0.0
348
2F
 60
     3
 61
     5
292
     1
282
     1
141
0.0
142
0.0
 63
   250
421
  3355443
  0
VPORT
  5
320
330
8
100
AcDbSymbolTableRecord
100
AcDbViewportTableRecord
  2
L6
 70
     0
 10
0.666667
 20
0.5
 11
1.0
 21
1.0
 12
0.0
 22
0.0
 13
0.0
 23
0.0
 14
0.5
 24
0.5
 15
0.5
 25
0.5
 16
0.5773502691896259
 26
-0.5773502691896259
 36
0.5773502691896259
 17
0.0
 27
0.0
 37
0.0
 40
1285.020866
 41
0.013818
 42
50.0
 43
667.141407
 44
-667.141407
 50
0.0
 51
0.0
 71
     0
 72
   100
 73
     1
 74
     3
 75
     0
 76
     0
 77
     0
 78
     0
281
     0
 65
     1
110
0.0
120
0.0
130
0.0
111
1.0
121
0.0
131
0.0
112
0.0
122
1.0
132
0.0
 79
     0
146
0.0
348
2F
 60
     3
 61
     5
292
     1
282
     1
141
0.0
142
0.0
 63
   250
421
  3355443
  0
VPORT
  5
321
330
8
100
AcDbSymbolTableRecord
100
AcDbViewportTableRecord
  2
L6
 70
     0
 10
0.666667
 20
0.0
 11
1.0
 21
0.5
 12
0.0
 22
0.0
 13
0.0
 23
0.0
 14
0.5
 24
0.5
 15
0.5
 25
0.5
 16
1.0
 26
0.0
 36
0.0
 17
0.0
 27
0.0
 37
0.0
 40
1319.822715
 41
0.013454
 42
50.0
 43
672.020833
 44
-672.020833
 50
0.0
 51
0.0
 71
     0
 72
   100
 73
     1
 74
     3
 75
     0
 76
     0
 77
     0
 78
     0
281
     0
 65
     1
110
0.0
120
0.0
130
0.0
111
1.0
121
0.0
131
0.0
112
0.0
122
1.0
132
0.0
 79
     0
146
0.0
348
2F
 60
     3
 61
     5
292
     1
282
     1
141
0.0
142
0.0
 63
   250
421
  3355443
  0
ENDTAB
  0
TABLE
  2
LTYPE
  5
5
330
0
100
AcDbSymbolTable
 70
     6
  0
LTYPE
  5
14
330
5
100
AcDbSymbolTableRecord
100
AcDbLinetypeTableRecord
  2
ByBlock
 70
     0
  3

 72
    65
 73
     0
 40
0.0
  0
LTYPE
  5
15
330
5
100
AcDbSymbolTableRecord
100
AcDbLinetypeTableRecord
  2
ByLayer
 70
     0
  3

 72
    65
 73
     0
 40
0.0
  0
LTYPE
  5
16
330
5
100
AcDbSymbolTableRecord
100
AcDbLinetypeTableRecord
  2
Continuous
 70
     0
  3
Solid line
 72
    65
 73
     0
 40
0.0
  0
LTYPE
  5
6E
330
5
100
AcDbSymbolTableRecord
100
AcDbLinetypeTableRecord
  2
CENTER
 70
     0
  3
____ _ ____ _ ____ _ ____
 72
    65
 73
     4
 40
47.4
 49
22.0
 74
     4
 75
     0
340
0
 46
0.0
 50
0.0
 44
0.0
 45
0.0
 49
-8.5
 74
     4
 75
     0
340
0
 46
0.0
 50
0.0
 44
0.0
 45
0.0
 49
8.5
 74
     4
 75
     0
340
0
 46
0.0
 50
0.0
 44
0.0
 45
0.0
 49
-8.5
 74
     4
 75
     0
340
0
 46
0.0
 50
0.0
 44
0.0
 45
0.0
  0
LTYPE
  5
6F
330
5
100
AcDbSymbolTableRecord
100
AcDbLinetypeTableRecord
  2
DASHDOT
 70
     0
  3
_._._._._._._._._._._._._._._._.
 72
    65
 73
     4
 40
70.0
 49
31.0
 74
     4
 75
     0
340
0
 46
0.0
 50
0.0
 44
0.0
 45
0.0
 49
-13.0
 74
     4
 75
     0
340
0
 46
0.0
 50
0.0
 44
0.0
 45
0.0
 49
13.0
 74
     4
 75
     0
340
0
 46
0.0
 50
0.0
 44
0.0
 45
0.0
 49
-13.0
 74
     4
 75
     0
340
0
 46
0.0
 50
0.0
 44
0.0
 45
0.0
  0
LTYPE
  5
70
330
5
100
AcDbSymbolTableRecord
100
AcDbLinetypeTableRecord
  2
DASHED
 70
     0
  3
__ __ __ __ __ __ __ __ __
 72
    65
 73
     2
 40
25.72
 49
12.86
 74
     4
 75
     0
340
0
 46
0.0
 50
0.0
 44
0.0
 45
0.0
 49
-12.86
 74
     4
 75
     0
340
0
 46
0.0
 50
0.0
 44
0.0
 45
0.0
  0
LTYPE
  5
71
330
5
100
AcDbSymbolTableRecord
100
AcDbLinetypeTableRecord
  2
DOT
 70
     0
  3
.........................
 72
    65
 73
     2
 40
10.0
 49
0.0
 74
     4
 75
     0
340
0
 46
0.0
 50
0.0
 44
0.0
 45
0.0
 49
-10.0
 74
     4
 75
     0
340
0
 46
0.0
 50
0.0
 44
0.0
 45
0.0
  0
LTYPE
  5
72
330
5
100
AcDbSymbolTableRecord
100
AcDbLinetypeTableRecord
  2
PHANTOM
 70
     0
  3
____ _ _ ____ _ _ _____ _ _ ____
 72
    65
 73
     6
 40
50.5
 49
18.0
 74
     4
 75
     0
340
0
 46
0.0
 50
0.0
 44
0.0
 45
0.0
 49
-6.5
 74
     4
 75
     0
340
0
 46
0.0
 50
0.0
 44
0.0
 45
0.0
 49
6.5
 74
     4
 75
     0
340
0
 46
0.0
 50
0.0
 44
0.0
 45
0.0
 49
-6.5
 74
     4
 75
     0
340
0
 46
0.0
 50
0.0
 44
0.0
 45
0.0
 49
6.5
 74
     4
 75
     0
340
0
 46
0.0
 50
0.0
 44
0.0
 45
0.0
 49
-6.5
 74
     4
 75
     0
340
0
 46
0.0
 50
0.0
 44
0.0
 45
0.0
  0
ENDTAB
  0
TABLE
  2
LAYER
  5
2
102
{ACAD_XDICTIONARY
360
377
102
}
330
0
100
AcDbSymbolTable
 70
     3
  0
LAYER
  5
10
102
{ACAD_XDICTIONARY
360
6BB
102
}
330
2
100
AcDbSymbolTableRecord
100
AcDbLayerTableRecord
  2
0
 70
     0
 62
     7
  6
Continuous
370
    -3
390
F
347
46
348
0
  0
LAYER
  5
74
102
{ACAD_XDICTIONARY
360
6BD
102
}
330
2
100
AcDbSymbolTableRecord
100
AcDbLayerTableRecord
  2
1
 70
     0
 62
     7
420
 16777215
  6
Continuous
370
    -3
390
F
347
46
348
0
  0
LAYER
  5
371
102
{ACAD_XDICTIONARY
360
372
102
}
330
2
100
AcDbSymbolTableRecord
100
AcDbLayerTableRecord
  2
HEWI
 70
     0
 62
     7
  6
Continuous
370
    -3
390
F
347
46
348
0
1001
AcAecLayerStandard
1000

1000

1001
AcCmTransparency
1071
        0
  0
ENDTAB
  0
TABLE
  2
STYLE
  5
3
330
0
100
AcDbSymbolTable
 70
     1
  0
STYLE
  5
11
330
3
100
AcDbSymbolTableRecord
100
AcDbTextStyleTableRecord
  2
Standard
 70
     0
 40
0.0
 41
1.0
 50
0.0
 71
     0
 42
0.2
  3
txt
  4

  0
ENDTAB
  0
TABLE
  2
VIEW
  5
6
330
0
100
AcDbSymbolTable
 70
     0
  0
ENDTAB
  0
TABLE
  2
UCS
  5
7
330
0
100
AcDbSymbolTable
 70
     0
  0
ENDTAB
  0
TABLE
  2
APPID
  5
9
330
0
100
AcDbSymbolTable
 70
     6
  0
APPID
  5
12
330
9
100
AcDbSymbolTableRecord
100
AcDbRegAppTableRecord
  2
ACAD
 70
     0
  0
APPID
  5
361
330
9
100
AcDbSymbolTableRecord
100
AcDbRegAppTableRecord
  2
ACAD_MLEADERVER
 70
     0
  0
APPID
  5
373
330
9
100
AcDbSymbolTableRecord
100
AcDbRegAppTableRecord
  2
ACAD_NAV_VCDISPLAY
 70
     0
  0
APPID
  5
374
330
9
100
AcDbSymbolTableRecord
100
AcDbRegAppTableRecord
  2
ACAD_PSEXT
 70
     0
  0
APPID
  5
375
330
9
100
AcDbSymbolTableRecord
100
AcDbRegAppTableRecord
  2
AcAecLayerStandard
 70
     0
  0
APPID
  5
376
330
9
100
AcDbSymbolTableRecord
100
AcDbRegAppTableRecord
  2
AcCmTransparency
 70
     0
  0
ENDTAB
  0
TABLE
  2
DIMSTYLE
  5
A
330
0
100
AcDbSymbolTable
 70
     1
100
AcDbDimStyleTable
 71
     0
  0
DIMSTYLE
105
27
330
A
100
AcDbSymbolTableRecord
100
AcDbDimStyleTableRecord
  2
Standard
 70
     0
340
11
  0
ENDTAB
  0
TABLE
  2
BLOCK_RECORD
  5
1
330
0
100
AcDbSymbolTable
 70
     2
  0
BLOCK_RECORD
  5
1F
330
1
100
AcDbSymbolTableRecord
100
AcDbBlockTableRecord
  2
*Model_Space
340
22
 70
     0
280
     1
281
     0
  0
BLOCK_RECORD
  5
1B
330
1
100
AcDbSymbolTableRecord
100
AcDbBlockTableRecord
  2
*Paper_Space
340
1E
 70
     0
280
     1
281
     0
  0
BLOCK_RECORD
  5
23
330
1
100
AcDbSymbolTableRecord
100
AcDbBlockTableRecord
  2
*Paper_Space0
340
26
 70
     0
280
     1
281
     0
  0
ENDTAB
  0
ENDSEC
  0
SECTION
  2
BLOCKS
  0
BLOCK
  5
20
330
1F
100
AcDbEntity
  8
0
100
AcDbBlockBegin
  2
*Model_Space
 70
     0
 10
0.0
 20
0.0
 30
0.0
  3
*Model_Space
  1

  0
ENDBLK
  5
21
330
1F
100
AcDbEntity
  8
0
100
AcDbBlockEnd
  0
BLOCK
  5
1C
330
1B
100
AcDbEntity
 67
     1
  8
0
100
AcDbBlockBegin
  2
*Paper_Space
 70
     0
 10
0.0
 20
0.0
 30
0.0
  3
*Paper_Space
  1

  0
ENDBLK
  5
1D
330
1B
100
AcDbEntity
 67
     1
  8
0
100
AcDbBlockEnd
  0
BLOCK
  5
24
330
23
100
AcDbEntity
 67
     1
  8
0
100
AcDbBlockBegin
  2
*Paper_Space0
 70
     0
 10
0.0
 20
0.0
 30
0.0
  3
*Paper_Space0
  1

  0
ENDBLK
  5
25
330
23
100
AcDbEntity
 67
     1
  8
0
100
AcDbBlockEnd
  0
ENDSEC
  0
SECTION
  2
ENTITIES
  0
LINE
  5
73
330
1F
100
AcDbEntity
  8
HEWI
100
AcDbLine
 10
853.1928609999999
 20
513.25946
 30
0.0
 11
853.6239059999999
 21
515.212535
 31
0.0
  0
LINE
  5
75
330
1F
100
AcDbEntity
  8
HEWI
100
AcDbLine
 10
848.534953
 20
514.287463
 30
0.0
 11
848.965998
 21
516.2405389999999
 31
0.0
  0
LINE
  5
76
330
1F
100
AcDbEntity
  8
HEWI
100
AcDbLine
 10
845.118616
 20
503.981629
 30
0.0
 11
847.4461709999999
 21
514.5278359999999
 31
0.0
  0
LINE
  5
77
330
1F
100
AcDbEntity
  8
HEWI
100
AcDbLine
 10
847.4461709999999
 20
514.5278359999999
 30
0.0
 11
845.118616
 21
503.981629
 31
0.0
  0
LINE
  5
78
330
1F
100
AcDbEntity
  8
HEWI
100
AcDbLine
 10
798.210695
 20
469.145325
 30
0.0
 11
798.010695
 21
469.145325
 31
0.0
  0
LINE
  5
79
330
1F
100
AcDbEntity
  8
HEWI
100
AcDbLine
 10
807.930995
 20
109.720325
 30
0.0
 11
807.920995
 21
109.720325
 31
0.0
  0
LINE
  5
7A
330
1F
100
AcDbEntity
  8
HEWI
100
AcDbLine
 10
807.920995
 20
105.720325
 30
0.0
 11
807.930995
 21
105.720325
 31
0.0
  0
LINE
  5
7B
330
1F
100
AcDbEntity
  8
HEWI
100
AcDbLine
 10
832.748862
 20
509.834443
 30
0.0
 11
831.767254
 21
509.1452799999999
 31
0.0
  0
LINE
  5
7C
330
1F
100
AcDbEntity
  8
HEWI
100
AcDbLine
 10
848.36545
 20
516.3730799999999
 30
0.0
 11
847.9343980000001
 21
514.419975
 31
0.0
  0
LINE
  5
7D
330
1F
100
AcDbEntity
  8
HEWI
100
AcDbLine
 10
853.7934019999999
 20
513.126889
 30
0.0
 11
854.2244539999998
 21
515.079994
 31
0.0
  0
LINE
  5
7E
330
1F
100
AcDbEntity
  8
HEWI
100
AcDbLine
 10
847.6564339999999
 20
518.270471
 30
0.0
 11
847.1448239999999
 21
516.642473
 31
0.0
  0
LINE
  5
7F
330
1F
100
AcDbEntity
  8
HEWI
100
AcDbLine
 10
855.4450800000001
 20
514.810601
 30
0.0
 11
855.666218
 21
516.5027059999999
 31
0.0
  0
LINE
  5
80
330
1F
100
AcDbEntity
  8
HEWI
100
AcDbLine
 10
854.281675
 20
513.0192359999999
 30
0.0
 11
847.4461709999999
 21
514.5278359999999
 31
0.0
  0
LINE
  5
81
330
1F
100
AcDbEntity
  8
HEWI
100
AcDbLine
 10
846.743758
 20
511.345188
 30
0.0
 11
847.4461709999999
 21
514.5278359999999
 31
0.0
  0
LINE
  5
82
330
1F
100
AcDbEntity
  8
HEWI
100
AcDbLine
 10
852.2106970000001
 20
503.6355829999999
 30
0.0
 11
854.281675
 21
513.0192359999999
 31
0.0
  0
LINE
  5
83
330
1F
100
AcDbEntity
  8
HEWI
100
AcDbLine
 10
833.210695
 20
509.567973
 30
0.0
 11
833.210695
 21
509.1453249999999
 31
0.0
  0
LINE
  5
84
330
1F
100
AcDbEntity
  8
HEWI
100
AcDbLine
 10
808.410433
 20
471.204517
 30
0.0
 11
798.0108330000001
 21
470.495544
 31
0.0
  0
LINE
  5
85
330
1F
100
AcDbEntity
  8
HEWI
100
AcDbLine
 10
798.210695
 20
467.3458169999999
 30
0.0
 11
798.210695
 21
469.145325
 31
0.0
  0
LINE
  5
86
330
1F
100
AcDbEntity
  8
HEWI
100
AcDbLine
 10
798.210695
 20
434.2003759999999
 30
0.0
 11
798.210695
 21
442.092361
 31
0.0
  0
LINE
  5
87
330
1F
100
AcDbEntity
  8
HEWI
100
AcDbLine
 10
797.2106949999999
 20
435.2427669999999
 30
0.0
 11
797.2106949999999
 21
441.0477559999999
 31
0.0
  0
LINE
  5
88
330
1F
100
AcDbEntity
  8
HEWI
100
AcDbLine
 10
819.7711929999998
 20
434.8253129999999
 30
0.0
 11
817.5147599999998
 21
434.413245
 31
0.0
  0
LINE
  5
89
330
1F
100
AcDbEntity
  8
HEWI
100
AcDbLine
 10
817.5147599999998
 20
434.413245
 30
0.0
 11
814.796665
 21
434.003308
 31
0.0
  0
LINE
  5
8A
330
1F
100
AcDbEntity
  8
HEWI
100
AcDbLine
 10
814.796665
 20
434.003308
 30
0.0
 11
812.623911
 21
433.738657
 31
0.0
  0
LINE
  5
8B
330
1F
100
AcDbEntity
  8
HEWI
100
AcDbLine
 10
849.2106949999998
 20
472.473387
 30
0.0
 11
849.2106949999998
 21
489.145325
 31
0.0
  0
LINE
  5
8C
330
1F
100
AcDbEntity
  8
HEWI
100
AcDbLine
 10
793.2106949999999
 20
442.259634
 30
0.0
 11
793.2106949999999
 21
467.1453249999999
 31
0.0
  0
LINE
  5
8D
330
1F
100
AcDbEntity
  8
HEWI
100
AcDbLine
 10
793.2106949999999
 20
489.145325
 30
0.0
 11
793.2106949999999
 21
509.1453249999999
 31
0.0
  0
LINE
  5
8E
330
1F
100
AcDbEntity
  8
HEWI
100
AcDbLine
 10
849.2106949999998
 20
494.802179
 30
0.0
 11
849.2106949999998
 21
509.1453249999999
 31
0.0
  0
LINE
  5
8F
330
1F
100
AcDbEntity
  8
HEWI
100
AcDbLine
 10
808.410695
 20
471.545325
 30
0.0
 11
807.0106950000001
 21
471.545325
 31
0.0
  0
LINE
  5
90
330
1F
100
AcDbEntity
  8
HEWI
100
AcDbLine
 10
800.298757
 20
467.345325
 30
0.0
 11
808.410695
 21
467.345325
 31
0.0
  0
LINE
  5
91
330
1F
100
AcDbEntity
  8
HEWI
100
AcDbLine
 10
808.410695
 20
467.345325
 30
0.0
 11
808.410695
 21
471.545325
 31
0.0
  0
LINE
  5
92
330
1F
100
AcDbEntity
  8
HEWI
100
AcDbLine
 10
849.2106949999998
 20
509.1453249999999
 30
0.0
 11
793.2106949999999
 21
509.1453249999999
 31
0.0
  0
LINE
  5
93
330
1F
100
AcDbEntity
  8
HEWI
100
AcDbLine
 10
808.410695
 20
499.145325
 30
0.0
 11
808.410695
 21
503.3453249999999
 31
0.0
  0
LINE
  5
94
330
1F
100
AcDbEntity
  8
HEWI
100
AcDbLine
 10
808.410695
 20
499.145325
 30
0.0
 11
798.010695
 21
499.145325
 31
0.0
  0
LINE
  5
95
330
1F
100
AcDbEntity
  8
HEWI
100
AcDbLine
 10
798.010695
 20
499.145325
 30
0.0
 11
798.010695
 21
503.3453249999999
 31
0.0
  0
LINE
  5
96
330
1F
100
AcDbEntity
  8
HEWI
100
AcDbLine
 10
808.410695
 20
503.3453249999999
 30
0.0
 11
798.010695
 21
503.3453249999999
 31
0.0
  0
LINE
  5
97
330
1F
100
AcDbEntity
  8
HEWI
100
AcDbLine
 10
793.2106949999999
 20
369.145325
 30
0.0
 11
793.2106949999999
 21
434.031011
 31
0.0
  0
LINE
  5
98
330
1F
100
AcDbEntity
  8
HEWI
100
AcDbLine
 10
849.2106949999998
 20
424.7765259999999
 30
0.0
 11
849.2106949999998
 21
436.61559
 31
0.0
  0
LINE
  5
99
330
1F
100
AcDbEntity
  8
HEWI
100
AcDbLine
 10
795.566399
 20
369.145325
 30
0.0
 11
793.2106949999999
 21
369.145325
 31
0.0
  0
LINE
  5
9A
330
1F
100
AcDbEntity
  8
HEWI
100
AcDbLine
 10
810.2533509999998
 20
433.51072
 30
0.0
 11
808.175072
 21
433.359804
 31
0.0
  0
LINE
  5
9B
330
1F
100
AcDbEntity
  8
HEWI
100
AcDbLine
 10
793.2106949999999
 20
472.145325
 30
0.0
 11
793.2106949999999
 21
467.1453249999999
 31
0.0
  0
LINE
  5
9C
330
1F
100
AcDbEntity
  8
HEWI
100
AcDbLine
 10
798.010695
 20
467.345325
 30
0.0
 11
798.010695
 21
471.545325
 31
0.0
  0
LINE
  5
9D
330
1F
100
AcDbEntity
  8
HEWI
100
AcDbLine
 10
798.010695
 20
471.545325
 30
0.0
 11
798.210695
 21
471.545325
 31
0.0
  0
LINE
  5
9E
330
1F
100
AcDbEntity
  8
HEWI
100
AcDbLine
 10
798.210695
 20
467.345325
 30
0.0
 11
798.010695
 21
467.345325
 31
0.0
  0
LINE
  5
9F
330
1F
100
AcDbEntity
  8
HEWI
100
AcDbLine
 10
793.2106949999999
 20
489.145325
 30
0.0
 11
793.2106949999999
 21
484.1453249999999
 31
0.0
  0
LINE
  5
A0
330
1F
100
AcDbEntity
  8
HEWI
100
AcDbLine
 10
849.2106949999998
 20
494.802179
 30
0.0
 11
849.2106949999998
 21
489.145325
 31
0.0
  0
LINE
  5
A1
330
1F
100
AcDbEntity
  8
HEWI
100
AcDbLine
 10
847.7106949999999
 20
493.302179
 30
0.0
 11
849.2106949999998
 21
494.802179
 31
0.0
  0
LINE
  5
A2
330
1F
100
AcDbEntity
  8
HEWI
100
AcDbLine
 10
849.2106949999998
 20
489.145325
 30
0.0
 11
847.7106949999999
 21
487.6453249999999
 31
0.0
  0
LINE
  5
A3
330
1F
100
AcDbEntity
  8
HEWI
100
AcDbLine
 10
793.2106949999999
 20
434.031011
 30
0.0
 11
793.2106949999999
 21
442.259634
 31
0.0
  0
LINE
  5
A4
330
1F
100
AcDbEntity
  8
HEWI
100
AcDbLine
 10
829.339687
 20
474.9311709999999
 30
0.0
 11
847.7106949999999
 21
493.302179
 31
0.0
  0
LINE
  5
A5
330
1F
100
AcDbEntity
  8
HEWI
100
AcDbLine
 10
833.187616
 20
473.122246
 30
0.0
 11
847.7106949999999
 21
487.6453249999999
 31
0.0
  0
LINE
  5
A6
330
1F
100
AcDbEntity
  8
HEWI
100
AcDbLine
 10
833.187616
 20
459.6812499999999
 30
0.0
 11
833.187616
 21
473.122246
 31
0.0
  0
LINE
  5
A7
330
1F
100
AcDbEntity
  8
HEWI
100
AcDbLine
 10
847.7106949999999
 20
487.6453249999999
 30
0.0
 11
847.7106949999999
 21
493.302179
 31
0.0
  0
LINE
  5
A8
330
1F
100
AcDbEntity
  8
HEWI
100
AcDbLine
 10
829.339687
 20
453.9468589999999
 30
0.0
 11
829.339687
 21
474.9311709999999
 31
0.0
  0
LINE
  5
A9
330
1F
100
AcDbEntity
  8
HEWI
100
AcDbLine
 10
793.2106949999999
 20
472.645325
 30
0.0
 11
793.2106949999999
 21
472.145325
 31
0.0
  0
LINE
  5
AA
330
1F
100
AcDbEntity
  8
HEWI
100
AcDbLine
 10
795.8127799999999
 20
472.145325
 30
0.0
 11
793.2106949999999
 21
472.145325
 31
0.0
  0
LINE
  5
AB
330
1F
100
AcDbEntity
  8
HEWI
100
AcDbLine
 10
793.2106949999999
 20
484.1453249999999
 30
0.0
 11
793.2106949999999
 21
483.6453249999999
 31
0.0
  0
LINE
  5
AC
330
1F
100
AcDbEntity
  8
HEWI
100
AcDbLine
 10
793.2106949999999
 20
484.1453249999999
 30
0.0
 11
795.8127799999999
 21
484.1453249999999
 31
0.0
  0
LINE
  5
AD
330
1F
100
AcDbEntity
  8
HEWI
100
AcDbLine
 10
793.2106949999999
 20
481.46195
 30
0.0
 11
793.2106949999999
 21
483.6453249999999
 31
0.0
  0
LINE
  5
AE
330
1F
100
AcDbEntity
  8
HEWI
100
AcDbLine
 10
793.2106949999999
 20
472.645325
 30
0.0
 11
793.2106949999999
 21
474.8287
 31
0.0
  0
LINE
  5
AF
330
1F
100
AcDbEntity
  8
HEWI
100
AcDbLine
 10
807.930995
 20
109.720325
 30
0.0
 11
807.930995
 21
109.470283
 31
0.0
  0
LINE
  5
B0
330
1F
100
AcDbEntity
  8
HEWI
100
AcDbLine
 10
807.930995
 20
105.970367
 30
0.0
 11
807.930995
 21
105.720325
 31
0.0
  0
LINE
  5
B1
330
1F
100
AcDbEntity
  8
HEWI
100
AcDbLine
 10
807.930995
 20
130.070325
 30
0.0
 11
807.920995
 21
130.070325
 31
0.0
  0
LINE
  5
B2
330
1F
100
AcDbEntity
  8
HEWI
100
AcDbLine
 10
807.930995
 20
130.070325
 30
0.0
 11
807.930995
 21
130.770325
 31
0.0
  0
LINE
  5
B3
330
1F
100
AcDbEntity
  8
HEWI
100
AcDbLine
 10
807.930995
 20
130.770325
 30
0.0
 11
807.920995
 21
130.770325
 31
0.0
  0
LINE
  5
B4
330
1F
100
AcDbEntity
  8
HEWI
100
AcDbLine
 10
818.6085559999998
 20
320.860017
 30
0.0
 11
801.435281
 21
329.991209
 31
0.0
  0
LINE
  5
B5
330
1F
100
AcDbEntity
  8
HEWI
100
AcDbLine
 10
813.6415409999999
 20
352.947847
 30
0.0
 11
830.8148169999999
 21
343.816654
 31
0.0
  0
LINE
  5
B6
330
1F
100
AcDbEntity
  8
HEWI
100
AcDbLine
 10
800.40159
 20
333.372257
 30
0.0
 11
810.260493
 21
351.914157
 31
0.0
  0
LINE
  5
B7
330
1F
100
AcDbEntity
  8
HEWI
100
AcDbLine
 10
807.930995
 20
124.170325
 30
0.0
 11
807.930995
 21
124.670325
 31
0.0
  0
LINE
  5
B8
330
1F
100
AcDbEntity
  8
HEWI
100
AcDbLine
 10
807.930995
 20
124.170325
 30
0.0
 11
807.920995
 21
124.170325
 31
0.0
  0
LINE
  5
B9
330
1F
100
AcDbEntity
  8
HEWI
100
AcDbLine
 10
807.930995
 20
124.670325
 30
0.0
 11
807.920995
 21
124.670325
 31
0.0
  0
LINE
  5
BA
330
1F
100
AcDbEntity
  8
HEWI
100
AcDbLine
 10
792.809595
 20
160.820325
 30
0.0
 11
792.809595
 21
165.820325
 31
0.0
  0
LINE
  5
BB
330
1F
100
AcDbEntity
  8
HEWI
100
AcDbLine
 10
792.809595
 20
165.820325
 30
0.0
 11
793.210686
 21
165.820325
 31
0.0
  0
LINE
  5
BC
330
1F
100
AcDbEntity
  8
HEWI
100
AcDbLine
 10
792.809595
 20
86.32032499999999
 30
0.0
 11
792.809595
 21
91.32032499999999
 31
0.0
  0
LINE
  5
BD
330
1F
100
AcDbEntity
  8
HEWI
100
AcDbLine
 10
793.210686
 20
86.32032499999999
 30
0.0
 11
792.809595
 21
86.32032499999999
 31
0.0
  0
LINE
  5
BE
330
1F
100
AcDbEntity
  8
HEWI
100
AcDbLine
 10
792.809595
 20
91.32032499999999
 30
0.0
 11
792.809595
 21
160.820325
 31
0.0
  0
LINE
  5
BF
330
1F
100
AcDbEntity
  8
HEWI
100
AcDbLine
 10
928.967173
 20
535.017425
 30
0.0
 11
930.375588
 21
537.6662669999999
 31
0.0
  0
LINE
  5
C0
330
1F
100
AcDbEntity
  8
HEWI
100
AcDbLine
 10
928.967173
 20
535.017425
 30
0.0
 11
929.6736619999999
 21
534.641778
 31
0.0
  0
LINE
  5
C1
330
1F
100
AcDbEntity
  8
HEWI
100
AcDbLine
 10
930.375588
 20
537.6662669999999
 30
0.0
 11
933.2894389999999
 21
536.116945
 31
0.0
  0
LINE
  5
C2
330
1F
100
AcDbEntity
  8
HEWI
100
AcDbLine
 10
819.578858
 20
291.372956
 30
0.0
 11
818.7141569999999
 21
290.977065
 31
0.0
  0
LINE
  5
C3
330
1F
100
AcDbEntity
  8
HEWI
100
AcDbLine
 10
819.578858
 20
291.372956
 30
0.0
 11
825.9073349999999
 21
303.27509
 31
0.0
  0
LINE
  5
C4
330
1F
100
AcDbEntity
  8
HEWI
100
AcDbLine
 10
814.2811730000001
 20
294.189786
 30
0.0
 11
820.609649
 21
306.091919
 31
0.0
  0
LINE
  5
C5
330
1F
100
AcDbEntity
  8
HEWI
100
AcDbLine
 10
814.2811730000001
 20
294.189786
 30
0.0
 11
814.4364989999999
 21
293.251537
 31
0.0
  0
LINE
  5
C6
330
1F
100
AcDbEntity
  8
HEWI
100
AcDbLine
 10
1071.666309
 20
765.4804959999999
 30
0.0
 11
1065.337832
 21
753.578362
 31
0.0
  0
LINE
  5
C7
330
1F
100
AcDbEntity
  8
HEWI
100
AcDbLine
 10
1071.666309
 20
765.4804959999999
 30
0.0
 11
1071.510982
 21
766.418745
 31
0.0
  0
LINE
  5
C8
330
1F
100
AcDbEntity
  8
HEWI
100
AcDbLine
 10
1060.040146
 20
756.395191
 30
0.0
 11
820.609649
 21
306.091919
 31
0.0
  0
LINE
  5
C9
330
1F
100
AcDbEntity
  8
HEWI
100
AcDbLine
 10
1066.368623
 20
768.2973249999999
 30
0.0
 11
1067.233324
 21
768.693216
 31
0.0
  0
LINE
  5
CA
330
1F
100
AcDbEntity
  8
HEWI
100
AcDbLine
 10
1066.368623
 20
768.2973249999999
 30
0.0
 11
1060.040146
 21
756.395191
 31
0.0
  0
LINE
  5
CB
330
1F
100
AcDbEntity
  8
HEWI
100
AcDbLine
 10
1065.337832
 20
753.578362
 30
0.0
 11
825.9073349999999
 21
303.27509
 31
0.0
  0
LINE
  5
CC
330
1F
100
AcDbEntity
  8
HEWI
100
AcDbLine
 10
821.1196629999999
 20
305.82074
 30
0.0
 11
814.4364989999999
 21
293.251537
 31
0.0
  0
LINE
  5
CD
330
1F
100
AcDbEntity
  8
HEWI
100
AcDbLine
 10
818.7141569999999
 20
290.977065
 30
0.0
 11
825.3973209999999
 21
303.546269
 31
0.0
  0
LINE
  5
CE
330
1F
100
AcDbEntity
  8
HEWI
100
AcDbLine
 10
1060.55016
 20
756.1240119999999
 30
0.0
 11
821.1196629999999
 21
305.82074
 31
0.0
  0
LINE
  5
CF
330
1F
100
AcDbEntity
  8
HEWI
100
AcDbLine
 10
1064.827818
 20
753.849541
 30
0.0
 11
825.3973209999999
 21
303.546269
 31
0.0
  0
LINE
  5
D0
330
1F
100
AcDbEntity
  8
HEWI
100
AcDbLine
 10
1067.233324
 20
768.693216
 30
0.0
 11
1060.55016
 21
756.1240119999999
 31
0.0
  0
LINE
  5
D1
330
1F
100
AcDbEntity
  8
HEWI
100
AcDbLine
 10
1071.510982
 20
766.418745
 30
0.0
 11
1064.827818
 21
753.849541
 31
0.0
  0
LINE
  5
D2
330
1F
100
AcDbEntity
  8
HEWI
100
AcDbLine
 10
807.920995
 20
150.036904
 30
0.0
 11
807.920995
 21
102.103745
 31
0.0
  0
LINE
  5
D3
330
1F
100
AcDbEntity
  8
HEWI
100
AcDbLine
 10
804.853611
 20
150.910145
 30
0.0
 11
807.491963
 21
150.531842
 31
0.0
  0
LINE
  5
D4
330
1F
100
AcDbEntity
  8
HEWI
100
AcDbLine
 10
807.491963
 20
101.608807
 30
0.0
 11
804.853611
 21
101.230504
 31
0.0
  0
LINE
  5
D5
330
1F
100
AcDbEntity
  8
HEWI
100
AcDbLine
 10
803.3209820000001
 20
151.021436
 30
0.0
 11
803.783261
 21
151.005293
 31
0.0
  0
LINE
  5
D6
330
1F
100
AcDbEntity
  8
HEWI
100
AcDbLine
 10
803.783261
 20
101.135357
 30
0.0
 11
803.3209820000001
 21
101.119213
 31
0.0
  0
LINE
  5
D7
330
1F
100
AcDbEntity
  8
HEWI
100
AcDbLine
 10
839.6878839999999
 20
360.504335
 30
0.0
 11
819.031136
 21
321.65464
 31
0.0
  0
LINE
  5
D8
330
1F
100
AcDbEntity
  8
HEWI
100
AcDbLine
 10
841.0962989999999
 20
363.153177
 30
0.0
 11
839.6878839999999
 21
360.504335
 31
0.0
  0
LINE
  5
D9
330
1F
100
AcDbEntity
  8
HEWI
100
AcDbLine
 10
841.0962989999999
 20
363.153177
 30
0.0
 11
841.272889
 21
363.059283
 31
0.0
  0
LINE
  5
DA
330
1F
100
AcDbEntity
  8
HEWI
100
AcDbLine
 10
817.622721
 20
319.005798
 30
0.0
 11
819.031136
 21
321.65464
 31
0.0
  0
LINE
  5
DB
330
1F
100
AcDbEntity
  8
HEWI
100
AcDbLine
 10
817.622721
 20
319.005798
 30
0.0
 11
817.79931
 21
318.911903
 31
0.0
  0
LINE
  5
DC
330
1F
100
AcDbEntity
  8
HEWI
100
AcDbLine
 10
807.930995
 20
127.070325
 30
0.0
 11
807.920995
 21
127.070325
 31
0.0
  0
LINE
  5
DD
330
1F
100
AcDbEntity
  8
HEWI
100
AcDbLine
 10
807.930995
 20
127.070325
 30
0.0
 11
807.930995
 21
127.670325
 31
0.0
  0
LINE
  5
DE
330
1F
100
AcDbEntity
  8
HEWI
100
AcDbLine
 10
807.930995
 20
127.670325
 30
0.0
 11
807.920995
 21
127.670325
 31
0.0
  0
LINE
  5
DF
330
1F
100
AcDbEntity
  8
HEWI
100
AcDbLine
 10
848.400567
 20
519.7447440000001
 30
0.0
 11
855.6117310000001
 21
518.153235
 31
0.0
  0
LINE
  5
E0
330
1F
100
AcDbEntity
  8
HEWI
100
AcDbLine
 10
855.4450800000001
 20
514.810601
 30
0.0
 11
847.1448239999999
 21
516.642473
 31
0.0
  0
LINE
  5
E1
330
1F
100
AcDbEntity
  8
HEWI
100
AcDbLine
 10
847.6564339999999
 20
518.270471
 30
0.0
 11
847.7333640000001
 21
518.2534919999999
 31
0.0
  0
LINE
  5
E2
330
1F
100
AcDbEntity
  8
HEWI
100
AcDbLine
 10
855.5892880000001
 20
516.519684
 30
0.0
 11
855.666218
 21
516.5027059999999
 31
0.0
  0
LINE
  5
E3
330
1F
100
AcDbEntity
  8
HEWI
100
AcDbLine
 10
807.930995
 20
109.470325
 30
0.0
 11
807.930995
 21
105.970325
 31
0.0
  0
LINE
  5
E4
330
1F
100
AcDbEntity
  8
HEWI
100
AcDbLine
 10
807.930995
 20
105.970325
 30
0.0
 11
807.920995
 21
105.970325
 31
0.0
  0
LINE
  5
E5
330
1F
100
AcDbEntity
  8
HEWI
100
AcDbLine
 10
807.930995
 20
109.470325
 30
0.0
 11
807.920995
 21
109.470325
 31
0.0
  0
LINE
  5
E6
330
1F
100
AcDbEntity
  8
HEWI
100
AcDbLine
 10
863.3554489999999
 20
507.0461589999999
 30
0.0
 11
859.47048
 21
509.111834
 31
0.0
  0
LINE
  5
E7
330
1F
100
AcDbEntity
  8
HEWI
100
AcDbLine
 10
852.8073939999998
 20
475.279848
 30
0.0
 11
865.6709150000001
 21
499.472612
 31
0.0
  0
LINE
  5
E8
330
1F
100
AcDbEntity
  8
HEWI
100
AcDbLine
 10
845.233847
 20
472.964382
 30
0.0
 11
841.3488779999999
 21
475.030057
 31
0.0
  0
LINE
  5
E9
330
1F
100
AcDbEntity
  8
HEWI
100
AcDbLine
 10
794.91814
 20
387.70654
 30
0.0
 11
841.3488779999999
 21
475.030057
 31
0.0
  0
LINE
  5
EA
330
1F
100
AcDbEntity
  8
HEWI
100
AcDbLine
 10
794.91814
 20
387.70654
 30
0.0
 11
796.8323169999999
 21
332.891677
 31
0.0
  0
LINE
  5
EB
330
1F
100
AcDbEntity
  8
HEWI
100
AcDbLine
 10
818.0918379999999
 20
319.888934
 30
0.0
 11
798.4220749999999
 21
330.347532
 31
0.0
  0
LINE
  5
EC
330
1F
100
AcDbEntity
  8
HEWI
100
AcDbLine
 10
929.673531
 20
534.6418469999999
 30
0.0
 11
931.8809830000001
 21
533.468124
 31
0.0
  0
LINE
  5
ED
330
1F
100
AcDbEntity
  8
HEWI
100
AcDbLine
 10
929.673531
 20
534.6418469999999
 30
0.0
 11
904.255492
 21
507.384337
 31
0.0
  0
LINE
  5
EE
330
1F
100
AcDbEntity
  8
HEWI
100
AcDbLine
 10
904.255492
 20
507.384337
 30
0.0
 11
868.625175
 21
526.3293119999999
 31
0.0
  0
LINE
  5
EF
330
1F
100
AcDbEntity
  8
HEWI
100
AcDbLine
 10
859.47048
 20
509.111834
 30
0.0
 11
868.625175
 21
526.3293119999999
 31
0.0
  0
LINE
  5
F0
330
1F
100
AcDbEntity
  8
HEWI
100
AcDbLine
 10
875.077673
 20
511.572758
 30
0.0
 11
875.4304070000001
 21
512.236154
 31
0.0
  0
LINE
  5
F1
330
1F
100
AcDbEntity
  8
HEWI
100
AcDbLine
 10
877.069361
 20
515.318577
 30
0.0
 11
877.4220949999998
 21
515.981974
 31
0.0
  0
LINE
  5
F2
330
1F
100
AcDbEntity
  8
HEWI
100
AcDbLine
 10
878.8301999999999
 20
509.5775039999999
 30
0.0
 11
879.1829349999998
 21
510.2409
 31
0.0
  0
LINE
  5
F3
330
1F
100
AcDbEntity
  8
HEWI
100
AcDbLine
 10
878.206355
 20
512.310857
 30
0.0
 11
879.6049919999999
 21
511.5671879999999
 31
0.0
  0
LINE
  5
F4
330
1F
100
AcDbEntity
  8
HEWI
100
AcDbLine
 10
879.6049919999999
 20
511.5671879999999
 30
0.0
 11
879.9577259999999
 21
512.230585
 31
0.0
  0
LINE
  5
F5
330
1F
100
AcDbEntity
  8
HEWI
100
AcDbLine
 10
879.9577259999999
 20
512.230585
 30
0.0
 11
878.5588289999999
 21
512.974392
 31
0.0
  0
LINE
  5
F6
330
1F
100
AcDbEntity
  8
HEWI
100
AcDbLine
 10
880.821888
 20
513.323323
 30
0.0
 11
881.1746220000001
 21
513.98672
 31
0.0
  0
LINE
  5
F7
330
1F
100
AcDbEntity
  8
HEWI
100
AcDbLine
 10
832.914803
 20
456.97639
 30
0.0
 11
867.6774759999998
 21
438.4927489999999
 31
0.0
  0
LINE
  5
F8
330
1F
100
AcDbEntity
  8
HEWI
100
AcDbLine
 10
834.792689
 20
460.5081799999999
 30
0.0
 11
869.555362
 21
442.0245389999999
 31
0.0
  0
LINE
  5
F9
330
1F
100
AcDbEntity
  8
HEWI
100
AcDbLine
 10
832.914803
 20
456.97639
 30
0.0
 11
832.889341
 21
456.989928
 31
0.0
  0
LINE
  5
FA
330
1F
100
AcDbEntity
  8
HEWI
100
AcDbLine
 10
834.767227
 20
460.521719
 30
0.0
 11
834.792689
 21
460.5081799999999
 31
0.0
  0
LINE
  5
FB
330
1F
100
AcDbEntity
  8
HEWI
100
AcDbLine
 10
832.914803
 20
456.97639
 30
0.0
 11
834.792689
 21
460.5081799999999
 31
0.0
  0
LINE
  5
FC
330
1F
100
AcDbEntity
  8
HEWI
100
AcDbLine
 10
832.889341
 20
456.989928
 30
0.0
 11
834.767227
 21
460.521719
 31
0.0
  0
LINE
  5
FD
330
1F
100
AcDbEntity
  8
HEWI
100
AcDbLine
 10
867.6774759999998
 20
438.4927489999999
 30
0.0
 11
874.3878779999999
 21
434.924765
 31
0.0
  0
LINE
  5
FE
330
1F
100
AcDbEntity
  8
HEWI
100
AcDbLine
 10
869.555362
 20
442.0245389999999
 30
0.0
 11
876.265764
 21
438.4565549999999
 31
0.0
  0
LINE
  5
FF
330
1F
100
AcDbEntity
  8
HEWI
100
AcDbLine
 10
869.555362
 20
442.0245389999999
 30
0.0
 11
867.6774759999998
 21
438.4927489999999
 31
0.0
  0
LINE
  5
100
330
1F
100
AcDbEntity
  8
HEWI
100
AcDbLine
 10
876.265764
 20
438.4565549999999
 30
0.0
 11
880.2390279999999
 21
436.343933
 31
0.0
  0
LINE
  5
101
330
1F
100
AcDbEntity
  8
HEWI
100
AcDbLine
 10
874.3878779999999
 20
434.924765
 30
0.0
 11
876.265764
 21
438.4565549999999
 31
0.0
  0
LINE
  5
102
330
1F
100
AcDbEntity
  8
HEWI
100
AcDbLine
 10
874.3878779999999
 20
434.924765
 30
0.0
 11
878.3611419999999
 21
432.812143
 31
0.0
  0
LINE
  5
103
330
1F
100
AcDbEntity
  8
HEWI
100
AcDbLine
 10
807.930995
 20
142.670325
 30
0.0
 11
807.920995
 21
142.670325
 31
0.0
  0
LINE
  5
104
330
1F
100
AcDbEntity
  8
HEWI
100
AcDbLine
 10
807.930995
 20
146.170325
 30
0.0
 11
807.930995
 21
142.670325
 31
0.0
  0
LINE
  5
105
330
1F
100
AcDbEntity
  8
HEWI
100
AcDbLine
 10
807.930995
 20
146.170325
 30
0.0
 11
807.920995
 21
146.170325
 31
0.0
  0
LINE
  5
106
330
1F
100
AcDbEntity
  8
HEWI
100
AcDbLine
 10
793.2106949999999
 20
84.522525
 30
0.0
 11
793.2106949999999
 21
167.618125
 31
0.0
  0
LINE
  5
107
330
1F
100
AcDbEntity
  8
HEWI
100
AcDbLine
 10
802.314995
 20
84.32132499999999
 30
0.0
 11
793.2106949999999
 21
84.32132499999999
 31
0.0
  0
LINE
  5
108
330
1F
100
AcDbEntity
  8
HEWI
100
AcDbLine
 10
802.314995
 20
84.32132499999999
 30
0.0
 11
802.3739259999999
 21
84.380255
 31
0.0
  0
LINE
  5
109
330
1F
100
AcDbEntity
  8
HEWI
100
AcDbLine
 10
793.2106949999999
 20
84.522525
 30
0.0
 11
793.2106949999999
 21
84.32132499999999
 31
0.0
  0
LINE
  5
10A
330
1F
100
AcDbEntity
  8
HEWI
100
AcDbLine
 10
802.314995
 20
84.522525
 30
0.0
 11
802.314995
 21
167.618125
 31
0.0
  0
LINE
  5
10B
330
1F
100
AcDbEntity
  8
HEWI
100
AcDbLine
 10
802.3739259999999
 20
84.380255
 30
0.0
 11
803.3209949999999
 21
85.32732499999999
 31
0.0
  0
LINE
  5
10C
330
1F
100
AcDbEntity
  8
HEWI
100
AcDbLine
 10
803.3209949999999
 20
85.32732499999999
 30
0.0
 11
803.3209949999999
 21
166.813325
 31
0.0
  0
LINE
  5
10D
330
1F
100
AcDbEntity
  8
HEWI
100
AcDbLine
 10
802.3739259999999
 20
167.760395
 30
0.0
 11
803.3209949999999
 21
166.813325
 31
0.0
  0
LINE
  5
10E
330
1F
100
AcDbEntity
  8
HEWI
100
AcDbLine
 10
802.314995
 20
167.819325
 30
0.0
 11
802.3739259999999
 21
167.760395
 31
0.0
  0
LINE
  5
10F
330
1F
100
AcDbEntity
  8
HEWI
100
AcDbLine
 10
802.314995
 20
167.819325
 30
0.0
 11
793.2106949999999
 21
167.819325
 31
0.0
  0
LINE
  5
110
330
1F
100
AcDbEntity
  8
HEWI
100
AcDbLine
 10
793.2106949999999
 20
167.618125
 30
0.0
 11
793.2106949999999
 21
167.819325
 31
0.0
  0
LINE
  5
111
330
1F
100
AcDbEntity
  8
HEWI
100
AcDbLine
 10
807.930995
 20
135.970325
 30
0.0
 11
807.930995
 21
136.870325
 31
0.0
  0
LINE
  5
112
330
1F
100
AcDbEntity
  8
HEWI
100
AcDbLine
 10
807.930995
 20
135.970325
 30
0.0
 11
807.920995
 21
135.970325
 31
0.0
  0
LINE
  5
113
330
1F
100
AcDbEntity
  8
HEWI
100
AcDbLine
 10
807.930995
 20
136.870325
 30
0.0
 11
807.920995
 21
136.870325
 31
0.0
  0
LINE
  5
114
330
1F
100
AcDbEntity
  8
HEWI
100
AcDbLine
 10
852.2106949999999
 20
508.145325
 30
0.0
 11
852.2106949999999
 21
509.1453249999999
 31
0.0
  0
LINE
  5
115
330
1F
100
AcDbEntity
  8
HEWI
100
AcDbLine
 10
849.3193289999998
 20
511.345325
 30
0.0
 11
834.2106949999999
 21
511.345325
 31
0.0
  0
LINE
  5
116
330
1F
100
AcDbEntity
  8
HEWI
100
AcDbLine
 10
834.2106949999999
 20
511.345325
 30
0.0
 11
834.2106949999999
 21
516.3453249999999
 31
0.0
  0
LINE
  5
117
330
1F
100
AcDbEntity
  8
HEWI
100
AcDbLine
 10
834.2106949999999
 20
516.3453249999999
 30
0.0
 11
832.210695
 21
516.3453249999999
 31
0.0
  0
LINE
  5
118
330
1F
100
AcDbEntity
  8
HEWI
100
AcDbLine
 10
832.210695
 20
516.3453249999999
 30
0.0
 11
832.210695
 21
510.145325
 31
0.0
  0
LINE
  5
119
330
1F
100
AcDbEntity
  8
HEWI
100
AcDbLine
 10
832.210695
 20
510.145325
 30
0.0
 11
833.9427459999999
 21
509.1453249999999
 31
0.0
  0
LINE
  5
11A
330
1F
100
AcDbEntity
  8
HEWI
100
AcDbLine
 10
852.2106949999999
 20
430.544533
 30
0.0
 11
852.2106949999999
 21
433.238168
 31
0.0
  0
LINE
  5
11B
330
1F
100
AcDbEntity
  8
HEWI
100
AcDbLine
 10
852.2106949999999
 20
474.379076
 30
0.0
 11
852.2106949999999
 21
508.145325
 31
0.0
  0
LINE
  5
11C
330
1F
100
AcDbEntity
  8
HEWI
100
AcDbLine
 10
849.210633
 20
509.1453249999999
 30
0.0
 11
851.2106949999999
 21
509.1453249999999
 31
0.0
  0
LINE
  5
11D
330
1F
100
AcDbEntity
  8
HEWI
100
AcDbLine
 10
813.104595
 20
310.082427
 30
0.0
 11
818.843754
 21
307.030862
 31
0.0
  0
LINE
  5
11E
330
1F
100
AcDbEntity
  8
HEWI
100
AcDbLine
 10
1052.535092
 20
760.3857
 30
0.0
 11
1058.274251
 21
757.3341349999999
 31
0.0
  0
LINE
  5
11F
330
1F
100
AcDbEntity
  8
HEWI
100
AcDbLine
 10
1052.535092
 20
760.3857
 30
0.0
 11
813.104595
 21
310.082427
 31
0.0
  0
LINE
  5
120
330
1F
100
AcDbEntity
  8
HEWI
100
AcDbLine
 10
818.843754
 20
307.030862
 30
0.0
 11
820.1681759999999
 21
306.326655
 31
0.0
  0
LINE
  5
121
330
1F
100
AcDbEntity
  8
HEWI
100
AcDbLine
 10
1059.598673
 20
756.629927
 30
0.0
 11
820.1681759999999
 21
306.326655
 31
0.0
  0
LINE
  5
122
330
1F
100
AcDbEntity
  8
HEWI
100
AcDbLine
 10
1058.274251
 20
757.3341349999999
 30
0.0
 11
818.843754
 21
307.030862
 31
0.0
  0
LINE
  5
123
330
1F
100
AcDbEntity
  8
HEWI
100
AcDbLine
 10
1058.274251
 20
757.3341349999999
 30
0.0
 11
1059.598673
 21
756.629927
 31
0.0
  0
LINE
  5
124
330
1F
100
AcDbEntity
  8
HEWI
100
AcDbLine
 10
1059.129201
 20
755.7469799999999
 30
0.0
 11
1059.570675
 21
755.5122439999999
 31
0.0
  0
LINE
  5
125
330
1F
100
AcDbEntity
  8
HEWI
100
AcDbLine
 10
820.637647
 20
307.2096029999999
 30
0.0
 11
821.079121
 21
306.974867
 31
0.0
  0
LINE
  5
126
330
1F
100
AcDbEntity
  8
HEWI
100
AcDbLine
 10
807.930995
 20
118.270325
 30
0.0
 11
807.930995
 21
118.570325
 31
0.0
  0
LINE
  5
127
330
1F
100
AcDbEntity
  8
HEWI
100
AcDbLine
 10
807.930995
 20
118.270325
 30
0.0
 11
807.920995
 21
118.270325
 31
0.0
  0
LINE
  5
128
330
1F
100
AcDbEntity
  8
HEWI
100
AcDbLine
 10
807.930995
 20
118.570325
 30
0.0
 11
807.920995
 21
118.570325
 31
0.0
  0
LINE
  5
129
330
1F
100
AcDbEntity
  8
HEWI
100
AcDbLine
 10
807.930995
 20
121.170325
 30
0.0
 11
807.930995
 21
121.570325
 31
0.0
  0
LINE
  5
12A
330
1F
100
AcDbEntity
  8
HEWI
100
AcDbLine
 10
807.930995
 20
121.170325
 30
0.0
 11
807.920995
 21
121.170325
 31
0.0
  0
LINE
  5
12B
330
1F
100
AcDbEntity
  8
HEWI
100
AcDbLine
 10
807.930995
 20
121.570325
 30
0.0
 11
807.920995
 21
121.570325
 31
0.0
  0
LINE
  5
12C
330
1F
100
AcDbEntity
  8
HEWI
100
AcDbLine
 10
865.5088199999999
 20
409.066452
 30
0.0
 11
866.917235
 21
411.715295
 31
0.0
  0
LINE
  5
12D
330
1F
100
AcDbEntity
  8
HEWI
100
AcDbLine
 10
867.093825
 20
411.621401
 30
0.0
 11
866.917235
 21
411.715295
 31
0.0
  0
LINE
  5
12E
330
1F
100
AcDbEntity
  8
HEWI
100
AcDbLine
 10
844.8520720000001
 20
370.216758
 30
0.0
 11
865.5088199999999
 21
409.066452
 31
0.0
  0
LINE
  5
12F
330
1F
100
AcDbEntity
  8
HEWI
100
AcDbLine
 10
843.443657
 20
367.567915
 30
0.0
 11
844.8520720000001
 21
370.216758
 31
0.0
  0
LINE
  5
130
330
1F
100
AcDbEntity
  8
HEWI
100
AcDbLine
 10
843.620246
 20
367.474021
 30
0.0
 11
843.443657
 21
367.567915
 31
0.0
  0
LINE
  5
131
330
1F
100
AcDbEntity
  8
HEWI
100
AcDbLine
 10
807.930995
 20
132.970325
 30
0.0
 11
807.920995
 21
132.970325
 31
0.0
  0
LINE
  5
132
330
1F
100
AcDbEntity
  8
HEWI
100
AcDbLine
 10
807.930995
 20
132.970325
 30
0.0
 11
807.930995
 21
133.770325
 31
0.0
  0
LINE
  5
133
330
1F
100
AcDbEntity
  8
HEWI
100
AcDbLine
 10
807.930995
 20
133.770325
 30
0.0
 11
807.920995
 21
133.770325
 31
0.0
  0
LINE
  5
134
330
1F
100
AcDbEntity
  8
HEWI
100
AcDbLine
 10
807.930995
 20
115.470325
 30
0.0
 11
807.920995
 21
115.470325
 31
0.0
  0
LINE
  5
135
330
1F
100
AcDbEntity
  8
HEWI
100
AcDbLine
 10
807.930995
 20
115.270325
 30
0.0
 11
807.920995
 21
115.270325
 31
0.0
  0
LINE
  5
136
330
1F
100
AcDbEntity
  8
HEWI
100
AcDbLine
 10
807.930995
 20
115.270325
 30
0.0
 11
807.930995
 21
115.470325
 31
0.0
  0
LINE
  5
137
330
1F
100
AcDbEntity
  8
HEWI
100
AcDbLine
 10
104.723098
 20
290.945329
 30
0.0
 11
673.723098
 21
290.945329
 31
0.0
  0
LINE
  5
138
330
1F
100
AcDbEntity
  8
HEWI
100
AcDbLine
 10
89.72309799999999
 20
754.9867769999999
 30
0.0
 11
89.72309799999999
 21
304.683504
 31
0.0
  0
LINE
  5
139
330
1F
100
AcDbEntity
  8
HEWI
100
AcDbLine
 10
688.723098
 20
304.683504
 30
0.0
 11
688.723098
 21
754.9867769999999
 31
0.0
  0
LINE
  5
13A
330
1F
100
AcDbEntity
  8
HEWI
100
AcDbLine
 10
673.723098
 20
768.7249519999999
 30
0.0
 11
104.723098
 21
768.7249519999999
 31
0.0
  0
LINE
  5
13B
330
1F
100
AcDbEntity
  8
HEWI
100
AcDbLine
 10
639.473098
 20
101.335235
 30
0.0
 11
639.473098
 21
101.270447
 31
0.0
  0
LINE
  5
13C
330
1F
100
AcDbEntity
  8
HEWI
100
AcDbLine
 10
639.473098
 20
150.870203
 30
0.0
 11
639.473098
 21
150.8054149999999
 31
0.0
  0
LINE
  5
13D
330
1F
100
AcDbEntity
  8
HEWI
100
AcDbLine
 10
663.8234029999999
 20
151.070325
 30
0.0
 11
639.673098
 21
151.070325
 31
0.0
  0
LINE
  5
13E
330
1F
100
AcDbEntity
  8
HEWI
100
AcDbLine
 10
639.673098
 20
101.070325
 30
0.0
 11
663.8234029999999
 21
101.070325
 31
0.0
  0
LINE
  5
13F
330
1F
100
AcDbEntity
  8
HEWI
100
AcDbLine
 10
639.473098
 20
150.8054149999999
 30
0.0
 11
639.473098
 21
150.71217
 31
0.0
  0
LINE
  5
140
330
1F
100
AcDbEntity
  8
HEWI
100
AcDbLine
 10
639.473098
 20
101.42848
 30
0.0
 11
639.473098
 21
101.335235
 31
0.0
  0
LINE
  5
141
330
1F
100
AcDbEntity
  8
HEWI
100
AcDbLine
 10
664.3230980000001
 20
101.57002
 30
0.0
 11
664.3230980000001
 21
116.570325
 31
0.0
  0
LINE
  5
142
330
1F
100
AcDbEntity
  8
HEWI
100
AcDbLine
 10
664.3230980000001
 20
135.570325
 30
0.0
 11
664.3230980000001
 21
116.570325
 31
0.0
  0
LINE
  5
143
330
1F
100
AcDbEntity
  8
HEWI
100
AcDbLine
 10
664.3230980000001
 20
150.570629
 30
0.0
 11
664.3230980000001
 21
135.570325
 31
0.0
  0
LINE
  5
144
330
1F
100
AcDbEntity
  8
HEWI
100
AcDbLine
 10
639.473098
 20
150.71217
 30
0.0
 11
639.473098
 21
150.333867
 31
0.0
  0
LINE
  5
145
330
1F
100
AcDbEntity
  8
HEWI
100
AcDbLine
 10
639.473098
 20
101.806783
 30
0.0
 11
639.473098
 21
101.42848
 31
0.0
  0
LINE
  5
146
330
1F
100
AcDbEntity
  8
HEWI
100
AcDbLine
 10
639.473098
 20
150.333867
 30
0.0
 11
639.473098
 21
150.036904
 31
0.0
  0
LINE
  5
147
330
1F
100
AcDbEntity
  8
HEWI
100
AcDbLine
 10
639.473098
 20
150.036904
 30
0.0
 11
639.473098
 21
102.103745
 31
0.0
  0
LINE
  5
148
330
1F
100
AcDbEntity
  8
HEWI
100
AcDbLine
 10
639.473098
 20
102.103745
 30
0.0
 11
639.473098
 21
101.806783
 31
0.0
  0
LINE
  5
149
330
1F
100
AcDbEntity
  8
HEWI
100
AcDbLine
 10
639.4728639999999
 20
105.945325
 30
0.0
 11
638.973332
 21
105.945325
 31
0.0
  0
LINE
  5
14A
330
1F
100
AcDbEntity
  8
HEWI
100
AcDbLine
 10
639.4728639999999
 20
146.195325
 30
0.0
 11
638.973332
 21
146.195325
 31
0.0
  0
LINE
  5
14B
330
1F
100
AcDbEntity
  8
HEWI
100
AcDbLine
 10
633.823098
 20
151.570325
 30
0.0
 11
633.823098
 21
151.070309
 31
0.0
  0
LINE
  5
14C
330
1F
100
AcDbEntity
  8
HEWI
100
AcDbLine
 10
634.623098
 20
151.070309
 30
0.0
 11
634.623098
 21
151.570325
 31
0.0
  0
LINE
  5
14D
330
1F
100
AcDbEntity
  8
HEWI
100
AcDbLine
 10
618.623098
 20
151.070309
 30
0.0
 11
618.623098
 21
151.570325
 31
0.0
  0
LINE
  5
14E
330
1F
100
AcDbEntity
  8
HEWI
100
AcDbLine
 10
617.8230980000001
 20
151.570325
 30
0.0
 11
617.8230980000001
 21
151.070309
 31
0.0
  0
LINE
  5
14F
330
1F
100
AcDbEntity
  8
HEWI
100
AcDbLine
 10
613.723098
 20
103.470325
 30
0.0
 11
614.1230870000001
 21
103.470325
 31
0.0
  0
LINE
  5
150
330
1F
100
AcDbEntity
  8
HEWI
100
AcDbLine
 10
613.723098
 20
148.670325
 30
0.0
 11
614.1230870000001
 21
148.670325
 31
0.0
  0
LINE
  5
151
330
1F
100
AcDbEntity
  8
HEWI
100
AcDbLine
 10
618.623098
 20
101.07034
 30
0.0
 11
618.623098
 21
100.570325
 31
0.0
  0
LINE
  5
152
330
1F
100
AcDbEntity
  8
HEWI
100
AcDbLine
 10
617.8230980000001
 20
100.570325
 30
0.0
 11
617.8230980000001
 21
101.07034
 31
0.0
  0
LINE
  5
153
330
1F
100
AcDbEntity
  8
HEWI
100
AcDbLine
 10
660.623098
 20
100.570325
 30
0.0
 11
660.623098
 21
101.07034
 31
0.0
  0
LINE
  5
154
330
1F
100
AcDbEntity
  8
HEWI
100
AcDbLine
 10
659.8230980000001
 20
101.07034
 30
0.0
 11
659.8230980000001
 21
100.570325
 31
0.0
  0
LINE
  5
155
330
1F
100
AcDbEntity
  8
HEWI
100
AcDbLine
 10
659.8230980000001
 20
151.070309
 30
0.0
 11
659.8230980000001
 21
151.570325
 31
0.0
  0
LINE
  5
156
330
1F
100
AcDbEntity
  8
HEWI
100
AcDbLine
 10
660.623098
 20
151.570325
 30
0.0
 11
660.623098
 21
151.070309
 31
0.0
  0
LINE
  5
157
330
1F
100
AcDbEntity
  8
HEWI
100
AcDbLine
 10
616.623098
 20
151.570325
 30
0.0
 11
616.623098
 21
151.070325
 31
0.0
  0
LINE
  5
158
330
1F
100
AcDbEntity
  8
HEWI
100
AcDbLine
 10
616.623098
 20
100.570325
 30
0.0
 11
616.623098
 21
101.070325
 31
0.0
  0
LINE
  5
159
330
1F
100
AcDbEntity
  8
HEWI
100
AcDbLine
 10
661.823098
 20
151.570325
 30
0.0
 11
661.823098
 21
151.070325
 31
0.0
  0
LINE
  5
15A
330
1F
100
AcDbEntity
  8
HEWI
100
AcDbLine
 10
664.723098
 20
103.470325
 30
0.0
 11
664.3231089999999
 21
103.470325
 31
0.0
  0
LINE
  5
15B
330
1F
100
AcDbEntity
  8
HEWI
100
AcDbLine
 10
664.723098
 20
148.670325
 30
0.0
 11
664.3231089999999
 21
148.670325
 31
0.0
  0
LINE
  5
15C
330
1F
100
AcDbEntity
  8
HEWI
100
AcDbLine
 10
661.823098
 20
100.570325
 30
0.0
 11
661.823098
 21
101.070325
 31
0.0
  0
LINE
  5
15D
330
1F
100
AcDbEntity
  8
HEWI
100
AcDbLine
 10
643.8230980000001
 20
101.07034
 30
0.0
 11
643.8230980000001
 21
100.570325
 31
0.0
  0
LINE
  5
15E
330
1F
100
AcDbEntity
  8
HEWI
100
AcDbLine
 10
644.623098
 20
100.570325
 30
0.0
 11
644.623098
 21
101.07034
 31
0.0
  0
LINE
  5
15F
330
1F
100
AcDbEntity
  8
HEWI
100
AcDbLine
 10
643.8230980000001
 20
151.070309
 30
0.0
 11
643.8230980000001
 21
151.570325
 31
0.0
  0
LINE
  5
160
330
1F
100
AcDbEntity
  8
HEWI
100
AcDbLine
 10
644.623098
 20
151.570325
 30
0.0
 11
644.623098
 21
151.070309
 31
0.0
  0
LINE
  5
161
330
1F
100
AcDbEntity
  8
HEWI
100
AcDbLine
 10
633.823098
 20
100.570325
 30
0.0
 11
633.823098
 21
101.07034
 31
0.0
  0
LINE
  5
162
330
1F
100
AcDbEntity
  8
HEWI
100
AcDbLine
 10
634.623098
 20
101.07034
 30
0.0
 11
634.623098
 21
100.570325
 31
0.0
  0
LINE
  5
163
330
1F
100
AcDbEntity
  8
HEWI
100
AcDbLine
 10
664.723098
 20
151.070325
 30
0.0
 11
664.723098
 21
101.070325
 31
0.0
  0
LINE
  5
164
330
1F
100
AcDbEntity
  8
HEWI
100
AcDbLine
 10
668.473098
 20
155.820325
 30
0.0
 11
609.973098
 21
155.820325
 31
0.0
  0
LINE
  5
165
330
1F
100
AcDbEntity
  8
HEWI
100
AcDbLine
 10
668.473098
 20
96.32032500000001
 30
0.0
 11
609.973098
 21
96.32032500000001
 31
0.0
  0
LINE
  5
166
330
1F
100
AcDbEntity
  8
HEWI
100
AcDbLine
 10
609.473098
 20
155.320325
 30
0.0
 11
609.473098
 21
96.820325
 31
0.0
  0
LINE
  5
167
330
1F
100
AcDbEntity
  8
HEWI
100
AcDbLine
 10
614.223098
 20
100.570325
 30
0.0
 11
664.223098
 21
100.570325
 31
0.0
  0
LINE
  5
168
330
1F
100
AcDbEntity
  8
HEWI
100
AcDbLine
 10
613.723098
 20
151.070325
 30
0.0
 11
613.723098
 21
101.070325
 31
0.0
  0
LINE
  5
169
330
1F
100
AcDbEntity
  8
HEWI
100
AcDbLine
 10
614.223098
 20
151.570325
 30
0.0
 11
664.223098
 21
151.570325
 31
0.0
  0
LINE
  5
16A
330
1F
100
AcDbEntity
  8
HEWI
100
AcDbLine
 10
668.973098
 20
155.320325
 30
0.0
 11
668.973098
 21
96.820325
 31
0.0
  0
LINE
  5
16B
330
1F
100
AcDbEntity
  8
HEWI
100
AcDbLine
 10
104.723098
 20
290.977065
 30
0.0
 11
673.723098
 21
290.977065
 31
0.0
  0
LINE
  5
16C
330
1F
100
AcDbEntity
  8
HEWI
100
AcDbLine
 10
651.7724879999999
 20
300.618521
 30
0.0
 11
651.7724879999999
 21
300.623216
 31
0.0
  0
LINE
  5
16D
330
1F
100
AcDbEntity
  8
HEWI
100
AcDbLine
 10
649.353708
 20
300.618521
 30
0.0
 11
649.353708
 21
300.623216
 31
0.0
  0
LINE
  5
16E
330
1F
100
AcDbEntity
  8
HEWI
100
AcDbLine
 10
647.5368480000001
 20
300.618521
 30
0.0
 11
647.5368480000001
 21
300.623216
 31
0.0
  0
LINE
  5
16F
330
1F
100
AcDbEntity
  8
HEWI
100
AcDbLine
 10
655.963098
 20
298.860352
 30
0.0
 11
655.963098
 21
298.865047
 31
0.0
  0
LINE
  5
170
330
1F
100
AcDbEntity
  8
HEWI
100
AcDbLine
 10
657.414348
 20
298.860352
 30
0.0
 11
657.414348
 21
298.865047
 31
0.0
  0
LINE
  5
171
330
1F
100
AcDbEntity
  8
HEWI
100
AcDbLine
 10
656.6943479999999
 20
301.572105
 30
0.0
 11
656.6943479999999
 21
301.576799
 31
0.0
  0
LINE
  5
172
330
1F
100
AcDbEntity
  8
HEWI
100
AcDbLine
 10
651.7724879999999
 20
302.138295
 30
0.0
 11
651.7724879999999
 21
302.142989
 31
0.0
  0
LINE
  5
173
330
1F
100
AcDbEntity
  8
HEWI
100
AcDbLine
 10
653.679348
 20
298.865047
 30
0.0
 11
650.8668479999999
 21
298.865047
 31
0.0
  0
LINE
  5
174
330
1F
100
AcDbEntity
  8
HEWI
100
AcDbLine
 10
653.5274879999999
 20
300.623216
 30
0.0
 11
651.7724879999999
 21
300.623216
 31
0.0
  0
LINE
  5
175
330
1F
100
AcDbEntity
  8
HEWI
100
AcDbLine
 10
653.679348
 20
302.142989
 30
0.0
 11
651.7724879999999
 21
302.142989
 31
0.0
  0
LINE
  5
176
330
1F
100
AcDbEntity
  8
HEWI
100
AcDbLine
 10
655.963098
 20
298.865047
 30
0.0
 11
655.079958
 21
298.865047
 31
0.0
  0
LINE
  5
177
330
1F
100
AcDbEntity
  8
HEWI
100
AcDbLine
 10
656.6943479999999
 20
301.576799
 30
0.0
 11
655.963098
 21
298.865047
 31
0.0
  0
LINE
  5
178
330
1F
100
AcDbEntity
  8
HEWI
100
AcDbLine
 10
657.414348
 20
298.865047
 30
0.0
 11
656.6943479999999
 21
301.576799
 31
0.0
  0
LINE
  5
179
330
1F
100
AcDbEntity
  8
HEWI
100
AcDbLine
 10
658.297488
 20
298.865047
 30
0.0
 11
657.414348
 21
298.865047
 31
0.0
  0
LINE
  5
17A
330
1F
100
AcDbEntity
  8
HEWI
100
AcDbLine
 10
660.823098
 20
298.865047
 30
0.0
 11
659.889348
 21
298.865047
 31
0.0
  0
LINE
  5
17B
330
1F
100
AcDbEntity
  8
HEWI
100
AcDbLine
 10
646.631208
 20
298.865047
 30
0.0
 11
647.5368480000001
 21
298.865047
 31
0.0
  0
LINE
  5
17C
330
1F
100
AcDbEntity
  8
HEWI
100
AcDbLine
 10
647.5368480000001
 20
300.623216
 30
0.0
 11
649.353708
 21
300.623216
 31
0.0
  0
LINE
  5
17D
330
1F
100
AcDbEntity
  8
HEWI
100
AcDbLine
 10
649.353708
 20
298.865047
 30
0.0
 11
650.259348
 21
298.865047
 31
0.0
  0
LINE
  5
17E
330
1F
100
AcDbEntity
  8
HEWI
100
AcDbLine
 10
659.6458849999999
 20
302.833592
 30
0.0
 11
658.297488
 21
298.865047
 31
0.0
  0
LINE
  5
17F
330
1F
100
AcDbEntity
  8
HEWI
100
AcDbLine
 10
658.297488
 20
298.860352
 30
0.0
 11
658.297488
 21
298.865047
 31
0.0
  0
LINE
  5
180
330
1F
100
AcDbEntity
  8
HEWI
100
AcDbLine
 10
655.079958
 20
298.860352
 30
0.0
 11
655.079958
 21
298.865047
 31
0.0
  0
LINE
  5
181
330
1F
100
AcDbEntity
  8
HEWI
100
AcDbLine
 10
655.079958
 20
298.865047
 30
0.0
 11
653.8158509999999
 21
302.833592
 31
0.0
  0
LINE
  5
182
330
1F
100
AcDbEntity
  8
HEWI
100
AcDbLine
 10
119.723098
 20
312.10926
 30
0.0
 11
129.723098
 21
312.10926
 31
0.0
  0
LINE
  5
183
330
1F
100
AcDbEntity
  8
HEWI
100
AcDbLine
 10
648.723098
 20
312.10926
 30
0.0
 11
658.7230980000001
 21
312.10926
 31
0.0
  0
LINE
  5
184
330
1F
100
AcDbEntity
  8
HEWI
100
AcDbLine
 10
687.9586009999999
 20
303.546269
 30
0.0
 11
687.9586009999999
 21
753.849541
 31
0.0
  0
LINE
  5
185
330
1F
100
AcDbEntity
  8
HEWI
100
AcDbLine
 10
90.48759399999999
 20
753.849541
 30
0.0
 11
90.48759399999999
 21
303.546269
 31
0.0
  0
LINE
  5
186
330
1F
100
AcDbEntity
  8
HEWI
100
AcDbLine
 10
114.723098
 20
316.519304
 30
0.0
 11
114.723098
 21
740.334148
 31
0.0
  0
LINE
  5
187
330
1F
100
AcDbEntity
  8
HEWI
100
AcDbLine
 10
119.723098
 20
744.748886
 30
0.0
 11
129.723098
 21
744.748886
 31
0.0
  0
LINE
  5
188
330
1F
100
AcDbEntity
  8
HEWI
100
AcDbLine
 10
134.723098
 20
740.334148
 30
0.0
 11
134.723098
 21
316.519304
 31
0.0
  0
LINE
  5
189
330
1F
100
AcDbEntity
  8
HEWI
100
AcDbLine
 10
129.723098
 20
312.104566
 30
0.0
 11
119.723098
 21
312.104566
 31
0.0
  0
LINE
  5
18A
330
1F
100
AcDbEntity
  8
HEWI
100
AcDbLine
 10
643.723098
 20
316.519304
 30
0.0
 11
643.723098
 21
740.334148
 31
0.0
  0
LINE
  5
18B
330
1F
100
AcDbEntity
  8
HEWI
100
AcDbLine
 10
648.723098
 20
744.748886
 30
0.0
 11
658.7230980000001
 21
744.748886
 31
0.0
  0
LINE
  5
18C
330
1F
100
AcDbEntity
  8
HEWI
100
AcDbLine
 10
663.723098
 20
740.334148
 30
0.0
 11
663.723098
 21
316.519304
 31
0.0
  0
LINE
  5
18D
330
1F
100
AcDbEntity
  8
HEWI
100
AcDbLine
 10
658.7230980000001
 20
312.104566
 30
0.0
 11
648.723098
 21
312.104566
 31
0.0
  0
LINE
  5
18E
330
1F
100
AcDbEntity
  8
HEWI
100
AcDbLine
 10
659.889348
 20
302.833616
 30
0.0
 11
659.889348
 21
298.860352
 31
0.0
  0
LINE
  5
18F
330
1F
100
AcDbEntity
  8
HEWI
100
AcDbLine
 10
660.823098
 20
302.833616
 30
0.0
 11
659.889348
 21
302.833616
 31
0.0
  0
LINE
  5
190
330
1F
100
AcDbEntity
  8
HEWI
100
AcDbLine
 10
660.823098
 20
298.860352
 30
0.0
 11
660.823098
 21
302.833616
 31
0.0
  0
LINE
  5
191
330
1F
100
AcDbEntity
  8
HEWI
100
AcDbLine
 10
659.889348
 20
298.860352
 30
0.0
 11
660.823098
 21
298.860352
 31
0.0
  0
LINE
  5
192
330
1F
100
AcDbEntity
  8
HEWI
100
AcDbLine
 10
654.770598
 20
302.833616
 30
0.0
 11
653.814348
 21
302.833616
 31
0.0
  0
LINE
  5
193
330
1F
100
AcDbEntity
  8
HEWI
100
AcDbLine
 10
655.552458
 20
300.082131
 30
0.0
 11
654.770598
 21
302.833616
 31
0.0
  0
LINE
  5
194
330
1F
100
AcDbEntity
  8
HEWI
100
AcDbLine
 10
656.244348
 20
302.833616
 30
0.0
 11
655.552458
 21
300.082131
 31
0.0
  0
LINE
  5
195
330
1F
100
AcDbEntity
  8
HEWI
100
AcDbLine
 10
657.161208
 20
302.833616
 30
0.0
 11
656.244348
 21
302.833616
 31
0.0
  0
LINE
  5
196
330
1F
100
AcDbEntity
  8
HEWI
100
AcDbLine
 10
657.8474879999999
 20
300.062264
 30
0.0
 11
657.161208
 21
302.833616
 31
0.0
  0
LINE
  5
197
330
1F
100
AcDbEntity
  8
HEWI
100
AcDbLine
 10
658.6518480000001
 20
302.833616
 30
0.0
 11
657.8474879999999
 21
300.062264
 31
0.0
  0
LINE
  5
198
330
1F
100
AcDbEntity
  8
HEWI
100
AcDbLine
 10
659.6474879999999
 20
302.833616
 30
0.0
 11
658.6518480000001
 21
302.833616
 31
0.0
  0
LINE
  5
199
330
1F
100
AcDbEntity
  8
HEWI
100
AcDbLine
 10
658.297488
 20
298.860352
 30
0.0
 11
659.6474879999999
 21
302.833616
 31
0.0
  0
LINE
  5
19A
330
1F
100
AcDbEntity
  8
HEWI
100
AcDbLine
 10
657.414348
 20
298.860352
 30
0.0
 11
658.297488
 21
298.860352
 31
0.0
  0
LINE
  5
19B
330
1F
100
AcDbEntity
  8
HEWI
100
AcDbLine
 10
656.6943479999999
 20
301.572105
 30
0.0
 11
657.414348
 21
298.860352
 31
0.0
  0
LINE
  5
19C
330
1F
100
AcDbEntity
  8
HEWI
100
AcDbLine
 10
655.963098
 20
298.860352
 30
0.0
 11
656.6943479999999
 21
301.572105
 31
0.0
  0
LINE
  5
19D
330
1F
100
AcDbEntity
  8
HEWI
100
AcDbLine
 10
655.079958
 20
298.860352
 30
0.0
 11
655.963098
 21
298.860352
 31
0.0
  0
LINE
  5
19E
330
1F
100
AcDbEntity
  8
HEWI
100
AcDbLine
 10
653.814348
 20
302.833616
 30
0.0
 11
655.079958
 21
298.860352
 31
0.0
  0
LINE
  5
19F
330
1F
100
AcDbEntity
  8
HEWI
100
AcDbLine
 10
650.8668479999999
 20
302.833616
 30
0.0
 11
650.8668479999999
 21
298.860352
 31
0.0
  0
LINE
  5
1A0
330
1F
100
AcDbEntity
  8
HEWI
100
AcDbLine
 10
653.679348
 20
302.833616
 30
0.0
 11
650.8668479999999
 21
302.833616
 31
0.0
  0
LINE
  5
1A1
330
1F
100
AcDbEntity
  8
HEWI
100
AcDbLine
 10
653.679348
 20
302.138295
 30
0.0
 11
653.679348
 21
302.833616
 31
0.0
  0
LINE
  5
1A2
330
1F
100
AcDbEntity
  8
HEWI
100
AcDbLine
 10
651.7724879999999
 20
302.138295
 30
0.0
 11
653.679348
 21
302.138295
 31
0.0
  0
LINE
  5
1A3
330
1F
100
AcDbEntity
  8
HEWI
100
AcDbLine
 10
651.7724879999999
 20
301.24929
 30
0.0
 11
651.7724879999999
 21
302.138295
 31
0.0
  0
LINE
  5
1A4
330
1F
100
AcDbEntity
  8
HEWI
100
AcDbLine
 10
653.5274879999999
 20
301.24929
 30
0.0
 11
651.7724879999999
 21
301.24929
 31
0.0
  0
LINE
  5
1A5
330
1F
100
AcDbEntity
  8
HEWI
100
AcDbLine
 10
653.5274879999999
 20
300.618521
 30
0.0
 11
653.5274879999999
 21
301.24929
 31
0.0
  0
LINE
  5
1A6
330
1F
100
AcDbEntity
  8
HEWI
100
AcDbLine
 10
651.7724879999999
 20
300.618521
 30
0.0
 11
653.5274879999999
 21
300.618521
 31
0.0
  0
LINE
  5
1A7
330
1F
100
AcDbEntity
  8
HEWI
100
AcDbLine
 10
651.7724879999999
 20
299.525874
 30
0.0
 11
651.7724879999999
 21
300.618521
 31
0.0
  0
LINE
  5
1A8
330
1F
100
AcDbEntity
  8
HEWI
100
AcDbLine
 10
653.679348
 20
299.525874
 30
0.0
 11
651.7724879999999
 21
299.525874
 31
0.0
  0
LINE
  5
1A9
330
1F
100
AcDbEntity
  8
HEWI
100
AcDbLine
 10
653.679348
 20
298.860352
 30
0.0
 11
653.679348
 21
299.525874
 31
0.0
  0
LINE
  5
1AA
330
1F
100
AcDbEntity
  8
HEWI
100
AcDbLine
 10
650.8668479999999
 20
298.860352
 30
0.0
 11
653.679348
 21
298.860352
 31
0.0
  0
LINE
  5
1AB
330
1F
100
AcDbEntity
  8
HEWI
100
AcDbLine
 10
673.723098
 20
291.372956
 30
0.0
 11
104.723098
 21
291.372956
 31
0.0
  0
LINE
  5
1AC
330
1F
100
AcDbEntity
  8
HEWI
100
AcDbLine
 10
687.203098
 20
303.27509
 30
0.0
 11
687.203098
 21
753.578362
 31
0.0
  0
LINE
  5
1AD
330
1F
100
AcDbEntity
  8
HEWI
100
AcDbLine
 10
91.243098
 20
753.578362
 30
0.0
 11
91.243098
 21
303.27509
 31
0.0
  0
LINE
  5
1AE
330
1F
100
AcDbEntity
  8
HEWI
100
AcDbLine
 10
647.5368480000001
 20
298.860352
 30
0.0
 11
646.631208
 21
298.860352
 31
0.0
  0
LINE
  5
1AF
330
1F
100
AcDbEntity
  8
HEWI
100
AcDbLine
 10
646.631208
 20
298.860352
 30
0.0
 11
646.631208
 21
302.833616
 31
0.0
  0
LINE
  5
1B0
330
1F
100
AcDbEntity
  8
HEWI
100
AcDbLine
 10
646.631208
 20
302.833616
 30
0.0
 11
647.5368480000001
 21
302.833616
 31
0.0
  0
LINE
  5
1B1
330
1F
100
AcDbEntity
  8
HEWI
100
AcDbLine
 10
647.5368480000001
 20
302.833616
 30
0.0
 11
647.5368480000001
 21
301.24929
 31
0.0
  0
LINE
  5
1B2
330
1F
100
AcDbEntity
  8
HEWI
100
AcDbLine
 10
647.5368480000001
 20
301.24929
 30
0.0
 11
649.353708
 21
301.24929
 31
0.0
  0
LINE
  5
1B3
330
1F
100
AcDbEntity
  8
HEWI
100
AcDbLine
 10
649.353708
 20
301.24929
 30
0.0
 11
649.353708
 21
302.833616
 31
0.0
  0
LINE
  5
1B4
330
1F
100
AcDbEntity
  8
HEWI
100
AcDbLine
 10
649.353708
 20
302.833616
 30
0.0
 11
650.259348
 21
302.833616
 31
0.0
  0
LINE
  5
1B5
330
1F
100
AcDbEntity
  8
HEWI
100
AcDbLine
 10
650.259348
 20
302.833616
 30
0.0
 11
650.259348
 21
298.860352
 31
0.0
  0
LINE
  5
1B6
330
1F
100
AcDbEntity
  8
HEWI
100
AcDbLine
 10
650.259348
 20
298.860352
 30
0.0
 11
649.353708
 21
298.860352
 31
0.0
  0
LINE
  5
1B7
330
1F
100
AcDbEntity
  8
HEWI
100
AcDbLine
 10
649.353708
 20
298.860352
 30
0.0
 11
649.353708
 21
300.618521
 31
0.0
  0
LINE
  5
1B8
330
1F
100
AcDbEntity
  8
HEWI
100
AcDbLine
 10
649.353708
 20
300.618521
 30
0.0
 11
647.5368480000001
 21
300.618521
 31
0.0
  0
LINE
  5
1B9
330
1F
100
AcDbEntity
  8
HEWI
100
AcDbLine
 10
647.5368480000001
 20
300.618521
 30
0.0
 11
647.5368480000001
 21
298.860352
 31
0.0
  0
LINE
  5
1BA
330
1F
100
AcDbEntity
  8
HEWI
100
AcDbLine
 10
673.723098
 20
766.418745
 30
0.0
 11
104.723098
 21
766.418745
 31
0.0
  0
LINE
  5
1BB
330
1F
100
AcDbEntity
  8
HEWI
100
AcDbLine
 10
673.723098
 20
765.4804959999999
 30
0.0
 11
104.723098
 21
765.4804959999999
 31
0.0
  0
LINE
  5
1BC
330
1F
100
AcDbEntity
  8
HEWI
100
AcDbLine
 10
638.973098
 20
150.8054149999999
 30
0.0
 11
638.973098
 21
150.870203
 31
0.0
  0
LINE
  5
1BD
330
1F
100
AcDbEntity
  8
HEWI
100
AcDbLine
 10
638.973098
 20
101.270447
 30
0.0
 11
638.973098
 21
101.335235
 31
0.0
  0
LINE
  5
1BE
330
1F
100
AcDbEntity
  8
HEWI
100
AcDbLine
 10
638.773098
 20
151.070325
 30
0.0
 11
614.622793
 21
151.070325
 31
0.0
  0
LINE
  5
1BF
330
1F
100
AcDbEntity
  8
HEWI
100
AcDbLine
 10
614.622793
 20
101.070325
 30
0.0
 11
638.773098
 21
101.070325
 31
0.0
  0
LINE
  5
1C0
330
1F
100
AcDbEntity
  8
HEWI
100
AcDbLine
 10
638.973098
 20
101.335235
 30
0.0
 11
638.973098
 21
101.42848
 31
0.0
  0
LINE
  5
1C1
330
1F
100
AcDbEntity
  8
HEWI
100
AcDbLine
 10
638.973098
 20
150.71217
 30
0.0
 11
638.973098
 21
150.8054149999999
 31
0.0
  0
LINE
  5
1C2
330
1F
100
AcDbEntity
  8
HEWI
100
AcDbLine
 10
614.123098
 20
150.570629
 30
0.0
 11
614.123098
 21
135.570325
 31
0.0
  0
LINE
  5
1C3
330
1F
100
AcDbEntity
  8
HEWI
100
AcDbLine
 10
614.123098
 20
116.570325
 30
0.0
 11
614.123098
 21
135.570325
 31
0.0
  0
LINE
  5
1C4
330
1F
100
AcDbEntity
  8
HEWI
100
AcDbLine
 10
614.123098
 20
101.57002
 30
0.0
 11
614.123098
 21
116.570325
 31
0.0
  0
LINE
  5
1C5
330
1F
100
AcDbEntity
  8
HEWI
100
AcDbLine
 10
638.973098
 20
101.42848
 30
0.0
 11
638.973098
 21
101.806783
 31
0.0
  0
LINE
  5
1C6
330
1F
100
AcDbEntity
  8
HEWI
100
AcDbLine
 10
638.973098
 20
150.333867
 30
0.0
 11
638.973098
 21
150.71217
 31
0.0
  0
LINE
  5
1C7
330
1F
100
AcDbEntity
  8
HEWI
100
AcDbLine
 10
638.973098
 20
101.806783
 30
0.0
 11
638.973098
 21
102.103745
 31
0.0
  0
LINE
  5
1C8
330
1F
100
AcDbEntity
  8
HEWI
100
AcDbLine
 10
638.973098
 20
102.103745
 30
0.0
 11
638.973098
 21
150.036904
 31
0.0
  0
LINE
  5
1C9
330
1F
100
AcDbEntity
  8
HEWI
100
AcDbLine
 10
638.973098
 20
150.036904
 30
0.0
 11
638.973098
 21
150.333867
 31
0.0
  0
LINE
  5
1CA
330
1F
100
AcDbEntity
  8
HEWI
100
AcDbLine
 10
609.747298
 20
156.350925
 30
0.0
 11
668.6988980000001
 21
156.350925
 31
0.0
  0
LINE
  5
1CB
330
1F
100
AcDbEntity
  8
HEWI
100
AcDbLine
 10
669.5036980000001
 20
155.546125
 30
0.0
 11
669.5036980000001
 21
96.594525
 31
0.0
  0
LINE
  5
1CC
330
1F
100
AcDbEntity
  8
HEWI
100
AcDbLine
 10
608.942498
 20
155.546125
 30
0.0
 11
608.942498
 21
96.594525
 31
0.0
  0
LINE
  5
1CD
330
1F
100
AcDbEntity
  8
HEWI
100
AcDbLine
 10
680.972098
 20
84.522525
 30
0.0
 11
680.972098
 21
167.618125
 31
0.0
  0
LINE
  5
1CE
330
1F
100
AcDbEntity
  8
HEWI
100
AcDbLine
 10
679.9660979999999
 20
85.32732499999999
 30
0.0
 11
679.9660979999999
 21
166.813325
 31
0.0
  0
LINE
  5
1CF
330
1F
100
AcDbEntity
  8
HEWI
100
AcDbLine
 10
597.4740979999999
 20
84.522525
 30
0.0
 11
597.4740979999999
 21
167.618125
 31
0.0
  0
LINE
  5
1D0
330
1F
100
AcDbEntity
  8
HEWI
100
AcDbLine
 10
598.480098
 20
85.32732499999999
 30
0.0
 11
598.480098
 21
166.813325
 31
0.0
  0
LINE
  5
1D1
330
1F
100
AcDbEntity
  8
HEWI
100
AcDbLine
 10
609.747298
 20
95.789725
 30
0.0
 11
668.6988980000001
 21
95.789725
 31
0.0
  0
LINE
  5
1D2
330
1F
100
AcDbEntity
  8
HEWI
100
AcDbLine
 10
680.9131679999999
 20
84.380255
 30
0.0
 11
679.9660979999999
 21
85.32732499999999
 31
0.0
  0
LINE
  5
1D3
330
1F
100
AcDbEntity
  8
HEWI
100
AcDbLine
 10
598.480098
 20
85.32732499999999
 30
0.0
 11
679.9660979999999
 21
85.32732499999999
 31
0.0
  0
LINE
  5
1D4
330
1F
100
AcDbEntity
  8
HEWI
100
AcDbLine
 10
597.533028
 20
84.380255
 30
0.0
 11
598.480098
 21
85.32732499999999
 31
0.0
  0
LINE
  5
1D5
330
1F
100
AcDbEntity
  8
HEWI
100
AcDbLine
 10
597.675298
 20
84.32132499999999
 30
0.0
 11
680.770898
 21
84.32132499999999
 31
0.0
  0
LINE
  5
1D6
330
1F
100
AcDbEntity
  8
HEWI
100
AcDbLine
 10
597.533028
 20
167.760395
 30
0.0
 11
598.480098
 21
166.813325
 31
0.0
  0
LINE
  5
1D7
330
1F
100
AcDbEntity
  8
HEWI
100
AcDbLine
 10
598.480098
 20
166.813325
 30
0.0
 11
679.9660979999999
 21
166.813325
 31
0.0
  0
LINE
  5
1D8
330
1F
100
AcDbEntity
  8
HEWI
100
AcDbLine
 10
680.9131679999999
 20
167.760395
 30
0.0
 11
679.9660979999999
 21
166.813325
 31
0.0
  0
LINE
  5
1D9
330
1F
100
AcDbEntity
  8
HEWI
100
AcDbLine
 10
597.675298
 20
167.819325
 30
0.0
 11
680.770898
 21
167.819325
 31
0.0
  0
LINE
  5
1DA
330
1F
100
AcDbEntity
  8
HEWI
100
AcDbLine
 10
638.9732539999999
 20
146.070325
 30
0.0
 11
639.4729419999999
 21
146.070325
 31
0.0
  0
LINE
  5
1DB
330
1F
100
AcDbEntity
  8
HEWI
100
AcDbLine
 10
639.4729419999999
 20
106.070325
 30
0.0
 11
638.9732539999999
 21
106.070325
 31
0.0
  0
LINE
  5
1DC
330
1F
100
AcDbEntity
  8
HEWI
100
AcDbLine
 10
639.4727780000001
 20
145.83422
 30
0.0
 11
638.9734179999999
 21
145.83422
 31
0.0
  0
LINE
  5
1DD
330
1F
100
AcDbEntity
  8
HEWI
100
AcDbLine
 10
638.9734179999999
 20
106.306429
 30
0.0
 11
639.4727780000001
 21
106.306429
 31
0.0
  0
LINE
  5
1DE
330
1F
100
AcDbEntity
  8
HEWI
100
AcDbLine
 10
638.97327
 20
143.361815
 30
0.0
 11
639.472926
 21
143.361815
 31
0.0
  0
LINE
  5
1DF
330
1F
100
AcDbEntity
  8
HEWI
100
AcDbLine
 10
639.472926
 20
108.778834
 30
0.0
 11
638.97327
 21
108.778834
 31
0.0
  0
LINE
  5
1E0
330
1F
100
AcDbEntity
  8
HEWI
100
AcDbLine
 10
638.9734279999999
 20
109.409501
 30
0.0
 11
639.4727679999999
 21
109.409501
 31
0.0
  0
LINE
  5
1E1
330
1F
100
AcDbEntity
  8
HEWI
100
AcDbLine
 10
639.4727679999999
 20
142.731149
 30
0.0
 11
638.9734279999999
 21
142.731149
 31
0.0
  0
LINE
  5
1E2
330
1F
100
AcDbEntity
  8
HEWI
100
AcDbLine
 10
638.97343
 20
142.702451
 30
0.0
 11
639.472766
 21
142.702451
 31
0.0
  0
LINE
  5
1E3
330
1F
100
AcDbEntity
  8
HEWI
100
AcDbLine
 10
638.97343
 20
109.438199
 30
0.0
 11
639.472766
 21
109.438199
 31
0.0
  0
LINE
  5
1E4
330
1F
100
AcDbEntity
  8
HEWI
100
AcDbLine
 10
639.023098
 20
140.887745
 30
0.0
 11
639.4230980000001
 21
140.887745
 31
0.0
  0
LINE
  5
1E5
330
1F
100
AcDbEntity
  8
HEWI
100
AcDbLine
 10
638.973114
 20
141.684701
 30
0.0
 11
639.4730819999999
 21
141.684701
 31
0.0
  0
LINE
  5
1E6
330
1F
100
AcDbEntity
  8
HEWI
100
AcDbLine
 10
639.4230980000001
 20
138.514309
 30
0.0
 11
639.023098
 21
138.514309
 31
0.0
  0
LINE
  5
1E7
330
1F
100
AcDbEntity
  8
HEWI
100
AcDbLine
 10
639.023098
 20
140.905176
 30
0.0
 11
639.4230980000001
 21
140.905176
 31
0.0
  0
LINE
  5
1E8
330
1F
100
AcDbEntity
  8
HEWI
100
AcDbLine
 10
639.023098
 20
141.204034
 30
0.0
 11
639.4230980000001
 21
141.204034
 31
0.0
  0
LINE
  5
1E9
330
1F
100
AcDbEntity
  8
HEWI
100
AcDbLine
 10
639.4230980000001
 20
138.21545
 30
0.0
 11
639.023098
 21
138.21545
 31
0.0
  0
LINE
  5
1EA
330
1F
100
AcDbEntity
  8
HEWI
100
AcDbLine
 10
639.4230980000001
 20
138.198019
 30
0.0
 11
639.023098
 21
138.198019
 31
0.0
  0
LINE
  5
1EB
330
1F
100
AcDbEntity
  8
HEWI
100
AcDbLine
 10
638.9730959999999
 20
113.102905
 30
0.0
 11
639.073098
 21
113.102905
 31
0.0
  0
LINE
  5
1EC
330
1F
100
AcDbEntity
  8
HEWI
100
AcDbLine
 10
639.373098
 20
113.102905
 30
0.0
 11
639.4731
 21
113.102905
 31
0.0
  0
LINE
  5
1ED
330
1F
100
AcDbEntity
  8
HEWI
100
AcDbLine
 10
639.4730819999999
 20
112.305949
 30
0.0
 11
638.973114
 21
112.305949
 31
0.0
  0
LINE
  5
1EE
330
1F
100
AcDbEntity
  8
HEWI
100
AcDbLine
 10
638.973118
 20
115.792631
 30
0.0
 11
639.4730779999999
 21
115.792631
 31
0.0
  0
LINE
  5
1EF
330
1F
100
AcDbEntity
  8
HEWI
100
AcDbLine
 10
639.073098
 20
113.088786
 30
0.0
 11
639.073098
 21
115.479653
 31
0.0
  0
LINE
  5
1F0
330
1F
100
AcDbEntity
  8
HEWI
100
AcDbLine
 10
638.9730959999999
 20
113.088786
 30
0.0
 11
639.073098
 21
113.088786
 31
0.0
  0
LINE
  5
1F1
330
1F
100
AcDbEntity
  8
HEWI
100
AcDbLine
 10
638.973118
 20
112.789927
 30
0.0
 11
639.4730779999999
 21
112.789927
 31
0.0
  0
LINE
  5
1F2
330
1F
100
AcDbEntity
  8
HEWI
100
AcDbLine
 10
639.4731
 20
113.088786
 30
0.0
 11
639.373098
 21
113.088786
 31
0.0
  0
LINE
  5
1F3
330
1F
100
AcDbEntity
  8
HEWI
100
AcDbLine
 10
639.373098
 20
115.479653
 30
0.0
 11
639.373098
 21
113.088786
 31
0.0
  0
LINE
  5
1F4
330
1F
100
AcDbEntity
  8
HEWI
100
AcDbLine
 10
639.4731
 20
115.479653
 30
0.0
 11
639.373098
 21
115.479653
 31
0.0
  0
LINE
  5
1F5
330
1F
100
AcDbEntity
  8
HEWI
100
AcDbLine
 10
638.973118
 20
115.778511
 30
0.0
 11
639.4730779999999
 21
115.778511
 31
0.0
  0
LINE
  5
1F6
330
1F
100
AcDbEntity
  8
HEWI
100
AcDbLine
 10
639.073098
 20
115.479653
 30
0.0
 11
638.9730959999999
 21
115.479653
 31
0.0
  0
LINE
  5
1F7
330
1F
100
AcDbEntity
  8
HEWI
100
AcDbLine
 10
638.973114
 20
116.276609
 30
0.0
 11
639.4730819999999
 21
116.276609
 31
0.0
  0
LINE
  5
1F8
330
1F
100
AcDbEntity
  8
HEWI
100
AcDbLine
 10
639.4730819999999
 20
112.29183
 30
0.0
 11
638.973114
 21
112.29183
 31
0.0
  0
LINE
  5
1F9
330
1F
100
AcDbEntity
  8
HEWI
100
AcDbLine
 10
638.973114
 20
141.702132
 30
0.0
 11
639.4730819999999
 21
141.702132
 31
0.0
  0
LINE
  5
1FA
330
1F
100
AcDbEntity
  8
HEWI
100
AcDbLine
 10
639.4730819999999
 20
137.717353
 30
0.0
 11
638.973114
 21
137.717353
 31
0.0
  0
LINE
  5
1FB
330
1F
100
AcDbEntity
  8
HEWI
100
AcDbLine
 10
653.9230980000001
 20
127.070325
 30
0.0
 11
649.723098
 21
127.070325
 31
0.0
  0
LINE
  5
1FC
330
1F
100
AcDbEntity
  8
HEWI
100
AcDbLine
 10
649.723098
 20
127.070325
 30
0.0
 11
649.723098
 21
127.670325
 31
0.0
  0
LINE
  5
1FD
330
1F
100
AcDbEntity
  8
HEWI
100
AcDbLine
 10
649.723098
 20
127.670325
 30
0.0
 11
653.9230980000001
 21
127.670325
 31
0.0
  0
LINE
  5
1FE
330
1F
100
AcDbEntity
  8
HEWI
100
AcDbLine
 10
653.9230980000001
 20
127.670325
 30
0.0
 11
653.9230980000001
 21
127.070325
 31
0.0
  0
LINE
  5
1FF
330
1F
100
AcDbEntity
  8
HEWI
100
AcDbLine
 10
649.723098
 20
130.770325
 30
0.0
 11
653.9230980000001
 21
130.770325
 31
0.0
  0
LINE
  5
200
330
1F
100
AcDbEntity
  8
HEWI
100
AcDbLine
 10
653.9230980000001
 20
130.070325
 30
0.0
 11
649.723098
 21
130.070325
 31
0.0
  0
LINE
  5
201
330
1F
100
AcDbEntity
  8
HEWI
100
AcDbLine
 10
653.9230980000001
 20
130.770325
 30
0.0
 11
653.9230980000001
 21
130.070325
 31
0.0
  0
LINE
  5
202
330
1F
100
AcDbEntity
  8
HEWI
100
AcDbLine
 10
649.723098
 20
130.070325
 30
0.0
 11
649.723098
 21
130.770325
 31
0.0
  0
LINE
  5
203
330
1F
100
AcDbEntity
  8
HEWI
100
AcDbLine
 10
649.723098
 20
136.870325
 30
0.0
 11
653.9230980000001
 21
136.870325
 31
0.0
  0
LINE
  5
204
330
1F
100
AcDbEntity
  8
HEWI
100
AcDbLine
 10
649.723098
 20
135.970325
 30
0.0
 11
649.723098
 21
136.870325
 31
0.0
  0
LINE
  5
205
330
1F
100
AcDbEntity
  8
HEWI
100
AcDbLine
 10
653.9230980000001
 20
135.970325
 30
0.0
 11
649.723098
 21
135.970325
 31
0.0
  0
LINE
  5
206
330
1F
100
AcDbEntity
  8
HEWI
100
AcDbLine
 10
653.9230980000001
 20
136.870325
 30
0.0
 11
653.9230980000001
 21
135.970325
 31
0.0
  0
LINE
  5
207
330
1F
100
AcDbEntity
  8
HEWI
100
AcDbLine
 10
629.973098
 20
142.670325
 30
0.0
 11
626.623098
 21
146.170325
 31
0.0
  0
LINE
  5
208
330
1F
100
AcDbEntity
  8
HEWI
100
AcDbLine
 10
626.623098
 20
146.170325
 30
0.0
 11
623.273098
 21
142.670325
 31
0.0
  0
LINE
  5
209
330
1F
100
AcDbEntity
  8
HEWI
100
AcDbLine
 10
629.270683
 20
142.970325
 30
0.0
 11
623.9755129999999
 21
142.970325
 31
0.0
  0
LINE
  5
20A
330
1F
100
AcDbEntity
  8
HEWI
100
AcDbLine
 10
623.273098
 20
142.670325
 30
0.0
 11
629.973098
 21
142.670325
 31
0.0
  0
LINE
  5
20B
330
1F
100
AcDbEntity
  8
HEWI
100
AcDbLine
 10
623.9755129999999
 20
142.970325
 30
0.0
 11
626.623098
 21
145.736458
 31
0.0
  0
LINE
  5
20C
330
1F
100
AcDbEntity
  8
HEWI
100
AcDbLine
 10
626.623098
 20
145.736458
 30
0.0
 11
629.270683
 21
142.970325
 31
0.0
  0
LINE
  5
20D
330
1F
100
AcDbEntity
  8
HEWI
100
AcDbLine
 10
649.723098
 20
121.170325
 30
0.0
 11
649.723098
 21
121.570325
 31
0.0
  0
LINE
  5
20E
330
1F
100
AcDbEntity
  8
HEWI
100
AcDbLine
 10
653.9230980000001
 20
121.570325
 30
0.0
 11
653.9230980000001
 21
121.170325
 31
0.0
  0
LINE
  5
20F
330
1F
100
AcDbEntity
  8
HEWI
100
AcDbLine
 10
649.723098
 20
121.570325
 30
0.0
 11
653.9230980000001
 21
121.570325
 31
0.0
  0
LINE
  5
210
330
1F
100
AcDbEntity
  8
HEWI
100
AcDbLine
 10
653.9230980000001
 20
121.170325
 30
0.0
 11
649.723098
 21
121.170325
 31
0.0
  0
LINE
  5
211
330
1F
100
AcDbEntity
  8
HEWI
100
AcDbLine
 10
629.973098
 20
109.470325
 30
0.0
 11
623.273098
 21
109.470325
 31
0.0
  0
LINE
  5
212
330
1F
100
AcDbEntity
  8
HEWI
100
AcDbLine
 10
626.623098
 20
105.970325
 30
0.0
 11
629.973098
 21
109.470325
 31
0.0
  0
LINE
  5
213
330
1F
100
AcDbEntity
  8
HEWI
100
AcDbLine
 10
623.273098
 20
109.470325
 30
0.0
 11
626.623098
 21
105.970325
 31
0.0
  0
LINE
  5
214
330
1F
100
AcDbEntity
  8
HEWI
100
AcDbLine
 10
653.9230980000001
 20
118.270325
 30
0.0
 11
649.723098
 21
118.270325
 31
0.0
  0
LINE
  5
215
330
1F
100
AcDbEntity
  8
HEWI
100
AcDbLine
 10
649.723098
 20
118.270325
 30
0.0
 11
649.723098
 21
118.570325
 31
0.0
  0
LINE
  5
216
330
1F
100
AcDbEntity
  8
HEWI
100
AcDbLine
 10
653.9230980000001
 20
118.570325
 30
0.0
 11
653.9230980000001
 21
118.270325
 31
0.0
  0
LINE
  5
217
330
1F
100
AcDbEntity
  8
HEWI
100
AcDbLine
 10
649.723098
 20
118.570325
 30
0.0
 11
653.9230980000001
 21
118.570325
 31
0.0
  0
LINE
  5
218
330
1F
100
AcDbEntity
  8
HEWI
100
AcDbLine
 10
649.723098
 20
115.470325
 30
0.0
 11
653.9230980000001
 21
115.470325
 31
0.0
  0
LINE
  5
219
330
1F
100
AcDbEntity
  8
HEWI
100
AcDbLine
 10
649.723098
 20
115.270325
 30
0.0
 11
649.723098
 21
115.470325
 31
0.0
  0
LINE
  5
21A
330
1F
100
AcDbEntity
  8
HEWI
100
AcDbLine
 10
653.9230980000001
 20
115.470325
 30
0.0
 11
653.9230980000001
 21
115.270325
 31
0.0
  0
LINE
  5
21B
330
1F
100
AcDbEntity
  8
HEWI
100
AcDbLine
 10
653.9230980000001
 20
115.270325
 30
0.0
 11
649.723098
 21
115.270325
 31
0.0
  0
LINE
  5
21C
330
1F
100
AcDbEntity
  8
HEWI
100
AcDbLine
 10
649.723098
 20
124.170325
 30
0.0
 11
649.723098
 21
124.670325
 31
0.0
  0
LINE
  5
21D
330
1F
100
AcDbEntity
  8
HEWI
100
AcDbLine
 10
653.9230980000001
 20
124.670325
 30
0.0
 11
653.9230980000001
 21
124.170325
 31
0.0
  0
LINE
  5
21E
330
1F
100
AcDbEntity
  8
HEWI
100
AcDbLine
 10
653.9230980000001
 20
124.170325
 30
0.0
 11
649.723098
 21
124.170325
 31
0.0
  0
LINE
  5
21F
330
1F
100
AcDbEntity
  8
HEWI
100
AcDbLine
 10
649.723098
 20
124.670325
 30
0.0
 11
653.9230980000001
 21
124.670325
 31
0.0
  0
LINE
  5
220
330
1F
100
AcDbEntity
  8
HEWI
100
AcDbLine
 10
649.723098
 20
133.770325
 30
0.0
 11
653.9230980000001
 21
133.770325
 31
0.0
  0
LINE
  5
221
330
1F
100
AcDbEntity
  8
HEWI
100
AcDbLine
 10
649.723098
 20
132.970325
 30
0.0
 11
649.723098
 21
133.770325
 31
0.0
  0
LINE
  5
222
330
1F
100
AcDbEntity
  8
HEWI
100
AcDbLine
 10
653.9230980000001
 20
132.970325
 30
0.0
 11
649.723098
 21
132.970325
 31
0.0
  0
LINE
  5
223
330
1F
100
AcDbEntity
  8
HEWI
100
AcDbLine
 10
653.9230980000001
 20
133.770325
 30
0.0
 11
653.9230980000001
 21
132.970325
 31
0.0
  0
LINE
  5
224
330
1F
100
AcDbEntity
  8
HEWI
100
AcDbLine
 10
651.973098
 20
142.670325
 30
0.0
 11
651.6730980000001
 21
142.670325
 31
0.0
  0
LINE
  5
225
330
1F
100
AcDbEntity
  8
HEWI
100
AcDbLine
 10
651.6730980000001
 20
142.670325
 30
0.0
 11
651.6730980000001
 21
146.170325
 31
0.0
  0
LINE
  5
226
330
1F
100
AcDbEntity
  8
HEWI
100
AcDbLine
 10
651.973098
 20
146.170325
 30
0.0
 11
651.973098
 21
142.670325
 31
0.0
  0
LINE
  5
227
330
1F
100
AcDbEntity
  8
HEWI
100
AcDbLine
 10
651.6730980000001
 20
146.170325
 30
0.0
 11
651.973098
 21
146.170325
 31
0.0
  0
LINE
  5
228
330
1F
100
AcDbEntity
  8
1
  6
Continuous
 62
   163
 60
     1
370
    18
100
AcDbLine
 10
649.723098
 20
127.070325
 30
0.0
 11
649.723098
 21
127.670325
 31
0.0
  0
LINE
  5
229
330
1F
100
AcDbEntity
  8
1
  6
Continuous
 62
   163
 60
     1
370
    18
100
AcDbLine
 10
653.9230980000001
 20
127.070325
 30
0.0
 11
649.723098
 21
127.070325
 31
0.0
  0
LINE
  5
22A
330
1F
100
AcDbEntity
  8
1
  6
Continuous
 62
   163
 60
     1
370
    18
100
AcDbLine
 10
653.9230980000001
 20
127.670325
 30
0.0
 11
653.9230980000001
 21
127.070325
 31
0.0
  0
LINE
  5
22B
330
1F
100
AcDbEntity
  8
1
  6
Continuous
 62
   163
 60
     1
370
    18
100
AcDbLine
 10
649.723098
 20
127.670325
 30
0.0
 11
653.9230980000001
 21
127.670325
 31
0.0
  0
LINE
  5
22C
330
1F
100
AcDbEntity
  8
1
  6
Continuous
 62
   163
 60
     1
370
    18
100
AcDbLine
 10
649.723098
 20
130.070325
 30
0.0
 11
649.723098
 21
130.770325
 31
0.0
  0
LINE
  5
22D
330
1F
100
AcDbEntity
  8
1
  6
Continuous
 62
   163
 60
     1
370
    18
100
AcDbLine
 10
653.9230980000001
 20
130.070325
 30
0.0
 11
649.723098
 21
130.070325
 31
0.0
  0
LINE
  5
22E
330
1F
100
AcDbEntity
  8
1
  6
Continuous
 62
   163
 60
     1
370
    18
100
AcDbLine
 10
653.9230980000001
 20
130.770325
 30
0.0
 11
653.9230980000001
 21
130.070325
 31
0.0
  0
LINE
  5
22F
330
1F
100
AcDbEntity
  8
1
  6
Continuous
 62
   163
 60
     1
370
    18
100
AcDbLine
 10
649.723098
 20
130.770325
 30
0.0
 11
653.9230980000001
 21
130.770325
 31
0.0
  0
LINE
  5
230
330
1F
100
AcDbEntity
  8
1
  6
Continuous
 62
   163
 60
     1
370
    18
100
AcDbLine
 10
649.723098
 20
135.970325
 30
0.0
 11
649.723098
 21
136.870325
 31
0.0
  0
LINE
  5
231
330
1F
100
AcDbEntity
  8
1
  6
Continuous
 62
   163
 60
     1
370
    18
100
AcDbLine
 10
653.9230980000001
 20
135.970325
 30
0.0
 11
649.723098
 21
135.970325
 31
0.0
  0
LINE
  5
232
330
1F
100
AcDbEntity
  8
1
  6
Continuous
 62
   163
 60
     1
370
    18
100
AcDbLine
 10
653.9230980000001
 20
136.870325
 30
0.0
 11
653.9230980000001
 21
135.970325
 31
0.0
  0
LINE
  5
233
330
1F
100
AcDbEntity
  8
1
  6
Continuous
 62
   163
 60
     1
370
    18
100
AcDbLine
 10
649.723098
 20
136.870325
 30
0.0
 11
653.9230980000001
 21
136.870325
 31
0.0
  0
LINE
  5
234
330
1F
100
AcDbEntity
  8
1
  6
Continuous
 62
   163
 60
     1
370
    18
100
AcDbLine
 10
626.623098
 20
146.170325
 30
0.0
 11
623.273098
 21
142.670325
 31
0.0
  0
LINE
  5
235
330
1F
100
AcDbEntity
  8
1
  6
Continuous
 62
   163
 60
     1
370
    18
100
AcDbLine
 10
629.973098
 20
142.670325
 30
0.0
 11
626.623098
 21
146.170325
 31
0.0
  0
LINE
  5
236
330
1F
100
AcDbEntity
  8
1
  6
Continuous
 62
   163
 60
     1
370
    18
100
AcDbLine
 10
623.273098
 20
142.670325
 30
0.0
 11
629.973098
 21
142.670325
 31
0.0
  0
LINE
  5
237
330
1F
100
AcDbEntity
  8
1
  6
Continuous
 62
   163
 60
     1
370
    18
100
AcDbLine
 10
623.9755129999999
 20
142.970325
 30
0.0
 11
626.623098
 21
145.736458
 31
0.0
  0
LINE
  5
238
330
1F
100
AcDbEntity
  8
1
  6
Continuous
 62
   163
 60
     1
370
    18
100
AcDbLine
 10
629.270683
 20
142.970325
 30
0.0
 11
623.9755129999999
 21
142.970325
 31
0.0
  0
LINE
  5
239
330
1F
100
AcDbEntity
  8
1
  6
Continuous
 62
   163
 60
     1
370
    18
100
AcDbLine
 10
626.623098
 20
145.736458
 30
0.0
 11
629.270683
 21
142.970325
 31
0.0
  0
LINE
  5
23A
330
1F
100
AcDbEntity
  8
1
  6
Continuous
 62
   163
 60
     1
370
    18
100
AcDbLine
 10
649.723098
 20
121.170325
 30
0.0
 11
649.723098
 21
121.570325
 31
0.0
  0
LINE
  5
23B
330
1F
100
AcDbEntity
  8
1
  6
Continuous
 62
   163
 60
     1
370
    18
100
AcDbLine
 10
653.9230980000001
 20
121.170325
 30
0.0
 11
649.723098
 21
121.170325
 31
0.0
  0
LINE
  5
23C
330
1F
100
AcDbEntity
  8
1
  6
Continuous
 62
   163
 60
     1
370
    18
100
AcDbLine
 10
653.9230980000001
 20
121.570325
 30
0.0
 11
653.9230980000001
 21
121.170325
 31
0.0
  0
LINE
  5
23D
330
1F
100
AcDbEntity
  8
1
  6
Continuous
 62
   163
 60
     1
370
    18
100
AcDbLine
 10
649.723098
 20
121.570325
 30
0.0
 11
653.9230980000001
 21
121.570325
 31
0.0
  0
LINE
  5
23E
330
1F
100
AcDbEntity
  8
1
  6
Continuous
 62
   163
 60
     1
370
    18
100
AcDbLine
 10
623.273098
 20
109.470325
 30
0.0
 11
626.623098
 21
105.970325
 31
0.0
  0
LINE
  5
23F
330
1F
100
AcDbEntity
  8
1
  6
Continuous
 62
   163
 60
     1
370
    18
100
AcDbLine
 10
629.973098
 20
109.470325
 30
0.0
 11
623.273098
 21
109.470325
 31
0.0
  0
LINE
  5
240
330
1F
100
AcDbEntity
  8
1
  6
Continuous
 62
   163
 60
     1
370
    18
100
AcDbLine
 10
626.623098
 20
105.970325
 30
0.0
 11
629.973098
 21
109.470325
 31
0.0
  0
LINE
  5
241
330
1F
100
AcDbEntity
  8
1
  6
Continuous
 62
   163
 60
     1
370
    18
100
AcDbLine
 10
649.723098
 20
118.270325
 30
0.0
 11
649.723098
 21
118.570325
 31
0.0
  0
LINE
  5
242
330
1F
100
AcDbEntity
  8
1
  6
Continuous
 62
   163
 60
     1
370
    18
100
AcDbLine
 10
653.9230980000001
 20
118.270325
 30
0.0
 11
649.723098
 21
118.270325
 31
0.0
  0
LINE
  5
243
330
1F
100
AcDbEntity
  8
1
  6
Continuous
 62
   163
 60
     1
370
    18
100
AcDbLine
 10
653.9230980000001
 20
118.570325
 30
0.0
 11
653.9230980000001
 21
118.270325
 31
0.0
  0
LINE
  5
244
330
1F
100
AcDbEntity
  8
1
  6
Continuous
 62
   163
 60
     1
370
    18
100
AcDbLine
 10
649.723098
 20
118.570325
 30
0.0
 11
653.9230980000001
 21
118.570325
 31
0.0
  0
LINE
  5
245
330
1F
100
AcDbEntity
  8
1
  6
Continuous
 62
   163
 60
     1
370
    18
100
AcDbLine
 10
649.723098
 20
115.270325
 30
0.0
 11
649.723098
 21
115.470325
 31
0.0
  0
LINE
  5
246
330
1F
100
AcDbEntity
  8
1
  6
Continuous
 62
   163
 60
     1
370
    18
100
AcDbLine
 10
653.9230980000001
 20
115.270325
 30
0.0
 11
649.723098
 21
115.270325
 31
0.0
  0
LINE
  5
247
330
1F
100
AcDbEntity
  8
1
  6
Continuous
 62
   163
 60
     1
370
    18
100
AcDbLine
 10
653.9230980000001
 20
115.470325
 30
0.0
 11
653.9230980000001
 21
115.270325
 31
0.0
  0
LINE
  5
248
330
1F
100
AcDbEntity
  8
1
  6
Continuous
 62
   163
 60
     1
370
    18
100
AcDbLine
 10
649.723098
 20
115.470325
 30
0.0
 11
653.9230980000001
 21
115.470325
 31
0.0
  0
LINE
  5
249
330
1F
100
AcDbEntity
  8
1
  6
Continuous
 62
   163
 60
     1
370
    18
100
AcDbLine
 10
649.723098
 20
124.170325
 30
0.0
 11
649.723098
 21
124.670325
 31
0.0
  0
LINE
  5
24A
330
1F
100
AcDbEntity
  8
1
  6
Continuous
 62
   163
 60
     1
370
    18
100
AcDbLine
 10
653.9230980000001
 20
124.170325
 30
0.0
 11
649.723098
 21
124.170325
 31
0.0
  0
LINE
  5
24B
330
1F
100
AcDbEntity
  8
1
  6
Continuous
 62
   163
 60
     1
370
    18
100
AcDbLine
 10
653.9230980000001
 20
124.670325
 30
0.0
 11
653.9230980000001
 21
124.170325
 31
0.0
  0
LINE
  5
24C
330
1F
100
AcDbEntity
  8
1
  6
Continuous
 62
   163
 60
     1
370
    18
100
AcDbLine
 10
649.723098
 20
124.670325
 30
0.0
 11
653.9230980000001
 21
124.670325
 31
0.0
  0
LINE
  5
24D
330
1F
100
AcDbEntity
  8
1
  6
Continuous
 62
   163
 60
     1
370
    18
100
AcDbLine
 10
649.723098
 20
132.970325
 30
0.0
 11
649.723098
 21
133.770325
 31
0.0
  0
LINE
  5
24E
330
1F
100
AcDbEntity
  8
1
  6
Continuous
 62
   163
 60
     1
370
    18
100
AcDbLine
 10
653.9230980000001
 20
132.970325
 30
0.0
 11
649.723098
 21
132.970325
 31
0.0
  0
LINE
  5
24F
330
1F
100
AcDbEntity
  8
1
  6
Continuous
 62
   163
 60
     1
370
    18
100
AcDbLine
 10
653.9230980000001
 20
133.770325
 30
0.0
 11
653.9230980000001
 21
132.970325
 31
0.0
  0
LINE
  5
250
330
1F
100
AcDbEntity
  8
1
  6
Continuous
 62
   163
 60
     1
370
    18
100
AcDbLine
 10
649.723098
 20
133.770325
 30
0.0
 11
653.9230980000001
 21
133.770325
 31
0.0
  0
LINE
  5
251
330
1F
100
AcDbEntity
  8
1
  6
Continuous
 62
   163
 60
     1
370
    18
100
AcDbLine
 10
651.6730980000001
 20
142.670325
 30
0.0
 11
651.6730980000001
 21
146.170325
 31
0.0
  0
LINE
  5
252
330
1F
100
AcDbEntity
  8
1
  6
Continuous
 62
   163
 60
     1
370
    18
100
AcDbLine
 10
651.973098
 20
142.670325
 30
0.0
 11
651.6730980000001
 21
142.670325
 31
0.0
  0
LINE
  5
253
330
1F
100
AcDbEntity
  8
1
  6
Continuous
 62
   163
 60
     1
370
    18
100
AcDbLine
 10
651.973098
 20
146.170325
 30
0.0
 11
651.973098
 21
142.670325
 31
0.0
  0
LINE
  5
254
330
1F
100
AcDbEntity
  8
1
  6
Continuous
 62
   163
 60
     1
370
    18
100
AcDbLine
 10
651.6730980000001
 20
146.170325
 30
0.0
 11
651.973098
 21
146.170325
 31
0.0
  0
ARC
  5
255
330
1F
100
AcDbEntity
  8
HEWI
100
AcDbCircle
 10
838.7106949999999
 20
504.245325
 30
0.0
 40
7.999999999999981
100
AcDbArc
 50
62.55932999999999
 51
117.438474
  0
ARC
  5
256
330
1F
100
AcDbEntity
  8
HEWI
100
AcDbCircle
 10
840.2876160000001
 20
458.1042809999999
 30
0.0
 40
7.100000000000001
100
AcDbArc
 50
142.82277
 51
161.174979
  0
ARC
  5
257
330
1F
100
AcDbEntity
  8
HEWI
100
AcDbCircle
 10
801.282557
 20
438.145262
 30
0.0
 40
5.000453388889826
100
AcDbArc
 50
90.719696
 51
269.176569
  0
ARC
  5
258
330
1F
100
AcDbEntity
  8
HEWI
100
AcDbCircle
 10
801.2152219999999
 20
438.1453229999999
 30
0.0
 40
4.999999999999993
100
AcDbArc
 50
89.94813200000001
 51
269.948132
  0
ARC
  5
259
330
1F
100
AcDbEntity
  8
HEWI
100
AcDbCircle
 10
801.2152219999999
 20
438.1453229999999
 30
0.0
 40
8.999999999999994
100
AcDbArc
 50
89.94813200000001
 51
152.796922
  0
ARC
  5
25A
330
1F
100
AcDbEntity
  8
HEWI
100
AcDbCircle
 10
801.2152219999999
 20
438.1453229999999
 30
0.0
 40
8.999999999999994
100
AcDbArc
 50
207.203078
 51
269.948132
  0
ARC
  5
25B
330
1F
100
AcDbEntity
  8
HEWI
100
AcDbCircle
 10
798.210695
 20
478.145325
 30
0.0
 40
6.0
100
AcDbArc
 50
270.0
 51
90.0
  0
CIRCLE
  5
25C
330
1F
100
AcDbEntity
  8
HEWI
100
AcDbCircle
 10
798.210695
 20
478.145325
 30
0.0
 40
3.0
  0
ARC
  5
25D
330
1F
100
AcDbEntity
  8
HEWI
100
AcDbCircle
 10
812.4678619999999
 20
350.740478
 30
0.0
 40
2.5
100
AcDbArc
 50
62.0
 51
152.0
  0
ARC
  5
25E
330
1F
100
AcDbEntity
  8
HEWI
100
AcDbCircle
 10
802.6089589999999
 20
332.198578
 30
0.0
 40
2.5
100
AcDbArc
 50
152.0
 51
242.0
  0
ARC
  5
25F
330
1F
100
AcDbEntity
  8
HEWI
100
AcDbCircle
 10
818.197589
 20
295.165329
 30
0.0
 40
4.219999999999999
100
AcDbArc
 50
206.96881
 51
277.03119
  0
ARC
  5
260
330
1F
100
AcDbEntity
  8
HEWI
100
AcDbCircle
 10
1067.749893
 20
764.504952
 30
0.0
 40
4.219999999999999
100
AcDbArc
 50
26.96881
 51
97.03119
  0
ARC
  5
261
330
1F
100
AcDbEntity
  8
HEWI
100
AcDbCircle
 10
803.434266
 20
141.011385
 30
0.0
 40
9.999999999974001
100
AcDbArc
 50
81.84019599999999
 51
88.0
  0
ARC
  5
262
330
1F
100
AcDbEntity
  8
HEWI
100
AcDbCircle
 10
807.420995
 20
150.036904
 30
0.0
 40
0.4999999999994
100
AcDbArc
 50
360.0
 51
81.84019599999999
  0
ARC
  5
263
330
1F
100
AcDbEntity
  8
HEWI
100
AcDbCircle
 10
807.420995
 20
102.103745
 30
0.0
 40
0.4999999999992001
100
AcDbArc
 50
278.159804
 51
0.0
  0
CIRCLE
  5
264
330
1F
100
AcDbEntity
  8
HEWI
100
AcDbCircle
 10
828.862117
 20
385.514188
 30
0.0
 40
1.0
  0
ARC
  5
265
330
1F
100
AcDbEntity
  8
HEWI
100
AcDbCircle
 10
860.7264089999999
 20
502.1016529999999
 30
0.0
 40
5.599999999999999
100
AcDbArc
 50
332.0
 51
62.0
  0
ARC
  5
266
330
1F
100
AcDbEntity
  8
HEWI
100
AcDbCircle
 10
847.862888
 20
477.9088889999999
 30
0.0
 40
5.599999999999999
100
AcDbArc
 50
242.0
 51
332.0
  0
ARC
  5
267
330
1F
100
AcDbEntity
  8
HEWI
100
AcDbCircle
 10
799.83049
 20
332.996375
 30
0.0
 40
3.0
100
AcDbArc
 50
182.0
 51
242.0
  0
CIRCLE
  5
268
330
1F
100
AcDbEntity
  8
HEWI
100
AcDbCircle
 10
828.862117
 20
385.514188
 30
0.0
 40
1.5
  0
ARC
  5
269
330
1F
100
AcDbEntity
  8
HEWI
100
AcDbCircle
 10
876.1395160000001
 20
513.83605
 30
0.0
 40
1.750000000000006
100
AcDbArc
 50
57.903956
 51
246.096044
  0
ARC
  5
26A
330
1F
100
AcDbEntity
  8
HEWI
100
AcDbCircle
 10
876.1395160000001
 20
513.83605
 30
0.0
 40
2.500000000000003
100
AcDbArc
 50
59.134016
 51
244.865984
  0
ARC
  5
26B
330
1F
100
AcDbEntity
  8
HEWI
100
AcDbCircle
 10
879.8920429999999
 20
511.8407959999999
 30
0.0
 40
1.750000000000001
100
AcDbArc
 50
164.418646
 51
246.096044
  0
ARC
  5
26C
330
1F
100
AcDbEntity
  8
HEWI
100
AcDbCircle
 10
879.8920429999999
 20
511.8407959999999
 30
0.0
 40
1.750000000000006
100
AcDbArc
 50
57.903956
 51
139.626375
  0
ARC
  5
26D
330
1F
100
AcDbEntity
  8
HEWI
100
AcDbCircle
 10
879.8920429999999
 20
511.8407959999999
 30
0.0
 40
2.500000000000003
100
AcDbArc
 50
59.134016
 51
244.865984
  0
ARC
  5
26E
330
1F
100
AcDbEntity
  8
HEWI
100
AcDbCircle
 10
838.8773999999999
 20
424.585713
 30
0.0
 40
5.099999999999993
100
AcDbArc
 50
105.793196
 51
276.715384
  0
ARC
  5
26F
330
1F
100
AcDbEntity
  8
HEWI
100
AcDbCircle
 10
838.8773999999999
 20
424.585713
 30
0.0
 40
5.599999999999988
100
AcDbArc
 50
105.793196
 51
276.715384
  0
ARC
  5
270
330
1F
100
AcDbEntity
  8
HEWI
100
AcDbCircle
 10
837.7197200000001
 20
434.4177919999999
 30
0.0
 40
17.0
100
AcDbArc
 50
276.715384
 51
345.209594
  0
ARC
  5
271
330
1F
100
AcDbEntity
  8
HEWI
100
AcDbCircle
 10
847.2916949999998
 20
431.890482
 30
0.0
 40
7.100000000000008
100
AcDbArc
 50
345.209594
 51
156.131782
  0
ARC
  5
272
330
1F
100
AcDbEntity
  8
HEWI
100
AcDbCircle
 10
835.3120259999998
 20
437.191193
 30
0.0
 40
5.999999999999985
100
AcDbArc
 50
285.793196
 51
336.131782
  0
ARC
  5
273
330
1F
100
AcDbEntity
  8
HEWI
100
AcDbCircle
 10
838.8773999999999
 20
424.585713
 30
0.0
 40
7.100000000000005
100
AcDbArc
 50
105.793196
 51
276.715384
  0
ARC
  5
274
330
1F
100
AcDbEntity
  8
HEWI
100
AcDbCircle
 10
847.2916949999998
 20
431.890482
 30
0.0
 40
5.600000000000001
100
AcDbArc
 50
345.209594
 51
156.131782
  0
ARC
  5
275
330
1F
100
AcDbEntity
  8
HEWI
100
AcDbCircle
 10
847.2916949999998
 20
431.890482
 30
0.0
 40
5.100000000000001
100
AcDbArc
 50
345.209594
 51
156.131782
  0
ARC
  5
276
330
1F
100
AcDbEntity
  8
HEWI
100
AcDbCircle
 10
835.3120259999998
 20
437.191193
 30
0.0
 40
7.500000000000003
100
AcDbArc
 50
285.793196
 51
336.131782
  0
ARC
  5
277
330
1F
100
AcDbEntity
  8
HEWI
100
AcDbCircle
 10
835.3120259999998
 20
437.191193
 30
0.0
 40
8.000000000000001
100
AcDbArc
 50
285.793196
 51
336.131782
  0
ARC
  5
278
330
1F
100
AcDbEntity
  8
HEWI
100
AcDbCircle
 10
837.7197200000001
 20
434.4177919999999
 30
0.0
 40
15.0
100
AcDbArc
 50
276.715384
 51
345.209594
  0
ARC
  5
279
330
1F
100
AcDbEntity
  8
HEWI
100
AcDbCircle
 10
837.7197200000001
 20
434.4177919999999
 30
0.0
 40
15.50000000000001
100
AcDbArc
 50
276.715384
 51
345.209594
  0
ARC
  5
27A
330
1F
100
AcDbEntity
  8
HEWI
100
AcDbCircle
 10
802.5161950000001
 20
84.522525
 30
0.0
 40
0.2012000000020738
100
AcDbArc
 50
180.0
 51
225.0
  0
ARC
  5
27B
330
1F
100
AcDbEntity
  8
HEWI
100
AcDbCircle
 10
802.5161950000001
 20
167.618125
 30
0.0
 40
0.2011999999995226
100
AcDbArc
 50
135.0
 51
180.0
  0
ARC
  5
27C
330
1F
100
AcDbEntity
  8
HEWI
100
AcDbCircle
 10
849.3193289999998
 20
508.3453249999999
 30
0.0
 40
3.0
100
AcDbArc
 50
15.46601
 51
90.0
  0
ARC
  5
27D
330
1F
100
AcDbEntity
  8
HEWI
100
AcDbCircle
 10
851.2106949999999
 20
508.145325
 30
0.0
 40
1.000000000000109
100
AcDbArc
 50
0.0
 51
90.0
  0
ARC
  5
27E
330
1F
100
AcDbEntity
  8
HEWI
100
AcDbCircle
 10
663.223098
 20
102.070325
 30
0.0
 40
1.5
100
AcDbArc
 50
270.0
 51
0.0
  0
ARC
  5
27F
330
1F
100
AcDbEntity
  8
HEWI
100
AcDbCircle
 10
663.223098
 20
150.070325
 30
0.0
 40
1.5
100
AcDbArc
 50
0.0
 51
90.0
  0
ARC
  5
280
330
1F
100
AcDbEntity
  8
HEWI
100
AcDbCircle
 10
615.223098
 20
150.070325
 30
0.0
 40
1.5
100
AcDbArc
 50
90.0
 51
180.0
  0
ARC
  5
281
330
1F
100
AcDbEntity
  8
HEWI
100
AcDbCircle
 10
615.223098
 20
102.070325
 30
0.0
 40
1.5
100
AcDbArc
 50
180.0
 51
270.0
  0
ARC
  5
282
330
1F
100
AcDbEntity
  8
HEWI
100
AcDbCircle
 10
668.473098
 20
96.820325
 30
0.0
 40
0.5
100
AcDbArc
 50
270.0
 51
341.565051
  0
ARC
  5
283
330
1F
100
AcDbEntity
  8
HEWI
100
AcDbCircle
 10
609.973098
 20
96.820325
 30
0.0
 40
0.5
100
AcDbArc
 50
180.0
 51
251.565051
  0
ARC
  5
284
330
1F
100
AcDbEntity
  8
HEWI
100
AcDbCircle
 10
668.473098
 20
155.320325
 30
0.0
 40
0.5
100
AcDbArc
 50
18.434949
 51
90.0
  0
ARC
  5
285
330
1F
100
AcDbEntity
  8
HEWI
100
AcDbCircle
 10
609.973098
 20
155.320325
 30
0.0
 40
0.5
100
AcDbArc
 50
90.0
 51
161.565051
  0
ARC
  5
286
330
1F
100
AcDbEntity
  8
HEWI
100
AcDbCircle
 10
614.223098
 20
151.070325
 30
0.0
 40
0.5
100
AcDbArc
 50
90.0
 51
180.0
  0
ARC
  5
287
330
1F
100
AcDbEntity
  8
HEWI
100
AcDbCircle
 10
664.223098
 20
151.070325
 30
0.0
 40
0.5
100
AcDbArc
 50
360.0
 51
90.0
  0
ARC
  5
288
330
1F
100
AcDbEntity
  8
HEWI
100
AcDbCircle
 10
609.973098
 20
96.820325
 30
0.0
 40
0.5
100
AcDbArc
 50
251.565051
 51
270.0
  0
ARC
  5
289
330
1F
100
AcDbEntity
  8
HEWI
100
AcDbCircle
 10
664.223098
 20
101.070325
 30
0.0
 40
0.5
100
AcDbArc
 50
270.0
 51
0.0
  0
ARC
  5
28A
330
1F
100
AcDbEntity
  8
HEWI
100
AcDbCircle
 10
668.473098
 20
96.820325
 30
0.0
 40
0.5
100
AcDbArc
 50
341.565051
 51
0.0
  0
ARC
  5
28B
330
1F
100
AcDbEntity
  8
HEWI
100
AcDbCircle
 10
609.973098
 20
155.320325
 30
0.0
 40
0.5
100
AcDbArc
 50
161.565051
 51
180.0
  0
ARC
  5
28C
330
1F
100
AcDbEntity
  8
HEWI
100
AcDbCircle
 10
614.223098
 20
101.070325
 30
0.0
 40
0.5
100
AcDbArc
 50
180.0
 51
270.0
  0
ARC
  5
28D
330
1F
100
AcDbEntity
  8
HEWI
100
AcDbCircle
 10
668.473098
 20
155.320325
 30
0.0
 40
0.5
100
AcDbArc
 50
360.0
 51
18.434949
  0
ARC
  5
28E
330
1F
100
AcDbEntity
  8
HEWI
100
AcDbCircle
 10
609.747298
 20
155.546125
 30
0.0
 40
0.8048
100
AcDbArc
 50
90.0
 51
180.0
  0
ARC
  5
28F
330
1F
100
AcDbEntity
  8
HEWI
100
AcDbCircle
 10
680.770898
 20
84.522525
 30
0.0
 40
0.2012000000239109
100
AcDbArc
 50
315.0
 51
0.0
  0
ARC
  5
290
330
1F
100
AcDbEntity
  8
HEWI
100
AcDbCircle
 10
680.770898
 20
167.618125
 30
0.0
 40
0.2011999999767903
100
AcDbArc
 50
0.0
 51
45.0
  0
ARC
  5
291
330
1F
100
AcDbEntity
  8
HEWI
100
AcDbCircle
 10
597.675298
 20
167.618125
 30
0.0
 40
0.2011999999964819
100
AcDbArc
 50
135.0
 51
180.0
  0
ARC
  5
292
330
1F
100
AcDbEntity
  8
HEWI
100
AcDbCircle
 10
597.675298
 20
84.522525
 30
0.0
 40
0.201200000016237
100
AcDbArc
 50
180.0
 51
225.0
  0
ARC
  5
293
330
1F
100
AcDbEntity
  8
HEWI
100
AcDbCircle
 10
668.6988980000001
 20
96.594525
 30
0.0
 40
0.8048
100
AcDbArc
 50
270.0
 51
0.0
  0
ARC
  5
294
330
1F
100
AcDbEntity
  8
HEWI
100
AcDbCircle
 10
609.747298
 20
96.594525
 30
0.0
 40
0.8048
100
AcDbArc
 50
180.0
 51
270.0
  0
ARC
  5
295
330
1F
100
AcDbEntity
  8
HEWI
100
AcDbCircle
 10
597.675298
 20
84.522525
 30
0.0
 40
0.2011999999968377
100
AcDbArc
 50
225.0
 51
270.0
  0
ARC
  5
296
330
1F
100
AcDbEntity
  8
HEWI
100
AcDbCircle
 10
680.770898
 20
84.522525
 30
0.0
 40
0.2011999999703936
100
AcDbArc
 50
270.0
 51
315.0
  0
ARC
  5
297
330
1F
100
AcDbEntity
  8
HEWI
100
AcDbCircle
 10
668.6988980000001
 20
155.546125
 30
0.0
 40
0.8048
100
AcDbArc
 50
0.0
 51
90.0
  0
ARC
  5
298
330
1F
100
AcDbEntity
  8
HEWI
100
AcDbCircle
 10
597.675298
 20
167.618125
 30
0.0
 40
0.2011999999727664
100
AcDbArc
 50
90.0
 51
135.0
  0
ARC
  5
299
330
1F
100
AcDbEntity
  8
HEWI
100
AcDbCircle
 10
680.770898
 20
167.618125
 30
0.0
 40
0.2011999999990088
100
AcDbArc
 50
45.0
 51
90.0
  0
CIRCLE
  5
29A
330
1F
100
AcDbEntity
  8
HEWI
100
AcDbCircle
 10
651.8230980000001
 20
107.720325
 30
0.0
 40
1.699999999999999
  0
CIRCLE
  5
29B
330
1F
100
AcDbEntity
  8
HEWI
100
AcDbCircle
 10
651.8230980000001
 20
107.720325
 30
0.0
 40
2.0
  0
CIRCLE
  5
29C
330
1F
100
AcDbEntity
  8
1
  6
Continuous
 62
   163
 60
     1
370
    18
100
AcDbCircle
 10
651.8230980000001
 20
107.720325
 30
0.0
 40
2.0
  0
CIRCLE
  5
29D
330
1F
100
AcDbEntity
  8
1
  6
Continuous
 62
   163
 60
     1
370
    18
100
AcDbCircle
 10
651.8230980000001
 20
107.720325
 30
0.0
 40
1.699999999999999
  0
ELLIPSE
  5
29E
330
1F
100
AcDbEntity
  8
HEWI
100
AcDbEllipse
 10
804.7826439999999
 20
101.725442
 30
0.0
 11
0.0709672596341498
 21
-0.494938024463689
 31
0.0
210
0.0
220
0.0
230
1.0
 40
0.034547
 41
0.0
 42
1.565842863251084
  0
ELLIPSE
  5
29F
330
1F
100
AcDbEntity
  8
HEWI
100
AcDbEllipse
 10
804.7826439999999
 20
150.415207
 30
0.0
 11
0.0709672596339623
 21
0.4949380244652313
 31
0.0
210
0.0
220
0.0
230
1.0
 40
0.034547
 41
4.71734244392854
 42
6.283185307178762
  0
ELLIPSE
  5
2A0
330
1F
100
AcDbEntity
  8
HEWI
100
AcDbEllipse
 10
803.765811
 20
150.505598
 30
0.0
 11
0.0174497483512244
 21
0.4996954135091487
 31
0.0
210
0.0
220
0.0
230
1.0
 40
0.034878
 41
4.713606955555801
 42
6.283185305560006
  0
ELLIPSE
  5
2A1
330
1F
100
AcDbEntity
  8
HEWI
100
AcDbEllipse
 10
803.765811
 20
101.635052
 30
0.0
 11
0.0174497483512605
 21
-0.4996954135100479
 31
0.0
210
0.0
220
0.0
230
1.0
 40
0.034878
 41
0.0
 42
1.569578351623786
  0
ELLIPSE
  5
2A2
330
1F
100
AcDbEntity
  8
HEWI
100
AcDbEllipse
 10
663.8227929999999
 20
101.57063
 30
0.0
 11
0.3539842722994789
 21
-0.3539842722994279
 31
-0.0000000000000056
210
0.0000000000000055
220
-0.0000000000000105
230
1.0
 40
0.998783
 41
5.498396131368571
 42
7.067974482989618
  0
ELLIPSE
  5
2A3
330
1F
100
AcDbEntity
  8
HEWI
100
AcDbEllipse
 10
663.8227929999999
 20
150.57002
 30
0.0
 11
-0.353984272299772
 21
-0.353984272299772
 31
0.0000000000000034
210
0.0000000000000048
220
0.0000000000000048
230
0.9999999999999998
 40
0.998783
 41
2.356803477782146
 42
3.92638182939857
  0
ELLIPSE
  5
2A4
330
1F
100
AcDbEntity
  8
HEWI
100
AcDbEllipse
 10
663.758371
 20
101.635052
 30
0.0
 11
-0.353553390592991
 21
-0.353553390592991
 31
0.0000000000000034
210
0.0000000000000048
220
0.0000000000000048
230
1.0
 40
0.9987829999999998
 41
0.7860071526037182
 42
2.355585502606774
  0
ELLIPSE
  5
2A5
330
1F
100
AcDbEntity
  8
HEWI
100
AcDbEllipse
 10
663.758371
 20
150.505598
 30
0.0
 11
-0.3535533905936222
 21
0.3535533905936326
 31
0.0
210
0.0
220
0.0
230
1.0
 40
0.9987829999999998
 41
3.927599804572813
 42
5.497178154576953
  0
ELLIPSE
  5
2A6
330
1F
100
AcDbEntity
  8
HEWI
100
AcDbEllipse
 10
663.722862
 20
150.415207
 30
0.0
 11
-0.485800280511927
 21
0.1183135134062595
 31
0.0
210
0.0
220
0.0
230
1.0
 40
0.9892850000000001
 41
3.382974043336083
 42
4.948816904967171
  0
ELLIPSE
  5
2A7
330
1F
100
AcDbEntity
  8
HEWI
100
AcDbEllipse
 10
663.722862
 20
101.725442
 30
0.0
 11
-0.485800280513403
 21
-0.1183135134065384
 31
0.0
210
0.0
220
0.0
230
0.9999999999999998
 40
0.9892850000000001
 41
1.334368400592234
 42
2.900211263843592
  0
ELLIPSE
  5
2A8
330
1F
100
AcDbEntity
  8
HEWI
100
AcDbEllipse
 10
104.723098
 20
303.546269
 30
0.0
 11
14.23550348990455
 21
0.0
 31
0.0
210
0.0
220
0.0
230
1.0
 40
0.882948
 41
3.1415926535898
 42
4.71238898038469
  0
ELLIPSE
  5
2A9
330
1F
100
AcDbEntity
  8
HEWI
100
AcDbEllipse
 10
673.723098
 20
303.546269
 30
0.0
 11
14.23550348990462
 21
0.0
 31
0.0
210
0.0
220
0.0
230
1.0
 40
0.882948
 41
4.71238898038469
 42
6.283185307179588
  0
ELLIPSE
  5
2AA
330
1F
100
AcDbEntity
  8
HEWI
100
AcDbEllipse
 10
119.723098
 20
316.523998
 30
0.0
 11
5.0
 21
0.0
 31
0.0
210
0.0
220
0.0
230
1.0
 40
0.882948
 41
3.141592653589792
 42
4.71238898038469
  0
ELLIPSE
  5
2AB
330
1F
100
AcDbEntity
  8
HEWI
100
AcDbEllipse
 10
129.723098
 20
316.523998
 30
0.0
 11
5.0
 21
0.0
 31
0.0
210
0.0
220
0.0
230
1.0
 40
0.882948
 41
4.71238898038469
 42
6.283185307179585
  0
ELLIPSE
  5
2AC
330
1F
100
AcDbEntity
  8
HEWI
100
AcDbEllipse
 10
648.723098
 20
316.523998
 30
0.0
 11
5.0
 21
0.0
 31
0.0
210
0.0
220
0.0
230
1.0
 40
0.882948
 41
3.141592653589798
 42
4.712388980384712
  0
ELLIPSE
  5
2AD
330
1F
100
AcDbEntity
  8
HEWI
100
AcDbEllipse
 10
658.7230980000001
 20
316.523998
 30
0.0
 11
5.0
 21
0.0
 31
0.0
210
0.0
220
0.0
230
1.0
 40
0.882948
 41
4.712388980384712
 42
6.283185307179585
  0
ELLIPSE
  5
2AE
330
1F
100
AcDbEntity
  8
HEWI
100
AcDbEllipse
 10
119.723098
 20
316.519304
 30
0.0
 11
-5.0
 21
0.0
 31
0.0
210
0.0
220
0.0
230
1.0
 40
0.882948
 41
0.0
 42
1.570796326794897
  0
ELLIPSE
  5
2AF
330
1F
100
AcDbEntity
  8
HEWI
100
AcDbEllipse
 10
119.723098
 20
740.334148
 30
0.0
 11
-5.0
 21
0.0
 31
0.0
210
0.0
220
0.0
230
1.0
 40
0.882948
 41
4.712388980384677
 42
6.283185307179611
  0
ELLIPSE
  5
2B0
330
1F
100
AcDbEntity
  8
HEWI
100
AcDbEllipse
 10
129.723098
 20
740.334148
 30
0.0
 11
-5.0
 21
0.0
 31
0.0
210
0.0
220
0.0
230
1.0
 40
0.882948
 41
3.141592653589792
 42
4.71238898038469
  0
ELLIPSE
  5
2B1
330
1F
100
AcDbEntity
  8
HEWI
100
AcDbEllipse
 10
129.723098
 20
316.519304
 30
0.0
 11
-5.0
 21
0.0
 31
0.0
210
0.0
220
0.0
230
1.0
 40
0.882948
 41
1.570796326794897
 42
3.141592653589798
  0
ELLIPSE
  5
2B2
330
1F
100
AcDbEntity
  8
HEWI
100
AcDbEllipse
 10
648.723098
 20
316.519304
 30
0.0
 11
-5.0
 21
0.0
 31
0.0
210
0.0
220
0.0
230
1.0
 40
0.882948
 41
0.0
 42
1.570796326794918
  0
ELLIPSE
  5
2B3
330
1F
100
AcDbEntity
  8
HEWI
100
AcDbEllipse
 10
648.723098
 20
740.334148
 30
0.0
 11
-5.0
 21
0.0
 31
0.0
210
0.0
220
0.0
230
1.0
 40
0.882948
 41
4.712388980384666
 42
6.283185307179611
  0
ELLIPSE
  5
2B4
330
1F
100
AcDbEntity
  8
HEWI
100
AcDbEllipse
 10
658.7230980000001
 20
740.334148
 30
0.0
 11
-5.0
 21
0.0
 31
0.0
210
0.0
220
0.0
230
1.0
 40
0.882948
 41
3.141592653589792
 42
4.712388980384666
  0
ELLIPSE
  5
2B5
330
1F
100
AcDbEntity
  8
HEWI
100
AcDbEllipse
 10
658.7230980000001
 20
316.519304
 30
0.0
 11
-5.0
 21
0.0
 31
0.0
210
0.0
220
0.0
230
1.0
 40
0.882948
 41
1.570796326794918
 42
3.141592653589792
  0
ELLIPSE
  5
2B6
330
1F
100
AcDbEntity
  8
HEWI
100
AcDbEllipse
 10
673.723098
 20
303.27509
 30
0.0
 11
13.48
 21
0.0
 31
0.0
210
0.0
220
0.0
230
1.0
 40
0.882948
 41
4.71238898038469
 42
6.283185307179588
  0
ELLIPSE
  5
2B7
330
1F
100
AcDbEntity
  8
HEWI
100
AcDbEllipse
 10
104.723098
 20
303.27509
 30
0.0
 11
-13.47999999999981
 21
0.0
 31
0.0
210
0.0
220
0.0
230
1.0
 40
0.882948
 41
0.0
 42
1.5707963267949
  0
ELLIPSE
  5
2B8
330
1F
100
AcDbEntity
  8
HEWI
100
AcDbEllipse
 10
673.723098
 20
753.849541
 30
0.0
 11
14.23550348990467
 21
0.0
 31
0.0
210
0.0
220
0.0
230
1.0
 40
0.882948
 41
0.0
 42
1.570796326794897
  0
ELLIPSE
  5
2B9
330
1F
100
AcDbEntity
  8
HEWI
100
AcDbEllipse
 10
673.723098
 20
753.578362
 30
0.0
 11
13.47999999999994
 21
0.0
 31
0.0
210
0.0
220
0.0
230
1.0
 40
0.882948
 41
0.0
 42
1.570796326794897
  0
ELLIPSE
  5
2BA
330
1F
100
AcDbEntity
  8
HEWI
100
AcDbEllipse
 10
104.723098
 20
753.849541
 30
0.0
 11
14.23550348990456
 21
0.0
 31
0.0
210
0.0
220
0.0
230
1.0
 40
0.882948
 41
1.570796326794904
 42
3.141592653589805
  0
ELLIPSE
  5
2BB
330
1F
100
AcDbEntity
  8
HEWI
100
AcDbEllipse
 10
104.723098
 20
753.578362
 30
0.0
 11
13.47999999999983
 21
0.0
 31
0.0
210
0.0
220
0.0
230
1.0
 40
0.882948
 41
1.570796326794904
 42
3.141592653589811
  0
ELLIPSE
  5
2BC
330
1F
100
AcDbEntity
  8
HEWI
100
AcDbEllipse
 10
614.623403
 20
150.57002
 30
0.0
 11
-0.3539842722994483
 21
0.3539842722994587
 31
0.0
210
0.0
220
0.0
230
1.0
 40
0.998783
 41
5.498396131368571
 42
7.067974482989618
  0
ELLIPSE
  5
2BD
330
1F
100
AcDbEntity
  8
HEWI
100
AcDbEllipse
 10
614.623403
 20
101.57063
 30
0.0
 11
0.353984272299772
 21
0.353984272299772
 31
0.0000000000000034
210
-0.0000000000000048
220
-0.0000000000000048
230
0.9999999999999998
 40
0.998783
 41
2.356803477782146
 42
3.92638182939857
  0
ELLIPSE
  5
2BE
330
1F
100
AcDbEntity
  8
HEWI
100
AcDbEllipse
 10
614.687825
 20
150.505598
 30
0.0
 11
0.353553390592991
 21
0.353553390592991
 31
0.0000000000000034
210
-0.0000000000000048
220
-0.0000000000000048
230
1.0
 40
0.9987829999999998
 41
0.7860071526038387
 42
2.355585502606613
  0
ELLIPSE
  5
2BF
330
1F
100
AcDbEntity
  8
HEWI
100
AcDbEllipse
 10
614.687825
 20
101.635052
 30
0.0
 11
0.3535533905936528
 21
-0.3535533905936021
 31
-0.0000000000000056
210
0.0000000000000055
220
-0.0000000000000105
230
1.0
 40
0.9987829999999998
 41
3.927599804572691
 42
5.497178154576914
  0
ELLIPSE
  5
2C0
330
1F
100
AcDbEntity
  8
HEWI
100
AcDbEllipse
 10
614.723334
 20
101.725442
 30
0.0
 11
0.485800280511927
 21
-0.1183135134062595
 31
0.0
210
0.0
220
0.0
230
1.0
 40
0.9892850000000001
 41
3.382974043336193
 42
4.948816904967117
  0
ELLIPSE
  5
2C1
330
1F
100
AcDbEntity
  8
HEWI
100
AcDbEllipse
 10
614.723334
 20
150.415207
 30
0.0
 11
0.485800280513403
 21
0.1183135134065384
 31
0.0
210
0.0
220
0.0
230
0.9999999999999998
 40
0.9892850000000001
 41
1.334368400592178
 42
2.900211263843592
  0
ELLIPSE
  5
2C2
330
1F
100
AcDbEntity
  8
HEWI
100
AcDbEllipse
 10
639.023098
 20
140.389647
 30
0.0
 11
0.4999999999998549
 21
0.0
 31
0.0
210
0.0
220
0.0
230
1.0
 40
0.9961949999999999
 41
1.570796326794897
 42
1.670983597402584
  0
ELLIPSE
  5
2C3
330
1F
100
AcDbEntity
  8
HEWI
100
AcDbEllipse
 10
639.4230980000001
 20
140.389647
 30
0.0
 11
0.5000000000000836
 21
0.0
 31
0.0
210
0.0
220
0.0
230
1.0
 40
0.9961949999999999
 41
1.470609056187426
 42
1.570796326795066
  0
ELLIPSE
  5
2C4
330
1F
100
AcDbEntity
  8
HEWI
100
AcDbEllipse
 10
639.4230980000001
 20
138.994975
 30
0.0
 11
0.7999999999996953
 21
0.0
 31
0.0
210
0.0
220
0.0
230
1.0
 40
0.9961949999999999
 41
4.71238898038469
 42
4.774950540144784
  0
ELLIPSE
  5
2C5
330
1F
100
AcDbEntity
  8
HEWI
100
AcDbEllipse
 10
639.4230980000001
 20
139.012406
 30
0.0
 11
0.500000000000135
 21
0.0
 31
0.0
210
0.0
220
0.0
230
1.0
 40
0.9961949999999999
 41
4.71238898038469
 42
4.81257625099232
  0
ELLIPSE
  5
2C6
330
1F
100
AcDbEntity
  8
HEWI
100
AcDbEllipse
 10
639.023098
 20
139.012406
 30
0.0
 11
0.5000000000000427
 21
0.0
 31
0.0
210
0.0
220
0.0
230
1.0
 40
0.9961949999999999
 41
4.6122017097767
 42
4.712388980384348
  0
ELLIPSE
  5
2C7
330
1F
100
AcDbEntity
  8
HEWI
100
AcDbEllipse
 10
639.023098
 20
140.407079
 30
0.0
 11
0.4999999999998549
 21
0.0
 31
0.0
210
0.0
220
0.0
230
1.0
 40
0.9961949999999999
 41
1.570796326794897
 42
1.670983597402583
  0
ELLIPSE
  5
2C8
330
1F
100
AcDbEntity
  8
HEWI
100
AcDbEllipse
 10
639.4230980000001
 20
140.407079
 30
0.0
 11
0.5000000000000836
 21
0.0
 31
0.0
210
0.0
220
0.0
230
1.0
 40
0.9961949999999999
 41
1.470609056187311
 42
1.570796326794952
  0
ELLIPSE
  5
2C9
330
1F
100
AcDbEntity
  8
HEWI
100
AcDbEllipse
 10
639.4230980000001
 20
139.012406
 30
0.0
 11
0.7999999999996953
 21
0.0
 31
0.0
210
0.0
220
0.0
230
1.0
 40
0.9961949999999999
 41
4.71238898038469
 42
4.774950540144784
  0
ELLIPSE
  5
2CA
330
1F
100
AcDbEntity
  8
HEWI
100
AcDbEllipse
 10
639.4230980000001
 20
140.407079
 30
0.0
 11
0.8000000000000298
 21
0.0
 31
0.0
210
0.0
220
0.0
230
1.0
 40
0.9961949999999999
 41
1.508234767034719
 42
1.570796326794789
  0
ELLIPSE
  5
2CB
330
1F
100
AcDbEntity
  8
HEWI
100
AcDbEllipse
 10
639.023098
 20
140.407079
 30
0.0
 11
0.7999999999997903
 21
0.0
 31
0.0
210
0.0
220
0.0
230
1.0
 40
0.9961949999999999
 41
1.570796326794897
 42
1.633357886554985
  0
ELLIPSE
  5
2CC
330
1F
100
AcDbEntity
  8
HEWI
100
AcDbEllipse
 10
639.023098
 20
139.012406
 30
0.0
 11
0.7999999999997519
 21
0.0
 31
0.0
210
0.0
220
0.0
230
1.0
 40
0.9961949999999999
 41
4.649827420624631
 42
4.712388980384724
  0
ELLIPSE
  5
2CD
330
1F
100
AcDbEntity
  8
HEWI
100
AcDbEllipse
 10
639.023098
 20
138.994975
 30
0.0
 11
0.7999999999997519
 21
0.0
 31
0.0
210
0.0
220
0.0
230
1.0
 40
0.9961949999999999
 41
4.649827420624631
 42
4.712388980384724
  0
SPLINE
  5
2CE
330
1F
100
AcDbEntity
  8
HEWI
100
AcDbSpline
210
0.0
220
0.0
230
1.0
 70
    24
 71
     3
 72
    10
 73
     6
 74
     0
 42
0.000000001
 43
0.0000000001
 40
0.0
 40
0.0
 40
0.0
 40
0.0
 40
0.5
 40
0.5
 40
1.0
 40
1.0
 40
1.0
 40
1.0
 10
800.2987567633631
 20
467.3453248192272
 30
0.0
 10
799.9507515399705
 20
467.3453248192272
 30
0.0
 10
799.6027370514736
 20
467.3453248192272
 30
0.0
 10
798.9067115892749
 20
467.3453248192272
 30
0.0
 10
798.5587006849739
 20
467.3453248192272
 30
0.0
 10
798.2106954615812
 20
467.3453248192272
 30
0.0
  0
SPLINE
  5
2CF
330
1F
100
AcDbEntity
  8
HEWI
100
AcDbSpline
210
0.0
220
0.0
230
1.0
 70
    24
 71
     3
 72
    46
 73
    42
 74
     0
 42
0.000000001
 43
0.0000000001
 40
0.0
 40
0.0
 40
0.0
 40
0.0
 40
0.0156250000000084
 40
0.0156250000000084
 40
0.0312500000000167
 40
0.0312500000000167
 40
0.062500000000035
 40
0.1250000000000722
 40
0.1250000000000722
 40
0.1562500000000907
 40
0.1562500000000907
 40
0.1875000000001092
 40
0.1875000000001092
 40
0.250000000000145
 40
0.250000000000145
 40
0.3125000000001808
 40
0.3125000000001808
 40
0.3750000000002166
 40
0.3750000000002166
 40
0.4375000000002525
 40
0.4375000000002525
 40
0.4687500000002693
 40
0.4687500000002693
 40
0.4765625000002728
 40
0.4765625000002728
 40
0.4804687500002728
 40
0.4804687500002728
 40
0.4843750000002726
 40
0.500000000000266
 40
0.500000000000266
 40
0.6250000000002016
 40
0.6250000000002016
 40
0.7500000000001372
 40
0.7500000000001372
 40
0.8750000000000724
 40
0.8750000000000724
 40
0.9062500000000543
 40
0.9062500000000543
 40
0.9375000000000362
 40
0.9375000000000362
 40
1.0
 40
1.0
 40
1.0
 40
1.0
 10
798.2106954615812
 20
471.5453248192272
 30
0.0
 10
798.25916660653
 20
471.5453248192272
 30
0.0
 10
798.3077534409174
 20
471.5453248192272
 30
0.0
 10
798.4051605237952
 20
471.5453248192272
 30
0.0
 10
798.4540920922401
 20
471.5453248192272
 30
0.0
 10
798.6001587019012
 20
471.5453248192272
 30
0.0
 10
798.8896498975521
 20
471.5453248192272
 30
0.0
 10
799.1720977264059
 20
471.5453248192272
 30
0.0
 10
799.4511920584519
 20
471.5453248192272
 30
0.0
 10
799.5436652824468
 20
471.5453248192272
 30
0.0
 10
799.7277094229119
 20
471.5453248192272
 30
0.0
 10
799.8193525818614
 20
471.5453248192272
 30
0.0
 10
800.0922016184846
 20
471.5453248192272
 30
0.0
 10
800.2716703364654
 20
471.5453248192272
 30
0.0
 10
800.6280655205117
 20
471.5453248192272
 30
0.0
 10
800.804983743764
 20
471.5453248192272
 30
0.0
 10
801.1579178145337
 20
471.5453248192272
 30
0.0
 10
801.3339170388595
 20
471.5453248192272
 30
0.0
 10
801.6862165195323
 20
471.5453248192272
 30
0.0
 10
801.8625197276042
 20
471.5453248192272
 30
0.0
 10
802.1279418408493
 20
471.5453248192272
 30
0.0
 10
802.2165751476974
 20
471.5453248192272
 30
0.0
 10
802.3276306120896
 20
471.5453248192272
 30
0.0
 10
802.3498548712346
 20
471.5453248192272
 30
0.0
 10
802.3832121512363
 20
471.5453248192272
 30
0.0
 10
802.3943808913156
 20
471.5453248192272
 30
0.0
 10
802.4163640990051
 20
471.5453248192272
 30
0.0
 10
802.4713341947709
 20
471.5453248192272
 30
0.0
 10
802.5263662216547
 20
471.5453248192272
 30
0.0
 10
802.9229871812022
 20
471.5453248192272
 30
0.0
 10
803.2783568977063
 20
471.5453248192272
 30
0.0
 10
803.9978979596575
 20
471.5453248192272
 30
0.0
 10
804.3620427215508
 20
471.5453248192272
 30
0.0
 10
805.1017389880417
 20
471.5453248192272
 30
0.0
 10
805.4772650684581
 20
471.5453248192272
 30
0.0
 10
805.9555849043286
 20
471.5453248192272
 30
0.0
 10
806.0517748522599
 20
471.5453248192272
 30
0.0
 10
806.2437740517275
 20
471.5453248192272
 30
0.0
 10
806.3397349634465
 20
471.5453248192272
 30
0.0
 10
806.6274982943109
 20
471.5453248192272
 30
0.0
 10
806.8191814291832
 20
471.5453248192273
 30
0.0
 10
807.0106954615811
 20
471.5453248192272
 30
0.0
  0
SPLINE
  5
2D0
330
1F
100
AcDbEntity
  8
HEWI
100
AcDbSpline
210
0.0
220
0.0
230
1.0
 70
     8
 71
     3
 72
    11
 73
     7
 74
     0
 42
0.000000001
 43
0.0000000001
 40
0.0
 40
0.0
 40
0.0
 40
0.0
 40
0.2040944994868415
 40
0.4704785053596689
 40
0.7355125822616109
 40
1.0
 40
1.0
 40
1.0
 40
1.0
 10
820.0116289755698
 20
434.8733419631226
 30
0.0
 10
818.7501710178615
 20
434.6192042131947
 30
0.0
 10
815.8283290758737
 20
434.1089728822778
 30
0.0
 10
811.2233619155645
 20
433.5505621692382
 30
0.0
 10
806.2151594314995
 20
433.2192162396693
 30
0.0
 10
802.8790791867308
 20
433.1438144865077
 30
0.0
 10
801.2106954615813
 20
433.1453248192271
 30
0.0
  0
SPLINE
  5
2D1
330
1F
100
AcDbEntity
  8
HEWI
100
AcDbSpline
210
0.0
220
0.0
230
1.0
 70
     8
 71
     3
 72
    26
 73
    22
 74
     0
 42
0.000000001
 43
0.0000000001
 40
0.0
 40
0.0
 40
0.0
 40
0.0
 40
0.0625
 40
0.125
 40
0.15625
 40
0.171875
 40
0.1875
 40
0.21875
 40
0.25
 40
0.28125
 40
0.3125
 40
0.375
 40
0.4375
 40
0.5
 40
0.5625
 40
0.625
 40
0.75
 40
0.8125
 40
0.875
 40
0.9375
 40
1.0
 40
1.0
 40
1.0
 40
1.0
 10
829.3396871832358
 20
453.9468585189054
 30
0.0
 10
829.1134533879477
 20
453.5849894814012
 30
0.0
 10
828.7003493704341
 20
453.0158236060081
 30
0.0
 10
828.3012208000481
 20
452.6018260035787
 30
0.0
 10
828.0793580597459
 20
452.4147413948664
 30
0.0
 10
827.9604270599502
 20
452.3251862481968
 30
0.0
 10
827.8131936336333
 20
452.2226137096723
 30
0.0
 10
827.4955288680127
 20
452.025125034737
 30
0.0
 10
826.9377971399118
 20
451.7237743459788
 30
0.0
 10
826.2095385710111
 20
451.3756999447061
 30
0.0
 10
824.9985147170104
 20
450.8486225161683
 30
0.0
 10
823.4706208304229
 20
450.2574978343367
 30
0.0
 10
821.5910547667377
 20
449.6451225209003
 30
0.0
 10
819.5906069203092
 20
449.1052442760659
 30
0.0
 10
817.4539148365935
 20
448.6258331466145
 30
0.0
 10
814.5036037077552
 20
448.0775483701158
 30
0.0
 10
811.4676661329891
 20
447.6691079587824
 30
0.0
 10
808.3783316976781
 20
447.3953019245275
 30
0.0
 10
806.0049754799159
 20
447.2512084259149
 30
0.0
 10
803.6068556002367
 20
447.1635862298861
 30
0.0
 10
802.0157904846652
 20
447.144601729833
 30
0.0
 10
801.2233691943018
 20
447.1453190826723
 30
0.0
  0
SPLINE
  5
2D2
330
1F
100
AcDbEntity
  8
HEWI
100
AcDbSpline
210
0.0
220
0.0
230
1.0
 70
     8
 71
     3
 72
    18
 73
    14
 74
     0
 42
0.000000001
 43
0.0000000001
 40
0.0
 40
0.0
 40
0.0
 40
0.0
 40
0.0795075203472149
 40
0.1715567683124934
 40
0.2636060162777719
 40
0.3556552642430504
 40
0.4477045122083289
 40
0.5397537601736074
 40
0.6318030081388859
 40
0.7238522561041645
 40
0.8159015040694431
 40
0.9079507520347217
 40
1.0
 40
1.0
 40
1.0
 40
1.0
 10
826.5701070624384
 20
447.1812145280886
 30
0.0
 10
825.9860597521573
 20
446.9416166990363
 30
0.0
 10
824.7173271537212
 20
446.4561256599495
 30
0.0
 10
822.726032082062
 20
445.8076615360586
 30
0.0
 10
820.5423411096044
 20
445.2188770321836
 30
0.0
 10
818.2537772964336
 20
444.7057160475852
 30
0.0
 10
815.9034106499953
 20
444.2689705297336
 30
0.0
 10
813.5198352965247
 20
443.9088647689408
 30
0.0
 10
811.107783827143
 20
443.6212538221873
 30
0.0
 10
808.6732112749341
 20
443.4056736829037
 30
0.0
 10
806.197877137586
 20
443.2554801471248
 30
0.0
 10
803.7045124007883
 20
443.1643781499725
 30
0.0
 10
802.0465303362783
 20
443.1445722630435
 30
0.0
 10
801.2197481278104
 20
443.1453207216882
 30
0.0
  0
SPLINE
  5
2D3
330
1F
100
AcDbEntity
  8
HEWI
100
AcDbSpline
210
0.0
220
0.0
230
1.0
 70
     8
 71
     3
 72
    13
 73
     9
 74
     0
 42
0.000000001
 43
0.0000000001
 40
0.0
 40
0.0
 40
0.0
 40
0.0
 40
0.1404125117755874
 40
0.3123300094204699
 40
0.4842475070653526
 40
0.656165004710235
 40
0.8280825023551175
 40
1.0
 40
1.0
 40
1.0
 40
1.0
 10
817.70267897123
 20
430.3902379037551
 30
0.0
 10
816.9318827145238
 20
430.2653648437874
 30
0.0
 10
815.2165130659387
 20
430.0113611045473
 30
0.0
 10
812.5501103181429
 20
429.6935955553794
 30
0.0
 10
809.7068637979948
 20
429.4420915989594
 30
0.0
 10
806.8729834933058
 20
429.2704154697518
 30
0.0
 10
804.0454485971373
 20
429.1671208591761
 30
0.0
 10
802.1539354429997
 20
429.1444692961883
 30
0.0
 10
801.2070743950895
 20
429.1453264582428
 30
0.0
  0
SPLINE
  5
2D4
330
1F
100
AcDbEntity
  8
HEWI
100
AcDbSpline
210
0.0
220
0.0
230
1.0
 70
    24
 71
     3
 72
    14
 73
    10
 74
     0
 42
0.000000001
 43
0.0000000001
 40
0.0
 40
0.0
 40
0.0
 40
0.0
 40
0.25
 40
0.25
 40
0.5
 40
0.5
 40
0.75
 40
0.75
 40
1.0
 40
1.0
 40
1.0
 40
1.0
 10
798.2106954615812
 20
472.1453248192272
 30
0.0
 10
798.0107804847892
 20
472.1453248192272
 30
0.0
 10
797.8109140622497
 20
472.1453248192272
 30
0.0
 10
797.4112577522123
 20
472.1453248192272
 30
0.0
 10
797.2114675626828
 20
472.1453248192272
 30
0.0
 10
796.8119064932113
 20
472.1453248192272
 30
0.0
 10
796.612135218908
 20
472.1453248192272
 30
0.0
 10
796.2125294414435
 20
472.1453248192272
 30
0.0
 10
796.0126946767165
 20
472.1453248192272
 30
0.0
 10
795.8127796999248
 20
472.1453248192272
 30
0.0
  0
SPLINE
  5
2D5
330
1F
100
AcDbEntity
  8
HEWI
100
AcDbSpline
210
0.0
220
0.0
230
1.0
 70
    24
 71
     3
 72
    14
 73
    10
 74
     0
 42
0.000000001
 43
0.0000000001
 40
0.0
 40
0.0
 40
0.0
 40
0.0
 40
0.25
 40
0.25
 40
0.5
 40
0.5
 40
0.75
 40
0.75
 40
1.0
 40
1.0
 40
1.0
 40
1.0
 10
795.8127796999248
 20
484.1453248192272
 30
0.0
 10
796.0126946767165
 20
484.1453248192272
 30
0.0
 10
796.2125294414432
 20
484.1453248192272
 30
0.0
 10
796.612135218908
 20
484.1453248192272
 30
0.0
 10
796.8119064932113
 20
484.1453248192272
 30
0.0
 10
797.2114675626826
 20
484.1453248192272
 30
0.0
 10
797.4112577522122
 20
484.1453248192272
 30
0.0
 10
797.8109140622497
 20
484.1453248192272
 30
0.0
 10
798.0107804847892
 20
484.1453248192272
 30
0.0
 10
798.2106954615809
 20
484.1453248192272
 30
0.0
  0
SPLINE
  5
2D6
330
1F
100
AcDbEntity
  8
HEWI
100
AcDbSpline
210
0.0
220
0.0
230
1.0
 70
    24
 71
     3
 72
    26
 73
    22
 74
     0
 42
0.000000001
 43
0.0000000001
 40
0.0
 40
0.0
 40
0.0
 40
0.0
 40
0.2499999999999964
 40
0.2499999999999964
 40
0.3124999999999973
 40
0.3124999999999973
 40
0.3749999999999982
 40
0.3749999999999982
 40
0.4374999999999992
 40
0.4374999999999992
 40
0.5
 40
0.5
 40
0.5625000000000009
 40
0.5625000000000009
 40
0.6250000000000018
 40
0.6250000000000018
 40
0.6875000000000027
 40
0.6875000000000027
 40
0.7500000000000036
 40
0.7500000000000036
 40
1.0
 40
1.0
 40
1.0
 40
1.0
 10
793.2106954615813
 20
481.4619496095826
 30
0.0
 10
793.2106954615813
 20
480.9076995336422
 30
0.0
 10
793.2106954615813
 20
480.3558790378813
 30
0.0
 10
793.2106954615813
 20
479.6658943428219
 30
0.0
 10
793.2106954615813
 20
479.5278870338935
 30
0.0
 10
793.2106954615813
 20
479.2517779115421
 30
0.0
 10
793.2106954615813
 20
479.1136758596085
 30
0.0
 10
793.2106954615813
 20
478.8373157519494
 30
0.0
 10
793.2106954615813
 20
478.6990574635758
 30
0.0
 10
793.2106954615813
 20
478.4223433345712
 30
0.0
 10
793.2106954615813
 20
478.2838873382123
 30
0.0
 10
793.2106954615813
 20
478.0067623002421
 30
0.0
 10
793.2106954615813
 20
477.8683063038832
 30
0.0
 10
793.2106954615813
 20
477.5915921748785
 30
0.0
 10
793.2106954615813
 20
477.4533338865048
 30
0.0
 10
793.2106954615813
 20
477.1769737788458
 30
0.0
 10
793.2106954615813
 20
477.0388717269122
 30
0.0
 10
793.2106954615813
 20
476.7627626045608
 30
0.0
 10
793.2106954615813
 20
476.6247552956324
 30
0.0
 10
793.2106954615813
 20
475.9347706005732
 30
0.0
 10
793.2106954615813
 20
475.3829501048123
 30
0.0
 10
793.2106954615813
 20
474.8287000288718
 30
0.0
  0
SPLINE
  5
2D7
330
1F
100
AcDbEntity
  8
HEWI
100
AcDbSpline
210
0.0
220
0.0
230
1.0
 70
     8
 71
     3
 72
    26
 73
    22
 74
     0
 42
0.000000001
 43
0.0000000001
 40
0.0
 40
0.0
 40
0.0
 40
0.0
 40
0.1250000000000022
 40
0.1250000000000022
 40
0.2500000000000044
 40
0.2500000000000044
 40
0.3125000000000056
 40
0.3125000000000056
 40
0.3750000000000067
 40
0.3750000000000067
 40
0.5000000000000063
 40
0.5000000000000063
 40
0.5625000000000061
 40
0.5625000000000061
 40
0.6250000000000058
 40
0.6250000000000058
 40
0.7500000000000039
 40
0.7500000000000039
 40
0.8750000000000021
 40
0.8750000000000021
 40
1.0
 40
1.0
 40
1.0
 40
1.0
 10
848.1623835878654
 20
519.6103485831355
 30
0.0
 10
848.1661893460671
 20
519.6223826566991
 30
0.0
 10
848.1711106446084
 20
519.633936888192
 30
0.0
 10
848.1831704854684
 20
519.6560916188854
 30
0.0
 10
848.1901829267963
 20
519.6664499995998
 30
0.0
 10
848.2020381551095
 20
519.6808609677433
 30
0.0
 10
848.2062174823052
 20
519.6854815800578
 30
0.0
 10
848.2150365986969
 20
519.694352459995
 30
0.0
 10
848.2197029226867
 20
519.698623591023
 30
0.0
 10
848.2341870198517
 20
519.7106745249662
 30
0.0
 10
848.2444685001823
 20
519.7177054556041
 30
0.0
 10
848.2607956880833
 20
519.726800488193
 30
0.0
 10
848.266389903957
 20
519.7295886808744
 30
0.0
 10
848.2778883019896
 20
519.7346679503088
 30
0.0
 10
848.2837793024955
 20
519.7369494645185
 30
0.0
 10
848.3015605862206
 20
519.7429167887853
 30
0.0
 10
848.3136703331346
 20
519.7457845357363
 30
0.0
 10
848.3383939185312
 20
519.7493296122302
 30
0.0
 10
848.3510820942145
 20
519.7499838436941
 30
0.0
 10
848.3760000197957
 20
519.7490254270282
 30
0.0
 10
848.3883424876548
 20
519.7474416437315
 30
0.0
 10
848.4005674379398
 20
519.7447435890446
 30
0.0
  0
SPLINE
  5
2D8
330
1F
100
AcDbEntity
  8
HEWI
100
AcDbSpline
210
0.0
220
0.0
230
1.0
 70
     8
 71
     3
 72
    30
 73
    26
 74
     0
 42
0.000000001
 43
0.0000000001
 40
0.0
 40
0.0
 40
0.0
 40
0.0
 40
0.0625000000000002
 40
0.0625000000000002
 40
0.1250000000000005
 40
0.1250000000000005
 40
0.2500000000000009
 40
0.2500000000000009
 40
0.3125000000000012
 40
0.3125000000000012
 40
0.3750000000000014
 40
0.3750000000000014
 40
0.4999999999999998
 40
0.4999999999999998
 40
0.6249999999999979
 40
0.6249999999999979
 40
0.6874999999999987
 40
0.6874999999999987
 40
0.7499999999999995
 40
0.7499999999999995
 40
0.8749999999999992
 40
0.8749999999999992
 40
0.9374999999999996
 40
0.9374999999999996
 40
1.0
 40
1.0
 40
1.0
 40
1.0
 10
855.6117307642892
 20
518.1532350302671
 30
0.0
 10
855.6178476670224
 20
518.1518850257512
 30
0.0
 10
855.6239642176445
 20
518.1502435938277
 30
0.0
 10
855.63592796478
 20
518.1464459383565
 30
0.0
 10
855.6417888093305
 20
518.1442897586014
 30
0.0
 10
855.659015909516
 20
518.1370654376016
 30
0.0
 10
855.6700297438153
 20
518.1312479195168
 30
0.0
 10
855.6858204324393
 20
518.1209692614236
 30
0.0
 10
855.6909628729478
 20
518.117276895137
 30
0.0
 10
855.7007882611712
 20
518.1095195773981
 30
0.0
 10
855.7054995102312
 20
518.1054375023608
 30
0.0
 10
855.7190366897177
 20
518.0925888722125
 30
0.0
 10
855.7272713979015
 20
518.083225309819
 30
0.0
 10
855.7420784299086
 20
518.0628195344381
 30
0.0
 10
855.7484540507235
 20
518.0520355189997
 30
0.0
 10
855.7564280775281
 20
518.0351637352686
 30
0.0
 10
855.7588252958447
 20
518.0294150790065
 30
0.0
 10
855.7630877102537
 20
518.0176633161661
 30
0.0
 10
855.7649601103749
 20
518.0116309448898
 30
0.0
 10
855.7696882604565
 20
517.9933499391088
 30
0.0
 10
855.7716445928962
 20
517.9810404874305
 30
0.0
 10
855.7728291881932
 20
517.9623976058273
 30
0.0
 10
855.7729304942577
 20
517.9561533330477
 30
0.0
 10
855.7725298153597
 20
517.9436031780453
 30
0.0
 10
855.7720226491417
 20
517.9372852371392
 30
0.0
 10
855.7712221995398
 20
517.9310728234788
 30
0.0
  0
SPLINE
  5
2D9
330
1F
100
AcDbEntity
  8
HEWI
100
AcDbSpline
210
0.0
220
0.0
230
1.0
 70
     8
 71
     3
 72
     8
 73
     4
 74
     0
 42
0.000000001
 43
0.0000000001
 40
0.0
 40
0.0
 40
0.0
 40
0.0
 40
1.0
 40
1.0
 40
1.0
 40
1.0
 10
847.7333639089234
 20
518.2534921185091
 30
0.0
 10
847.8763457552872
 20
518.7057854175143
 30
0.0
 10
848.0193515150629
 20
519.1580711668662
 30
0.0
 10
848.1623835878828
 20
519.6103485831281
 30
0.0
  0
SPLINE
  5
2DA
330
1F
100
AcDbEntity
  8
HEWI
100
AcDbSpline
210
0.0
220
0.0
230
1.0
 70
     8
 71
     3
 72
     8
 73
     4
 74
     0
 42
0.000000001
 43
0.0000000001
 40
0.0
 40
0.0
 40
0.0
 40
0.0
 40
1.0
 40
1.0
 40
1.0
 40
1.0
 10
855.7712221995398
 20
517.9310728234788
 30
0.0
 10
855.7106041304146
 20
517.4606065757829
 30
0.0
 10
855.64995868639
 20
516.9901438539158
 30
0.0
 10
855.589288372384
 20
516.5196843464644
 30
0.0
  0
SPLINE
  5
2DB
330
1F
100
AcDbEntity
  8
HEWI
100
AcDbSpline
210
0.0
220
0.0
230
1.0
 70
     8
 71
     3
 72
    18
 73
    14
 74
     0
 42
0.000000001
 43
0.0000000001
 40
0.0
 40
0.0
 40
0.0
 40
0.0
 40
0.0604915932608958
 40
0.1545515063472311
 40
0.2485813579332908
 40
0.3427955499784291
 40
0.4374101004310467
 40
0.5325623290546482
 40
0.628302259338223
 40
0.7246054832578501
 40
0.8214003784898478
 40
0.9185976546642043
 40
1.0
 40
1.0
 40
1.0
 40
1.0
 10
89.72309796336441
 20
304.6835044419747
 30
0.0
 10
89.72328154103463
 20
304.2395573356487
 30
0.0
 10
89.78230266390959
 20
303.1131765974502
 30
0.0
 10
90.1211939052858
 20
301.3163331150924
 30
0.0
 10
90.83100073223965
 20
299.3602025041456
 30
0.0
 10
91.84868160955163
 20
297.5260076007238
 30
0.0
 10
93.15208939570492
 20
295.8525847493255
 30
0.0
 10
94.71446173194236
 20
294.3746292060067
 30
0.0
 10
96.50353764864485
 20
293.1244814207682
 30
0.0
 10
98.48191844010734
 20
292.1307374415566
 30
0.0
 10
100.6054683249143
 20
291.4173661126879
 30
0.0
 10
102.7086800580637
 20
291.0250733692338
 30
0.0
 10
104.0883085780609
 20
290.9455899572768
 30
0.0
 10
104.7230979633643
 20
290.9453293909556
 30
0.0
  0
SPLINE
  5
2DC
330
1F
100
AcDbEntity
  8
HEWI
100
AcDbSpline
210
0.0
220
0.0
230
1.0
 70
     8
 71
     3
 72
    18
 73
    14
 74
     0
 42
0.000000001
 43
0.0000000001
 40
0.0
 40
0.0
 40
0.0
 40
0.0
 40
0.0578771053603825
 40
0.1556493012185228
 40
0.2535949023616169
 40
0.3515549542548937
 40
0.4493989256325439
 40
0.5469636254146117
 40
0.6440719104761076
 40
0.7405694295720864
 40
0.836368453695001
 40
0.9314811668528424
 40
1.0
 40
1.0
 40
1.0
 40
1.0
 10
673.7230979633641
 20
290.9453293909556
 30
0.0
 10
674.1732844243285
 20
290.9454087639218
 30
0.0
 10
675.3771841836551
 20
290.9946775252735
 30
0.0
 10
677.3260868808897
 20
291.2917883999796
 30
0.0
 10
679.4998971762961
 20
291.9444537603244
 30
0.0
 10
681.5459609604988
 20
292.8938560741938
 30
0.0
 10
683.4133346286773
 20
294.1195472860521
 30
0.0
 10
685.0563246235134
 20
295.5935214169429
 30
0.0
 10
686.4342158713388
 20
297.2801019396513
 30
0.0
 10
687.5137778578146
 20
299.1374853763577
 30
0.0
 10
688.2705694101453
 20
301.1176465028783
 30
0.0
 10
688.6520681931501
 20
302.9882472475267
 30
0.0
 10
688.7228186679195
 20
304.1801651604291
 30
0.0
 10
688.7230979633641
 20
304.6835044419748
 30
0.0
  0
SPLINE
  5
2DD
330
1F
100
AcDbEntity
  8
HEWI
100
AcDbSpline
210
0.0
220
0.0
230
1.0
 70
     8
 71
     3
 72
    18
 73
    14
 74
     0
 42
0.000000001
 43
0.0000000001
 40
0.0
 40
0.0
 40
0.0
 40
0.0
 40
0.0604915932608929
 40
0.1545515063472841
 40
0.2485813579333209
 40
0.3427955499784519
 40
0.4374101004310884
 40
0.5325623290546713
 40
0.6283022593382468
 40
0.7246054832578486
 40
0.8214003784898579
 40
0.9185976546641908
 40
1.0
 40
1.0
 40
1.0
 40
1.0
 10
688.7230979633645
 20
754.9867768000282
 30
0.0
 10
688.7229143856941
 20
755.4307239063542
 30
0.0
 10
688.6638932628191
 20
756.5571046445531
 30
0.0
 10
688.3250020214427
 20
758.3539481269113
 30
0.0
 10
687.6151951944887
 20
760.310078737858
 30
0.0
 10
686.5975143171767
 20
762.1442736412797
 30
0.0
 10
685.2941065310232
 20
763.8176964926779
 30
0.0
 10
683.7317341947859
 20
765.2956520359971
 30
0.0
 10
681.9426582780834
 20
766.5457998212349
 30
0.0
 10
679.964277486621
 20
767.5395438004467
 30
0.0
 10
677.8407276018143
 20
768.2529151293152
 30
0.0
 10
675.737515868665
 20
768.6452078727691
 30
0.0
 10
674.3578873486671
 20
768.7246912847268
 30
0.0
 10
673.7230979633641
 20
768.7249518510476
 30
0.0
  0
SPLINE
  5
2DE
330
1F
100
AcDbEntity
  8
HEWI
100
AcDbSpline
210
0.0
220
0.0
230
1.0
 70
     8
 71
     3
 72
    18
 73
    14
 74
     0
 42
0.000000001
 43
0.0000000001
 40
0.0
 40
0.0
 40
0.0
 40
0.0
 40
0.0578771053603852
 40
0.1556493012185687
 40
0.2535949023616764
 40
0.3515549542549756
 40
0.4493989256326256
 40
0.5469636254146585
 40
0.6440719104761337
 40
0.7405694295721009
 40
0.8363684536950458
 40
0.9314811668528935
 40
1.0
 40
1.0
 40
1.0
 40
1.0
 10
104.723097963364
 20
768.7249518510475
 30
0.0
 10
104.2729115023996
 20
768.7248724780813
 30
0.0
 10
103.0690117430729
 20
768.6756037167297
 30
0.0
 10
101.1201090458376
 20
768.3784928420233
 30
0.0
 10
98.94629875043069
 20
767.7258274816782
 30
0.0
 10
96.90023496622805
 20
766.7764251678083
 30
0.0
 10
95.0328612980498
 20
765.5507339559498
 30
0.0
 10
93.38987130321392
 20
764.0767598250591
 30
0.0
 10
92.01198005538911
 20
762.3901793023512
 30
0.0
 10
90.93241806891347
 20
760.5327958656446
 30
0.0
 10
90.17562651658295
 20
758.5526347391239
 30
0.0
 10
89.79412773357784
 20
756.6820339944752
 30
0.0
 10
89.7233772588096
 20
755.4901160815737
 30
0.0
 10
89.72309796336435
 20
754.9867768000281
 30
0.0
  0
SPLINE
  5
2DF
330
1F
100
AcDbEntity
  8
HEWI
100
AcDbSpline
210
0.0
220
0.0
230
1.0
 70
     8
 71
     3
 72
    27
 73
    23
 74
     0
 42
0.000000001
 43
0.0000000001
 40
0.0
 40
0.0
 40
0.0
 40
0.0
 40
0.125
 40
0.1875
 40
0.25
 40
0.3125
 40
0.375
 40
0.40625
 40
0.4375
 40
0.46875
 40
0.484375
 40
0.5
 40
0.515625
 40
0.53125
 40
0.5625
 40
0.59375
 40
0.625
 40
0.6875
 40
0.75
 40
0.8125
 40
0.875
 40
1.0
 40
1.0
 40
1.0
 40
1.0
 10
639.673097963364
 20
101.0703248198684
 30
0.0
 10
639.659837668554
 20
101.0703248198684
 30
0.0
 10
639.6401503621041
 20
101.0723016051184
 30
0.0
 10
639.6148319770741
 20
101.0786732598084
 30
0.0
 10
639.5964401403241
 20
101.0852655617284
 30
0.0
 10
639.5787765192141
 20
101.0936170249384
 30
0.0
 10
639.5647730992841
 20
101.1019971806584
 30
0.0
 10
639.5540657017441
 20
101.1095265192884
 30
0.0
 10
639.5462993744841
 20
101.1155791865084
 30
0.0
 10
639.5400608089642
 20
101.1209559457184
 30
0.0
 10
639.535219276354
 20
101.1254525828684
 30
0.0
 10
639.5316620555941
 20
101.1289246095084
 30
0.0
 10
639.5281921440239
 20
101.1324839985484
 30
0.0
 10
639.523698246104
 20
101.1373284822884
 30
0.0
 10
639.518324762264
 20
101.1435708504884
 30
0.0
 10
639.5122757821641
 20
101.1513419116784
 30
0.0
 10
639.504751030204
 20
101.1620558358484
 30
0.0
 10
639.4963759794541
 20
101.1760677914784
 30
0.0
 10
639.4880296037239
 20
101.1937421793584
 30
0.0
 10
639.4814413176641
 20
101.2121452267384
 30
0.0
 10
639.475073544404
 20
101.2374790444484
 30
0.0
 10
639.4730979633641
 20
101.2571783511784
 30
0.0
 10
639.4730979633641
 20
101.2704467287284
 30
0.0
  0
SPLINE
  5
2E0
330
1F
100
AcDbEntity
  8
HEWI
100
AcDbSpline
210
0.0
220
0.0
230
1.0
 70
     8
 71
     3
 72
    27
 73
    23
 74
     0
 42
0.000000001
 43
0.0000000001
 40
0.0
 40
0.0
 40
0.0
 40
0.0
 40
0.125
 40
0.1875
 40
0.25
 40
0.3125
 40
0.375
 40
0.40625
 40
0.4375
 40
0.46875
 40
0.484375
 40
0.5
 40
0.515625
 40
0.53125
 40
0.5625
 40
0.59375
 40
0.625
 40
0.6875
 40
0.75
 40
0.8125
 40
0.875
 40
1.0
 40
1.0
 40
1.0
 40
1.0
 10
639.673097963364
 20
151.0703248198684
 30
0.0
 10
639.659837668554
 20
151.0703248198684
 30
0.0
 10
639.6401503621041
 20
151.0683480346184
 30
0.0
 10
639.6148319770741
 20
151.0619763799284
 30
0.0
 10
639.5964401403241
 20
151.0553840780084
 30
0.0
 10
639.5787765192141
 20
151.0470326147984
 30
0.0
 10
639.5647730992841
 20
151.0386524590784
 30
0.0
 10
639.5540657017441
 20
151.0311231204484
 30
0.0
 10
639.5462993744841
 20
151.0250704532284
 30
0.0
 10
639.5400608089642
 20
151.0196936940184
 30
0.0
 10
639.535219276354
 20
151.0151970568684
 30
0.0
 10
639.5316620555941
 20
151.0117250302284
 30
0.0
 10
639.5281921440239
 20
151.0081656411884
 30
0.0
 10
639.523698246104
 20
151.0033211574484
 30
0.0
 10
639.518324762264
 20
150.9970787892484
 30
0.0
 10
639.5122757821641
 20
150.9893077280584
 30
0.0
 10
639.504751030204
 20
150.9785938038884
 30
0.0
 10
639.4963759794541
 20
150.9645818482584
 30
0.0
 10
639.4880296037239
 20
150.9469074603784
 30
0.0
 10
639.4814413176641
 20
150.9285044129984
 30
0.0
 10
639.475073544404
 20
150.9031705952884
 30
0.0
 10
639.4730979633641
 20
150.8834712885584
 30
0.0
 10
639.4730979633641
 20
150.8702029110084
 30
0.0
  0
SPLINE
  5
2E1
330
1F
100
AcDbEntity
  8
HEWI
100
AcDbSpline
210
0.0
220
0.0
230
1.0
 70
     8
 71
     3
 72
    27
 73
    23
 74
     0
 42
0.000000001
 43
0.0000000001
 40
0.0
 40
0.0
 40
0.0
 40
0.0
 40
0.125
 40
0.1875
 40
0.25
 40
0.3125
 40
0.375
 40
0.40625
 40
0.4375
 40
0.46875
 40
0.484375
 40
0.5
 40
0.515625
 40
0.53125
 40
0.5625
 40
0.59375
 40
0.625
 40
0.6875
 40
0.75
 40
0.8125
 40
0.875
 40
1.0
 40
1.0
 40
1.0
 40
1.0
 10
638.7730979633641
 20
151.0703248198684
 30
0.0
 10
638.786358258174
 20
151.0703248198684
 30
0.0
 10
638.8060455646241
 20
151.0683480346184
 30
0.0
 10
638.8313639496541
 20
151.0619763799284
 30
0.0
 10
638.8497557864041
 20
151.0553840780084
 30
0.0
 10
638.867419407514
 20
151.0470326147984
 30
0.0
 10
638.8814228274441
 20
151.0386524590784
 30
0.0
 10
638.8921302249839
 20
151.0311231204484
 30
0.0
 10
638.899896552244
 20
151.0250704532284
 30
0.0
 10
638.9061351177639
 20
151.0196936940184
 30
0.0
 10
638.910976650374
 20
151.0151970568684
 30
0.0
 10
638.914533871134
 20
151.0117250302284
 30
0.0
 10
638.9180037827042
 20
151.0081656411884
 30
0.0
 10
638.9224976806239
 20
151.0033211574484
 30
0.0
 10
638.927871164464
 20
150.9970787892484
 30
0.0
 10
638.9339201445641
 20
150.9893077280584
 30
0.0
 10
638.941444896524
 20
150.9785938038884
 30
0.0
 10
638.9498199472741
 20
150.9645818482584
 30
0.0
 10
638.9581663230042
 20
150.9469074603784
 30
0.0
 10
638.9647546090641
 20
150.9285044129984
 30
0.0
 10
638.971122382324
 20
150.9031705952884
 30
0.0
 10
638.9730979633641
 20
150.8834712885584
 30
0.0
 10
638.9730979633641
 20
150.8702029110084
 30
0.0
  0
SPLINE
  5
2E2
330
1F
100
AcDbEntity
  8
HEWI
100
AcDbSpline
210
0.0
220
0.0
230
1.0
 70
     8
 71
     3
 72
    27
 73
    23
 74
     0
 42
0.000000001
 43
0.0000000001
 40
0.0
 40
0.0
 40
0.0
 40
0.0
 40
0.125
 40
0.1875
 40
0.25
 40
0.3125
 40
0.375
 40
0.40625
 40
0.4375
 40
0.46875
 40
0.484375
 40
0.5
 40
0.515625
 40
0.53125
 40
0.5625
 40
0.59375
 40
0.625
 40
0.6875
 40
0.75
 40
0.8125
 40
0.875
 40
1.0
 40
1.0
 40
1.0
 40
1.0
 10
638.7730979633641
 20
101.0703248198684
 30
0.0
 10
638.786358258174
 20
101.0703248198684
 30
0.0
 10
638.8060455646241
 20
101.0723016051184
 30
0.0
 10
638.8313639496541
 20
101.0786732598084
 30
0.0
 10
638.8497557864041
 20
101.0852655617284
 30
0.0
 10
638.867419407514
 20
101.0936170249384
 30
0.0
 10
638.8814228274441
 20
101.1019971806584
 30
0.0
 10
638.8921302249839
 20
101.1095265192884
 30
0.0
 10
638.899896552244
 20
101.1155791865084
 30
0.0
 10
638.9061351177639
 20
101.1209559457184
 30
0.0
 10
638.910976650374
 20
101.1254525828684
 30
0.0
 10
638.914533871134
 20
101.1289246095084
 30
0.0
 10
638.9180037827042
 20
101.1324839985484
 30
0.0
 10
638.9224976806239
 20
101.1373284822884
 30
0.0
 10
638.927871164464
 20
101.1435708504884
 30
0.0
 10
638.9339201445641
 20
101.1513419116784
 30
0.0
 10
638.941444896524
 20
101.1620558358484
 30
0.0
 10
638.9498199472741
 20
101.1760677914784
 30
0.0
 10
638.9581663230042
 20
101.1937421793584
 30
0.0
 10
638.9647546090641
 20
101.2121452267384
 30
0.0
 10
638.971122382324
 20
101.2374790444484
 30
0.0
 10
638.9730979633641
 20
101.2571783511784
 30
0.0
 10
638.9730979633641
 20
101.2704467287284
 30
0.0
  0
LINE
  5
2E3
102
{ACAD_REACTORS
330
312
102
}
330
1F
100
AcDbEntity
  8
1
  6
Continuous
 62
   163
 60
     1
370
    18
100
AcDbLine
 10
649.723098
 20
127.070325
 30
0.0
 11
649.723098
 21
127.670325
 31
0.0
  0
LINE
  5
2E4
102
{ACAD_REACTORS
330
312
102
}
330
1F
100
AcDbEntity
  8
1
  6
Continuous
 62
   163
 60
     1
370
    18
100
AcDbLine
 10
653.9230980000001
 20
127.070325
 30
0.0
 11
649.723098
 21
127.070325
 31
0.0
  0
LINE
  5
2E5
102
{ACAD_REACTORS
330
312
102
}
330
1F
100
AcDbEntity
  8
1
  6
Continuous
 62
   163
 60
     1
370
    18
100
AcDbLine
 10
653.9230980000001
 20
127.670325
 30
0.0
 11
653.9230980000001
 21
127.070325
 31
0.0
  0
LINE
  5
2E6
102
{ACAD_REACTORS
330
312
102
}
330
1F
100
AcDbEntity
  8
1
  6
Continuous
 62
   163
 60
     1
370
    18
100
AcDbLine
 10
649.723098
 20
127.670325
 30
0.0
 11
653.9230980000001
 21
127.670325
 31
0.0
  0
LINE
  5
2E7
102
{ACAD_REACTORS
330
312
102
}
330
1F
100
AcDbEntity
  8
1
  6
Continuous
 62
   163
 60
     1
370
    18
100
AcDbLine
 10
649.723098
 20
130.070325
 30
0.0
 11
649.723098
 21
130.770325
 31
0.0
  0
LINE
  5
2E8
102
{ACAD_REACTORS
330
312
102
}
330
1F
100
AcDbEntity
  8
1
  6
Continuous
 62
   163
 60
     1
370
    18
100
AcDbLine
 10
653.9230980000001
 20
130.070325
 30
0.0
 11
649.723098
 21
130.070325
 31
0.0
  0
LINE
  5
2E9
102
{ACAD_REACTORS
330
312
102
}
330
1F
100
AcDbEntity
  8
1
  6
Continuous
 62
   163
 60
     1
370
    18
100
AcDbLine
 10
653.9230980000001
 20
130.770325
 30
0.0
 11
653.9230980000001
 21
130.070325
 31
0.0
  0
LINE
  5
2EA
102
{ACAD_REACTORS
330
312
102
}
330
1F
100
AcDbEntity
  8
1
  6
Continuous
 62
   163
 60
     1
370
    18
100
AcDbLine
 10
649.723098
 20
130.770325
 30
0.0
 11
653.9230980000001
 21
130.770325
 31
0.0
  0
LINE
  5
2EB
102
{ACAD_REACTORS
330
312
102
}
330
1F
100
AcDbEntity
  8
1
  6
Continuous
 62
   163
 60
     1
370
    18
100
AcDbLine
 10
649.723098
 20
135.970325
 30
0.0
 11
649.723098
 21
136.870325
 31
0.0
  0
LINE
  5
2EC
102
{ACAD_REACTORS
330
312
102
}
330
1F
100
AcDbEntity
  8
1
  6
Continuous
 62
   163
 60
     1
370
    18
100
AcDbLine
 10
653.9230980000001
 20
135.970325
 30
0.0
 11
649.723098
 21
135.970325
 31
0.0
  0
LINE
  5
2ED
102
{ACAD_REACTORS
330
312
102
}
330
1F
100
AcDbEntity
  8
1
  6
Continuous
 62
   163
 60
     1
370
    18
100
AcDbLine
 10
653.9230980000001
 20
136.870325
 30
0.0
 11
653.9230980000001
 21
135.970325
 31
0.0
  0
LINE
  5
2EE
102
{ACAD_REACTORS
330
312
102
}
330
1F
100
AcDbEntity
  8
1
  6
Continuous
 62
   163
 60
     1
370
    18
100
AcDbLine
 10
649.723098
 20
136.870325
 30
0.0
 11
653.9230980000001
 21
136.870325
 31
0.0
  0
LINE
  5
2EF
102
{ACAD_REACTORS
330
312
102
}
330
1F
100
AcDbEntity
  8
1
  6
Continuous
 62
   163
 60
     1
370
    18
100
AcDbLine
 10
626.623098
 20
146.170325
 30
0.0
 11
623.273098
 21
142.670325
 31
0.0
  0
LINE
  5
2F0
102
{ACAD_REACTORS
330
312
102
}
330
1F
100
AcDbEntity
  8
1
  6
Continuous
 62
   163
 60
     1
370
    18
100
AcDbLine
 10
629.973098
 20
142.670325
 30
0.0
 11
626.623098
 21
146.170325
 31
0.0
  0
LINE
  5
2F1
102
{ACAD_REACTORS
330
312
102
}
330
1F
100
AcDbEntity
  8
1
  6
Continuous
 62
   163
 60
     1
370
    18
100
AcDbLine
 10
623.273098
 20
142.670325
 30
0.0
 11
629.973098
 21
142.670325
 31
0.0
  0
LINE
  5
2F2
102
{ACAD_REACTORS
330
312
102
}
330
1F
100
AcDbEntity
  8
1
  6
Continuous
 62
   163
 60
     1
370
    18
100
AcDbLine
 10
623.9755129999999
 20
142.970325
 30
0.0
 11
626.623098
 21
145.736458
 31
0.0
  0
LINE
  5
2F3
102
{ACAD_REACTORS
330
312
102
}
330
1F
100
AcDbEntity
  8
1
  6
Continuous
 62
   163
 60
     1
370
    18
100
AcDbLine
 10
629.270683
 20
142.970325
 30
0.0
 11
623.9755129999999
 21
142.970325
 31
0.0
  0
LINE
  5
2F4
102
{ACAD_REACTORS
330
312
102
}
330
1F
100
AcDbEntity
  8
1
  6
Continuous
 62
   163
 60
     1
370
    18
100
AcDbLine
 10
626.623098
 20
145.736458
 30
0.0
 11
629.270683
 21
142.970325
 31
0.0
  0
LINE
  5
2F5
102
{ACAD_REACTORS
330
312
102
}
330
1F
100
AcDbEntity
  8
1
  6
Continuous
 62
   163
 60
     1
370
    18
100
AcDbLine
 10
649.723098
 20
121.170325
 30
0.0
 11
649.723098
 21
121.570325
 31
0.0
  0
LINE
  5
2F6
102
{ACAD_REACTORS
330
312
102
}
330
1F
100
AcDbEntity
  8
1
  6
Continuous
 62
   163
 60
     1
370
    18
100
AcDbLine
 10
653.9230980000001
 20
121.170325
 30
0.0
 11
649.723098
 21
121.170325
 31
0.0
  0
LINE
  5
2F7
102
{ACAD_REACTORS
330
312
102
}
330
1F
100
AcDbEntity
  8
1
  6
Continuous
 62
   163
 60
     1
370
    18
100
AcDbLine
 10
653.9230980000001
 20
121.570325
 30
0.0
 11
653.9230980000001
 21
121.170325
 31
0.0
  0
LINE
  5
2F8
102
{ACAD_REACTORS
330
312
102
}
330
1F
100
AcDbEntity
  8
1
  6
Continuous
 62
   163
 60
     1
370
    18
100
AcDbLine
 10
649.723098
 20
121.570325
 30
0.0
 11
653.9230980000001
 21
121.570325
 31
0.0
  0
LINE
  5
2F9
102
{ACAD_REACTORS
330
312
102
}
330
1F
100
AcDbEntity
  8
1
  6
Continuous
 62
   163
 60
     1
370
    18
100
AcDbLine
 10
623.273098
 20
109.470325
 30
0.0
 11
626.623098
 21
105.970325
 31
0.0
  0
LINE
  5
2FA
102
{ACAD_REACTORS
330
312
102
}
330
1F
100
AcDbEntity
  8
1
  6
Continuous
 62
   163
 60
     1
370
    18
100
AcDbLine
 10
629.973098
 20
109.470325
 30
0.0
 11
623.273098
 21
109.470325
 31
0.0
  0
LINE
  5
2FB
102
{ACAD_REACTORS
330
312
102
}
330
1F
100
AcDbEntity
  8
1
  6
Continuous
 62
   163
 60
     1
370
    18
100
AcDbLine
 10
626.623098
 20
105.970325
 30
0.0
 11
629.973098
 21
109.470325
 31
0.0
  0
LINE
  5
2FC
102
{ACAD_REACTORS
330
312
102
}
330
1F
100
AcDbEntity
  8
1
  6
Continuous
 62
   163
 60
     1
370
    18
100
AcDbLine
 10
649.723098
 20
118.270325
 30
0.0
 11
649.723098
 21
118.570325
 31
0.0
  0
LINE
  5
2FD
102
{ACAD_REACTORS
330
312
102
}
330
1F
100
AcDbEntity
  8
1
  6
Continuous
 62
   163
 60
     1
370
    18
100
AcDbLine
 10
653.9230980000001
 20
118.270325
 30
0.0
 11
649.723098
 21
118.270325
 31
0.0
  0
LINE
  5
2FE
102
{ACAD_REACTORS
330
312
102
}
330
1F
100
AcDbEntity
  8
1
  6
Continuous
 62
   163
 60
     1
370
    18
100
AcDbLine
 10
653.9230980000001
 20
118.570325
 30
0.0
 11
653.9230980000001
 21
118.270325
 31
0.0
  0
LINE
  5
2FF
102
{ACAD_REACTORS
330
312
102
}
330
1F
100
AcDbEntity
  8
1
  6
Continuous
 62
   163
 60
     1
370
    18
100
AcDbLine
 10
649.723098
 20
118.570325
 30
0.0
 11
653.9230980000001
 21
118.570325
 31
0.0
  0
LINE
  5
300
102
{ACAD_REACTORS
330
312
102
}
330
1F
100
AcDbEntity
  8
1
  6
Continuous
 62
   163
 60
     1
370
    18
100
AcDbLine
 10
649.723098
 20
115.270325
 30
0.0
 11
649.723098
 21
115.470325
 31
0.0
  0
LINE
  5
301
102
{ACAD_REACTORS
330
312
102
}
330
1F
100
AcDbEntity
  8
1
  6
Continuous
 62
   163
 60
     1
370
    18
100
AcDbLine
 10
653.9230980000001
 20
115.270325
 30
0.0
 11
649.723098
 21
115.270325
 31
0.0
  0
LINE
  5
302
102
{ACAD_REACTORS
330
312
102
}
330
1F
100
AcDbEntity
  8
1
  6
Continuous
 62
   163
 60
     1
370
    18
100
AcDbLine
 10
653.9230980000001
 20
115.470325
 30
0.0
 11
653.9230980000001
 21
115.270325
 31
0.0
  0
LINE
  5
303
102
{ACAD_REACTORS
330
312
102
}
330
1F
100
AcDbEntity
  8
1
  6
Continuous
 62
   163
 60
     1
370
    18
100
AcDbLine
 10
649.723098
 20
115.470325
 30
0.0
 11
653.9230980000001
 21
115.470325
 31
0.0
  0
CIRCLE
  5
304
102
{ACAD_REACTORS
330
312
102
}
330
1F
100
AcDbEntity
  8
1
  6
Continuous
 62
   163
 60
     1
370
    18
100
AcDbCircle
 10
651.8230980000001
 20
107.720325
 30
0.0
 40
2.0
  0
CIRCLE
  5
305
102
{ACAD_REACTORS
330
312
102
}
330
1F
100
AcDbEntity
  8
1
  6
Continuous
 62
   163
 60
     1
370
    18
100
AcDbCircle
 10
651.8230980000001
 20
107.720325
 30
0.0
 40
1.699999999999999
  0
LINE
  5
306
102
{ACAD_REACTORS
330
312
102
}
330
1F
100
AcDbEntity
  8
1
  6
Continuous
 62
   163
 60
     1
370
    18
100
AcDbLine
 10
649.723098
 20
124.170325
 30
0.0
 11
649.723098
 21
124.670325
 31
0.0
  0
LINE
  5
307
102
{ACAD_REACTORS
330
312
102
}
330
1F
100
AcDbEntity
  8
1
  6
Continuous
 62
   163
 60
     1
370
    18
100
AcDbLine
 10
653.9230980000001
 20
124.170325
 30
0.0
 11
649.723098
 21
124.170325
 31
0.0
  0
LINE
  5
308
102
{ACAD_REACTORS
330
312
102
}
330
1F
100
AcDbEntity
  8
1
  6
Continuous
 62
   163
 60
     1
370
    18
100
AcDbLine
 10
653.9230980000001
 20
124.670325
 30
0.0
 11
653.9230980000001
 21
124.170325
 31
0.0
  0
LINE
  5
309
102
{ACAD_REACTORS
330
312
102
}
330
1F
100
AcDbEntity
  8
1
  6
Continuous
 62
   163
 60
     1
370
    18
100
AcDbLine
 10
649.723098
 20
124.670325
 30
0.0
 11
653.9230980000001
 21
124.670325
 31
0.0
  0
LINE
  5
30A
102
{ACAD_REACTORS
330
312
102
}
330
1F
100
AcDbEntity
  8
1
  6
Continuous
 62
   163
 60
     1
370
    18
100
AcDbLine
 10
649.723098
 20
132.970325
 30
0.0
 11
649.723098
 21
133.770325
 31
0.0
  0
LINE
  5
30B
102
{ACAD_REACTORS
330
312
102
}
330
1F
100
AcDbEntity
  8
1
  6
Continuous
 62
   163
 60
     1
370
    18
100
AcDbLine
 10
653.9230980000001
 20
132.970325
 30
0.0
 11
649.723098
 21
132.970325
 31
0.0
  0
LINE
  5
30C
102
{ACAD_REACTORS
330
312
102
}
330
1F
100
AcDbEntity
  8
1
  6
Continuous
 62
   163
 60
     1
370
    18
100
AcDbLine
 10
653.9230980000001
 20
133.770325
 30
0.0
 11
653.9230980000001
 21
132.970325
 31
0.0
  0
LINE
  5
30D
102
{ACAD_REACTORS
330
312
102
}
330
1F
100
AcDbEntity
  8
1
  6
Continuous
 62
   163
 60
     1
370
    18
100
AcDbLine
 10
649.723098
 20
133.770325
 30
0.0
 11
653.9230980000001
 21
133.770325
 31
0.0
  0
LINE
  5
30E
102
{ACAD_REACTORS
330
312
102
}
330
1F
100
AcDbEntity
  8
1
  6
Continuous
 62
   163
 60
     1
370
    18
100
AcDbLine
 10
651.6730980000001
 20
142.670325
 30
0.0
 11
651.6730980000001
 21
146.170325
 31
0.0
  0
LINE
  5
30F
102
{ACAD_REACTORS
330
312
102
}
330
1F
100
AcDbEntity
  8
1
  6
Continuous
 62
   163
 60
     1
370
    18
100
AcDbLine
 10
651.973098
 20
142.670325
 30
0.0
 11
651.6730980000001
 21
142.670325
 31
0.0
  0
LINE
  5
310
102
{ACAD_REACTORS
330
312
102
}
330
1F
100
AcDbEntity
  8
1
  6
Continuous
 62
   163
 60
     1
370
    18
100
AcDbLine
 10
651.973098
 20
146.170325
 30
0.0
 11
651.973098
 21
142.670325
 31
0.0
  0
LINE
  5
311
102
{ACAD_REACTORS
330
312
102
}
330
1F
100
AcDbEntity
  8
1
  6
Continuous
 62
   163
 60
     1
370
    18
100
AcDbLine
 10
651.6730980000001
 20
146.170325
 30
0.0
 11
651.973098
 21
146.170325
 31
0.0
  0
HATCH
  5
312
330
1F
100
AcDbEntity
  8
HEWI
100
AcDbHatch
 10
0.0
 20
0.0
 30
0.0
210
0.0
220
0.0
230
1.0
  2
SOLID
 70
     1
 71
     1
 91
       14
 92
        0
 93
        4
 72
     1
 10
649.7230979633641
 20
127.0703248198684
 11
649.7230979633641
 21
127.6703248198684
 72
     1
 10
649.7230979633641
 20
127.6703248198684
 11
653.923097963364
 21
127.6703248198684
 72
     1
 10
653.923097963364
 20
127.6703248198684
 11
653.923097963364
 21
127.0703248198685
 72
     1
 10
653.923097963364
 20
127.0703248198684
 11
649.7230979633641
 21
127.0703248198684
 97
        4
330
2E3
330
2E4
330
2E5
330
2E6
 92
        0
 93
        4
 72
     1
 10
649.7230979633641
 20
130.0703248198684
 11
649.7230979633641
 21
130.7703248198684
 72
     1
 10
649.7230979633641
 20
130.7703248198684
 11
653.923097963364
 21
130.7703248198684
 72
     1
 10
653.923097963364
 20
130.7703248198684
 11
653.923097963364
 21
130.0703248198684
 72
     1
 10
653.923097963364
 20
130.0703248198684
 11
649.7230979633641
 21
130.0703248198684
 97
        4
330
2E7
330
2E8
330
2E9
330
2EA
 92
        0
 93
        4
 72
     1
 10
649.7230979633641
 20
135.9703248198684
 11
649.7230979633641
 21
136.8703248198684
 72
     1
 10
649.7230979633641
 20
136.8703248198684
 11
653.923097963364
 21
136.8703248198684
 72
     1
 10
653.923097963364
 20
136.8703248198684
 11
653.923097963364
 21
135.9703248198684
 72
     1
 10
653.923097963364
 20
135.9703248198684
 11
649.7230979633641
 21
135.9703248198684
 97
        4
330
2EB
330
2EC
330
2ED
330
2EE
 92
        0
 93
        3
 72
     1
 10
626.6230979633641
 20
146.1703248198684
 11
623.273097963364
 21
142.6703248198684
 72
     1
 10
623.273097963364
 20
142.6703248198684
 11
629.9730979633641
 21
142.6703248198684
 72
     1
 10
629.9730979633641
 20
142.6703248198684
 11
626.6230979633641
 21
146.1703248198684
 97
        3
330
2EF
330
2F0
330
2F1
 92
        0
 93
        3
 72
     1
 10
623.9755130449672
 20
142.9703248198684
 11
626.6230979633641
 21
145.736458316701
 72
     1
 10
626.6230979633641
 20
145.736458316701
 11
629.270682881761
 21
142.9703248198684
 72
     1
 10
629.270682881761
 20
142.9703248198684
 11
623.9755130449672
 21
142.9703248198684
 97
        3
330
2F2
330
2F3
330
2F4
 92
        0
 93
        4
 72
     1
 10
649.7230979633641
 20
121.1703248198684
 11
649.7230979633641
 21
121.5703248198685
 72
     1
 10
649.7230979633641
 20
121.5703248198684
 11
653.923097963364
 21
121.5703248198684
 72
     1
 10
653.923097963364
 20
121.5703248198684
 11
653.923097963364
 21
121.1703248198684
 72
     1
 10
653.923097963364
 20
121.1703248198684
 11
649.7230979633641
 21
121.1703248198684
 97
        4
330
2F5
330
2F6
330
2F7
330
2F8
 92
        0
 93
        3
 72
     1
 10
623.273097963364
 20
109.4703248198684
 11
626.6230979633641
 21
105.9703248198684
 72
     1
 10
626.6230979633641
 20
105.9703248198684
 11
629.9730979633641
 21
109.4703248198684
 72
     1
 10
629.9730979633641
 20
109.4703248198684
 11
623.273097963364
 21
109.4703248198684
 97
        3
330
2F9
330
2FA
330
2FB
 92
        0
 93
        4
 72
     1
 10
649.7230979633641
 20
118.2703248198684
 11
649.7230979633641
 21
118.5703248198684
 72
     1
 10
649.7230979633641
 20
118.5703248198684
 11
653.923097963364
 21
118.5703248198684
 72
     1
 10
653.923097963364
 20
118.5703248198684
 11
653.923097963364
 21
118.2703248198684
 72
     1
 10
653.923097963364
 20
118.2703248198684
 11
649.7230979633641
 21
118.2703248198684
 97
        4
330
2FC
330
2FD
330
2FE
330
2FF
 92
        0
 93
        4
 72
     1
 10
649.7230979633641
 20
115.2703248198684
 11
649.7230979633641
 21
115.4703248198684
 72
     1
 10
649.7230979633641
 20
115.4703248198684
 11
653.923097963364
 21
115.4703248198684
 72
     1
 10
653.923097963364
 20
115.4703248198684
 11
653.923097963364
 21
115.2703248198684
 72
     1
 10
653.923097963364
 20
115.2703248198684
 11
649.7230979633641
 21
115.2703248198684
 97
        4
330
300
330
301
330
302
330
303
 92
        0
 93
        1
 72
     2
 10
651.823097963364
 20
107.7203248198684
 40
2.0
 50
0.0
 51
360.0
 73
     1
 97
        1
330
304
 92
        0
 93
        1
 72
     2
 10
651.823097963364
 20
107.7203248198684
 40
1.699999999999999
 50
0.0
 51
360.0
 73
     1
 97
        1
330
305
 92
        0
 93
        4
 72
     1
 10
649.7230979633641
 20
124.1703248198684
 11
649.7230979633641
 21
124.6703248198684
 72
     1
 10
649.7230979633641
 20
124.6703248198684
 11
653.923097963364
 21
124.6703248198684
 72
     1
 10
653.923097963364
 20
124.6703248198684
 11
653.923097963364
 21
124.1703248198684
 72
     1
 10
653.923097963364
 20
124.1703248198684
 11
649.7230979633641
 21
124.1703248198684
 97
        4
330
306
330
307
330
308
330
309
 92
        0
 93
        4
 72
     1
 10
649.7230979633641
 20
132.9703248198684
 11
649.7230979633641
 21
133.7703248198684
 72
     1
 10
649.7230979633641
 20
133.7703248198684
 11
653.923097963364
 21
133.7703248198684
 72
     1
 10
653.923097963364
 20
133.7703248198684
 11
653.923097963364
 21
132.9703248198684
 72
     1
 10
653.923097963364
 20
132.9703248198684
 11
649.7230979633641
 21
132.9703248198684
 97
        4
330
30A
330
30B
330
30C
330
30D
 92
        0
 93
        4
 72
     1
 10
651.6730979633642
 20
142.6703248198684
 11
651.6730979633642
 21
146.1703248198684
 72
     1
 10
651.6730979633642
 20
146.1703248198684
 11
651.9730979633641
 21
146.1703248198684
 72
     1
 10
651.9730979633641
 20
146.1703248198684
 11
651.9730979633641
 21
142.6703248198684
 72
     1
 10
651.9730979633641
 20
142.6703248198684
 11
651.6730979633642
 21
142.6703248198684
 97
        4
330
30E
330
30F
330
310
330
311
 75
     0
 76
     1
 98
        0
450
        0
451
        0
460
0.0
461
0.0
452
        0
462
0.0
453
        0
470

  0
ENDSEC
  0
SECTION
  2
OBJECTS
  0
DICTIONARY
  5
C
330
0
100
AcDbDictionary
281
     1
  3
ACAD_CIP_PREVIOUS_PRODUCT_INFO
350
370
  3
ACAD_COLOR
350
36B
  3
ACAD_DETAILVIEWSTYLE
350
367
  3
ACAD_GROUP
350
D
  3
ACAD_LAYOUT
350
1A
  3
ACAD_MATERIAL
350
43
  3
ACAD_MLEADERSTYLE
350
6B
  3
ACAD_MLINESTYLE
350
17
  3
ACAD_PLOTSETTINGS
350
19
  3
ACAD_PLOTSTYLENAME
350
E
  3
ACAD_SCALELIST
350
47
  3
ACAD_SECTIONVIEWSTYLE
350
368
  3
ACAD_TABLESTYLE
350
69
  3
ACAD_VISUALSTYLE
350
2A
  3
ACDB_RECOMPOSE_DATA
350
6C6
  3
AcDbVariableDictionary
350
324
  0
DICTIONARY
  5
377
330
2
100
AcDbDictionary
280
     1
281
     1
  3
ACAD_LAYERSTATES
360
378
  0
DICTIONARY
  5
6BB
330
10
100
AcDbDictionary
280
     1
281
     1
  3
ADSK_XREC_LAYER_RECONCILED
360
6BC
  0
DICTIONARY
  5
6BD
330
74
100
AcDbDictionary
280
     1
281
     1
  3
ADSK_XREC_LAYER_RECONCILED
360
6BE
  0
DICTIONARY
  5
372
330
371
100
AcDbDictionary
280
     1
281
     1
  3
ADSK_XREC_LAYER_RECONCILED
360
6BF
  0
XRECORD
  5
370
102
{ACAD_REACTORS
330
C
102
}
330
C
100
AcDbXrecord
280
     1
300
ACDLT
300
2021
300
ACDLT_F_S
  0
DICTIONARY
  5
36B
102
{ACAD_REACTORS
330
C
102
}
330
C
100
AcDbDictionary
281
     1
  0
DICTIONARY
  5
367
102
{ACAD_REACTORS
330
C
102
}
330
C
100
AcDbDictionary
281
     1
  3
Metric50
350
36D
  0
DICTIONARY
  5
D
102
{ACAD_REACTORS
330
C
102
}
330
C
100
AcDbDictionary
281
     1
  0
DICTIONARY
  5
1A
102
{ACAD_REACTORS
330
C
102
}
330
C
100
AcDbDictionary
281
     1
  3
Layout1
350
1E
  3
Layout2
350
26
  3
Model
350
22
  0
DICTIONARY
  5
43
102
{ACAD_REACTORS
330
C
102
}
330
C
100
AcDbDictionary
281
     1
  3
ByBlock
350
45
  3
ByLayer
350
44
  3
Global
350
46
  0
DICTIONARY
  5
6B
102
{ACAD_REACTORS
330
C
102
}
330
C
100
AcDbDictionary
281
     1
  3
Standard
350
6C
  0
DICTIONARY
  5
17
102
{ACAD_REACTORS
330
C
102
}
330
C
100
AcDbDictionary
281
     1
  3
Standard
350
18
  0
DICTIONARY
  5
19
102
{ACAD_REACTORS
330
C
102
}
330
C
100
AcDbDictionary
281
     1
  0
ACDBDICTIONARYWDFLT
  5
E
102
{ACAD_REACTORS
330
C
102
}
330
C
100
AcDbDictionary
281
     1
  3
Normal
350
F
100
AcDbDictionaryWithDefault
340
F
  0
DICTIONARY
  5
47
102
{ACAD_REACTORS
330
C
102
}
330
C
100
AcDbDictionary
281
     1
  3
A0
350
48
  3
A1
350
49
  3
A2
350
4A
  3
A3
350
4B
  3
A4
350
4C
  3
A5
350
4D
  3
A6
350
4E
  3
A7
350
4F
  3
A8
350
50
  3
A9
350
51
  3
B0
350
52
  3
B1
350
53
  3
B2
350
54
  3
B3
350
55
  3
B4
350
56
  3
B5
350
57
  3
B6
350
58
  3
B7
350
59
  3
B8
350
5A
  3
B9
350
5B
  3
C0
350
5C
  3
C1
350
5D
  3
C2
350
5E
  3
C3
350
5F
  3
C4
350
60
  3
C5
350
61
  3
C6
350
62
  3
C7
350
63
  3
C8
350
64
  3
C9
350
65
  3
D0
350
66
  3
D1
350
67
  3
D2
350
68
  0
DICTIONARY
  5
368
102
{ACAD_REACTORS
330
C
102
}
330
C
100
AcDbDictionary
281
     1
  3
Metric50
350
36C
  0
DICTIONARY
  5
69
102
{ACAD_REACTORS
330
C
102
}
330
C
100
AcDbDictionary
281
     1
  3
Standard
350
6A
  0
DICTIONARY
  5
2A
102
{ACAD_REACTORS
330
C
102
}
330
C
100
AcDbDictionary
281
     1
  3
2dWireframe
350
2F
  3
Basic
350
32
  3
Brighten
350
36
  3
ColorChange
350
3A
  3
Conceptual
350
34
  3
Dim
350
35
  3
EdgeColorOff
350
3D
  3
Facepattern
350
39
  3
Flat
350
2B
  3
FlatWithEdges
350
2C
  3
Gouraud
350
2D
  3
GouraudWithEdges
350
2E
  3
Hidden
350
31
  3
JitterOff
350
3B
  3
Linepattern
350
38
  3
OverhangOff
350
3C
  3
Realistic
350
33
  3
Shaded
350
42
  3
Shaded with edges
350
41
  3
Shades of Gray
350
3E
  3
Sketchy
350
3F
  3
Thicken
350
37
  3
Wireframe
350
30
  3
X-Ray
350
40
  0
XRECORD
  5
6C6
102
{ACAD_REACTORS
330
C
102
}
330
C
100
AcDbXrecord
280
     1
 90
        1
330
6A
  0
DICTIONARY
  5
324
102
{ACAD_REACTORS
330
C
102
}
330
C
100
AcDbDictionary
281
     1
  3
CANNOSCALE
350
325
  3
CMLEADERSTYLE
350
366
  3
CTABLESTYLE
350
365
  3
CVIEWDETAILSTYLE
350
6C0
  3
CVIEWSECTIONSTYLE
350
6C1
  3
LAYEREVAL
350
6C3
  3
LAYERNOTIFY
350
6C4
  3
LIGHTINGUNITS
350
6C2
  3
MSLTSCALE
350
326
  0
DICTIONARY
  5
378
102
{ACAD_REACTORS
330
377
102
}
330
377
100
AcDbDictionary
281
     1
  0
XRECORD
  5
6BC
102
{ACAD_REACTORS
330
6BB
102
}
330
6BB
100
AcDbXrecord
280
     1
290
     1
  0
XRECORD
  5
6BE
102
{ACAD_REACTORS
330
6BD
102
}
330
6BD
100
AcDbXrecord
280
     1
290
     1
  0
XRECORD
  5
6BF
102
{ACAD_REACTORS
330
372
102
}
330
372
100
AcDbXrecord
280
     1
290
     1
  0
ACDBDETAILVIEWSTYLE
  5
36D
102
{ACAD_XDICTIONARY
360
6C9
102
}
102
{ACAD_REACTORS
330
367
102
}
330
367
100
AcDbModelDocViewStyle
 70
     0
  3
Metric50
290
     0
100
AcDbDetailViewStyle
 70
     0
 71
     0
 90
        3
 71
     1
340
11
 62
   256
 40
5.0
340
0
 62
   256
 40
5.0
300

 40
0.0
280
     1
 71
     2
340
16
 90
       25
 62
   256
 71
     3
340
11
 62
   256
 40
5.0
 90
        0
 40
15.0
 90
        1
300
%<\AcVar ViewDetailId>% (%<\AcVar ViewScale \f "%sn">%)
 71
     4
340
16
 90
       25
 62
   256
340
16
 90
       25
 62
   256
280
     0
  0
LAYOUT
  5
1E
102
{ACAD_REACTORS
330
1A
102
}
330
1A
100
AcDbPlotSettings
  1

  2
none_device
  4

  6

 40
0.0
 41
0.0
 42
0.0
 43
0.0
 44
0.0
 45
0.0
 46
0.0
 47
0.0
 48
0.0
 49
0.0
140
0.0
141
0.0
142
1.0
143
1.0
 70
   688
 72
     0
 73
     0
 74
     5
  7

 75
    16
147
1.0
 76
     0
 77
     2
 78
   300
148
0.0
149
0.0
100
AcDbLayout
  1
Layout1
 70
     1
 71
     1
 10
-0.5
 20
-0.5
 11
5.0
 21
5.0
 12
0.0
 22
0.0
 32
0.0
 14
-0.5
 24
-0.5
 34
-0.5
 15
5.0
 25
5.0
 35
5.0
146
0.0
 13
0.0
 23
0.0
 33
0.0
 16
1.0
 26
0.0
 36
0.0
 17
0.0
 27
1.0
 37
0.0
 76
     0
330
1B
  0
LAYOUT
  5
26
102
{ACAD_REACTORS
330
1A
102
}
330
1A
100
AcDbPlotSettings
  1

  2
none_device
  4

  6

 40
0.0
 41
0.0
 42
0.0
 43
0.0
 44
0.0
 45
0.0
 46
0.0
 47
0.0
 48
0.0
 49
0.0
140
0.0
141
0.0
142
1.0
143
1.0
 70
   688
 72
     0
 73
     0
 74
     5
  7

 75
    16
147
1.0
 76
     0
 77
     2
 78
   300
148
0.0
149
0.0
100
AcDbLayout
  1
Layout2
 70
     1
 71
     2
 10
0.0
 20
0.0
 11
0.0
 21
0.0
 12
0.0
 22
0.0
 32
0.0
 14
0.0
 24
0.0
 34
0.0
 15
0.0
 25
0.0
 35
0.0
146
0.0
 13
0.0
 23
0.0
 33
0.0
 16
1.0
 26
0.0
 36
0.0
 17
0.0
 27
1.0
 37
0.0
 76
     0
330
23
  0
LAYOUT
  5
22
102
{ACAD_REACTORS
330
1A
102
}
330
1A
100
AcDbPlotSettings
  1

  2
none_device
  4
Letter_(8.50_x_11.00_Inches)
  6

 40
6.349999999999999
 41
6.349999999999999
 42
6.350005
 43
6.350005
 44
215.9
 45
279.4
 46
0.0
 47
0.0
 48
0.0
 49
0.0
140
0.0
141
0.0
142
1.0
143
1.0
 70
  1712
 72
     0
 73
     0
 74
     0
  7

 75
     0
147
1.0
 76
     0
 77
     2
 78
   300
148
0.0
149
0.0
100
AcDbLayout
  1
Model
 70
     1
 71
     0
 10
-0.5
 20
-0.5
 11
5.0
 21
5.0
 12
0.0
 22
0.0
 32
0.0
 14
-0.5
 24
-0.5
 34
-0.5
 15
5.0
 25
5.0
 35
5.0
146
0.0
 13
0.0
 23
0.0
 33
0.0
 16
1.0
 26
0.0
 36
0.0
 17
0.0
 27
1.0
 37
0.0
 76
     0
330
1F
331
29
  0
MATERIAL
  5
45
102
{ACAD_XDICTIONARY
360
35A
102
}
102
{ACAD_REACTORS
330
43
102
}
330
43
100
AcDbMaterial
  1
ByBlock
  0
MATERIAL
  5
44
102
{ACAD_XDICTIONARY
360
358
102
}
102
{ACAD_REACTORS
330
43
102
}
330
43
100
AcDbMaterial
  1
ByLayer
  0
MATERIAL
  5
46
102
{ACAD_XDICTIONARY
360
35C
102
}
102
{ACAD_REACTORS
330
43
102
}
330
43
100
AcDbMaterial
  1
Global
  0
MLEADERSTYLE
  5
6C
102
{ACAD_REACTORS
330
6B
102
}
330
6B
100
AcDbMLeaderStyle
179
     2
170
     2
171
     1
172
     0
 90
        2
 40
0.0
 41
0.0
173
     1
 91
-1056964608
340
14
 92
       -2
290
     1
 42
0.09
291
     1
 43
0.36
  3
Standard
 44
0.18
300

342
11
174
     1
178
     6
175
     1
176
     0
 93
-1056964608
 45
0.18
292
     0
297
     0
 46
0.18
 94
-1056964608
 47
1.0
 49
1.0
140
1.0
293
     1
141
0.0
294
     1
177
     0
142
1.0
295
     0
296
     0
143
0.125
271
     0
272
     9
273
     9
298
     0
1001
ACAD_MLEADERVER
1070
     2
  0
MLINESTYLE
  5
18
102
{ACAD_REACTORS
330
17
102
}
330
17
100
AcDbMlineStyle
  2
STANDARD
 70
     0
  3

 62
   256
 51
90.0
 52
90.0
 71
     2
 49
0.5
 62
   256
  6
BYLAYER
 49
-0.5
 62
   256
  6
BYLAYER
  0
ACDBPLACEHOLDER
  5
F
102
{ACAD_REACTORS
330
E
102
}
330
E
  0
SCALE
  5
48
102
{ACAD_REACTORS
330
47
102
}
330
47
100
AcDbScale
 70
     0
300
1:1
140
1.0
141
1.0
290
     1
  0
SCALE
  5
49
102
{ACAD_REACTORS
330
47
102
}
330
47
100
AcDbScale
 70
     0
300
1:2
140
1.0
141
2.0
290
     0
  0
SCALE
  5
4A
102
{ACAD_REACTORS
330
47
102
}
330
47
100
AcDbScale
 70
     0
300
1:4
140
1.0
141
4.0
290
     0
  0
SCALE
  5
4B
102
{ACAD_REACTORS
330
47
102
}
330
47
100
AcDbScale
 70
     0
300
1:5
140
1.0
141
5.0
290
     0
  0
SCALE
  5
4C
102
{ACAD_REACTORS
330
47
102
}
330
47
100
AcDbScale
 70
     0
300
1:8
140
1.0
141
8.0
290
     0
  0
SCALE
  5
4D
102
{ACAD_REACTORS
330
47
102
}
330
47
100
AcDbScale
 70
     0
300
1:10
140
1.0
141
10.0
290
     0
  0
SCALE
  5
4E
102
{ACAD_REACTORS
330
47
102
}
330
47
100
AcDbScale
 70
     0
300
1:16
140
1.0
141
16.0
290
     0
  0
SCALE
  5
4F
102
{ACAD_REACTORS
330
47
102
}
330
47
100
AcDbScale
 70
     0
300
1:20
140
1.0
141
20.0
290
     0
  0
SCALE
  5
50
102
{ACAD_REACTORS
330
47
102
}
330
47
100
AcDbScale
 70
     0
300
1:30
140
1.0
141
30.0
290
     0
  0
SCALE
  5
51
102
{ACAD_REACTORS
330
47
102
}
330
47
100
AcDbScale
 70
     0
300
1:40
140
1.0
141
40.0
290
     0
  0
SCALE
  5
52
102
{ACAD_REACTORS
330
47
102
}
330
47
100
AcDbScale
 70
     0
300
1:50
140
1.0
141
50.0
290
     0
  0
SCALE
  5
53
102
{ACAD_REACTORS
330
47
102
}
330
47
100
AcDbScale
 70
     0
300
1:100
140
1.0
141
100.0
290
     0
  0
SCALE
  5
54
102
{ACAD_REACTORS
330
47
102
}
330
47
100
AcDbScale
 70
     0
300
2:1
140
2.0
141
1.0
290
     0
  0
SCALE
  5
55
102
{ACAD_REACTORS
330
47
102
}
330
47
100
AcDbScale
 70
     0
300
4:1
140
4.0
141
1.0
290
     0
  0
SCALE
  5
56
102
{ACAD_REACTORS
330
47
102
}
330
47
100
AcDbScale
 70
     0
300
8:1
140
8.0
141
1.0
290
     0
  0
SCALE
  5
57
102
{ACAD_REACTORS
330
47
102
}
330
47
100
AcDbScale
 70
     0
300
10:1
140
10.0
141
1.0
290
     0
  0
SCALE
  5
58
102
{ACAD_REACTORS
330
47
102
}
330
47
100
AcDbScale
 70
     0
300
100:1
140
100.0
141
1.0
290
     0
  0
SCALE
  5
59
102
{ACAD_REACTORS
330
47
102
}
330
47
100
AcDbScale
 70
     0
300
1/128" = 1'-0"
140
0.007812
141
12.0
290
     0
  0
SCALE
  5
5A
102
{ACAD_REACTORS
330
47
102
}
330
47
100
AcDbScale
 70
     0
300
1/64" = 1'-0"
140
0.015625
141
12.0
290
     0
  0
SCALE
  5
5B
102
{ACAD_REACTORS
330
47
102
}
330
47
100
AcDbScale
 70
     0
300
1/32" = 1'-0"
140
0.03125
141
12.0
290
     0
  0
SCALE
  5
5C
102
{ACAD_REACTORS
330
47
102
}
330
47
100
AcDbScale
 70
     0
300
1/16" = 1'-0"
140
0.0625
141
12.0
290
     0
  0
SCALE
  5
5D
102
{ACAD_REACTORS
330
47
102
}
330
47
100
AcDbScale
 70
     0
300
3/32" = 1'-0"
140
0.09375
141
12.0
290
     0
  0
SCALE
  5
5E
102
{ACAD_REACTORS
330
47
102
}
330
47
100
AcDbScale
 70
     0
300
1/8" = 1'-0"
140
0.125
141
12.0
290
     0
  0
SCALE
  5
5F
102
{ACAD_REACTORS
330
47
102
}
330
47
100
AcDbScale
 70
     0
300
3/16" = 1'-0"
140
0.1875
141
12.0
290
     0
  0
SCALE
  5
60
102
{ACAD_REACTORS
330
47
102
}
330
47
100
AcDbScale
 70
     0
300
1/4" = 1'-0"
140
0.25
141
12.0
290
     0
  0
SCALE
  5
61
102
{ACAD_REACTORS
330
47
102
}
330
47
100
AcDbScale
 70
     0
300
3/8" = 1'-0"
140
0.375
141
12.0
290
     0
  0
SCALE
  5
62
102
{ACAD_REACTORS
330
47
102
}
330
47
100
AcDbScale
 70
     0
300
1/2" = 1'-0"
140
0.5
141
12.0
290
     0
  0
SCALE
  5
63
102
{ACAD_REACTORS
330
47
102
}
330
47
100
AcDbScale
 70
     0
300
3/4" = 1'-0"
140
0.75
141
12.0
290
     0
  0
SCALE
  5
64
102
{ACAD_REACTORS
330
47
102
}
330
47
100
AcDbScale
 70
     0
300
1" = 1'-0"
140
1.0
141
12.0
290
     0
  0
SCALE
  5
65
102
{ACAD_REACTORS
330
47
102
}
330
47
100
AcDbScale
 70
     0
300
1-1/2" = 1'-0"
140
1.5
141
12.0
290
     0
  0
SCALE
  5
66
102
{ACAD_REACTORS
330
47
102
}
330
47
100
AcDbScale
 70
     0
300
3" = 1'-0"
140
3.0
141
12.0
290
     0
  0
SCALE
  5
67
102
{ACAD_REACTORS
330
47
102
}
330
47
100
AcDbScale
 70
     0
300
6" = 1'-0"
140
6.0
141
12.0
290
     0
  0
SCALE
  5
68
102
{ACAD_REACTORS
330
47
102
}
330
47
100
AcDbScale
 70
     0
300
1'-0" = 1'-0"
140
12.0
141
12.0
290
     0
  0
ACDBSECTIONVIEWSTYLE
  5
36C
102
{ACAD_XDICTIONARY
360
6C7
102
}
102
{ACAD_REACTORS
330
368
102
}
330
368
100
AcDbModelDocViewStyle
 70
     0
  3
Metric50
290
     0
100
AcDbSectionViewStyle
 70
     0
 71
     0
 90
      102
 71
     1
340
11
 62
   256
 40
5.0
340
0
340
0
 62
   256
 40
5.0
300
I, O, Q, S, X, Z
 40
10.0
 90
        0
 40
2.5
 90
        0
 71
     2
340
16
 90
       25
 62
   256
340
16
 90
       50
 62
   256
 40
5.0
 40
2.5
 40
5.0
 71
     3
340
11
 62
   256
 40
5.0
 90
        0
 40
15.0
 90
        1
300
%<\AcVar ViewSectionStartId>%-%<\AcVar ViewSectionEndId>% (%<\AcVar ViewScale \f "%sn">%)
 71
     4
 62
   256
 62
   257
300
ANSI31
 40
1.0
 90
        0
290
     0
290
     0
 90
        6
 40
0.0
 40
1.570796326794896
 40
0.2617993877991494
 40
1.308996938995747
 40
-0.2617993877991494
 40
1.832595714594046
  0
TABLESTYLE
  5
6A
102
{ACAD_XDICTIONARY
360
35E
102
}
102
{ACAD_REACTORS
330
69
102
}
330
69
100
AcDbTableStyle
280
     0
  3
Standard
 70
     0
 71
     0
 40
0.06
 41
0.06
280
     0
281
     0
  7
Standard
140
0.18
170
     2
 62
     0
 63
     7
283
     0
 90
        4
 91
        0
  1

274
    -2
284
     1
 64
     0
275
    -2
285
     1
 65
     0
276
    -2
286
     1
 66
     0
277
    -2
287
     1
 67
     0
278
    -2
288
     1
 68
     0
279
    -2
289
     1
 69
     0
  7
Standard
140
0.25
170
     5
 62
     0
 63
     7
283
     0
 90
        4
 91
        0
  1

274
    -2
284
     1
 64
     0
275
    -2
285
     1
 65
     0
276
    -2
286
     1
 66
     0
277
    -2
287
     1
 67
     0
278
    -2
288
     1
 68
     0
279
    -2
289
     1
 69
     0
  7
Standard
140
0.18
170
     5
 62
     0
 63
     7
283
     0
 90
        4
 91
        0
  1

274
    -2
284
     1
 64
     0
275
    -2
285
     1
 65
     0
276
    -2
286
     1
 66
     0
277
    -2
287
     1
 67
     0
278
    -2
288
     1
 68
     0
279
    -2
289
     1
 69
     0
  0
VISUALSTYLE
  5
2F
102
{ACAD_REACTORS
330
2A
102
}
330
2A
100
AcDbVisualStyle
  2

 70
     4
177
     3
291
     0
 70
    58
 90
        0
176
     1
 90
        2
176
     1
 90
        0
176
     1
 90
        0
176
     1
 40
0.6
176
     1
 40
30.0
176
     1
 62
     7
420
 16777215
176
     1
 90
        1
176
     1
 90
        4
176
     1
 62
     7
176
     1
 62
   257
176
     1
 90
        1
176
     1
 90
        1
176
     1
 40
1.0
176
     1
 90
        0
176
     1
 62
   257
176
     1
 40
1.0
176
     1
 90
        1
176
     1
 90
        6
176
     1
 90
        2
176
     1
 62
     7
176
     1
 90
        5
176
     1
 90
        0
176
     1
 90
        0
176
     1
290
     0
176
     1
 90
        1
176
     1
 40
0.0
176
     1
 90
        0
176
     1
290
     1
176
     1
290
     1
176
     1
290
     0
176
     1
290
     0
176
     1
290
     0
176
     1
290
     0
176
     1
290
     0
176
     1
290
     0
176
     1
290
     0
176
     1
 90
       50
176
     1
 40
0.0
176
     1
 40
1.0
176
     1
 90
        0
176
     1
 62
    18
420
        0
176
     1
 90
       50
176
     1
 90
        3
176
     1
 62
     5
420
      255
176
     1
290
     0
176
     1
 90
       50
176
     1
 90
       50
176
     1
 90
       50
176
     1
290
     0
176
     1
 90
       50
176
     1
 62
   256
176
     0
 40
1.0
176
     0
 90
        2
176
     1
  1
strokes_ogs.tif
176
     1
290
     0
176
     1
 40
1.0
176
     1
 40
1.0
176
     1
1001
ACAD
1000
AcDbSavedByObjectVersion
1070
     0
  0
VISUALSTYLE
  5
32
102
{ACAD_REACTORS
330
2A
102
}
330
2A
100
AcDbVisualStyle
  2

 70
     7
177
     3
291
     1
 70
    58
 90
        1
176
     1
 90
        0
176
     1
 90
        1
176
     1
 90
        0
176
     1
 40
0.6
176
     1
 40
30.0
176
     1
 62
     7
420
 16777215
176
     1
 90
        0
176
     1
 90
        4
176
     1
 62
     7
176
     1
 62
   257
176
     1
 90
        1
176
     1
 90
        1
176
     1
 40
1.0
176
     1
 90
        8
176
     1
 62
     7
176
     1
 40
1.0
176
     1
 90
        1
176
     1
 90
        6
176
     1
 90
        2
176
     1
 62
     7
176
     1
 90
        5
176
     1
 90
        0
176
     1
 90
        0
176
     1
290
     0
176
     1
 90
        1
176
     1
 40
0.0
176
     1
 90
        0
176
     1
290
     0
176
     1
290
     1
176
     1
290
     1
176
     1
290
     0
176
     1
290
     0
176
     1
290
     0
176
     1
290
     0
176
     1
290
     0
176
     1
290
     0
176
     1
 90
       50
176
     1
 40
0.0
176
     1
 40
1.0
176
     1
 90
        0
176
     1
 62
    18
420
        0
176
     1
 90
       50
176
     1
 90
        3
176
     1
 62
     5
420
      255
176
     1
290
     0
176
     1
 90
       50
176
     1
 90
       50
176
     1
 90
       50
176
     1
290
     0
176
     1
 90
       50
176
     1
 62
   256
176
     0
 40
1.0
176
     0
 90
        2
176
     1
  1
strokes_ogs.tif
176
     1
290
     0
176
     1
 40
1.0
176
     1
 40
1.0
176
     1
1001
ACAD
1000
AcDbSavedByObjectVersion
1070
     0
  0
VISUALSTYLE
  5
36
102
{ACAD_REACTORS
330
2A
102
}
330
2A
100
AcDbVisualStyle
  2

 70
    12
177
     3
291
     1
 70
    58
 90
        2
176
     1
 90
        2
176
     1
 90
        0
176
     1
 90
        0
176
     1
 40
0.6
176
     1
 40
30.0
176
     1
 62
     7
420
 16777215
176
     1
 90
        1
176
     1
 90
        4
176
     1
 62
     7
176
     1
 62
   257
176
     1
 90
        1
176
     1
 90
        1
176
     1
 40
1.0
176
     1
 90
        8
176
     1
 62
     7
176
     1
 40
1.0
176
     1
 90
        1
176
     1
 90
        6
176
     1
 90
        2
176
     1
 62
     7
176
     1
 90
        5
176
     1
 90
        0
176
     1
 90
        0
176
     1
290
     0
176
     1
 90
        1
176
     1
 40
50.0
176
     1
 90
        0
176
     1
290
     0
176
     1
290
     1
176
     1
290
     1
176
     1
290
     0
176
     1
290
     0
176
     1
290
     0
176
     1
290
     0
176
     1
290
     0
176
     1
290
     0
176
     1
 90
       50
176
     1
 40
0.0
176
     1
 40
1.0
176
     1
 90
        0
176
     1
 62
    18
420
        0
176
     1
 90
       50
176
     1
 90
        3
176
     1
 62
     5
420
      255
176
     1
290
     0
176
     1
 90
       50
176
     1
 90
       50
176
     1
 90
       50
176
     1
290
     0
176
     1
 90
       50
176
     1
 62
   256
176
     0
 40
1.0
176
     0
 90
        2
176
     1
  1
strokes_ogs.tif
176
     1
290
     0
176
     1
 40
1.0
176
     1
 40
1.0
176
     1
1001
ACAD
1000
AcDbSavedByObjectVersion
1070
     0
  0
VISUALSTYLE
  5
3A
102
{ACAD_REACTORS
330
2A
102
}
330
2A
100
AcDbVisualStyle
  2

 70
    16
177
     3
291
     1
 70
    58
 90
        2
176
     1
 90
        2
176
     1
 90
        3
176
     1
 90
        0
176
     1
 40
0.6
176
     1
 40
30.0
176
     1
 62
     8
420
  8421504
176
     1
 90
        1
176
     1
 90
        4
176
     1
 62
     7
176
     1
 62
   257
176
     1
 90
        1
176
     1
 90
        1
176
     1
 40
1.0
176
     1
 90
        8
176
     1
 62
     8
420
  8421504
176
     1
 40
1.0
176
     1
 90
        1
176
     1
 90
        6
176
     1
 90
        2
176
     1
 62
     7
176
     1
 90
        5
176
     1
 90
        0
176
     1
 90
        0
176
     1
290
     0
176
     1
 90
        1
176
     1
 40
0.0
176
     1
 90
        0
176
     1
290
     0
176
     1
290
     1
176
     1
290
     1
176
     1
290
     0
176
     1
290
     0
176
     1
290
     0
176
     1
290
     0
176
     1
290
     0
176
     1
290
     0
176
     1
 90
       50
176
     1
 40
0.0
176
     1
 40
1.0
176
     1
 90
        0
176
     1
 62
    18
420
        0
176
     1
 90
       50
176
     1
 90
        3
176
     1
 62
     5
420
      255
176
     1
290
     0
176
     1
 90
       50
176
     1
 90
       50
176
     1
 90
       50
176
     1
290
     0
176
     1
 90
       50
176
     1
 62
   256
176
     0
 40
1.0
176
     0
 90
        2
176
     1
  1
strokes_ogs.tif
176
     1
290
     0
176
     1
 40
1.0
176
     1
 40
1.0
176
     1
1001
ACAD
1000
AcDbSavedByObjectVersion
1070
     0
  0
VISUALSTYLE
  5
34
102
{ACAD_REACTORS
330
2A
102
}
330
2A
100
AcDbVisualStyle
  2

 70
     9
177
     3
291
     0
 70
    58
 90
        3
176
     1
 90
        2
176
     1
 90
        0
176
     1
 90
        0
176
     1
 40
0.6
176
     1
 40
30.0
176
     1
 62
     7
420
 16777215
176
     1
 90
        2
176
     1
 90
        2
176
     1
 62
     7
176
     1
 62
   257
176
     1
 90
        1
176
     1
 90
        1
176
     1
 40
179.0
176
     1
 90
        8
176
     1
 62
     7
176
     1
 40
1.0
176
     1
 90
        1
176
     1
 90
        6
176
     1
 90
        2
176
     1
 62
     7
176
     1
 90
        3
176
     1
 90
        0
176
     1
 90
        0
176
     1
290
     0
176
     1
 90
        1
176
     1
 40
0.0
176
     1
 90
        0
176
     1
290
     0
176
     1
290
     1
176
     1
290
     1
176
     1
290
     0
176
     1
290
     0
176
     1
290
     0
176
     1
290
     0
176
     1
290
     0
176
     1
290
     0
176
     1
 90
       50
176
     1
 40
0.0
176
     1
 40
1.0
176
     1
 90
        0
176
     1
 62
    18
420
        0
176
     1
 90
       50
176
     1
 90
        3
176
     1
 62
     5
420
      255
176
     1
290
     0
176
     1
 90
       50
176
     1
 90
       50
176
     1
 90
       50
176
     1
290
     0
176
     1
 90
       50
176
     1
 62
   256
176
     0
 40
1.0
176
     0
 90
        2
176
     1
  1
strokes_ogs.tif
176
     1
290
     0
176
     1
 40
1.0
176
     1
 40
1.0
176
     1
1001
ACAD
1000
AcDbSavedByObjectVersion
1070
     0
  0
VISUALSTYLE
  5
35
102
{ACAD_REACTORS
330
2A
102
}
330
2A
100
AcDbVisualStyle
  2

 70
    11
177
     3
291
     1
 70
    58
 90
        2
176
     1
 90
        2
176
     1
 90
        0
176
     1
 90
        0
176
     1
 40
0.6
176
     1
 40
30.0
176
     1
 62
     7
420
 16777215
176
     1
 90
        1
176
     1
 90
        4
176
     1
 62
     7
176
     1
 62
   257
176
     1
 90
        1
176
     1
 90
        1
176
     1
 40
1.0
176
     1
 90
        8
176
     1
 62
     7
176
     1
 40
1.0
176
     1
 90
        1
176
     1
 90
        6
176
     1
 90
        2
176
     1
 62
     7
176
     1
 90
        5
176
     1
 90
        0
176
     1
 90
        0
176
     1
290
     0
176
     1
 90
        1
176
     1
 40
-50.0
176
     1
 90
        0
176
     1
290
     0
176
     1
290
     1
176
     1
290
     1
176
     1
290
     0
176
     1
290
     0
176
     1
290
     0
176
     1
290
     0
176
     1
290
     0
176
     1
290
     0
176
     1
 90
       50
176
     1
 40
0.0
176
     1
 40
1.0
176
     1
 90
        0
176
     1
 62
    18
420
        0
176
     1
 90
       50
176
     1
 90
        3
176
     1
 62
     5
420
      255
176
     1
290
     0
176
     1
 90
       50
176
     1
 90
       50
176
     1
 90
       50
176
     1
290
     0
176
     1
 90
       50
176
     1
 62
   256
176
     0
 40
1.0
176
     0
 90
        2
176
     1
  1
strokes_ogs.tif
176
     1
290
     0
176
     1
 40
1.0
176
     1
 40
1.0
176
     1
1001
ACAD
1000
AcDbSavedByObjectVersion
1070
     0
  0
VISUALSTYLE
  5
3D
102
{ACAD_REACTORS
330
2A
102
}
330
2A
100
AcDbVisualStyle
  2

 70
    22
177
     3
291
     1
 70
    58
 90
        2
176
     0
 90
        2
176
     0
 90
        0
176
     0
 90
        0
176
     0
 40
0.6
176
     0
 40
30.0
176
     0
 62
     7
420
 16777215
176
     0
 90
        1
176
     0
 90
        4
176
     0
 62
     7
176
     0
 62
   257
176
     0
 90
        1
176
     0
 90
        1
176
     0
 40
1.0
176
     0
 90
        8
176
     2
 62
     7
176
     0
 40
1.0
176
     0
 90
        1
176
     0
 90
        6
176
     0
 90
        2
176
     0
 62
     7
176
     0
 90
        5
176
     0
 90
        0
176
     0
 90
        0
176
     0
290
     0
176
     0
 90
        1
176
     0
 40
0.0
176
     0
 90
        0
176
     0
290
     0
176
     0
290
     1
176
     0
290
     1
176
     0
290
     0
176
     0
290
     0
176
     0
290
     0
176
     0
290
     0
176
     0
290
     0
176
     0
290
     0
176
     0
 90
       50
176
     0
 40
0.0
176
     0
 40
1.0
176
     0
 90
        0
176
     0
 62
    18
420
        0
176
     0
 90
       50
176
     0
 90
        3
176
     0
 62
     5
420
      255
176
     0
290
     0
176
     0
 90
       50
176
     0
 90
       50
176
     0
 90
       50
176
     0
290
     0
176
     0
 90
       50
176
     0
 62
   256
176
     0
 40
1.0
176
     0
 90
        2
176
     0
  1
strokes_ogs.tif
176
     0
290
     0
176
     0
 40
1.0
176
     0
 40
1.0
176
     0
1001
ACAD
1000
AcDbSavedByObjectVersion
1070
     0
  0
VISUALSTYLE
  5
39
102
{ACAD_REACTORS
330
2A
102
}
330
2A
100
AcDbVisualStyle
  2

 70
    15
177
     3
291
     1
 70
    58
 90
        2
176
     1
 90
        2
176
     1
 90
        0
176
     1
 90
        0
176
     1
 40
0.6
176
     1
 40
30.0
176
     1
 62
     7
420
 16777215
176
     1
 90
        1
176
     1
 90
        4
176
     1
 62
     7
176
     1
 62
   257
176
     1
 90
        1
176
     1
 90
        1
176
     1
 40
1.0
176
     1
 90
        8
176
     1
 62
     7
176
     1
 40
1.0
176
     1
 90
        1
176
     1
 90
        6
176
     1
 90
        2
176
     1
 62
     7
176
     1
 90
        5
176
     1
 90
        0
176
     1
 90
        0
176
     1
290
     0
176
     1
 90
        1
176
     1
 40
0.0
176
     1
 90
        0
176
     1
290
     0
176
     1
290
     1
176
     1
290
     1
176
     1
290
     0
176
     1
290
     0
176
     1
290
     0
176
     1
290
     0
176
     1
290
     0
176
     1
290
     0
176
     1
 90
       50
176
     1
 40
0.0
176
     1
 40
1.0
176
     1
 90
        0
176
     1
 62
    18
420
        0
176
     1
 90
       50
176
     1
 90
        3
176
     1
 62
     5
420
      255
176
     1
290
     0
176
     1
 90
       50
176
     1
 90
       50
176
     1
 90
       50
176
     1
290
     0
176
     1
 90
       50
176
     1
 62
   256
176
     0
 40
1.0
176
     0
 90
        2
176
     1
  1
strokes_ogs.tif
176
     1
290
     0
176
     1
 40
1.0
176
     1
 40
1.0
176
     1
1001
ACAD
1000
AcDbSavedByObjectVersion
1070
     0
  0
VISUALSTYLE
  5
2B
102
{ACAD_REACTORS
330
2A
102
}
330
2A
100
AcDbVisualStyle
  2

 70
     0
177
     3
291
     1
 70
    58
 90
        2
176
     1
 90
        1
176
     1
 90
        1
176
     1
 90
        2
176
     1
 40
0.6
176
     1
 40
30.0
176
     1
 62
     7
420
 16777215
176
     1
 90
        0
176
     1
 90
        0
176
     1
 62
     7
176
     1
 62
   257
176
     1
 90
        1
176
     1
 90
        1
176
     1
 40
1.0
176
     1
 90
        8
176
     1
 62
     7
176
     1
 40
1.0
176
     1
 90
        1
176
     1
 90
        6
176
     1
 90
        2
176
     1
 62
     7
176
     1
 90
        5
176
     1
 90
        0
176
     1
 90
        0
176
     1
290
     0
176
     1
 90
       13
176
     1
 40
0.0
176
     1
 90
        0
176
     1
290
     0
176
     1
290
     1
176
     1
290
     1
176
     1
290
     0
176
     1
290
     0
176
     1
290
     0
176
     1
290
     0
176
     1
290
     0
176
     1
290
     0
176
     1
 90
       50
176
     1
 40
0.0
176
     1
 40
1.0
176
     1
 90
        0
176
     1
 62
    18
420
        0
176
     1
 90
       50
176
     1
 90
        3
176
     1
 62
     5
420
      255
176
     1
290
     0
176
     1
 90
       50
176
     1
 90
       50
176
     1
 90
       50
176
     1
290
     0
176
     1
 90
       50
176
     1
 62
   256
176
     0
 40
1.0
176
     0
 90
        2
176
     1
  1
strokes_ogs.tif
176
     1
290
     0
176
     1
 40
1.0
176
     1
 40
1.0
176
     1
1001
ACAD
1000
AcDbSavedByObjectVersion
1070
     0
  0
VISUALSTYLE
  5
2C
102
{ACAD_REACTORS
330
2A
102
}
330
2A
100
AcDbVisualStyle
  2

 70
     1
177
     3
291
     1
 70
    58
 90
        2
176
     1
 90
        1
176
     1
 90
        1
176
     1
 90
        2
176
     1
 40
0.6
176
     1
 40
30.0
176
     1
 62
     7
420
 16777215
176
     1
 90
        1
176
     1
 90
        0
176
     1
 62
     7
176
     1
 62
   257
176
     1
 90
        1
176
     1
 90
        1
176
     1
 40
1.0
176
     1
 90
        0
176
     1
 62
   257
176
     1
 40
1.0
176
     1
 90
        1
176
     1
 90
        6
176
     1
 90
        2
176
     1
 62
     7
176
     1
 90
        5
176
     1
 90
        0
176
     1
 90
        0
176
     1
290
     0
176
     1
 90
       13
176
     1
 40
0.0
176
     1
 90
        0
176
     1
290
     0
176
     1
290
     1
176
     1
290
     1
176
     1
290
     0
176
     1
290
     0
176
     1
290
     0
176
     1
290
     0
176
     1
290
     0
176
     1
290
     0
176
     1
 90
       50
176
     1
 40
0.0
176
     1
 40
1.0
176
     1
 90
        0
176
     1
 62
    18
420
        0
176
     1
 90
       50
176
     1
 90
        3
176
     1
 62
     5
420
      255
176
     1
290
     0
176
     1
 90
       50
176
     1
 90
       50
176
     1
 90
       50
176
     1
290
     0
176
     1
 90
       50
176
     1
 62
   256
176
     0
 40
1.0
176
     0
 90
        2
176
     1
  1
strokes_ogs.tif
176
     1
290
     0
176
     1
 40
1.0
176
     1
 40
1.0
176
     1
1001
ACAD
1000
AcDbSavedByObjectVersion
1070
     0
  0
VISUALSTYLE
  5
2D
102
{ACAD_REACTORS
330
2A
102
}
330
2A
100
AcDbVisualStyle
  2

 70
     2
177
     3
291
     1
 70
    58
 90
        2
176
     1
 90
        2
176
     1
 90
        1
176
     1
 90
        2
176
     1
 40
0.6
176
     1
 40
30.0
176
     1
 62
     7
420
 16777215
176
     1
 90
        0
176
     1
 90
        0
176
     1
 62
     7
176
     1
 62
   257
176
     1
 90
        1
176
     1
 90
        1
176
     1
 40
1.0
176
     1
 90
        0
176
     1
 62
     7
176
     1
 40
1.0
176
     1
 90
        1
176
     1
 90
        6
176
     1
 90
        2
176
     1
 62
     7
176
     1
 90
        5
176
     1
 90
        0
176
     1
 90
        0
176
     1
290
     0
176
     1
 90
       13
176
     1
 40
0.0
176
     1
 90
        0
176
     1
290
     0
176
     1
290
     1
176
     1
290
     1
176
     1
290
     0
176
     1
290
     0
176
     1
290
     0
176
     1
290
     0
176
     1
290
     0
176
     1
290
     0
176
     1
 90
       50
176
     1
 40
0.0
176
     1
 40
1.0
176
     1
 90
        0
176
     1
 62
    18
420
        0
176
     1
 90
       50
176
     1
 90
        3
176
     1
 62
     5
420
      255
176
     1
290
     0
176
     1
 90
       50
176
     1
 90
       50
176
     1
 90
       50
176
     1
290
     0
176
     1
 90
       50
176
     1
 62
   256
176
     0
 40
1.0
176
     0
 90
        2
176
     1
  1
strokes_ogs.tif
176
     1
290
     0
176
     1
 40
1.0
176
     1
 40
1.0
176
     1
1001
ACAD
1000
AcDbSavedByObjectVersion
1070
     0
  0
VISUALSTYLE
  5
2E
102
{ACAD_REACTORS
330
2A
102
}
330
2A
100
AcDbVisualStyle
  2

 70
     3
177
     3
291
     1
 70
    58
 90
        2
176
     1
 90
        2
176
     1
 90
        1
176
     1
 90
        2
176
     1
 40
0.6
176
     1
 40
30.0
176
     1
 62
     7
420
 16777215
176
     1
 90
        1
176
     1
 90
        0
176
     1
 62
     7
176
     1
 62
   257
176
     1
 90
        1
176
     1
 90
        1
176
     1
 40
1.0
176
     1
 90
        0
176
     1
 62
   257
176
     1
 40
1.0
176
     1
 90
        1
176
     1
 90
        6
176
     1
 90
        2
176
     1
 62
     7
176
     1
 90
        5
176
     1
 90
        0
176
     1
 90
        0
176
     1
290
     0
176
     1
 90
       13
176
     1
 40
0.0
176
     1
 90
        0
176
     1
290
     0
176
     1
290
     1
176
     1
290
     1
176
     1
290
     0
176
     1
290
     0
176
     1
290
     0
176
     1
290
     0
176
     1
290
     0
176
     1
290
     0
176
     1
 90
       50
176
     1
 40
0.0
176
     1
 40
1.0
176
     1
 90
        0
176
     1
 62
    18
420
        0
176
     1
 90
       50
176
     1
 90
        3
176
     1
 62
     5
420
      255
176
     1
290
     0
176
     1
 90
       50
176
     1
 90
       50
176
     1
 90
       50
176
     1
290
     0
176
     1
 90
       50
176
     1
 62
   256
176
     0
 40
1.0
176
     0
 90
        2
176
     1
  1
strokes_ogs.tif
176
     1
290
     0
176
     1
 40
1.0
176
     1
 40
1.0
176
     1
1001
ACAD
1000
AcDbSavedByObjectVersion
1070
     0
  0
VISUALSTYLE
  5
31
102
{ACAD_REACTORS
330
2A
102
}
330
2A
100
AcDbVisualStyle
  2

 70
     6
177
     3
291
     0
 70
    58
 90
        1
176
     1
 90
        2
176
     1
 90
        2
176
     1
 90
        0
176
     1
 40
0.6
176
     1
 40
30.0
176
     1
 62
     7
420
 16777215
176
     1
 90
        2
176
     1
 90
        2
176
     1
 62
     7
176
     1
 62
   257
176
     1
 90
        2
176
     1
 90
        1
176
     1
 40
40.0
176
     1
 90
        0
176
     1
 62
   257
176
     1
 40
1.0
176
     1
 90
        1
176
     1
 90
        6
176
     1
 90
        2
176
     1
 62
     7
176
     1
 90
        3
176
     1
 90
        0
176
     1
 90
        0
176
     1
290
     0
176
     1
 90
        1
176
     1
 40
0.0
176
     1
 90
        0
176
     1
290
     0
176
     1
290
     1
176
     1
290
     1
176
     1
290
     0
176
     1
290
     0
176
     1
290
     0
176
     1
290
     0
176
     1
290
     0
176
     1
290
     0
176
     1
 90
       50
176
     1
 40
0.0
176
     1
 40
1.0
176
     1
 90
        0
176
     1
 62
    18
420
        0
176
     1
 90
       50
176
     1
 90
        3
176
     1
 62
     5
420
      255
176
     1
290
     0
176
     1
 90
       50
176
     1
 90
       50
176
     1
 90
       50
176
     1
290
     0
176
     1
 90
       50
176
     1
 62
   256
176
     0
 40
1.0
176
     0
 90
        2
176
     1
  1
strokes_ogs.tif
176
     1
290
     0
176
     1
 40
1.0
176
     1
 40
1.0
176
     1
1001
ACAD
1000
AcDbSavedByObjectVersion
1070
     0
  0
VISUALSTYLE
  5
3B
102
{ACAD_REACTORS
330
2A
102
}
330
2A
100
AcDbVisualStyle
  2

 70
    20
177
     3
291
     1
 70
    58
 90
        2
176
     0
 90
        2
176
     0
 90
        0
176
     0
 90
        0
176
     0
 40
0.6
176
     0
 40
30.0
176
     0
 62
     7
420
 16777215
176
     0
 90
        1
176
     0
 90
        4
176
     0
 62
     7
176
     0
 62
   257
176
     0
 90
        1
176
     0
 90
        1
176
     0
 40
1.0
176
     0
 90
       10
176
     2
 62
     7
176
     0
 40
1.0
176
     0
 90
        1
176
     0
 90
        6
176
     0
 90
        2
176
     0
 62
     7
176
     0
 90
        5
176
     0
 90
        0
176
     0
 90
        0
176
     0
290
     0
176
     0
 90
        1
176
     0
 40
0.0
176
     0
 90
        0
176
     0
290
     0
176
     0
290
     1
176
     0
290
     1
176
     0
290
     0
176
     0
290
     0
176
     0
290
     0
176
     0
290
     0
176
     0
290
     0
176
     0
290
     0
176
     0
 90
       50
176
     0
 40
0.0
176
     0
 40
1.0
176
     0
 90
        0
176
     0
 62
    18
420
        0
176
     0
 90
       50
176
     0
 90
        3
176
     0
 62
     5
420
      255
176
     0
290
     0
176
     0
 90
       50
176
     0
 90
       50
176
     0
 90
       50
176
     0
290
     0
176
     0
 90
       50
176
     0
 62
   256
176
     0
 40
1.0
176
     0
 90
        2
176
     0
  1
strokes_ogs.tif
176
     0
290
     0
176
     0
 40
1.0
176
     0
 40
1.0
176
     0
1001
ACAD
1000
AcDbSavedByObjectVersion
1070
     0
  0
VISUALSTYLE
  5
38
102
{ACAD_REACTORS
330
2A
102
}
330
2A
100
AcDbVisualStyle
  2

 70
    14
177
     3
291
     1
 70
    58
 90
        2
176
     1
 90
        2
176
     1
 90
        0
176
     1
 90
        0
176
     1
 40
0.6
176
     1
 40
30.0
176
     1
 62
     7
420
 16777215
176
     1
 90
        1
176
     1
 90
        4
176
     1
 62
     7
176
     1
 62
   257
176
     1
 90
        7
176
     1
 90
        7
176
     1
 40
1.0
176
     1
 90
        8
176
     1
 62
     7
176
     1
 40
1.0
176
     1
 90
        1
176
     1
 90
        6
176
     1
 90
        2
176
     1
 62
     7
176
     1
 90
        5
176
     1
 90
        0
176
     1
 90
        0
176
     1
290
     0
176
     1
 90
        1
176
     1
 40
0.0
176
     1
 90
        0
176
     1
290
     0
176
     1
290
     1
176
     1
290
     1
176
     1
290
     0
176
     1
290
     0
176
     1
290
     0
176
     1
290
     0
176
     1
290
     0
176
     1
290
     0
176
     1
 90
       50
176
     1
 40
0.0
176
     1
 40
1.0
176
     1
 90
        0
176
     1
 62
    18
420
        0
176
     1
 90
       50
176
     1
 90
        3
176
     1
 62
     5
420
      255
176
     1
290
     0
176
     1
 90
       50
176
     1
 90
       50
176
     1
 90
       50
176
     1
290
     0
176
     1
 90
       50
176
     1
 62
   256
176
     0
 40
1.0
176
     0
 90
        2
176
     1
  1
strokes_ogs.tif
176
     1
290
     0
176
     1
 40
1.0
176
     1
 40
1.0
176
     1
1001
ACAD
1000
AcDbSavedByObjectVersion
1070
     0
  0
VISUALSTYLE
  5
3C
102
{ACAD_REACTORS
330
2A
102
}
330
2A
100
AcDbVisualStyle
  2

 70
    21
177
     3
291
     1
 70
    58
 90
        2
176
     0
 90
        2
176
     0
 90
        0
176
     0
 90
        0
176
     0
 40
0.6
176
     0
 40
30.0
176
     0
 62
     7
420
 16777215
176
     0
 90
        1
176
     0
 90
        4
176
     0
 62
     7
176
     0
 62
   257
176
     0
 90
        1
176
     0
 90
        1
176
     0
 40
1.0
176
     0
 90
        9
176
     2
 62
     7
176
     0
 40
1.0
176
     0
 90
        1
176
     0
 90
        6
176
     0
 90
        2
176
     0
 62
     7
176
     0
 90
        5
176
     0
 90
        0
176
     0
 90
        0
176
     0
290
     0
176
     0
 90
        1
176
     0
 40
0.0
176
     0
 90
        0
176
     0
290
     0
176
     0
290
     1
176
     0
290
     1
176
     0
290
     0
176
     0
290
     0
176
     0
290
     0
176
     0
290
     0
176
     0
290
     0
176
     0
290
     0
176
     0
 90
       50
176
     0
 40
0.0
176
     0
 40
1.0
176
     0
 90
        0
176
     0
 62
    18
420
        0
176
     0
 90
       50
176
     0
 90
        3
176
     0
 62
     5
420
      255
176
     0
290
     0
176
     0
 90
       50
176
     0
 90
       50
176
     0
 90
       50
176
     0
290
     0
176
     0
 90
       50
176
     0
 62
   256
176
     0
 40
1.0
176
     0
 90
        2
176
     0
  1
strokes_ogs.tif
176
     0
290
     0
176
     0
 40
1.0
176
     0
 40
1.0
176
     0
1001
ACAD
1000
AcDbSavedByObjectVersion
1070
     0
  0
VISUALSTYLE
  5
33
102
{ACAD_REACTORS
330
2A
102
}
330
2A
100
AcDbVisualStyle
  2

 70
     8
177
     3
291
     0
 70
    58
 90
        2
176
     1
 90
        3
176
     1
 90
        0
176
     1
 90
        2
176
     1
 40
0.6
176
     1
 40
30.0
176
     1
 62
     7
420
 16777215
176
     1
 90
        0
176
     1
 90
        0
176
     1
 62
     7
176
     1
 62
   257
176
     1
 90
        1
176
     1
 90
        1
176
     1
 40
1.0
176
     1
 90
        8
176
     1
 62
   257
176
     1
 40
1.0
176
     1
 90
        1
176
     1
 90
        6
176
     1
 90
        2
176
     1
 62
     7
176
     1
 90
        3
176
     1
 90
        0
176
     1
 90
        0
176
     1
290
     0
176
     1
 90
       13
176
     1
 40
0.0
176
     1
 90
        0
176
     1
290
     0
176
     1
290
     1
176
     1
290
     1
176
     1
290
     0
176
     1
290
     0
176
     1
290
     0
176
     1
290
     0
176
     1
290
     0
176
     1
290
     0
176
     1
 90
       50
176
     1
 40
0.0
176
     1
 40
1.0
176
     1
 90
        0
176
     1
 62
    18
420
        0
176
     1
 90
       50
176
     1
 90
        3
176
     1
 62
     5
420
      255
176
     1
290
     0
176
     1
 90
       50
176
     1
 90
       50
176
     1
 90
       50
176
     1
290
     0
176
     1
 90
       50
176
     1
 62
   256
176
     0
 40
1.0
176
     0
 90
        2
176
     1
  1
strokes_ogs.tif
176
     1
290
     0
176
     1
 40
1.0
176
     1
 40
1.0
176
     1
1001
ACAD
1000
AcDbSavedByObjectVersion
1070
     0
  0
VISUALSTYLE
  5
42
102
{ACAD_REACTORS
330
2A
102
}
330
2A
100
AcDbVisualStyle
  2

 70
    27
177
     3
291
     0
 70
    58
 90
        2
176
     1
 90
        2
176
     1
 90
        1
176
     1
 90
        2
176
     1
 40
0.6
176
     1
 40
30.0
176
     1
 62
     7
420
 16777215
176
     1
 90
        0
176
     1
 90
        4
176
     1
 62
     7
176
     1
 62
   257
176
     1
 90
        1
176
     1
 90
        1
176
     1
 40
1.0
176
     1
 90
        8
176
     1
 62
   257
176
     1
 40
1.0
176
     1
 90
        1
176
     1
 90
        6
176
     1
 90
        2
176
     1
 62
     8
420
  7895160
176
     1
 90
        3
176
     1
 90
        0
176
     1
 90
        0
176
     1
290
     0
176
     1
 90
        5
176
     1
 40
0.0
176
     1
 90
        0
176
     1
290
     0
176
     1
290
     1
176
     1
290
     1
176
     1
290
     0
176
     1
290
     0
176
     1
290
     0
176
     1
290
     0
176
     1
290
     0
176
     1
290
     0
176
     1
 90
       50
176
     1
 40
0.0
176
     1
 40
1.0
176
     1
 90
        0
176
     1
 62
    18
420
        0
176
     1
 90
       50
176
     1
 90
        3
176
     1
 62
     5
420
      255
176
     1
290
     0
176
     1
 90
       50
176
     1
 90
       50
176
     1
 90
       50
176
     1
290
     0
176
     1
 90
       50
176
     1
 62
   256
176
     0
 40
1.0
176
     0
 90
        2
176
     1
  1
strokes_ogs.tif
176
     1
290
     0
176
     1
 40
1.0
176
     1
 40
1.0
176
     1
1001
ACAD
1000
AcDbSavedByObjectVersion
1070
     0
  0
VISUALSTYLE
  5
41
102
{ACAD_REACTORS
330
2A
102
}
330
2A
100
AcDbVisualStyle
  2

 70
    26
177
     3
291
     0
 70
    58
 90
        2
176
     1
 90
        2
176
     1
 90
        1
176
     1
 90
        2
176
     1
 40
0.6
176
     1
 40
30.0
176
     1
 62
     7
420
 16777215
176
     1
 90
        1
176
     1
 90
       10
176
     1
 62
     7
176
     1
 62
   257
176
     1
 90
        2
176
     1
 90
        1
176
     1
 40
1.0
176
     1
 90
        8
176
     1
 62
   257
176
     1
 40
1.0
176
     1
 90
        1
176
     1
 90
        6
176
     1
 90
        2
176
     1
 62
     7
176
     1
 90
        3
176
     1
 90
        0
176
     1
 90
        0
176
     1
290
     0
176
     1
 90
        5
176
     1
 40
0.0
176
     1
 90
        0
176
     1
290
     0
176
     1
290
     1
176
     1
290
     1
176
     1
290
     0
176
     1
290
     0
176
     1
290
     0
176
     1
290
     0
176
     1
290
     0
176
     1
290
     0
176
     1
 90
       50
176
     1
 40
0.0
176
     1
 40
1.0
176
     1
 90
        0
176
     1
 62
    18
420
        0
176
     1
 90
       50
176
     1
 90
        3
176
     1
 62
     5
420
      255
176
     1
290
     0
176
     1
 90
       50
176
     1
 90
       50
176
     1
 90
       50
176
     1
290
     0
176
     1
 90
       50
176
     1
 62
   256
176
     0
 40
1.0
176
     0
 90
        2
176
     1
  1
strokes_ogs.tif
176
     1
290
     0
176
     1
 40
1.0
176
     1
 40
1.0
176
     1
1001
ACAD
1000
AcDbSavedByObjectVersion
1070
     0
  0
VISUALSTYLE
  5
3E
102
{ACAD_REACTORS
330
2A
102
}
330
2A
100
AcDbVisualStyle
  2

 70
    23
177
     3
291
     0
 70
    58
 90
        2
176
     1
 90
        2
176
     1
 90
        3
176
     1
 90
        0
176
     1
 40
0.6
176
     1
 40
30.0
176
     1
 62
     7
420
 16777215
176
     1
 90
        2
176
     1
 90
        2
176
     1
 62
     7
176
     1
 62
     7
176
     1
 90
        1
176
     1
 90
        1
176
     1
 40
40.0
176
     1
 90
        8
176
     1
 62
     7
176
     1
 40
1.0
176
     1
 90
        1
176
     1
 90
        6
176
     1
 90
        2
176
     1
 62
     7
176
     1
 90
        3
176
     1
 90
        0
176
     1
 90
        0
176
     1
290
     0
176
     1
 90
        1
176
     1
 40
0.0
176
     1
 90
        0
176
     1
290
     0
176
     1
290
     1
176
     1
290
     1
176
     1
290
     0
176
     1
290
     0
176
     1
290
     0
176
     1
290
     0
176
     1
290
     0
176
     1
290
     0
176
     1
 90
       50
176
     1
 40
0.0
176
     1
 40
1.0
176
     1
 90
        0
176
     1
 62
    18
420
        0
176
     1
 90
       50
176
     1
 90
        3
176
     1
 62
     5
420
      255
176
     1
290
     0
176
     1
 90
       50
176
     1
 90
       50
176
     1
 90
       50
176
     1
290
     0
176
     1
 90
       50
176
     1
 62
   256
176
     0
 40
1.0
176
     0
 90
        2
176
     1
  1
strokes_ogs.tif
176
     1
290
     0
176
     1
 40
1.0
176
     1
 40
1.0
176
     1
1001
ACAD
1000
AcDbSavedByObjectVersion
1070
     0
  0
VISUALSTYLE
  5
3F
102
{ACAD_REACTORS
330
2A
102
}
330
2A
100
AcDbVisualStyle
  2

 70
    24
177
     3
291
     0
 70
    58
 90
        1
176
     1
 90
        2
176
     1
 90
        2
176
     1
 90
        0
176
     1
 40
0.6
176
     1
 40
30.0
176
     1
 62
     7
420
 16777215
176
     1
 90
        2
176
     1
 90
        2
176
     1
 62
     7
176
     1
 62
     7
176
     1
 90
        1
176
     1
 90
        1
176
     1
 40
40.0
176
     1
 90
       11
176
     1
 62
     7
176
     1
 40
1.0
176
     1
 90
        1
176
     1
 90
        6
176
     1
 90
        2
176
     1
 62
     7
176
     1
 90
        6
176
     1
 90
        0
176
     1
 90
        0
176
     1
290
     0
176
     1
 90
        1
176
     1
 40
0.0
176
     1
 90
        0
176
     1
290
     0
176
     1
290
     1
176
     1
290
     1
176
     1
290
     0
176
     1
290
     0
176
     1
290
     0
176
     1
290
     0
176
     1
290
     0
176
     1
290
     0
176
     1
 90
       50
176
     1
 40
0.0
176
     1
 40
1.0
176
     1
 90
        0
176
     1
 62
    18
420
        0
176
     1
 90
       50
176
     1
 90
        3
176
     1
 62
     5
420
      255
176
     1
290
     0
176
     1
 90
       50
176
     1
 90
       50
176
     1
 90
       50
176
     1
290
     0
176
     1
 90
       50
176
     1
 62
   256
176
     0
 40
1.0
176
     0
 90
        2
176
     1
  1
strokes_ogs.tif
176
     1
290
     0
176
     1
 40
1.0
176
     1
 40
1.0
176
     1
1001
ACAD
1000
AcDbSavedByObjectVersion
1070
     0
  0
VISUALSTYLE
  5
37
102
{ACAD_REACTORS
330
2A
102
}
330
2A
100
AcDbVisualStyle
  2

 70
    13
177
     3
291
     1
 70
    58
 90
        2
176
     1
 90
        2
176
     1
 90
        0
176
     1
 90
        0
176
     1
 40
0.6
176
     1
 40
30.0
176
     1
 62
     7
420
 16777215
176
     1
 90
        1
176
     1
 90
        4
176
     1
 62
     7
176
     1
 62
   257
176
     1
 90
        1
176
     1
 90
        1
176
     1
 40
1.0
176
     1
 90
       12
176
     1
 62
     7
176
     1
 40
1.0
176
     1
 90
        1
176
     1
 90
        6
176
     1
 90
        2
176
     1
 62
     7
176
     1
 90
        5
176
     1
 90
        0
176
     1
 90
        0
176
     1
290
     0
176
     1
 90
        1
176
     1
 40
0.0
176
     1
 90
        0
176
     1
290
     0
176
     1
290
     1
176
     1
290
     1
176
     1
290
     0
176
     1
290
     0
176
     1
290
     0
176
     1
290
     0
176
     1
290
     0
176
     1
290
     0
176
     1
 90
       50
176
     1
 40
0.0
176
     1
 40
1.0
176
     1
 90
        0
176
     1
 62
    18
420
        0
176
     1
 90
       50
176
     1
 90
        3
176
     1
 62
     5
420
      255
176
     1
290
     0
176
     1
 90
       50
176
     1
 90
       50
176
     1
 90
       50
176
     1
290
     0
176
     1
 90
       50
176
     1
 62
   256
176
     0
 40
1.0
176
     0
 90
        2
176
     1
  1
strokes_ogs.tif
176
     1
290
     0
176
     1
 40
1.0
176
     1
 40
1.0
176
     1
1001
ACAD
1000
AcDbSavedByObjectVersion
1070
     0
  0
VISUALSTYLE
  5
30
102
{ACAD_REACTORS
330
2A
102
}
330
2A
100
AcDbVisualStyle
  2

 70
     5
177
     3
291
     0
 70
    58
 90
        0
176
     1
 90
        2
176
     1
 90
        0
176
     1
 90
        0
176
     1
 40
0.6
176
     1
 40
30.0
176
     1
 62
     7
420
 16777215
176
     1
 90
        1
176
     1
 90
        4
176
     1
 62
     7
176
     1
 62
   257
176
     1
 90
        1
176
     1
 90
        1
176
     1
 40
1.0
176
     1
 90
        0
176
     1
 62
   257
176
     1
 40
1.0
176
     1
 90
        1
176
     1
 90
        6
176
     1
 90
        2
176
     1
 62
     7
176
     1
 90
        3
176
     1
 90
        0
176
     1
 90
        0
176
     1
290
     0
176
     1
 90
        1
176
     1
 40
0.0
176
     1
 90
        0
176
     1
290
     0
176
     1
290
     1
176
     1
290
     1
176
     1
290
     0
176
     1
290
     0
176
     1
290
     0
176
     1
290
     0
176
     1
290
     0
176
     1
290
     0
176
     1
 90
       50
176
     1
 40
0.0
176
     1
 40
1.0
176
     1
 90
        0
176
     1
 62
    18
420
        0
176
     1
 90
       50
176
     1
 90
        3
176
     1
 62
     5
420
      255
176
     1
290
     0
176
     1
 90
       50
176
     1
 90
       50
176
     1
 90
       50
176
     1
290
     0
176
     1
 90
       50
176
     1
 62
   256
176
     0
 40
1.0
176
     0
 90
        2
176
     1
  1
strokes_ogs.tif
176
     1
290
     0
176
     1
 40
1.0
176
     1
 40
1.0
176
     1
1001
ACAD
1000
AcDbSavedByObjectVersion
1070
     0
  0
VISUALSTYLE
  5
40
102
{ACAD_REACTORS
330
2A
102
}
330
2A
100
AcDbVisualStyle
  2

 70
    25
177
     3
291
     0
 70
    58
 90
        2
176
     1
 90
        2
176
     1
 90
        1
176
     1
 90
        1
176
     1
 40
0.5
176
     1
 40
30.0
176
     1
 62
     7
420
 16777215
176
     1
 90
        1
176
     1
 90
        0
176
     1
 62
     7
176
     1
 62
   257
176
     1
 90
        1
176
     1
 90
        1
176
     1
 40
1.0
176
     1
 90
        8
176
     1
 62
     7
176
     1
 40
1.0
176
     1
 90
        1
176
     1
 90
        6
176
     1
 90
        2
176
     1
 62
     7
176
     1
 90
        3
176
     1
 90
        0
176
     1
 90
        0
176
     1
290
     0
176
     1
 90
       13
176
     1
 40
0.0
176
     1
 90
        0
176
     1
290
     0
176
     1
290
     1
176
     1
290
     1
176
     1
290
     0
176
     1
290
     0
176
     1
290
     0
176
     1
290
     0
176
     1
290
     0
176
     1
290
     0
176
     1
 90
       50
176
     1
 40
0.0
176
     1
 40
1.0
176
     1
 90
        0
176
     1
 62
    18
420
        0
176
     1
 90
       50
176
     1
 90
        3
176
     1
 62
     5
420
      255
176
     1
290
     0
176
     1
 90
       50
176
     1
 90
       50
176
     1
 90
       50
176
     1
290
     0
176
     1
 90
       50
176
     1
 62
   256
176
     0
 40
1.0
176
     0
 90
        2
176
     1
  1
strokes_ogs.tif
176
     1
290
     0
176
     1
 40
1.0
176
     1
 40
1.0
176
     1
1001
ACAD
1000
AcDbSavedByObjectVersion
1070
     0
  0
DICTIONARYVAR
  5
325
102
{ACAD_REACTORS
330
324
102
}
330
324
100
DictionaryVariables
280
     0
  1
1:1
  0
DICTIONARYVAR
  5
366
102
{ACAD_REACTORS
330
324
102
}
330
324
100
DictionaryVariables
280
     0
  1
STANDARD
  0
DICTIONARYVAR
  5
365
102
{ACAD_REACTORS
330
324
102
}
330
324
100
DictionaryVariables
280
     0
  1
STANDARD
  0
DICTIONARYVAR
  5
6C0
102
{ACAD_REACTORS
330
324
102
}
330
324
100
DictionaryVariables
280
     0
  1
Metric50
  0
DICTIONARYVAR
  5
6C1
102
{ACAD_REACTORS
330
324
102
}
330
324
100
DictionaryVariables
280
     0
  1
Metric50
  0
DICTIONARYVAR
  5
6C3
102
{ACAD_REACTORS
330
324
102
}
330
324
100
DictionaryVariables
280
     0
  1
1
  0
DICTIONARYVAR
  5
6C4
102
{ACAD_REACTORS
330
324
102
}
330
324
100
DictionaryVariables
280
     0
  1
15
  0
DICTIONARYVAR
  5
6C2
102
{ACAD_REACTORS
330
324
102
}
330
324
100
DictionaryVariables
280
     0
  1
0
  0
DICTIONARYVAR
  5
326
102
{ACAD_REACTORS
330
324
102
}
330
324
100
DictionaryVariables
280
     0
  1
1
  0
DICTIONARY
  5
6C9
330
36D
100
AcDbDictionary
280
     1
281
     1
  3
ACAD_XREC_ROUNDTRIP
360
6CA
  0
DICTIONARY
  5
35A
330
45
100
AcDbDictionary
280
     1
281
     1
  3
ACAD_XREC_ROUNDTRIP
360
35B
  0
DICTIONARY
  5
358
330
44
100
AcDbDictionary
280
     1
281
     1
  3
ACAD_XREC_ROUNDTRIP
360
359
  0
DICTIONARY
  5
35C
330
46
100
AcDbDictionary
280
     1
281
     1
  3
ACAD_XREC_ROUNDTRIP
360
35D
  0
DICTIONARY
  5
6C7
330
36C
100
AcDbDictionary
280
     1
281
     1
  3
ACAD_XREC_ROUNDTRIP
360
6C8
  0
DICTIONARY
  5
35E
330
6A
100
AcDbDictionary
280
     1
281
     1
  3
ACAD_ROUNDTRIP_2008_TABLESTYLE_CELLSTYLEMAP
360
6C5
  0
XRECORD
  5
6CA
102
{ACAD_REACTORS
330
6C9
102
}
330
6C9
100
AcDbXrecord
280
     1
102
DISPLAYNAME
  1
Metric50
102
FLAGS
 90
        0
  0
XRECORD
  5
35B
102
{ACAD_REACTORS
330
35A
102
}
330
35A
100
AcDbXrecord
280
     1
102
MATERIAL
148
0.0
149
0.0
149
0.0
 93
        0
 94
      127
282
     0
 72
     1
 77
     1
171
     1
175
     1
179
     1
273
     0
  0
XRECORD
  5
359
102
{ACAD_REACTORS
330
358
102
}
330
358
100
AcDbXrecord
280
     1
102
MATERIAL
148
0.0
149
0.0
149
0.0
 93
        0
 94
      127
282
     0
 72
     1
 77
     1
171
     1
175
     1
179
     1
273
     0
  0
XRECORD
  5
35D
102
{ACAD_REACTORS
330
35C
102
}
330
35C
100
AcDbXrecord
280
     1
102
MATERIAL
148
0.0
149
0.0
149
0.0
 93
        0
 94
      127
282
     0
 72
     1
 77
     1
171
     1
175
     1
179
     1
273
     0
  0
XRECORD
  5
6C8
102
{ACAD_REACTORS
330
6C7
102
}
330
6C7
100
AcDbXrecord
280
     1
102
DISPLAYNAME
  1
Metric50
102
FLAGS
 90
        0
  0
CELLSTYLEMAP
  5
6C5
102
{ACAD_REACTORS
330
35E
102
}
330
35E
100
AcDbCellStyleMap
 90
        3
300
CELLSTYLE
  1
TABLEFORMAT_BEGIN
 90
        5
170
     1
 91
        0
 92
    32768
 62
   257
 93
        1
300
CONTENTFORMAT
  1
CONTENTFORMAT_BEGIN
 90
        0
 91
        0
 92
        4
 93
        0
300

 40
0.0
140
1.0
 94
        5
 62
     0
340
11
144
0.25
309
CONTENTFORMAT_END
171
     1
301
MARGIN
  1
CELLMARGIN_BEGIN
 40
0.06
 40
0.06
 40
0.06
 40
0.06
 40
0.18
 40
0.18
309
CELLMARGIN_END
 94
        6
 95
        1
302
GRIDFORMAT
  1
GRIDFORMAT_BEGIN
 90
        0
 91
        1
 62
     0
 92
       -2
340
14
 93
        0
 40
0.045
309
GRIDFORMAT_END
 95
        2
302
GRIDFORMAT
  1
GRIDFORMAT_BEGIN
 90
        0
 91
        1
 62
     0
 92
       -2
340
14
 93
        0
 40
0.045
309
GRIDFORMAT_END
 95
        4
302
GRIDFORMAT
  1
GRIDFORMAT_BEGIN
 90
        0
 91
        1
 62
     0
 92
       -2
340
14
 93
        0
 40
0.045
309
GRIDFORMAT_END
 95
        8
302
GRIDFORMAT
  1
GRIDFORMAT_BEGIN
 90
        0
 91
        1
 62
     0
 92
       -2
340
14
 93
        0
 40
0.045
309
GRIDFORMAT_END
 95
       16
302
GRIDFORMAT
  1
GRIDFORMAT_BEGIN
 90
        0
 91
        1
 62
     0
 92
       -2
340
14
 93
        0
 40
0.045
309
GRIDFORMAT_END
 95
       32
302
GRIDFORMAT
  1
GRIDFORMAT_BEGIN
 90
        0
 91
        1
 62
     0
 92
       -2
340
14
 93
        0
 40
0.045
309
GRIDFORMAT_END
309
TABLEFORMAT_END
  1
CELLSTYLE_BEGIN
 90
        1
 91
        1
300
_TITLE
309
CELLSTYLE_END
300
CELLSTYLE
  1
TABLEFORMAT_BEGIN
 90
        5
170
     1
 91
        0
 92
        0
 62
   257
 93
        1
300
CONTENTFORMAT
  1
CONTENTFORMAT_BEGIN
 90
        0
 91
        0
 92
        4
 93
        0
300

 40
0.0
140
1.0
 94
        5
 62
     0
340
11
144
0.18
309
CONTENTFORMAT_END
171
     1
301
MARGIN
  1
CELLMARGIN_BEGIN
 40
0.06
 40
0.06
 40
0.06
 40
0.06
 40
0.18
 40
0.18
309
CELLMARGIN_END
 94
        6
 95
        1
302
GRIDFORMAT
  1
GRIDFORMAT_BEGIN
 90
        0
 91
        1
 62
     0
 92
       -2
340
14
 93
        0
 40
0.045
309
GRIDFORMAT_END
 95
        2
302
GRIDFORMAT
  1
GRIDFORMAT_BEGIN
 90
        0
 91
        1
 62
     0
 92
       -2
340
14
 93
        0
 40
0.045
309
GRIDFORMAT_END
 95
        4
302
GRIDFORMAT
  1
GRIDFORMAT_BEGIN
 90
        0
 91
        1
 62
     0
 92
       -2
340
14
 93
        0
 40
0.045
309
GRIDFORMAT_END
 95
        8
302
GRIDFORMAT
  1
GRIDFORMAT_BEGIN
 90
        0
 91
        1
 62
     0
 92
       -2
340
14
 93
        0
 40
0.045
309
GRIDFORMAT_END
 95
       16
302
GRIDFORMAT
  1
GRIDFORMAT_BEGIN
 90
        0
 91
        1
 62
     0
 92
       -2
340
14
 93
        0
 40
0.045
309
GRIDFORMAT_END
 95
       32
302
GRIDFORMAT
  1
GRIDFORMAT_BEGIN
 90
        0
 91
        1
 62
     0
 92
       -2
340
14
 93
        0
 40
0.045
309
GRIDFORMAT_END
309
TABLEFORMAT_END
  1
CELLSTYLE_BEGIN
 90
        2
 91
        1
300
_HEADER
309
CELLSTYLE_END
300
CELLSTYLE
  1
TABLEFORMAT_BEGIN
 90
        5
170
     1
 91
        0
 92
        0
 62
   257
 93
        1
300
CONTENTFORMAT
  1
CONTENTFORMAT_BEGIN
 90
        0
 91
        0
 92
        4
 93
        0
300

 40
0.0
140
1.0
 94
        2
 62
     0
340
11
144
0.18
309
CONTENTFORMAT_END
171
     1
301
MARGIN
  1
CELLMARGIN_BEGIN
 40
0.06
 40
0.06
 40
0.06
 40
0.06
 40
0.18
 40
0.18
309
CELLMARGIN_END
 94
        6
 95
        1
302
GRIDFORMAT
  1
GRIDFORMAT_BEGIN
 90
        0
 91
        1
 62
     0
 92
       -2
340
14
 93
        0
 40
0.045
309
GRIDFORMAT_END
 95
        2
302
GRIDFORMAT
  1
GRIDFORMAT_BEGIN
 90
        0
 91
        1
 62
     0
 92
       -2
340
14
 93
        0
 40
0.045
309
GRIDFORMAT_END
 95
        4
302
GRIDFORMAT
  1
GRIDFORMAT_BEGIN
 90
        0
 91
        1
 62
     0
 92
       -2
340
14
 93
        0
 40
0.045
309
GRIDFORMAT_END
 95
        8
302
GRIDFORMAT
  1
GRIDFORMAT_BEGIN
 90
        0
 91
        1
 62
     0
 92
       -2
340
14
 93
        0
 40
0.045
309
GRIDFORMAT_END
 95
       16
302
GRIDFORMAT
  1
GRIDFORMAT_BEGIN
 90
        0
 91
        1
 62
     0
 92
       -2
340
14
 93
        0
 40
0.045
309
GRIDFORMAT_END
 95
       32
302
GRIDFORMAT
  1
GRIDFORMAT_BEGIN
 90
        0
 91
        1
 62
     0
 92
       -2
340
14
 93
        0
 40
0.045
309
GRIDFORMAT_END
309
TABLEFORMAT_END
  1
CELLSTYLE_BEGIN
 90
        3
 91
        2
300
_DATA
309
CELLSTYLE_END
  0
ENDSEC
  0
EOF
