  0
SECTION
  2
HEADER
  9
$ACADVER
  1
AC1024
  9
$ACADMAINTVER
 70
   205
  9
$DWGCODEPAGE
  3
ANSI_1252
  9
$LASTSAVEDBY
  1
kaschu
  9
$INSBASE
 10
0.0
 20
0.0
 30
0.0
  9
$EXTMIN
 10
79.7413575363382
 20
52.11945323228565
 30
-0.0000000000000388
  9
$EXTMAX
 10
1343.382222547521
 20
1208.737633648137
 30
0.0000000000000183
  9
$LIMMIN
 10
0.0
 20
0.0
  9
$LIMMAX
 10
12.0
 20
9.0
  9
$ORTHOMODE
 70
     0
  9
$REGENMODE
 70
     1
  9
$FILLMODE
 70
     1
  9
$QTEXTMODE
 70
     0
  9
$MIRRTEXT
 70
     1
  9
$LTSCALE
 40
1.0
  9
$ATTMODE
 70
     1
  9
$TEXTSIZE
 40
0.2
  9
$TRACEWID
 40
0.05
  9
$TEXTSTYLE
  7
STANDARD
  9
$CLAYER
  8
0
  9
$CELTYPE
  6
BYLAYER
  9
$CECOLOR
 62
   256
  9
$CELTSCALE
 40
1.0
  9
$DISPSILH
 70
     0
  9
$DIMSCALE
 40
1.0
  9
$DIMASZ
 40
0.18
  9
$DIMEXO
 40
0.0625
  9
$DIMDLI
 40
0.38
  9
$DIMRND
 40
0.0
  9
$DIMDLE
 40
0.0
  9
$DIMEXE
 40
0.18
  9
$DIMTP
 40
0.0
  9
$DIMTM
 40
0.0
  9
$DIMTXT
 40
0.18
  9
$DIMCEN
 40
0.09
  9
$DIMTSZ
 40
0.0
  9
$DIMTOL
 70
     0
  9
$DIMLIM
 70
     0
  9
$DIMTIH
 70
     1
  9
$DIMTOH
 70
     1
  9
$DIMSE1
 70
     0
  9
$DIMSE2
 70
     0
  9
$DIMTAD
 70
     0
  9
$DIMZIN
 70
     0
  9
$DIMBLK
  1

  9
$DIMASO
 70
     1
  9
$DIMSHO
 70
     1
  9
$DIMPOST
  1

  9
$DIMAPOST
  1

  9
$DIMALT
 70
     0
  9
$DIMALTD
 70
     2
  9
$DIMALTF
 40
25.4
  9
$DIMLFAC
 40
1.0
  9
$DIMTOFL
 70
     0
  9
$DIMTVP
 40
0.0
  9
$DIMTIX
 70
     0
  9
$DIMSOXD
 70
     0
  9
$DIMSAH
 70
     0
  9
$DIMBLK1
  1

  9
$DIMBLK2
  1

  9
$DIMSTYLE
  2
STANDARD
  9
$DIMCLRD
 70
     0
  9
$DIMCLRE
 70
     0
  9
$DIMCLRT
 70
     0
  9
$DIMTFAC
 40
1.0
  9
$DIMGAP
 40
0.09
  9
$DIMJUST
 70
     0
  9
$DIMSD1
 70
     0
  9
$DIMSD2
 70
     0
  9
$DIMTOLJ
 70
     1
  9
$DIMTZIN
 70
     0
  9
$DIMALTZ
 70
     0
  9
$DIMALTTZ
 70
     0
  9
$DIMUPT
 70
     0
  9
$DIMDEC
 70
     4
  9
$DIMTDEC
 70
     4
  9
$DIMALTU
 70
     2
  9
$DIMALTTD
 70
     2
  9
$DIMTXSTY
  7
STANDARD
  9
$DIMAUNIT
 70
     0
  9
$DIMADEC
 70
     0
  9
$DIMALTRND
 40
0.0
  9
$DIMAZIN
 70
     0
  9
$DIMDSEP
 70
    46
  9
$DIMATFIT
 70
     3
  9
$DIMFRAC
 70
     0
  9
$DIMLDRBLK
  1

  9
$DIMLUNIT
 70
     2
  9
$DIMLWD
 70
    -2
  9
$DIMLWE
 70
    -2
  9
$DIMTMOVE
 70
     0
  9
$DIMFXL
 40
1.0
  9
$DIMFXLON
 70
     0
  9
$DIMJOGANG
 40
0.7853981633974483
  9
$DIMTFILL
 70
     0
  9
$DIMTFILLCLR
 70
     0
  9
$DIMARCSYM
 70
     0
  9
$DIMLTYPE
  6

  9
$DIMLTEX1
  6

  9
$DIMLTEX2
  6

  9
$DIMTXTDIRECTION
 70
     0
  9
$LUNITS
 70
     2
  9
$LUPREC
 70
     4
  9
$SKETCHINC
 40
0.1
  9
$FILLETRAD
 40
0.5
  9
$AUNITS
 70
     0
  9
$AUPREC
 70
     0
  9
$MENU
  1
.
  9
$ELEVATION
 40
0.0
  9
$PELEVATION
 40
0.0
  9
$THICKNESS
 40
0.0
  9
$LIMCHECK
 70
     0
  9
$CHAMFERA
 40
0.5
  9
$CHAMFERB
 40
0.5
  9
$CHAMFERC
 40
1.0
  9
$CHAMFERD
 40
0.0
  9
$SKPOLY
 70
     0
  9
$TDCREATE
 40
2451762.419516088
  9
$TDUCREATE
 40
2451762.377849421
  9
$TDUPDATE
 40
2458515.461557593
  9
$TDUUPDATE
 40
2458515.419890926
  9
$TDINDWG
 40
0.0042509259
  9
$TDUSRTIMER
 40
0.0042470949
  9
$USRTIMER
 70
     1
  9
$ANGBASE
 50
0.0
  9
$ANGDIR
 70
     0
  9
$PDMODE
 70
     0
  9
$PDSIZE
 40
0.0
  9
$PLINEWID
 40
0.0
  9
$SPLFRAME
 70
     0
  9
$SPLINETYPE
 70
     6
  9
$SPLINESEGS
 70
     8
  9
$HANDSEED
  5
2E9
  9
$SURFTAB1
 70
     6
  9
$SURFTAB2
 70
     6
  9
$SURFTYPE
 70
     6
  9
$SURFU
 70
     6
  9
$SURFV
 70
     6
  9
$UCSBASE
  2

  9
$UCSNAME
  2

  9
$UCSORG
 10
0.0
 20
0.0
 30
0.0
  9
$UCSXDIR
 10
1.0
 20
0.0
 30
0.0
  9
$UCSYDIR
 10
0.0
 20
1.0
 30
0.0
  9
$UCSORTHOREF
  2

  9
$UCSORTHOVIEW
 70
     0
  9
$UCSORGTOP
 10
0.0
 20
0.0
 30
0.0
  9
$UCSORGBOTTOM
 10
0.0
 20
0.0
 30
0.0
  9
$UCSORGLEFT
 10
0.0
 20
0.0
 30
0.0
  9
$UCSORGRIGHT
 10
0.0
 20
0.0
 30
0.0
  9
$UCSORGFRONT
 10
0.0
 20
0.0
 30
0.0
  9
$UCSORGBACK
 10
0.0
 20
0.0
 30
0.0
  9
$PUCSBASE
  2

  9
$PUCSNAME
  2

  9
$PUCSORG
 10
0.0
 20
0.0
 30
0.0
  9
$PUCSXDIR
 10
1.0
 20
0.0
 30
0.0
  9
$PUCSYDIR
 10
0.0
 20
1.0
 30
0.0
  9
$PUCSORTHOREF
  2

  9
$PUCSORTHOVIEW
 70
     0
  9
$PUCSORGTOP
 10
0.0
 20
0.0
 30
0.0
  9
$PUCSORGBOTTOM
 10
0.0
 20
0.0
 30
0.0
  9
$PUCSORGLEFT
 10
0.0
 20
0.0
 30
0.0
  9
$PUCSORGRIGHT
 10
0.0
 20
0.0
 30
0.0
  9
$PUCSORGFRONT
 10
0.0
 20
0.0
 30
0.0
  9
$PUCSORGBACK
 10
0.0
 20
0.0
 30
0.0
  9
$USERI1
 70
     0
  9
$USERI2
 70
     0
  9
$USERI3
 70
     0
  9
$USERI4
 70
     0
  9
$USERI5
 70
     0
  9
$USERR1
 40
0.0
  9
$USERR2
 40
0.0
  9
$USERR3
 40
0.0
  9
$USERR4
 40
0.0
  9
$USERR5
 40
0.0
  9
$WORLDVIEW
 70
     1
  9
$SHADEDGE
 70
     3
  9
$SHADEDIF
 70
    70
  9
$TILEMODE
 70
     1
  9
$MAXACTVP
 70
    64
  9
$PINSBASE
 10
0.0
 20
0.0
 30
0.0
  9
$PLIMCHECK
 70
     0
  9
$PEXTMIN
 10
1.000000000000000E+20
 20
1.000000000000000E+20
 30
1.000000000000000E+20
  9
$PEXTMAX
 10
-1.000000000000000E+20
 20
-1.000000000000000E+20
 30
-1.000000000000000E+20
  9
$PLIMMIN
 10
0.0
 20
0.0
  9
$PLIMMAX
 10
12.0
 20
9.0
  9
$UNITMODE
 70
     0
  9
$VISRETAIN
 70
     1
  9
$PLINEGEN
 70
     0
  9
$PSLTSCALE
 70
     1
  9
$TREEDEPTH
 70
  3020
  9
$CMLSTYLE
  2
STANDARD
  9
$CMLJUST
 70
     0
  9
$CMLSCALE
 40
1.0
  9
$PROXYGRAPHICS
 70
     1
  9
$MEASUREMENT
 70
     0
  9
$CELWEIGHT
370
    -1
  9
$ENDCAPS
280
     0
  9
$JOINSTYLE
280
     0
  9
$LWDISPLAY
290
     0
  9
$INSUNITS
 70
     0
  9
$HYPERLINKBASE
  1

  9
$STYLESHEET
  1

  9
$XEDIT
290
     1
  9
$CEPSNTYPE
380
     0
  9
$PSTYLEMODE
290
     1
  9
$FINGERPRINTGUID
  2
{3EF3B1E1-26CC-42C0-AB3B-A518CF65F475}
  9
$VERSIONGUID
  2
{6EB721C2-FD74-4579-A010-7FEB6F5FD981}
  9
$EXTNAMES
290
     1
  9
$PSVPSCALE
 40
0.0
  9
$OLESTARTUP
290
     0
  9
$SORTENTS
280
   127
  9
$INDEXCTL
280
     0
  9
$HIDETEXT
280
     0
  9
$XCLIPFRAME
280
     0
  9
$HALOGAP
280
     0
  9
$OBSCOLOR
 70
   257
  9
$OBSLTYPE
280
     0
  9
$INTERSECTIONDISPLAY
280
     0
  9
$INTERSECTIONCOLOR
 70
   257
  9
$DIMASSOC
280
     1
  9
$PROJECTNAME
  1

  9
$CAMERADISPLAY
290
     0
  9
$LENSLENGTH
 40
50.0
  9
$CAMERAHEIGHT
 40
0.0
  9
$STEPSPERSEC
 40
2.0
  9
$STEPSIZE
 40
6.0
  9
$3DDWFPREC
 40
2.0
  9
$PSOLWIDTH
 40
0.25
  9
$PSOLHEIGHT
 40
4.0
  9
$LOFTANG1
 40
1.570796326794896
  9
$LOFTANG2
 40
1.570796326794896
  9
$LOFTMAG1
 40
0.0
  9
$LOFTMAG2
 40
0.0
  9
$LOFTPARAM
 70
     7
  9
$LOFTNORMALS
280
     1
  9
$LATITUDE
 40
37.795
  9
$LONGITUDE
 40
-122.394
  9
$NORTHDIRECTION
 40
0.0
  9
$TIMEZONE
 70
 -8000
  9
$LIGHTGLYPHDISPLAY
280
     1
  9
$TILEMODELIGHTSYNCH
280
     1
  9
$CMATERIAL
347
1A5
  9
$SOLIDHIST
280
     0
  9
$SHOWHIST
280
     1
  9
$DWFFRAME
280
     2
  9
$DGNFRAME
280
     0
  9
$REALWORLDSCALE
290
     1
  9
$INTERFERECOLOR
 62
     1
  9
$INTERFEREOBJVS
345
1B2
  9
$INTERFEREVPVS
346
226
  9
$CSHADOW
280
     0
  9
$SHADOWPLANELOCATION
 40
0.0
  0
ENDSEC
  0
SECTION
  2
CLASSES
  0
CLASS
  1
ACDBDICTIONARYWDFLT
  2
AcDbDictionaryWithDefault
  3
ObjectDBX Classes
 90
        0
 91
        1
280
     0
281
     0
  0
CLASS
  1
MATERIAL
  2
AcDbMaterial
  3
ObjectDBX Classes
 90
     1153
 91
        3
280
     0
281
     0
  0
CLASS
  1
VISUALSTYLE
  2
AcDbVisualStyle
  3
ObjectDBX Classes
 90
     4095
 91
       26
280
     0
281
     0
  0
CLASS
  1
TABLESTYLE
  2
AcDbTableStyle
  3
ObjectDBX Classes
 90
     4095
 91
        1
280
     0
281
     0
  0
CLASS
  1
DICTIONARYVAR
  2
AcDbDictionaryVar
  3
ObjectDBX Classes
 90
        0
 91
       12
280
     0
281
     0
  0
CLASS
  1
SCALE
  2
AcDbScale
  3
ObjectDBX Classes
 90
     1153
 91
       17
280
     0
281
     0
  0
CLASS
  1
MLEADERSTYLE
  2
AcDbMLeaderStyle
  3
ACDB_MLEADERSTYLE_CLASS
 90
     4095
 91
        1
280
     0
281
     0
  0
CLASS
  1
ACDBSECTIONVIEWSTYLE
  2
AcDbSectionViewStyle
  3
ObjectDBX Classes
 90
     1025
 91
        1
280
     0
281
     0
  0
CLASS
  1
ACDBDETAILVIEWSTYLE
  2
AcDbDetailViewStyle
  3
ObjectDBX Classes
 90
     1025
 91
        1
280
     0
281
     0
  0
CLASS
  1
CELLSTYLEMAP
  2
AcDbCellStyleMap
  3
ObjectDBX Classes
 90
     1152
 91
        1
280
     0
281
     0
  0
ENDSEC
  0
SECTION
  2
TABLES
  0
TABLE
  2
VPORT
  5
8
330
0
100
AcDbSymbolTable
 70
     1
  0
VPORT
  5
17F
330
8
100
AcDbSymbolTableRecord
100
AcDbViewportTableRecord
  2
*ACTIVE
 70
     0
 10
0.0
 20
0.0
 11
1.0
 21
1.0
 12
704.5279247286289
 22
675.4254364052148
 13
0.0
 23
0.0
 14
0.5
 24
0.5
 15
0.5
 25
0.5
 16
0.0
 26
0.0
 36
1.0
 17
0.0
 27
0.0
 37
0.0
 40
1803.812642956239
 41
2.260445682451253
 42
50.0
 43
0.0
 44
0.0
 50
0.0
 51
0.0
 71
     0
 72
   100
 73
     1
 74
     3
 75
     0
 76
     0
 77
     0
 78
     0
281
     0
 65
     1
110
0.0
120
0.0
130
0.0
111
1.0
121
0.0
131
0.0
112
0.0
122
1.0
132
0.0
 79
     0
146
0.0
348
1AE
 60
     3
 61
     5
292
     1
282
     1
141
0.0
142
0.0
 63
   250
421
  3355443
1001
ACAD_NAV_VCDISPLAY
1070
     3
  0
ENDTAB
  0
TABLE
  2
LTYPE
  5
5
330
0
100
AcDbSymbolTable
 70
     2
  0
LTYPE
  5
14
330
5
100
AcDbSymbolTableRecord
100
AcDbLinetypeTableRecord
  2
BYBLOCK
 70
     0
  3

 72
    65
 73
     0
 40
0.0
  0
LTYPE
  5
15
330
5
100
AcDbSymbolTableRecord
100
AcDbLinetypeTableRecord
  2
BYLAYER
 70
     0
  3

 72
    65
 73
     0
 40
0.0
  0
LTYPE
  5
16
330
5
100
AcDbSymbolTableRecord
100
AcDbLinetypeTableRecord
  2
CONTINUOUS
 70
     0
  3
Solid line
 72
    65
 73
     0
 40
0.0
  0
ENDTAB
  0
TABLE
  2
LAYER
  5
2
330
0
100
AcDbSymbolTable
 70
     4
  0
LAYER
  5
10
330
2
100
AcDbSymbolTableRecord
100
AcDbLayerTableRecord
  2
0
 70
     0
 62
     7
  6
CONTINUOUS
370
    -3
390
F5
347
1A7
  0
LAYER
  5
65
330
2
100
AcDbSymbolTableRecord
100
AcDbLayerTableRecord
  2
PV-CC
 70
     2
 62
     7
  6
CONTINUOUS
370
    -3
390
F5
347
1A7
  0
LAYER
  5
1C4
330
2
100
AcDbSymbolTableRecord
100
AcDbLayerTableRecord
  2
Defpoints
 70
     0
 62
     7
  6
CONTINUOUS
290
     0
370
    -3
390
F5
347
1A7
  0
LAYER
  5
24B
102
{ACAD_XDICTIONARY
360
24C
102
}
330
2
100
AcDbSymbolTableRecord
100
AcDbLayerTableRecord
  2
HEWI
 70
     0
 62
     7
  6
CONTINUOUS
370
    -3
390
F5
347
1A7
1001
AcAecLayerStandard
1000

1000

1001
AcCmTransparency
1071
        0
  0
ENDTAB
  0
TABLE
  2
STYLE
  5
3
330
0
100
AcDbSymbolTable
 70
     1
  0
STYLE
  5
11
330
3
100
AcDbSymbolTableRecord
100
AcDbTextStyleTableRecord
  2
STANDARD
 70
     0
 40
0.0
 41
1.0
 50
0.0
 71
     0
 42
0.2
  3
txt
  4

  0
ENDTAB
  0
TABLE
  2
VIEW
  5
6
330
0
100
AcDbSymbolTable
 70
     0
  0
ENDTAB
  0
TABLE
  2
UCS
  5
7
330
0
100
AcDbSymbolTable
 70
     0
  0
ENDTAB
  0
TABLE
  2
APPID
  5
9
330
0
100
AcDbSymbolTable
 70
     5
  0
APPID
  5
12
330
9
100
AcDbSymbolTableRecord
100
AcDbRegAppTableRecord
  2
ACAD
 70
     0
  0
APPID
  5
24D
330
9
100
AcDbSymbolTableRecord
100
AcDbRegAppTableRecord
  2
AcAecLayerStandard
 70
     0
  0
APPID
  5
24E
330
9
100
AcDbSymbolTableRecord
100
AcDbRegAppTableRecord
  2
AcCmTransparency
 70
     0
  0
APPID
  5
24F
330
9
100
AcDbSymbolTableRecord
100
AcDbRegAppTableRecord
  2
ACAD_NAV_VCDISPLAY
 70
     0
  0
APPID
  5
291
330
9
100
AcDbSymbolTableRecord
100
AcDbRegAppTableRecord
  2
ACAD_EXEMPT_FROM_CAD_STANDARDS
 70
     0
  0
ENDTAB
  0
TABLE
  2
DIMSTYLE
  5
A
330
0
100
AcDbSymbolTable
 70
     2
100
AcDbDimStyleTable
 71
     1
340
27
  0
DIMSTYLE
105
27
330
A
100
AcDbSymbolTableRecord
100
AcDbDimStyleTableRecord
  2
STANDARD
 70
     0
340
11
  0
ENDTAB
  0
TABLE
  2
BLOCK_RECORD
  5
1
330
0
100
AcDbSymbolTable
 70
    13
  0
BLOCK_RECORD
  5
1F
102
{ACAD_XDICTIONARY
360
EE
102
}
330
1
100
AcDbSymbolTableRecord
100
AcDbBlockTableRecord
  2
*MODEL_SPACE
340
1BD
 70
     0
280
     1
281
     0
  0
BLOCK_RECORD
  5
1B
102
{ACAD_XDICTIONARY
360
EC
102
}
330
1
100
AcDbSymbolTableRecord
100
AcDbBlockTableRecord
  2
*PAPER_SPACE
340
1BE
 70
     0
280
     1
281
     0
  0
BLOCK_RECORD
  5
48
330
1
100
AcDbSymbolTableRecord
100
AcDbBlockTableRecord
  2
*U0
340
0
102
{BLKREFS
331
67
102
}
 70
     0
280
     1
281
     0
  0
BLOCK_RECORD
  5
66
330
1
100
AcDbSymbolTableRecord
100
AcDbBlockTableRecord
  2
FRONT
340
0
 70
     0
280
     1
281
     0
  0
BLOCK_RECORD
  5
6B
330
1
100
AcDbSymbolTableRecord
100
AcDbBlockTableRecord
  2
*U2
340
0
102
{BLKREFS
331
99
102
}
 70
     0
280
     1
281
     0
  0
BLOCK_RECORD
  5
98
330
1
100
AcDbSymbolTableRecord
100
AcDbBlockTableRecord
  2
LEFT
340
0
 70
     0
280
     1
281
     0
  0
BLOCK_RECORD
  5
9D
330
1
100
AcDbSymbolTableRecord
100
AcDbBlockTableRecord
  2
*U4
340
0
102
{BLKREFS
331
C6
102
}
 70
     0
280
     1
281
     0
  0
BLOCK_RECORD
  5
C5
330
1
100
AcDbSymbolTableRecord
100
AcDbBlockTableRecord
  2
RIGHT
340
0
 70
     0
280
     1
281
     0
  0
BLOCK_RECORD
  5
CA
330
1
100
AcDbSymbolTableRecord
100
AcDbBlockTableRecord
  2
*U6
340
0
102
{BLKREFS
331
E7
102
}
 70
     0
280
     1
281
     0
  0
BLOCK_RECORD
  5
E6
330
1
100
AcDbSymbolTableRecord
100
AcDbBlockTableRecord
  2
TOP
340
0
 70
     0
280
     1
281
     0
  0
BLOCK_RECORD
  5
207
330
1
100
AcDbSymbolTableRecord
100
AcDbBlockTableRecord
  2
*D8
340
0
 70
     0
280
     1
281
     0
  0
BLOCK_RECORD
  5
215
330
1
100
AcDbSymbolTableRecord
100
AcDbBlockTableRecord
  2
*D9
340
0
 70
     0
280
     1
281
     0
  0
BLOCK_RECORD
  5
299
330
1
100
AcDbSymbolTableRecord
100
AcDbBlockTableRecord
  2
*D12
340
0
 70
     0
280
     1
281
     0
  0
ENDTAB
  0
ENDSEC
  0
SECTION
  2
BLOCKS
  0
BLOCK
  5
20
330
1F
100
AcDbEntity
  8
0
100
AcDbBlockBegin
  2
*MODEL_SPACE
 70
     0
 10
0.0
 20
0.0
 30
0.0
  3
*MODEL_SPACE
  1

  0
ENDBLK
  5
21
330
1F
100
AcDbEntity
  8
0
100
AcDbBlockEnd
  0
BLOCK
  5
1C
330
1B
100
AcDbEntity
 67
     1
  8
0
100
AcDbBlockBegin
  2
*PAPER_SPACE
 70
     0
 10
0.0
 20
0.0
 30
0.0
  3
*PAPER_SPACE
  1

  0
ENDBLK
  5
1D
330
1B
100
AcDbEntity
 67
     1
  8
0
100
AcDbBlockEnd
  0
BLOCK
  5
62
330
48
100
AcDbEntity
  8
0
100
AcDbBlockBegin
  2
*U0
 70
     1
 10
0.0
 20
0.0
 30
0.0
  3
*U0
  1
*ANON
  0
ARC
  5
49
330
48
100
AcDbEntity
  8
PV-CC
100
AcDbCircle
 10
0.0
 20
0.0
 30
0.0
 40
16.5
210
0.0
220
-1.0
230
0.0
100
AcDbArc
 50
269.9999999999997
 51
0.0
  0
ARC
  5
4A
330
48
100
AcDbEntity
  8
PV-CC
100
AcDbCircle
 10
0.0
 20
0.0
 30
0.0
 40
16.5
210
0.0
220
-1.0
230
0.0
100
AcDbArc
 50
359.9999999999992
 51
89.99999999999941
  0
ARC
  5
4B
330
48
100
AcDbEntity
  8
PV-CC
100
AcDbCircle
 10
-300.0
 20
600.0
 30
0.0
 40
16.5
210
0.0
220
-1.0
230
0.0
100
AcDbArc
 50
0.0
 51
180.0000000000003
  0
ARC
  5
4C
330
48
100
AcDbEntity
  8
PV-CC
100
AcDbCircle
 10
-300.0
 20
600.0
 30
0.0
 40
35.0
210
0.0
220
-1.0
230
0.0
100
AcDbArc
 50
298.1270682186039
 51
180.0
  0
ARC
  5
4D
330
48
100
AcDbEntity
  8
PV-CC
100
AcDbCircle
 10
-300.0
 20
600.0
 30
0.0
 40
35.0
210
0.0
220
-1.0
230
0.0
100
AcDbArc
 50
179.9999999999992
 51
241.8729317813944
  0
ARC
  5
4E
330
48
100
AcDbEntity
  8
PV-CC
100
AcDbCircle
 10
-300.0
 20
600.0
 30
0.0
 40
16.8
210
0.0
220
-1.0
230
0.0
100
AcDbArc
 50
349.1559374363023
 51
180.0000000000002
  0
ARC
  5
4F
330
48
100
AcDbEntity
  8
PV-CC
100
AcDbCircle
 10
-300.0
 20
600.0
 30
0.0
 40
16.8
210
0.0
220
-1.0
230
0.0
100
AcDbArc
 50
179.9999999999992
 51
190.8440625636959
  0
ARC
  5
50
330
48
100
AcDbEntity
  8
PV-CC
100
AcDbCircle
 10
-300.0
 20
115.0
 30
0.0
 40
35.0
210
0.0
220
-1.0
230
0.0
100
AcDbArc
 50
118.1270682186047
 51
180.0
  0
ARC
  5
51
330
48
100
AcDbEntity
  8
PV-CC
100
AcDbCircle
 10
-300.0
 20
115.0
 30
0.0
 40
35.0
210
0.0
220
-1.0
230
0.0
100
AcDbArc
 50
298.1270682186039
 51
61.87293178139518
  0
ARC
  5
52
330
48
100
AcDbEntity
  8
PV-CC
100
AcDbCircle
 10
-300.0
 20
115.0
 30
0.0
 40
35.0
210
0.0
220
-1.0
230
0.0
100
AcDbArc
 50
179.9999999999992
 51
241.8729317813944
  0
ARC
  5
53
330
48
100
AcDbEntity
  8
PV-CC
100
AcDbCircle
 10
-300.0
 20
115.0
 30
0.0
 40
16.8
210
0.0
220
-1.0
230
0.0
100
AcDbArc
 50
169.1559374363031
 51
180.0000000000002
  0
ARC
  5
54
330
48
100
AcDbEntity
  8
PV-CC
100
AcDbCircle
 10
-300.0
 20
115.0
 30
0.0
 40
16.8
210
0.0
220
-1.0
230
0.0
100
AcDbArc
 50
349.1559374363021
 51
10.84406256369683
  0
ARC
  5
55
330
48
100
AcDbEntity
  8
PV-CC
100
AcDbCircle
 10
-300.0
 20
115.0
 30
0.0
 40
16.8
210
0.0
220
-1.0
230
0.0
100
AcDbArc
 50
179.999999999999
 51
190.844062563696
  0
ARC
  5
56
330
48
100
AcDbEntity
  8
PV-CC
100
AcDbCircle
 10
0.0
 20
0.0
 30
0.0
 40
35.0
210
0.0
220
-1.0
230
0.0
100
AcDbArc
 50
208.1270682186039
 51
151.8729317813952
  0
ARC
  5
57
330
48
100
AcDbEntity
  8
PV-CC
100
AcDbCircle
 10
0.0
 20
0.0
 30
0.0
 40
16.8
210
0.0
220
-1.0
230
0.0
100
AcDbArc
 50
259.1559374363022
 51
100.8440625636968
  0
LINE
  5
58
330
48
100
AcDbEntity
  8
PV-CC
100
AcDbLine
 10
-283.4999999999999
 20
0.0
 30
48.5
 11
-283.4999999999999
 21
0.0
 31
551.4999999999998
  0
LINE
  5
59
330
48
100
AcDbEntity
  8
PV-CC
100
AcDbLine
 10
-316.5
 20
0.0
 30
48.5
 11
-316.5
 21
0.0
 31
551.4999999999998
  0
LINE
  5
5A
330
48
100
AcDbEntity
  8
PV-CC
100
AcDbLine
 10
-48.5
 20
0.0
 30
16.5
 11
-251.5
 21
0.0
 31
16.5
  0
LINE
  5
5B
330
48
100
AcDbEntity
  8
PV-CC
100
AcDbLine
 10
-48.5
 20
0.0
 30
-16.5
 11
-251.5
 21
0.0
 31
-16.5
  0
ARC
  5
5C
330
48
100
AcDbEntity
  8
PV-CC
100
AcDbCircle
 10
-251.5
 20
48.5
 30
0.0
 40
65.0
210
0.0
220
-1.0
230
0.0
100
AcDbArc
 50
179.9999999999998
 51
270.0
  0
ARC
  5
5D
330
48
100
AcDbEntity
  8
PV-CC
100
AcDbCircle
 10
-251.5
 20
48.5
 30
0.0
 40
32.0
210
0.0
220
-1.0
230
0.0
100
AcDbArc
 50
179.9999999999998
 51
270.0
  0
LINE
  5
5E
330
48
100
AcDbEntity
  8
PV-CC
100
AcDbLine
 10
-283.4999999999999
 20
0.0
 30
551.5000000000001
 11
-283.4999999999999
 21
0.0
 31
600.0
  0
LINE
  5
5F
330
48
100
AcDbEntity
  8
PV-CC
100
AcDbLine
 10
-316.5
 20
0.0
 30
600.0
 11
-316.5
 21
0.0
 31
551.5000000000001
  0
LINE
  5
60
330
48
100
AcDbEntity
  8
PV-CC
100
AcDbLine
 10
-48.49999999999983
 20
0.0
 30
-16.5
 11
0.0
 21
0.0
 31
-16.5
  0
LINE
  5
61
330
48
100
AcDbEntity
  8
PV-CC
100
AcDbLine
 10
0.0
 20
0.0
 30
16.5
 11
-48.49999999999983
 21
0.0
 31
16.5
  0
ENDBLK
  5
63
330
48
100
AcDbEntity
  8
0
100
AcDbBlockEnd
  0
BLOCK
  5
68
330
66
100
AcDbEntity
  8
0
100
AcDbBlockBegin
  2
FRONT
 70
     0
 10
0.0
 20
0.0
 30
0.0
  3
FRONT
  1

  0
INSERT
  5
67
330
66
100
AcDbEntity
  8
PV-CC
100
AcDbBlockReference
  2
*U0
 10
0.0
 20
0.0
 30
0.0
 50
180.0
210
0.0
220
1.0
230
0.0
  0
ENDBLK
  5
69
330
66
100
AcDbEntity
  8
0
100
AcDbBlockEnd
  0
BLOCK
  5
96
330
6B
100
AcDbEntity
  8
0
100
AcDbBlockBegin
  2
*U2
 70
     1
 10
0.0
 20
0.0
 30
0.0
  3
*U2
  1
*ANON
  0
LINE
  5
6C
330
6B
100
AcDbEntity
  8
PV-CC
100
AcDbLine
 10
0.0
 20
-73.50000000000004
 30
114.9999999999999
 11
0.0
 21
-57.0
 31
131.4999999999998
  0
LINE
  5
6D
330
6B
100
AcDbEntity
  8
PV-CC
100
AcDbLine
 10
0.0
 20
-57.0
 30
98.50000000000001
 11
0.0
 21
-73.50000000000004
 31
115.0
  0
ARC
  5
6E
330
6B
100
AcDbEntity
  8
PV-CC
100
AcDbCircle
 10
73.5
 20
0.0
 30
0.0
 40
16.5
210
-1.0
220
0.0
230
0.0
100
AcDbArc
 50
179.9999999999978
 51
0.0
  0
LINE
  5
6F
330
6B
100
AcDbEntity
  8
PV-CC
100
AcDbLine
 10
0.0
 20
0.0
 30
600.0
 11
0.0
 21
0.0
 31
635.0
  0
LINE
  5
70
330
6B
100
AcDbEntity
  8
PV-CC
100
AcDbLine
 10
0.0
 20
0.0
 30
565.0
 11
0.0
 21
0.0
 31
600.0000000000002
  0
LINE
  5
71
330
6B
100
AcDbEntity
  8
PV-CC
100
AcDbLine
 10
0.0
 20
-12.0
 30
600.0
 11
0.0
 21
-12.0
 31
633.0
  0
LINE
  5
72
330
6B
100
AcDbEntity
  8
PV-CC
100
AcDbLine
 10
0.0
 20
-12.0
 30
567.0
 11
0.0
 21
-12.0
 31
600.0000000000002
  0
LINE
  5
73
330
6B
100
AcDbEntity
  8
PV-CC
100
AcDbLine
 10
0.0
 20
0.0
 30
115.0
 11
0.0
 21
0.0
 31
150.0
  0
LINE
  5
74
330
6B
100
AcDbEntity
  8
PV-CC
100
AcDbLine
 10
0.0
 20
0.0
 30
80.0
 11
0.0
 21
0.0
 31
115.0000000000003
  0
LINE
  5
75
330
6B
100
AcDbEntity
  8
PV-CC
100
AcDbLine
 10
0.0
 20
-12.0
 30
115.0
 11
0.0
 21
-12.0
 31
148.0
  0
LINE
  5
76
330
6B
100
AcDbEntity
  8
PV-CC
100
AcDbLine
 10
0.0
 20
-12.0
 30
82.0
 11
0.0
 21
-12.0
 31
115.0000000000003
  0
LINE
  5
77
330
6B
100
AcDbEntity
  8
PV-CC
100
AcDbLine
 10
0.0
 20
0.0
 30
0.0
 11
0.0
 21
0.0
 31
35.0
  0
LINE
  5
78
330
6B
100
AcDbEntity
  8
PV-CC
100
AcDbLine
 10
0.0
 20
0.0
 30
-35.0
 11
0.0
 21
0.0
 31
0.0000000000004888
  0
LINE
  5
79
330
6B
100
AcDbEntity
  8
PV-CC
100
AcDbLine
 10
0.0
 20
-12.0
 30
0.0
 11
0.0
 21
-12.0
 31
33.0
  0
LINE
  5
7A
330
6B
100
AcDbEntity
  8
PV-CC
100
AcDbLine
 10
0.0
 20
-12.0
 30
-33.0
 11
0.0
 21
-12.0
 31
0.0000000000004609
  0
LINE
  5
7B
330
6B
100
AcDbEntity
  8
PV-CC
100
AcDbLine
 10
0.0
 20
-10.0
 30
35.0
 11
0.0
 21
0.0
 31
35.0
  0
LINE
  5
7C
330
6B
100
AcDbEntity
  8
PV-CC
100
AcDbLine
 10
0.0
 20
-10.0
 30
-35.0
 11
0.0
 21
0.0
 31
-35.0
  0
LINE
  5
7D
330
6B
100
AcDbEntity
  8
PV-CC
100
AcDbLine
 10
0.0
 20
-10.0
 30
150.0
 11
0.0
 21
0.0
 31
150.0
  0
LINE
  5
7E
330
6B
100
AcDbEntity
  8
PV-CC
100
AcDbLine
 10
0.0
 20
-10.0
 30
80.0
 11
0.0
 21
0.0
 31
80.0
  0
LINE
  5
7F
330
6B
100
AcDbEntity
  8
PV-CC
100
AcDbLine
 10
0.0
 20
-10.0
 30
635.0
 11
0.0
 21
0.0
 31
635.0
  0
LINE
  5
80
330
6B
100
AcDbEntity
  8
PV-CC
100
AcDbLine
 10
0.0
 20
-10.0
 30
565.0
 11
0.0
 21
0.0
 31
565.0
  0
LINE
  5
81
330
6B
100
AcDbEntity
  8
PV-CC
100
AcDbLine
 10
0.0
 20
-12.0
 30
583.4999999999999
 11
0.0
 21
-25.0
 31
583.4999999999999
  0
LINE
  5
82
330
6B
100
AcDbEntity
  8
PV-CC
100
AcDbLine
 10
0.0
 20
-12.0
 30
616.5
 11
0.0
 21
-25.0
 31
616.5
  0
LINE
  5
83
330
6B
100
AcDbEntity
  8
PV-CC
100
AcDbLine
 10
0.0
 20
-90.0
 30
48.5
 11
0.0
 21
-90.0
 31
551.4999999999998
  0
LINE
  5
84
330
6B
100
AcDbEntity
  8
PV-CC
100
AcDbLine
 10
0.0
 20
-57.0
 30
131.4999999999998
 11
0.0
 21
-57.0
 31
551.4999999999998
  0
LINE
  5
85
330
6B
100
AcDbEntity
  8
PV-CC
100
AcDbLine
 10
0.0
 20
-57.0
 30
48.5
 11
0.0
 21
-57.0
 31
98.50000000000001
  0
LINE
  5
86
330
6B
100
AcDbEntity
  8
PV-CC
100
AcDbLine
 10
0.0
 20
-12.0
 30
98.50000000000001
 11
0.0
 21
-57.0
 31
98.50000000000001
  0
LINE
  5
87
330
6B
100
AcDbEntity
  8
PV-CC
100
AcDbLine
 10
0.0
 20
-12.0
 30
131.4999999999998
 11
0.0
 21
-57.0
 31
131.4999999999998
  0
LINE
  5
88
330
6B
100
AcDbEntity
  8
PV-CC
100
AcDbLine
 10
0.0
 20
-12.0
 30
-16.5
 11
0.0
 21
-25.0
 31
-16.5
  0
LINE
  5
89
330
6B
100
AcDbEntity
  8
PV-CC
100
AcDbLine
 10
0.0
 20
-12.0
 30
16.5
 11
0.0
 21
-25.0
 31
16.5
  0
ARC
  5
8A
330
6B
100
AcDbEntity
  8
PV-CC
100
AcDbCircle
 10
10.0
 20
-33.0
 30
0.0
 40
2.0
210
-1.0
220
0.0
230
0.0
100
AcDbArc
 50
270.0000000000002
 51
0.000000000001239
  0
ARC
  5
8B
330
6B
100
AcDbEntity
  8
PV-CC
100
AcDbCircle
 10
10.0
 20
33.0
 30
0.0
 40
2.0
210
-1.0
220
0.0
230
0.0
100
AcDbArc
 50
359.999999999998
 51
89.99999999999982
  0
ARC
  5
8C
330
6B
100
AcDbEntity
  8
PV-CC
100
AcDbCircle
 10
10.0
 20
82.0
 30
0.0
 40
2.0
210
-1.0
220
0.0
230
0.0
100
AcDbArc
 50
270.0000000000002
 51
0.000000000001239
  0
ARC
  5
8D
330
6B
100
AcDbEntity
  8
PV-CC
100
AcDbCircle
 10
10.0
 20
148.0
 30
0.0
 40
2.0
210
-1.0
220
0.0
230
0.0
100
AcDbArc
 50
359.9999999999996
 51
89.99999999999982
  0
ARC
  5
8E
330
6B
100
AcDbEntity
  8
PV-CC
100
AcDbCircle
 10
10.0
 20
567.0
 30
0.0
 40
2.0
210
-1.0
220
0.0
230
0.0
100
AcDbArc
 50
270.0000000000002
 51
359.9999999999996
  0
ARC
  5
8F
330
6B
100
AcDbEntity
  8
PV-CC
100
AcDbCircle
 10
10.0
 20
633.0
 30
0.0
 40
2.0
210
-1.0
220
0.0
230
0.0
100
AcDbArc
 50
359.9999999999996
 51
89.99999999999982
  0
LINE
  5
90
330
6B
100
AcDbEntity
  8
PV-CC
100
AcDbLine
 10
0.0
 20
-90.0
 30
0.0
 11
0.0
 21
-90.0
 31
48.50000000000017
  0
LINE
  5
91
330
6B
100
AcDbEntity
  8
PV-CC
100
AcDbLine
 10
0.0
 20
-57.0
 30
48.50000000000017
 11
0.0
 21
-57.0
 31
0.0
  0
ARC
  5
92
330
6B
100
AcDbEntity
  8
PV-CC
100
AcDbCircle
 10
25.0
 20
551.4999999999998
 30
0.0
 40
32.0
210
-1.0
220
0.0
230
0.0
100
AcDbArc
 50
0.0000000000002036
 51
90.00000000000156
  0
ARC
  5
93
330
6B
100
AcDbEntity
  8
PV-CC
100
AcDbCircle
 10
25.0
 20
551.4999999999998
 30
0.0
 40
65.0
210
-1.0
220
0.0
230
0.0
100
AcDbArc
 50
0.0000000000002036
 51
90.00000000000156
  0
LINE
  5
94
330
6B
100
AcDbEntity
  8
PV-CC
100
AcDbLine
 10
0.0
 20
-25.0
 30
-16.5
 11
0.0
 21
-73.5
 31
-16.5
  0
LINE
  5
95
330
6B
100
AcDbEntity
  8
PV-CC
100
AcDbLine
 10
0.0
 20
-57.0
 30
16.5
 11
0.0
 21
-25.0
 31
16.5
  0
ENDBLK
  5
97
330
6B
100
AcDbEntity
  8
0
100
AcDbBlockEnd
  0
BLOCK
  5
9A
330
98
100
AcDbEntity
  8
0
100
AcDbBlockBegin
  2
LEFT
 70
     0
 10
0.0
 20
0.0
 30
0.0
  3
LEFT
  1

  0
INSERT
  5
99
330
98
100
AcDbEntity
  8
PV-CC
100
AcDbBlockReference
  2
*U2
 10
0.0
 20
0.0
 30
0.0
 50
270.0
210
0.0
220
1.0
230
0.0
  0
ENDBLK
  5
9B
330
98
100
AcDbEntity
  8
0
100
AcDbBlockEnd
  0
BLOCK
  5
C3
330
9D
100
AcDbEntity
  8
0
100
AcDbBlockBegin
  2
*U4
 70
     1
 10
0.0
 20
0.0
 30
0.0
  3
*U4
  1
*ANON
  0
ARC
  5
9E
330
9D
100
AcDbEntity
  8
PV-CC
100
AcDbCircle
 10
-73.5
 20
0.0
 30
0.0
 40
16.5
210
1.0
220
0.0
230
0.0
100
AcDbArc
 50
180.0
 51
270.0000000000002
  0
ARC
  5
9F
330
9D
100
AcDbEntity
  8
PV-CC
100
AcDbCircle
 10
-73.5
 20
0.0
 30
0.0
 40
16.5
210
1.0
220
0.0
230
0.0
100
AcDbArc
 50
90.0000000000006
 51
180.0000000000008
  0
LINE
  5
A0
330
9D
100
AcDbEntity
  8
PV-CC
100
AcDbLine
 10
0.0
 20
-57.0
 30
131.4999999999998
 11
0.0
 21
-73.50000000000004
 31
114.9999999999999
  0
LINE
  5
A1
330
9D
100
AcDbEntity
  8
PV-CC
100
AcDbLine
 10
0.0
 20
-73.50000000000004
 30
115.0
 11
0.0
 21
-57.0
 31
98.50000000000001
  0
LINE
  5
A2
330
9D
100
AcDbEntity
  8
PV-CC
100
AcDbLine
 10
0.0
 20
0.0
 30
635.0
 11
0.0
 21
0.0
 31
565.0
  0
LINE
  5
A3
330
9D
100
AcDbEntity
  8
PV-CC
100
AcDbLine
 10
0.0
 20
-12.0
 30
633.0
 11
0.0
 21
-12.0
 31
567.0
  0
LINE
  5
A4
330
9D
100
AcDbEntity
  8
PV-CC
100
AcDbLine
 10
0.0
 20
0.0
 30
150.0
 11
0.0
 21
0.0
 31
80.0
  0
LINE
  5
A5
330
9D
100
AcDbEntity
  8
PV-CC
100
AcDbLine
 10
0.0
 20
-12.0
 30
148.0
 11
0.0
 21
-12.0
 31
82.0
  0
LINE
  5
A6
330
9D
100
AcDbEntity
  8
PV-CC
100
AcDbLine
 10
0.0
 20
0.0
 30
35.0
 11
0.0
 21
0.0
 31
-35.0
  0
LINE
  5
A7
330
9D
100
AcDbEntity
  8
PV-CC
100
AcDbLine
 10
0.0
 20
-12.0
 30
33.0
 11
0.0
 21
-12.0
 31
-33.0
  0
LINE
  5
A8
330
9D
100
AcDbEntity
  8
PV-CC
100
AcDbLine
 10
0.0
 20
-10.0
 30
-35.0
 11
0.0
 21
0.0
 31
-35.0
  0
LINE
  5
A9
330
9D
100
AcDbEntity
  8
PV-CC
100
AcDbLine
 10
0.0
 20
-10.0
 30
35.0
 11
0.0
 21
0.0
 31
35.0
  0
LINE
  5
AA
330
9D
100
AcDbEntity
  8
PV-CC
100
AcDbLine
 10
0.0
 20
-10.0
 30
80.0
 11
0.0
 21
0.0
 31
80.0
  0
LINE
  5
AB
330
9D
100
AcDbEntity
  8
PV-CC
100
AcDbLine
 10
0.0
 20
-10.0
 30
150.0
 11
0.0
 21
0.0
 31
150.0
  0
LINE
  5
AC
330
9D
100
AcDbEntity
  8
PV-CC
100
AcDbLine
 10
0.0
 20
-10.0
 30
565.0
 11
0.0
 21
0.0
 31
565.0
  0
LINE
  5
AD
330
9D
100
AcDbEntity
  8
PV-CC
100
AcDbLine
 10
0.0
 20
-10.0
 30
635.0
 11
0.0
 21
0.0
 31
635.0
  0
LINE
  5
AE
330
9D
100
AcDbEntity
  8
PV-CC
100
AcDbLine
 10
0.0
 20
-12.0
 30
616.5
 11
0.0
 21
-25.0
 31
616.5
  0
LINE
  5
AF
330
9D
100
AcDbEntity
  8
PV-CC
100
AcDbLine
 10
0.0
 20
-12.0
 30
583.4999999999999
 11
0.0
 21
-25.0
 31
583.4999999999999
  0
LINE
  5
B0
330
9D
100
AcDbEntity
  8
PV-CC
100
AcDbLine
 10
0.0
 20
-57.0
 30
131.4999999999998
 11
0.0
 21
-57.0
 31
551.4999999999998
  0
LINE
  5
B1
330
9D
100
AcDbEntity
  8
PV-CC
100
AcDbLine
 10
0.0
 20
-57.0
 30
48.5
 11
0.0
 21
-57.0
 31
98.50000000000001
  0
LINE
  5
B2
330
9D
100
AcDbEntity
  8
PV-CC
100
AcDbLine
 10
0.0
 20
-90.0
 30
48.5
 11
0.0
 21
-90.0
 31
551.4999999999998
  0
LINE
  5
B3
330
9D
100
AcDbEntity
  8
PV-CC
100
AcDbLine
 10
0.0
 20
-12.0
 30
131.4999999999998
 11
0.0
 21
-57.0
 31
131.4999999999998
  0
LINE
  5
B4
330
9D
100
AcDbEntity
  8
PV-CC
100
AcDbLine
 10
0.0
 20
-12.0
 30
98.50000000000001
 11
0.0
 21
-57.0
 31
98.50000000000001
  0
LINE
  5
B5
330
9D
100
AcDbEntity
  8
PV-CC
100
AcDbLine
 10
0.0
 20
-12.0
 30
16.5
 11
0.0
 21
-25.0
 31
16.5
  0
LINE
  5
B6
330
9D
100
AcDbEntity
  8
PV-CC
100
AcDbLine
 10
0.0
 20
-12.0
 30
-16.5
 11
0.0
 21
-25.0
 31
-16.5
  0
ARC
  5
B7
330
9D
100
AcDbEntity
  8
PV-CC
100
AcDbCircle
 10
-10.0
 20
33.0
 30
0.0
 40
2.0
210
1.0
220
0.0
230
0.0
100
AcDbArc
 50
90.00000000000019
 51
180.0000000000012
  0
ARC
  5
B8
330
9D
100
AcDbEntity
  8
PV-CC
100
AcDbCircle
 10
-10.0
 20
-33.0
 30
0.0
 40
2.0
210
1.0
220
0.0
230
0.0
100
AcDbArc
 50
179.9999999999978
 51
269.9999999999997
  0
ARC
  5
B9
330
9D
100
AcDbEntity
  8
PV-CC
100
AcDbCircle
 10
-10.0
 20
148.0
 30
0.0
 40
2.0
210
1.0
220
0.0
230
0.0
100
AcDbArc
 50
90.00000000000019
 51
179.9999999999996
  0
ARC
  5
BA
330
9D
100
AcDbEntity
  8
PV-CC
100
AcDbCircle
 10
-10.0
 20
82.0
 30
0.0
 40
2.0
210
1.0
220
0.0
230
0.0
100
AcDbArc
 50
179.9999999999978
 51
269.9999999999997
  0
ARC
  5
BB
330
9D
100
AcDbEntity
  8
PV-CC
100
AcDbCircle
 10
-10.0
 20
633.0
 30
0.0
 40
2.0
210
1.0
220
0.0
230
0.0
100
AcDbArc
 50
90.00000000000019
 51
179.9999999999996
  0
ARC
  5
BC
330
9D
100
AcDbEntity
  8
PV-CC
100
AcDbCircle
 10
-10.0
 20
567.0
 30
0.0
 40
2.0
210
1.0
220
0.0
230
0.0
100
AcDbArc
 50
179.9999999999996
 51
269.9999999999997
  0
LINE
  5
BD
330
9D
100
AcDbEntity
  8
PV-CC
100
AcDbLine
 10
0.0
 20
-90.0
 30
48.49999999999983
 11
0.0
 21
-90.0
 31
0.0
  0
LINE
  5
BE
330
9D
100
AcDbEntity
  8
PV-CC
100
AcDbLine
 10
0.0
 20
-57.0
 30
16.49999999999999
 11
0.0
 21
-57.0
 31
48.49999999999983
  0
ARC
  5
BF
330
9D
100
AcDbEntity
  8
PV-CC
100
AcDbCircle
 10
-25.0
 20
551.4999999999998
 30
0.0
 40
65.0
210
1.0
220
0.0
230
0.0
100
AcDbArc
 50
89.99999999999761
 51
179.9999999999998
  0
ARC
  5
C0
330
9D
100
AcDbEntity
  8
PV-CC
100
AcDbCircle
 10
-25.0
 20
551.4999999999998
 30
0.0
 40
32.0
210
1.0
220
0.0
230
0.0
100
AcDbArc
 50
89.99999999999761
 51
179.9999999999998
  0
LINE
  5
C1
330
9D
100
AcDbEntity
  8
PV-CC
100
AcDbLine
 10
0.0
 20
-73.5
 30
-16.5
 11
0.0
 21
-25.0
 31
-16.5
  0
LINE
  5
C2
330
9D
100
AcDbEntity
  8
PV-CC
100
AcDbLine
 10
0.0
 20
-25.0
 30
16.5
 11
0.0
 21
-73.5
 31
16.5
  0
ENDBLK
  5
C4
330
9D
100
AcDbEntity
  8
0
100
AcDbBlockEnd
  0
BLOCK
  5
C7
330
C5
100
AcDbEntity
  8
0
100
AcDbBlockBegin
  2
RIGHT
 70
     0
 10
0.0
 20
0.0
 30
0.0
  3
RIGHT
  1

  0
INSERT
  5
C6
330
C5
100
AcDbEntity
  8
PV-CC
100
AcDbBlockReference
  2
*U4
 10
0.0
 20
0.0
 30
0.0
 50
90.0
210
0.0
220
1.0
230
0.0
  0
ENDBLK
  5
C8
330
C5
100
AcDbEntity
  8
0
100
AcDbBlockEnd
  0
BLOCK
  5
E4
330
CA
100
AcDbEntity
  8
0
100
AcDbBlockBegin
  2
*U6
 70
     1
 10
0.0
 20
0.0
 30
0.0
  3
*U6
  1
*ANON
  0
ARC
  5
CB
330
CA
100
AcDbEntity
  8
PV-CC
100
AcDbCircle
 10
-300.0
 20
-73.5
 30
0.0
 40
16.5
100
AcDbArc
 50
179.999999999997
 51
359.9999999999992
  0
LINE
  5
CC
330
CA
100
AcDbEntity
  8
PV-CC
100
AcDbLine
 10
-335.0
 20
0.0
 30
0.0
 11
-265.0
 21
0.0
 31
0.0
  0
LINE
  5
CD
330
CA
100
AcDbEntity
  8
PV-CC
100
AcDbLine
 10
-333.0
 20
-12.0
 30
0.0
 11
-267.0
 21
-12.0
 31
0.0
  0
LINE
  5
CE
330
CA
100
AcDbEntity
  8
PV-CC
100
AcDbLine
 10
-35.0
 20
0.0
 30
0.0
 11
35.0
 21
0.0
 31
0.0
  0
LINE
  5
CF
330
CA
100
AcDbEntity
  8
PV-CC
100
AcDbLine
 10
-33.0
 20
-12.0
 30
0.0
 11
33.0
 21
-12.0
 31
0.0
  0
LINE
  5
D0
330
CA
100
AcDbEntity
  8
PV-CC
100
AcDbLine
 10
35.0
 20
-10.0
 30
0.0
 11
35.0
 21
0.0
 31
0.0
  0
LINE
  5
D1
330
CA
100
AcDbEntity
  8
PV-CC
100
AcDbLine
 10
-35.0
 20
-10.0
 30
0.0
 11
-35.0
 21
0.0
 31
0.0
  0
LINE
  5
D2
330
CA
100
AcDbEntity
  8
PV-CC
100
AcDbLine
 10
-265.0
 20
-10.0
 30
0.0
 11
-265.0
 21
0.0
 31
0.0
  0
LINE
  5
D3
330
CA
100
AcDbEntity
  8
PV-CC
100
AcDbLine
 10
-335.0
 20
-10.0
 30
0.0
 11
-335.0
 21
0.0
 31
0.0
  0
LINE
  5
D4
330
CA
100
AcDbEntity
  8
PV-CC
100
AcDbLine
 10
-316.5
 20
-12.0
 30
0.0
 11
-316.5
 21
-25.0
 31
0.0
  0
LINE
  5
D5
330
CA
100
AcDbEntity
  8
PV-CC
100
AcDbLine
 10
-283.4999999999999
 20
-12.0
 30
0.0
 11
-283.4999999999999
 21
-25.0
 31
0.0
  0
LINE
  5
D6
330
CA
100
AcDbEntity
  8
PV-CC
100
AcDbLine
 10
-48.5
 20
-57.0
 30
0.0
 11
-251.5
 21
-57.0
 31
0.0
  0
LINE
  5
D7
330
CA
100
AcDbEntity
  8
PV-CC
100
AcDbLine
 10
-48.5
 20
-90.0
 30
0.0
 11
-251.5
 21
-90.0
 31
0.0
  0
LINE
  5
D8
330
CA
100
AcDbEntity
  8
PV-CC
100
AcDbLine
 10
-16.5
 20
-12.0
 30
0.0
 11
-16.5
 21
-25.0
 31
0.0
  0
LINE
  5
D9
330
CA
100
AcDbEntity
  8
PV-CC
100
AcDbLine
 10
16.5
 20
-12.0
 30
0.0
 11
16.5
 21
-25.0
 31
0.0
  0
ARC
  5
DA
330
CA
100
AcDbEntity
  8
PV-CC
100
AcDbCircle
 10
-33.0
 20
-10.0
 30
0.0
 40
2.0
100
AcDbArc
 50
180.0000000000002
 51
270.0000000000012
  0
ARC
  5
DB
330
CA
100
AcDbEntity
  8
PV-CC
100
AcDbCircle
 10
33.0
 20
-10.0
 30
0.0
 40
2.0
100
AcDbArc
 50
269.9999999999978
 51
359.9999999999997
  0
ARC
  5
DC
330
CA
100
AcDbEntity
  8
PV-CC
100
AcDbCircle
 10
-333.0
 20
-10.0
 30
0.0
 40
2.0
100
AcDbArc
 50
180.0000000000002
 51
269.9999999999996
  0
ARC
  5
DD
330
CA
100
AcDbEntity
  8
PV-CC
100
AcDbCircle
 10
-267.0
 20
-10.0
 30
0.0
 40
2.0
100
AcDbArc
 50
269.9999999999996
 51
359.9999999999997
  0
LINE
  5
DE
330
CA
100
AcDbEntity
  8
PV-CC
100
AcDbLine
 10
-300.0
 20
-90.0
 30
0.0
 11
-251.4999999999997
 21
-90.0
 31
0.0
  0
LINE
  5
DF
330
CA
100
AcDbEntity
  8
PV-CC
100
AcDbLine
 10
-251.4999999999997
 20
-57.0
 30
0.0
 11
-283.4999999999999
 21
-57.0
 31
0.0
  0
LINE
  5
E0
330
CA
100
AcDbEntity
  8
PV-CC
100
AcDbLine
 10
-283.4999999999999
 20
-73.5
 30
0.0
 11
-283.4999999999999
 21
-25.0
 31
0.0
  0
LINE
  5
E1
330
CA
100
AcDbEntity
  8
PV-CC
100
AcDbLine
 10
-316.5
 20
-24.99999999999983
 30
0.0
 11
-316.5
 21
-73.5
 31
0.0
  0
ARC
  5
E2
330
CA
100
AcDbEntity
  8
PV-CC
100
AcDbCircle
 10
-48.5
 20
-25.0
 30
0.0
 40
32.0
100
AcDbArc
 50
270.0000000000002
 51
0.0000000000015587
  0
ARC
  5
E3
330
CA
100
AcDbEntity
  8
PV-CC
100
AcDbCircle
 10
-48.5
 20
-25.0
 30
0.0
 40
65.0
100
AcDbArc
 50
270.0000000000002
 51
0.0000000000015587
  0
ENDBLK
  5
E5
330
CA
100
AcDbEntity
  8
0
100
AcDbBlockEnd
  0
BLOCK
  5
E8
330
E6
100
AcDbEntity
  8
0
100
AcDbBlockBegin
  2
TOP
 70
     0
 10
0.0
 20
0.0
 30
0.0
  3
TOP
  1

  0
INSERT
  5
E7
330
E6
100
AcDbEntity
  8
PV-CC
100
AcDbBlockReference
  2
*U6
 10
0.0
 20
0.0
 30
0.0
  0
ENDBLK
  5
E9
330
E6
100
AcDbEntity
  8
0
100
AcDbBlockEnd
  0
BLOCK
  5
212
330
207
100
AcDbEntity
  8
0
100
AcDbBlockBegin
  2
*D8
 70
     1
 10
0.0
 20
0.0
 30
0.0
  3
*D8
  1

  0
LINE
  5
208
330
207
100
AcDbEntity
  8
0
 62
     0
370
    -2
100
AcDbLine
 10
867.8038575643382
 20
1001.119453246286
 30
0.0
 11
1156.486932490039
 21
1001.119453246286
 31
0.0
  0
LINE
  5
209
330
207
100
AcDbEntity
  8
0
 62
     0
370
    -2
100
AcDbLine
 10
867.8038575643382
 20
233.6194532462858
 30
0.0
 11
1156.486932490039
 21
233.6194532462857
 31
0.0
  0
LINE
  5
20A
330
207
100
AcDbEntity
  8
0
 62
     0
370
    -2
100
AcDbLine
 10
1156.306932490039
 20
1000.939453246286
 30
0.0
 11
1156.306932490039
 21
617.5494532462858
 31
0.0
  0
LINE
  5
20B
330
207
100
AcDbEntity
  8
0
 62
     0
370
    -2
100
AcDbLine
 10
1156.306932490039
 20
233.7994532462857
 30
0.0
 11
1156.306932490039
 21
617.1894532462857
 31
0.0
  0
SOLID
  5
20C
330
207
100
AcDbEntity
  8
0
 62
     0
100
AcDbTrace
 10
1156.276932490039
 20
1000.939453246286
 30
0.0
 11
1156.336932490039
 21
1000.939453246286
 31
0.0
 12
1156.306932490039
 22
1001.119453246286
 32
0.0
 13
1156.306932490039
 23
1001.119453246286
 33
0.0
  0
SOLID
  5
20D
330
207
100
AcDbEntity
  8
0
 62
     0
100
AcDbTrace
 10
1156.276932490039
 20
233.7994532462857
 30
0.0
 11
1156.336932490039
 21
233.7994532462857
 31
0.0
 12
1156.306932490039
 22
233.6194532462857
 32
0.0
 13
1156.306932490039
 23
233.6194532462857
 33
0.0
  0
MTEXT
  5
20E
330
207
100
AcDbEntity
  8
0
 62
     0
100
AcDbMText
 10
1156.306932490039
 20
617.3694532462858
 30
0.0
 40
0.18
 41
0.0
 46
0.0
 71
     5
 72
     1
  1
\A1;767.5000
 73
     1
 44
1.0
  0
POINT
  5
20F
330
207
100
AcDbEntity
  8
Defpoints
 62
     0
100
AcDbPoint
 10
867.7413575643383
 20
1001.119453246286
 30
0.0
  0
POINT
  5
210
330
207
100
AcDbEntity
  8
Defpoints
 62
     0
100
AcDbPoint
 10
867.7413575643383
 20
233.6194532462858
 30
0.0
  0
POINT
  5
211
330
207
100
AcDbEntity
  8
Defpoints
 62
     0
100
AcDbPoint
 10
1156.306932490039
 20
233.6194532462857
 30
0.0
  0
ENDBLK
  5
213
330
207
100
AcDbEntity
  8
0
100
AcDbBlockEnd
  0
BLOCK
  5
220
330
215
100
AcDbEntity
  8
0
100
AcDbBlockBegin
  2
*D9
 70
     1
 10
0.0
 20
0.0
 30
0.0
  3
*D9
  1

  0
LINE
  5
216
330
215
100
AcDbEntity
  8
0
 62
     0
370
    -2
100
AcDbLine
 10
278.7413575503383
 20
142.0569532322857
 30
0.0
 11
278.7413575503383
 21
-30.41036956384568
 31
0.0
  0
LINE
  5
217
330
215
100
AcDbEntity
  8
0
 62
     0
370
    -2
100
AcDbLine
 10
758.7413575503383
 20
142.0569532322857
 30
0.0
 11
758.7413575503383
 21
-30.41036956384568
 31
0.0
  0
LINE
  5
218
330
215
100
AcDbEntity
  8
0
 62
     0
370
    -2
100
AcDbLine
 10
278.9213575503383
 20
-30.23036956384567
 30
0.0
 11
518.0963575503382
 21
-30.23036956384567
 31
0.0
  0
LINE
  5
219
330
215
100
AcDbEntity
  8
0
 62
     0
370
    -2
100
AcDbLine
 10
758.5613575503382
 20
-30.23036956384567
 30
0.0
 11
519.3863575503383
 21
-30.23036956384567
 31
0.0
  0
SOLID
  5
21A
330
215
100
AcDbEntity
  8
0
 62
     0
100
AcDbTrace
 10
278.9213575503383
 20
-30.20036956384567
 30
0.0
 11
278.9213575503383
 21
-30.26036956384567
 31
0.0
 12
278.7413575503383
 22
-30.23036956384567
 32
0.0
 13
278.7413575503383
 23
-30.23036956384567
 33
0.0
  0
SOLID
  5
21B
330
215
100
AcDbEntity
  8
0
 62
     0
100
AcDbTrace
 10
758.5613575503382
 20
-30.20036956384567
 30
0.0
 11
758.5613575503382
 21
-30.26036956384567
 31
0.0
 12
758.7413575503383
 22
-30.23036956384567
 32
0.0
 13
758.7413575503383
 23
-30.23036956384567
 33
0.0
  0
MTEXT
  5
21C
330
215
100
AcDbEntity
  8
0
 62
     0
100
AcDbMText
 10
518.7413575503383
 20
-30.23036956384567
 30
0.0
 40
0.18
 41
0.0
 46
0.0
 71
     5
 72
     1
  1
\A1;480.0000
 73
     1
 44
1.0
  0
POINT
  5
21D
330
215
100
AcDbEntity
  8
Defpoints
 62
     0
100
AcDbPoint
 10
278.7413575503383
 20
142.1194532322856
 30
0.0
  0
POINT
  5
21E
330
215
100
AcDbEntity
  8
Defpoints
 62
     0
100
AcDbPoint
 10
758.7413575503383
 20
142.1194532322856
 30
0.0
  0
POINT
  5
21F
330
215
100
AcDbEntity
  8
Defpoints
 62
     0
100
AcDbPoint
 10
758.7413575503383
 20
-30.23036956384567
 30
0.0
  0
ENDBLK
  5
221
330
215
100
AcDbEntity
  8
0
100
AcDbBlockEnd
  0
BLOCK
  5
29A
330
299
100
AcDbEntity
  8
0
100
AcDbBlockBegin
  2
*D12
 70
     1
 10
0.0
 20
0.0
 30
0.0
  3
*D12
  1

  0
LINE
  5
29C
330
299
100
AcDbEntity
  8
0
 62
     0
440
 16777216
370
    -2
100
AcDbLine
 10
889.7413575643382
 20
1018.681953246285
 30
0.0
 11
889.7413575643382
 21
1208.737633648137
 31
0.0
  0
LINE
  5
29D
330
299
100
AcDbEntity
  8
0
 62
     0
440
 16777216
370
    -2
100
AcDbLine
 10
977.7413575643384
 20
915.0327572529908
 30
0.0
 11
977.7413575643384
 21
1208.737633648137
 31
0.0
  0
LINE
  5
29E
330
299
100
AcDbEntity
  8
0
 62
     0
440
 16777216
370
    -2
100
AcDbLine
 10
889.9213575643383
 20
1208.557633648138
 30
0.0
 11
933.1713575643384
 21
1208.557633648138
 31
0.0
  0
LINE
  5
29F
330
299
100
AcDbEntity
  8
0
 62
     0
440
 16777216
370
    -2
100
AcDbLine
 10
977.5613575643385
 20
1208.557633648138
 30
0.0
 11
934.3113575643384
 21
1208.557633648138
 31
0.0
  0
SOLID
  5
2A0
330
299
100
AcDbEntity
  8
0
 62
     0
440
 16777216
100
AcDbTrace
 10
889.9213575643383
 20
1208.587633648138
 30
0.0
 11
889.9213575643383
 21
1208.527633648137
 31
0.0
 12
889.7413575643382
 22
1208.557633648138
 32
0.0
 13
889.7413575643382
 23
1208.557633648138
 33
0.0
  0
SOLID
  5
2A1
330
299
100
AcDbEntity
  8
0
 62
     0
440
 16777216
100
AcDbTrace
 10
977.5613575643385
 20
1208.587633648138
 30
0.0
 11
977.5613575643385
 21
1208.527633648137
 31
0.0
 12
977.7413575643384
 22
1208.557633648138
 32
0.0
 13
977.7413575643384
 23
1208.557633648138
 33
0.0
  0
MTEXT
  5
2A2
330
299
100
AcDbEntity
  8
0
 62
     0
440
 16777216
100
AcDbMText
 10
933.7413575643383
 20
1208.557633648138
 30
0.0
 40
0.18
 41
0.0
 46
0.0
 71
     5
 72
     1
  1
\A1;88.0000
 73
     1
 44
1.0
  0
POINT
  5
2A3
330
299
100
AcDbEntity
  8
Defpoints
 62
     0
440
 16777216
100
AcDbPoint
 10
889.7413575643382
 20
1018.619453246285
 30
0.0
  0
POINT
  5
2A4
330
299
100
AcDbEntity
  8
Defpoints
 62
     0
440
 16777216
100
AcDbPoint
 10
977.7413575643384
 20
914.9702572529909
 30
0.0000000000000165
  0
POINT
  5
2A5
330
299
100
AcDbEntity
  8
Defpoints
 62
     0
440
 16777216
100
AcDbPoint
 10
977.7413575643384
 20
1208.557633648138
 30
0.0
  0
ENDBLK
  5
29B
330
299
100
AcDbEntity
  8
0
100
AcDbBlockEnd
  0
ENDSEC
  0
SECTION
  2
ENTITIES
  0
ARC
  5
FB
330
1F
100
AcDbEntity
  8
HEWI
100
AcDbCircle
 10
96.24135753633828
 20
251.1194532462855
 30
-0.0000000000000045
 40
16.5
100
AcDbArc
 50
180.0
 51
270.0
  0
ARC
  5
FC
330
1F
100
AcDbEntity
  8
HEWI
100
AcDbCircle
 10
96.24135753633828
 20
251.1194532462855
 30
-0.0000000000000045
 40
16.5
100
AcDbArc
 50
90.0
 51
180.0
  0
LINE
  5
FD
330
1F
100
AcDbEntity
  8
HEWI
100
AcDbLine
 10
112.7413575363383
 20
382.6194532462854
 30
-0.0000000000000035
 11
96.24135753633815
 21
366.1194532462854
 31
-0.0000000000000045
210
0.0
220
1.0
230
0.0
  0
LINE
  5
FE
330
1F
100
AcDbEntity
  8
HEWI
100
AcDbLine
 10
96.24135753633815
 20
366.1194532462855
 30
-0.0000000000000045
 11
112.7413575363383
 21
349.6194532462855
 31
-0.0000000000000035
210
0.0
220
1.0
230
0.0
  0
LINE
  5
FF
330
1F
100
AcDbEntity
  8
HEWI
100
AcDbLine
 10
167.7413575363382
 20
1036.119453246285
 30
0.0
 11
167.7413575363382
 21
966.1194532462856
 31
0.0
210
0.0
220
1.0
230
0.0
  0
LINE
  5
100
330
1F
100
AcDbEntity
  8
HEWI
100
AcDbLine
 10
155.7413575363383
 20
1034.119453246285
 30
-0.0000000000000007
 11
155.7413575363383
 21
968.1194532462855
 31
-0.0000000000000007
210
0.0
220
1.0
230
0.0
  0
LINE
  5
101
330
1F
100
AcDbEntity
  8
HEWI
100
AcDbLine
 10
167.7413575363382
 20
401.1194532462853
 30
0.0
 11
167.7413575363382
 21
331.1194532462855
 31
0.0
210
0.0
220
1.0
230
0.0
  0
LINE
  5
102
330
1F
100
AcDbEntity
  8
HEWI
100
AcDbLine
 10
155.7413575363383
 20
399.1194532462855
 30
-0.0000000000000007
 11
155.7413575363383
 21
333.1194532462855
 31
-0.0000000000000007
210
0.0
220
1.0
230
0.0
  0
LINE
  5
103
330
1F
100
AcDbEntity
  8
HEWI
100
AcDbLine
 10
167.7413575363382
 20
286.1194532462855
 30
0.0
 11
167.7413575363382
 21
216.1194532462855
 31
0.0
210
0.0
220
1.0
230
0.0
  0
LINE
  5
104
330
1F
100
AcDbEntity
  8
HEWI
100
AcDbLine
 10
155.7413575363383
 20
284.1194532462855
 30
-0.0000000000000007
 11
155.7413575363383
 21
218.1194532462855
 31
-0.0000000000000007
210
0.0
220
1.0
230
0.0
  0
LINE
  5
105
330
1F
100
AcDbEntity
  8
HEWI
100
AcDbLine
 10
157.7413575363383
 20
216.1194532462855
 30
-0.0000000000000006
 11
167.7413575363382
 21
216.1194532462855
 31
0.0
210
0.0
220
1.0
230
0.0
  0
LINE
  5
106
330
1F
100
AcDbEntity
  8
HEWI
100
AcDbLine
 10
157.7413575363383
 20
286.1194532462855
 30
-0.0000000000000006
 11
167.7413575363382
 21
286.1194532462855
 31
0.0
210
0.0
220
1.0
230
0.0
  0
LINE
  5
107
330
1F
100
AcDbEntity
  8
HEWI
100
AcDbLine
 10
157.7413575363383
 20
331.1194532462855
 30
-0.0000000000000006
 11
167.7413575363382
 21
331.1194532462855
 31
0.0
210
0.0
220
1.0
230
0.0
  0
LINE
  5
108
330
1F
100
AcDbEntity
  8
HEWI
100
AcDbLine
 10
157.7413575363383
 20
401.1194532462853
 30
-0.0000000000000006
 11
167.7413575363382
 21
401.1194532462853
 31
0.0
210
0.0
220
1.0
230
0.0
  0
LINE
  5
109
330
1F
100
AcDbEntity
  8
HEWI
100
AcDbLine
 10
157.7413575363383
 20
966.1194532462856
 30
-0.0000000000000006
 11
167.7413575363382
 21
966.1194532462856
 31
0.0
210
0.0
220
1.0
230
0.0
  0
LINE
  5
10A
330
1F
100
AcDbEntity
  8
HEWI
100
AcDbLine
 10
157.7413575363383
 20
1036.119453246285
 30
-0.0000000000000006
 11
167.7413575363382
 21
1036.119453246285
 31
0.0
210
0.0
220
1.0
230
0.0
  0
LINE
  5
10B
330
1F
100
AcDbEntity
  8
HEWI
100
AcDbLine
 10
155.7413575363383
 20
1017.619453246285
 30
-0.0000000000000008
 11
144.7413575363382
 21
1017.619453246285
 31
-0.0000000000000015
210
0.0
220
1.0
230
0.0
  0
LINE
  5
10C
330
1F
100
AcDbEntity
  8
HEWI
100
AcDbLine
 10
155.7413575363383
 20
984.6194532462854
 30
-0.0000000000000008
 11
144.7413575363382
 21
984.6194532462854
 31
-0.0000000000000015
210
0.0
220
1.0
230
0.0
  0
LINE
  5
10D
330
1F
100
AcDbEntity
  8
HEWI
100
AcDbLine
 10
112.7413575363383
 20
382.6194532462854
 30
-0.0000000000000035
 11
112.7413575363383
 21
952.6194532462852
 31
-0.0000000000000035
210
0.0
220
1.0
230
0.0
  0
LINE
  5
10E
330
1F
100
AcDbEntity
  8
HEWI
100
AcDbLine
 10
112.7413575363383
 20
299.6194532462855
 30
-0.0000000000000035
 11
112.7413575363383
 21
349.6194532462855
 31
-0.0000000000000035
210
0.0
220
1.0
230
0.0
  0
LINE
  5
10F
330
1F
100
AcDbEntity
  8
HEWI
100
AcDbLine
 10
79.74135753633828
 20
299.6194532462855
 30
-0.0000000000000055
 11
79.74135753633823
 21
952.6194532462852
 31
-0.0000000000000055
210
0.0
220
1.0
230
0.0
  0
LINE
  5
110
330
1F
100
AcDbEntity
  8
HEWI
100
AcDbLine
 10
155.7413575363383
 20
382.6194532462854
 30
-0.0000000000000008
 11
112.7413575363383
 21
382.6194532462854
 31
-0.0000000000000035
210
0.0
220
1.0
230
0.0
  0
LINE
  5
111
330
1F
100
AcDbEntity
  8
HEWI
100
AcDbLine
 10
155.7413575363383
 20
349.6194532462856
 30
-0.0000000000000008
 11
112.7413575363383
 21
349.6194532462855
 31
-0.0000000000000035
210
0.0
220
1.0
230
0.0
  0
LINE
  5
112
330
1F
100
AcDbEntity
  8
HEWI
100
AcDbLine
 10
155.7413575363383
 20
267.6194532462856
 30
-0.0000000000000008
 11
144.7413575363382
 21
267.6194532462856
 31
-0.0000000000000015
210
0.0
220
1.0
230
0.0
  0
LINE
  5
113
330
1F
100
AcDbEntity
  8
HEWI
100
AcDbLine
 10
155.7413575363383
 20
234.6194532462855
 30
-0.0000000000000008
 11
144.7413575363382
 21
234.6194532462855
 31
-0.0000000000000015
210
0.0
220
1.0
230
0.0
  0
ARC
  5
114
330
1F
100
AcDbEntity
  8
HEWI
100
AcDbCircle
 10
157.7413575363383
 20
284.1194532462855
 30
-0.0000000000000006
 40
2.0
100
AcDbArc
 50
90.0
 51
180.0
  0
ARC
  5
115
330
1F
100
AcDbEntity
  8
HEWI
100
AcDbCircle
 10
157.7413575363383
 20
218.1194532462855
 30
-0.0000000000000006
 40
2.0
100
AcDbArc
 50
179.9999999999966
 51
270.0
  0
ARC
  5
116
330
1F
100
AcDbEntity
  8
HEWI
100
AcDbCircle
 10
157.7413575363383
 20
399.1194532462855
 30
-0.0000000000000006
 40
2.0
100
AcDbArc
 50
90.0
 51
180.0
  0
ARC
  5
117
330
1F
100
AcDbEntity
  8
HEWI
100
AcDbCircle
 10
157.7413575363383
 20
333.1194532462855
 30
-0.0000000000000006
 40
2.0
100
AcDbArc
 50
179.9999999999966
 51
270.0
  0
ARC
  5
118
330
1F
100
AcDbEntity
  8
HEWI
100
AcDbCircle
 10
157.7413575363383
 20
1034.119453246285
 30
-0.0000000000000006
 40
2.0
100
AcDbArc
 50
90.0
 51
180.0
  0
ARC
  5
119
330
1F
100
AcDbEntity
  8
HEWI
100
AcDbCircle
 10
157.7413575363383
 20
968.1194532462855
 30
-0.0000000000000006
 40
2.0
100
AcDbArc
 50
180.0
 51
270.0
  0
LINE
  5
11A
330
1F
100
AcDbEntity
  8
HEWI
100
AcDbLine
 10
79.74135753633828
 20
299.6194532462854
 30
-0.0000000000000055
 11
79.74135753633828
 21
251.1194532462855
 31
-0.0000000000000055
210
0.0
220
1.0
230
0.0
  0
LINE
  5
11B
330
1F
100
AcDbEntity
  8
HEWI
100
AcDbLine
 10
112.7413575363383
 20
267.6194532462856
 30
-0.0000000000000035
 11
112.7413575363383
 21
299.6194532462854
 31
-0.0000000000000035
210
0.0
220
1.0
230
0.0
  0
ARC
  5
11C
330
1F
100
AcDbEntity
  8
HEWI
100
AcDbCircle
 10
144.7413575363382
 20
952.6194532462852
 30
-0.0000000000000015
 40
65.0
100
AcDbArc
 50
89.99999999999673
 51
180.0
  0
ARC
  5
11D
330
1F
100
AcDbEntity
  8
HEWI
100
AcDbCircle
 10
144.7413575363382
 20
952.6194532462852
 30
-0.0000000000000015
 40
32.0
100
AcDbArc
 50
89.99999999999673
 51
180.0
  0
LINE
  5
11E
330
1F
100
AcDbEntity
  8
HEWI
100
AcDbLine
 10
96.24135753633828
 20
234.6194532462855
 30
-0.0000000000000045
 11
144.7413575363382
 21
234.6194532462855
 31
-0.0000000000000015
210
0.0
220
1.0
230
0.0
  0
LINE
  5
11F
330
1F
100
AcDbEntity
  8
HEWI
100
AcDbLine
 10
144.7413575363382
 20
267.6194532462856
 30
-0.0000000000000015
 11
96.24135753633828
 21
267.6194532462856
 31
-0.0000000000000045
210
0.0
220
1.0
230
0.0
  0
ARC
  5
121
330
1F
100
AcDbEntity
  8
HEWI
100
AcDbCircle
 10
778.7413575503383
 20
251.1194532462855
 30
0.0
 40
16.5
100
AcDbArc
 50
270.0
 51
0.0
  0
ARC
  5
122
330
1F
100
AcDbEntity
  8
HEWI
100
AcDbCircle
 10
778.7413575503383
 20
251.1194532462855
 30
0.0
 40
16.5
100
AcDbArc
 50
0.0
 51
90.0
  0
ARC
  5
123
330
1F
100
AcDbEntity
  8
HEWI
100
AcDbCircle
 10
278.7413575503383
 20
1001.119453246285
 30
-0.0000000000000367
 40
16.5
100
AcDbArc
 50
0.0
 51
180.0
  0
ARC
  5
124
330
1F
100
AcDbEntity
  8
HEWI
100
AcDbCircle
 10
278.7413575503383
 20
1001.119453246285
 30
-0.0000000000000367
 40
35.0
100
AcDbArc
 50
298.1270682186058
 51
180.0
  0
ARC
  5
125
330
1F
100
AcDbEntity
  8
HEWI
100
AcDbCircle
 10
278.7413575503383
 20
1001.119453246285
 30
-0.0000000000000367
 40
35.0
100
AcDbArc
 50
180.0
 51
241.8729317813942
  0
ARC
  5
126
330
1F
100
AcDbEntity
  8
HEWI
100
AcDbCircle
 10
278.7413575503383
 20
1001.119453246285
 30
-0.0000000000000367
 40
16.8
100
AcDbArc
 50
349.1559374363021
 51
180.0
  0
ARC
  5
127
330
1F
100
AcDbEntity
  8
HEWI
100
AcDbCircle
 10
278.7413575503383
 20
1001.119453246285
 30
-0.0000000000000367
 40
16.8
100
AcDbArc
 50
180.0
 51
190.8440625636945
  0
ARC
  5
128
330
1F
100
AcDbEntity
  8
HEWI
100
AcDbCircle
 10
278.7413575503383
 20
366.1194532462855
 30
-0.0000000000000367
 40
35.0
100
AcDbArc
 50
118.1270682186058
 51
180.0
  0
ARC
  5
129
330
1F
100
AcDbEntity
  8
HEWI
100
AcDbCircle
 10
278.7413575503383
 20
366.1194532462855
 30
-0.0000000000000367
 40
35.0
100
AcDbArc
 50
298.1270682186058
 51
61.87293178139418
  0
ARC
  5
12A
330
1F
100
AcDbEntity
  8
HEWI
100
AcDbCircle
 10
278.7413575503383
 20
366.1194532462855
 30
-0.0000000000000367
 40
35.0
100
AcDbArc
 50
180.0
 51
241.8729317813942
  0
ARC
  5
12B
330
1F
100
AcDbEntity
  8
HEWI
100
AcDbCircle
 10
278.7413575503383
 20
366.1194532462855
 30
-0.0000000000000367
 40
16.8
100
AcDbArc
 50
169.1559374363021
 51
180.0
  0
ARC
  5
12C
330
1F
100
AcDbEntity
  8
HEWI
100
AcDbCircle
 10
278.7413575503383
 20
366.1194532462855
 30
-0.0000000000000367
 40
16.8
100
AcDbArc
 50
349.1559374363021
 51
10.84406256369784
  0
ARC
  5
12D
330
1F
100
AcDbEntity
  8
HEWI
100
AcDbCircle
 10
278.7413575503383
 20
366.1194532462855
 30
-0.0000000000000367
 40
16.8
100
AcDbArc
 50
180.0
 51
190.8440625636945
  0
ARC
  5
12E
330
1F
100
AcDbEntity
  8
HEWI
100
AcDbCircle
 10
778.7413575503383
 20
251.1194532462855
 30
0.0
 40
35.0
100
AcDbArc
 50
208.127068218603
 51
151.8729317813941
  0
ARC
  5
12F
330
1F
100
AcDbEntity
  8
HEWI
100
AcDbCircle
 10
778.7413575503383
 20
251.1194532462855
 30
0.0
 40
16.8
100
AcDbArc
 50
259.1559374363017
 51
100.8440625636982
  0
LINE
  5
130
330
1F
100
AcDbEntity
  8
HEWI
100
AcDbLine
 10
295.2413575503385
 20
299.6194532462855
 30
-0.0000000000000347
 11
295.2413575503385
 21
970.2528045781845
 31
-0.0000000000000347
210
0.0
220
1.0
230
0.0
  0
LINE
  5
131
330
1F
100
AcDbEntity
  8
HEWI
100
AcDbLine
 10
262.2413575503383
 20
299.6194532462855
 30
-0.0000000000000388
 11
262.2413575503383
 21
970.2528045781841
 31
-0.0000000000000388
210
0.0
220
1.0
230
0.0
  0
LINE
  5
132
330
1F
100
AcDbEntity
  8
HEWI
100
AcDbLine
 10
727.8747088822369
 20
267.6194532462856
 30
0.0000000000000183
 11
327.2413575503383
 21
267.6194532462856
 31
-0.0000000000000308
210
0.0
220
1.0
230
0.0
  0
LINE
  5
133
330
1F
100
AcDbEntity
  8
HEWI
100
AcDbLine
 10
727.8747088822369
 20
234.6194532462855
 30
0.0000000000000183
 11
327.2413575503383
 21
234.6194532462855
 31
-0.0000000000000308
210
0.0
220
1.0
230
0.0
  0
ARC
  5
134
330
1F
100
AcDbEntity
  8
HEWI
100
AcDbCircle
 10
327.2413575503383
 20
299.6194532462855
 30
-0.0000000000000308
 40
65.0
100
AcDbArc
 50
180.0
 51
270.0
  0
ARC
  5
135
330
1F
100
AcDbEntity
  8
HEWI
100
AcDbCircle
 10
327.2413575503383
 20
299.6194532462855
 30
-0.0000000000000308
 40
32.0
100
AcDbArc
 50
180.0
 51
270.0
  0
LINE
  5
136
330
1F
100
AcDbEntity
  8
HEWI
100
AcDbLine
 10
295.2413575503385
 20
952.6194532462854
 30
-0.0000000000000347
 11
295.2413575503385
 21
1001.119453246285
 31
-0.0000000000000347
210
0.0
220
1.0
230
0.0
  0
LINE
  5
137
330
1F
100
AcDbEntity
  8
HEWI
100
AcDbLine
 10
262.2413575503383
 20
1001.119453246285
 30
-0.0000000000000388
 11
262.2413575503383
 21
952.6194532462854
 31
-0.0000000000000388
210
0.0
220
1.0
230
0.0
  0
LINE
  5
138
330
1F
100
AcDbEntity
  8
HEWI
100
AcDbLine
 10
719.5290131940947
 20
234.6194532462855
 30
0.0000000000000173
 11
778.7413575503383
 21
234.6194532462855
 31
0.0
210
0.0
220
1.0
230
0.0
  0
LINE
  5
139
330
1F
100
AcDbEntity
  8
HEWI
100
AcDbLine
 10
778.7413575503383
 20
267.6194532462856
 30
0.0
 11
721.7582944149398
 21
267.6194532462856
 31
0.0000000000000176
210
0.0
220
1.0
230
0.0
  0
LINE
  5
13B
330
1F
100
AcDbEntity
  8
HEWI
100
AcDbLine
 10
961.2413575643383
 20
366.1194532462854
 30
0.0000000000000135
 11
944.7413575643384
 21
382.6194532462854
 31
0.0000000000000105
210
0.0
220
1.0
230
0.0
  0
LINE
  5
13C
330
1F
100
AcDbEntity
  8
HEWI
100
AcDbLine
 10
944.7413575643384
 20
349.6194532462855
 30
0.0000000000000105
 11
961.2413575643383
 21
366.1194532462855
 31
0.0000000000000135
210
0.0
220
1.0
230
0.0
  0
ARC
  5
13D
330
1F
100
AcDbEntity
  8
HEWI
100
AcDbCircle
 10
961.2413575643383
 20
251.1194532462855
 30
0.0000000000000135
 40
16.5
100
AcDbArc
 50
179.9999999999966
 51
0.0
  0
LINE
  5
13E
330
1F
100
AcDbEntity
  8
HEWI
100
AcDbLine
 10
889.7413575643382
 20
1001.119453246285
 30
0.0
 11
889.7413575643382
 21
1036.119453246285
 31
0.0
210
0.0
220
1.0
230
0.0
  0
LINE
  5
13F
330
1F
100
AcDbEntity
  8
HEWI
100
AcDbLine
 10
889.7413575643382
 20
966.1194532462856
 30
0.0
 11
889.7413575643382
 21
1001.119453246286
 31
0.0
210
0.0
220
1.0
230
0.0
  0
LINE
  5
140
330
1F
100
AcDbEntity
  8
HEWI
100
AcDbLine
 10
901.7413575643383
 20
1001.119453246285
 30
0.0000000000000022
 11
901.7413575643383
 21
1034.119453246285
 31
0.0000000000000022
210
0.0
220
1.0
230
0.0
  0
LINE
  5
141
330
1F
100
AcDbEntity
  8
HEWI
100
AcDbLine
 10
901.7413575643383
 20
968.1194532462855
 30
0.0000000000000022
 11
901.7413575643383
 21
1001.119453246286
 31
0.0000000000000022
210
0.0
220
1.0
230
0.0
  0
LINE
  5
142
330
1F
100
AcDbEntity
  8
HEWI
100
AcDbLine
 10
889.7413575643382
 20
366.1194532462855
 30
0.0
 11
889.7413575643382
 21
401.1194532462853
 31
0.0
210
0.0
220
1.0
230
0.0
  0
LINE
  5
143
330
1F
100
AcDbEntity
  8
HEWI
100
AcDbLine
 10
889.7413575643382
 20
331.1194532462855
 30
0.0
 11
889.7413575643382
 21
366.119453246286
 31
0.0
210
0.0
220
1.0
230
0.0
  0
LINE
  5
144
330
1F
100
AcDbEntity
  8
HEWI
100
AcDbLine
 10
901.7413575643383
 20
366.1194532462855
 30
0.0000000000000022
 11
901.7413575643383
 21
399.1194532462855
 31
0.0000000000000022
210
0.0
220
1.0
230
0.0
  0
LINE
  5
145
330
1F
100
AcDbEntity
  8
HEWI
100
AcDbLine
 10
901.7413575643383
 20
333.1194532462855
 30
0.0000000000000022
 11
901.7413575643383
 21
366.119453246286
 31
0.0000000000000022
210
0.0
220
1.0
230
0.0
  0
LINE
  5
146
330
1F
100
AcDbEntity
  8
HEWI
100
AcDbLine
 10
889.7413575643382
 20
251.1194532462855
 30
0.0
 11
889.7413575643382
 21
286.1194532462855
 31
0.0
210
0.0
220
1.0
230
0.0
  0
LINE
  5
147
330
1F
100
AcDbEntity
  8
HEWI
100
AcDbLine
 10
889.7413575643382
 20
216.1194532462855
 30
0.0
 11
889.7413575643382
 21
251.119453246286
 31
0.0
210
0.0
220
1.0
230
0.0
  0
LINE
  5
148
330
1F
100
AcDbEntity
  8
HEWI
100
AcDbLine
 10
901.7413575643383
 20
251.1194532462855
 30
0.0000000000000022
 11
901.7413575643383
 21
284.1194532462855
 31
0.0000000000000022
210
0.0
220
1.0
230
0.0
  0
LINE
  5
149
330
1F
100
AcDbEntity
  8
HEWI
100
AcDbLine
 10
901.7413575643383
 20
218.1194532462855
 30
0.0000000000000022
 11
901.7413575643383
 21
251.119453246286
 31
0.0000000000000022
210
0.0
220
1.0
230
0.0
  0
LINE
  5
14A
330
1F
100
AcDbEntity
  8
HEWI
100
AcDbLine
 10
899.7413575643383
 20
286.1194532462855
 30
0.0000000000000018
 11
889.7413575643382
 21
286.1194532462855
 31
0.0
210
0.0
220
1.0
230
0.0
  0
LINE
  5
14B
330
1F
100
AcDbEntity
  8
HEWI
100
AcDbLine
 10
899.7413575643383
 20
216.1194532462855
 30
0.0000000000000018
 11
889.7413575643382
 21
216.1194532462855
 31
0.0
210
0.0
220
1.0
230
0.0
  0
LINE
  5
14C
330
1F
100
AcDbEntity
  8
HEWI
100
AcDbLine
 10
899.7413575643383
 20
401.1194532462853
 30
0.0000000000000018
 11
889.7413575643382
 21
401.1194532462853
 31
0.0
210
0.0
220
1.0
230
0.0
  0
LINE
  5
14D
330
1F
100
AcDbEntity
  8
HEWI
100
AcDbLine
 10
899.7413575643383
 20
331.1194532462855
 30
0.0000000000000018
 11
889.7413575643382
 21
331.1194532462855
 31
0.0
210
0.0
220
1.0
230
0.0
  0
LINE
  5
14E
330
1F
100
AcDbEntity
  8
HEWI
100
AcDbLine
 10
899.7413575643383
 20
1036.119453246285
 30
0.0000000000000018
 11
889.7413575643382
 21
1036.119453246285
 31
0.0
210
0.0
220
1.0
230
0.0
  0
LINE
  5
14F
330
1F
100
AcDbEntity
  8
HEWI
100
AcDbLine
 10
899.7413575643383
 20
966.1194532462856
 30
0.0000000000000018
 11
889.7413575643382
 21
966.1194532462856
 31
0.0
210
0.0
220
1.0
230
0.0
  0
LINE
  5
150
330
1F
100
AcDbEntity
  8
HEWI
100
AcDbLine
 10
901.7413575643383
 20
984.6194532462854
 30
0.0000000000000022
 11
914.7413575643382
 21
984.6194532462854
 31
0.0000000000000046
210
0.0
220
1.0
230
0.0
  0
LINE
  5
151
330
1F
100
AcDbEntity
  8
HEWI
100
AcDbLine
 10
901.7413575643383
 20
1017.619453246285
 30
0.0000000000000022
 11
914.7413575643382
 21
1017.619453246285
 31
0.0000000000000046
210
0.0
220
1.0
230
0.0
  0
LINE
  5
152
330
1F
100
AcDbEntity
  8
HEWI
100
AcDbLine
 10
977.7413575643384
 20
299.6194532462855
 30
0.0000000000000165
 11
977.7413575643384
 21
952.6194532462852
 31
0.0000000000000165
210
0.0
220
1.0
230
0.0
  0
LINE
  5
153
330
1F
100
AcDbEntity
  8
HEWI
100
AcDbLine
 10
944.7413575643384
 20
382.6194532462854
 30
0.0000000000000105
 11
944.7413575643384
 21
952.6194532462852
 31
0.0000000000000105
210
0.0
220
1.0
230
0.0
  0
LINE
  5
154
330
1F
100
AcDbEntity
  8
HEWI
100
AcDbLine
 10
944.7413575643384
 20
299.6194532462855
 30
0.0000000000000105
 11
944.7413575643384
 21
349.6194532462855
 31
0.0000000000000105
210
0.0
220
1.0
230
0.0
  0
LINE
  5
155
330
1F
100
AcDbEntity
  8
HEWI
100
AcDbLine
 10
901.7413575643381
 20
349.6194532462855
 30
0.0000000000000026
 11
944.7413575643384
 21
349.6194532462855
 31
0.0000000000000105
210
0.0
220
1.0
230
0.0
  0
LINE
  5
156
330
1F
100
AcDbEntity
  8
HEWI
100
AcDbLine
 10
901.7413575643384
 20
382.6194532462854
 30
0.0000000000000026
 11
944.7413575643384
 21
382.6194532462854
 31
0.0000000000000105
210
0.0
220
1.0
230
0.0
  0
LINE
  5
157
330
1F
100
AcDbEntity
  8
HEWI
100
AcDbLine
 10
901.7413575643383
 20
234.6194532462855
 30
0.0000000000000026
 11
912.7413575643382
 21
234.6194532462855
 31
0.0000000000000046
210
0.0
220
1.0
230
0.0
  0
LINE
  5
158
330
1F
100
AcDbEntity
  8
HEWI
100
AcDbLine
 10
901.7413575643383
 20
267.6194532462856
 30
0.0000000000000026
 11
912.7413575643382
 21
267.6194532462856
 31
0.0000000000000046
210
0.0
220
1.0
230
0.0
  0
ARC
  5
159
330
1F
100
AcDbEntity
  8
HEWI
100
AcDbCircle
 10
899.7413575643383
 20
218.1194532462855
 30
0.0000000000000018
 40
2.0
100
AcDbArc
 50
270.0
 51
0.0
  0
ARC
  5
15A
330
1F
100
AcDbEntity
  8
HEWI
100
AcDbCircle
 10
899.7413575643383
 20
284.1194532462855
 30
0.0000000000000018
 40
2.0
100
AcDbArc
 50
359.9999999999968
 51
90.0
  0
ARC
  5
15B
330
1F
100
AcDbEntity
  8
HEWI
100
AcDbCircle
 10
899.7413575643383
 20
333.1194532462855
 30
0.0000000000000018
 40
2.0
100
AcDbArc
 50
270.0
 51
0.0
  0
ARC
  5
15C
330
1F
100
AcDbEntity
  8
HEWI
100
AcDbCircle
 10
899.7413575643383
 20
399.1194532462855
 30
0.0000000000000018
 40
2.0
100
AcDbArc
 50
0.0
 51
90.0
  0
ARC
  5
15D
330
1F
100
AcDbEntity
  8
HEWI
100
AcDbCircle
 10
899.7413575643383
 20
968.1194532462855
 30
0.0000000000000018
 40
2.0
100
AcDbArc
 50
270.0
 51
0.0
  0
ARC
  5
15E
330
1F
100
AcDbEntity
  8
HEWI
100
AcDbCircle
 10
899.7413575643383
 20
1034.119453246285
 30
0.0000000000000018
 40
2.0
100
AcDbArc
 50
0.0
 51
90.0
  0
LINE
  5
15F
330
1F
100
AcDbEntity
  8
HEWI
100
AcDbLine
 10
977.7413575643384
 20
251.1194532462855
 30
0.0000000000000165
 11
977.7413575643384
 21
299.6194532462857
 31
0.0000000000000165
210
0.0
220
1.0
230
0.0
  0
LINE
  5
160
330
1F
100
AcDbEntity
  8
HEWI
100
AcDbLine
 10
944.7413575643384
 20
299.6194532462857
 30
0.0000000000000105
 11
944.7413575643384
 21
251.1194532462855
 31
0.0000000000000105
210
0.0
220
1.0
230
0.0
  0
ARC
  5
161
330
1F
100
AcDbEntity
  8
HEWI
100
AcDbCircle
 10
912.7413575643382
 20
952.6194532462852
 30
0.0000000000000046
 40
32.0
100
AcDbArc
 50
0.0
 51
90.0
  0
ARC
  5
162
330
1F
100
AcDbEntity
  8
HEWI
100
AcDbCircle
 10
912.7413575643382
 20
952.6194532462852
 30
0.0000000000000046
 40
65.0
100
AcDbArc
 50
0.0
 51
90.0
  0
LINE
  5
163
330
1F
100
AcDbEntity
  8
HEWI
100
AcDbLine
 10
912.7413575643382
 20
234.6194532462855
 30
0.0000000000000046
 11
961.2413575643383
 21
234.6194532462855
 31
0.0000000000000135
210
0.0
220
1.0
230
0.0
  0
LINE
  5
164
330
1F
100
AcDbEntity
  8
HEWI
100
AcDbLine
 10
944.7413575643384
 20
267.6194532462856
 30
0.0000000000000105
 11
912.7413575643382
 21
267.6194532462856
 31
0.0000000000000046
210
0.0
220
1.0
230
0.0
  0
ARC
  5
166
330
1F
100
AcDbEntity
  8
HEWI
100
AcDbCircle
 10
278.7413575503383
 20
68.61945323228565
 30
0.0
 40
16.5
100
AcDbArc
 50
179.9999999999966
 51
0.0
  0
LINE
  5
167
330
1F
100
AcDbEntity
  8
HEWI
100
AcDbLine
 10
243.7413575503383
 20
140.1194532322856
 30
0.0
 11
313.7413575503383
 21
140.1194532322856
 31
0.0
  0
LINE
  5
168
330
1F
100
AcDbEntity
  8
HEWI
100
AcDbLine
 10
245.7413575503383
 20
128.1194532322856
 30
0.0
 11
311.7413575503383
 21
128.1194532322856
 31
0.0
  0
LINE
  5
169
330
1F
100
AcDbEntity
  8
HEWI
100
AcDbLine
 10
743.7413575503383
 20
140.1194532322856
 30
0.0
 11
813.7413575503384
 21
140.1194532322856
 31
0.0
  0
LINE
  5
16A
330
1F
100
AcDbEntity
  8
HEWI
100
AcDbLine
 10
745.7413575503383
 20
128.1194532322856
 30
0.0
 11
811.7413575503382
 21
128.1194532322856
 31
0.0
  0
LINE
  5
16B
330
1F
100
AcDbEntity
  8
HEWI
100
AcDbLine
 10
813.7413575503384
 20
130.1194532322856
 30
0.0
 11
813.7413575503384
 21
140.1194532322856
 31
0.0
  0
LINE
  5
16C
330
1F
100
AcDbEntity
  8
HEWI
100
AcDbLine
 10
743.7413575503383
 20
130.1194532322856
 30
0.0
 11
743.7413575503383
 21
140.1194532322856
 31
0.0
  0
LINE
  5
16D
330
1F
100
AcDbEntity
  8
HEWI
100
AcDbLine
 10
313.7413575503383
 20
130.1194532322856
 30
0.0
 11
313.7413575503383
 21
140.1194532322856
 31
0.0
  0
LINE
  5
16E
330
1F
100
AcDbEntity
  8
HEWI
100
AcDbLine
 10
243.7413575503383
 20
130.1194532322856
 30
0.0
 11
243.7413575503383
 21
140.1194532322856
 31
0.0
  0
LINE
  5
16F
330
1F
100
AcDbEntity
  8
HEWI
100
AcDbLine
 10
262.2413575503383
 20
128.1194532322855
 30
0.0
 11
262.2413575503383
 21
117.1194532322857
 31
0.0
  0
LINE
  5
170
330
1F
100
AcDbEntity
  8
HEWI
100
AcDbLine
 10
295.2413575503385
 20
128.1194532322855
 30
0.0
 11
295.2413575503385
 21
117.1194532322857
 31
0.0
  0
LINE
  5
171
330
1F
100
AcDbEntity
  8
HEWI
100
AcDbLine
 10
730.2413575503383
 20
85.11945323228562
 30
0.0
 11
327.2413575503383
 21
85.11945323228564
 31
0.0
  0
LINE
  5
172
330
1F
100
AcDbEntity
  8
HEWI
100
AcDbLine
 10
730.2413575503383
 20
52.11945323228565
 30
0.0
 11
327.2413575503383
 21
52.11945323228565
 31
0.0
  0
LINE
  5
173
330
1F
100
AcDbEntity
  8
HEWI
100
AcDbLine
 10
762.2413575503383
 20
128.1194532322855
 30
0.0
 11
762.2413575503383
 21
117.1194532322857
 31
0.0
  0
LINE
  5
174
330
1F
100
AcDbEntity
  8
HEWI
100
AcDbLine
 10
795.2413575503383
 20
128.1194532322855
 30
0.0
 11
795.2413575503383
 21
117.1194532322857
 31
0.0
  0
ARC
  5
175
330
1F
100
AcDbEntity
  8
HEWI
100
AcDbCircle
 10
745.7413575503383
 20
130.1194532322856
 30
0.0
 40
2.0
100
AcDbArc
 50
180.0
 51
270.0
  0
ARC
  5
176
330
1F
100
AcDbEntity
  8
HEWI
100
AcDbCircle
 10
811.7413575503382
 20
130.1194532322856
 30
0.0
 40
2.0
100
AcDbArc
 50
269.9999999999968
 51
0.0
  0
ARC
  5
177
330
1F
100
AcDbEntity
  8
HEWI
100
AcDbCircle
 10
245.7413575503383
 20
130.1194532322856
 30
0.0
 40
2.0
100
AcDbArc
 50
180.0
 51
270.0
  0
ARC
  5
178
330
1F
100
AcDbEntity
  8
HEWI
100
AcDbCircle
 10
311.7413575503383
 20
130.1194532322856
 30
0.0
 40
2.0
100
AcDbArc
 50
270.0
 51
0.0
  0
LINE
  5
179
330
1F
100
AcDbEntity
  8
HEWI
100
AcDbLine
 10
278.7413575503383
 20
52.11945323228565
 30
0.0
 11
327.2413575503386
 21
52.11945323228565
 31
0.0
  0
LINE
  5
17A
330
1F
100
AcDbEntity
  8
HEWI
100
AcDbLine
 10
327.2413575503386
 20
85.11945323228564
 30
0.0
 11
295.2413575503385
 21
85.11945323228564
 31
0.0
  0
LINE
  5
17B
330
1F
100
AcDbEntity
  8
HEWI
100
AcDbLine
 10
295.2413575503385
 20
68.61945323228565
 30
0.0
 11
295.2413575503385
 21
117.1194532322857
 31
0.0
  0
LINE
  5
17C
330
1F
100
AcDbEntity
  8
HEWI
100
AcDbLine
 10
262.2413575503383
 20
117.1194532322857
 30
0.0
 11
262.2413575503383
 21
68.61945323228565
 31
0.0
  0
ARC
  5
17D
330
1F
100
AcDbEntity
  8
HEWI
100
AcDbCircle
 10
730.2413575503383
 20
117.1194532322857
 30
0.0
 40
32.0
100
AcDbArc
 50
270.0
 51
0.0
  0
ARC
  5
17E
330
1F
100
AcDbEntity
  8
HEWI
100
AcDbCircle
 10
730.2413575503383
 20
117.1194532322857
 30
0.0
 40
65.0
100
AcDbArc
 50
270.0
 51
0.0
  0
ENDSEC
  0
SECTION
  2
OBJECTS
  0
DICTIONARY
  5
C
330
0
100
AcDbDictionary
281
     1
  3
ACAD_CIP_PREVIOUS_PRODUCT_INFO
350
24A
  3
ACAD_COLOR
350
1B9
  3
ACAD_DETAILVIEWSTYLE
350
246
  3
ACAD_GROUP
350
D
  3
ACAD_LAYOUT
350
1BC
  3
ACAD_MATERIAL
350
1A4
  3
ACAD_MLEADERSTYLE
350
242
  3
ACAD_MLINESTYLE
350
17
  3
ACAD_PLOTSETTINGS
350
19
  3
ACAD_PLOTSTYLENAME
350
F4
  3
ACAD_SCALELIST
350
230
  3
ACAD_SECTIONVIEWSTYLE
350
244
  3
ACAD_TABLESTYLE
350
1BA
  3
ACAD_VISUALSTYLE
350
1A8
  3
ACDB_RECOMPOSE_DATA
350
2B0
  3
AcDbVariableDictionary
350
1C1
  0
DICTIONARY
  5
24C
330
24B
100
AcDbDictionary
280
     1
281
     1
  0
DICTIONARY
  5
EE
330
1F
100
AcDbDictionary
280
     1
281
     1
  3
ACAD_LAYOUTSELFREF
360
1A1
  0
DICTIONARY
  5
EC
330
1B
100
AcDbDictionary
280
     1
281
     1
  3
ACAD_LAYOUTSELFREF
360
1A0
  0
XRECORD
  5
24A
102
{ACAD_REACTORS
330
C
102
}
330
C
100
AcDbXrecord
280
     1
300
ACDLT
300
2016
300
ACDLT_F_S
  0
DICTIONARY
  5
1B9
102
{ACAD_REACTORS
330
C
102
}
330
C
100
AcDbDictionary
281
     1
  0
DICTIONARY
  5
246
102
{ACAD_REACTORS
330
C
102
}
330
C
100
AcDbDictionary
281
     1
  3
Imperial24
350
247
  0
DICTIONARY
  5
D
102
{ACAD_REACTORS
330
C
102
}
330
C
100
AcDbDictionary
281
     1
  0
DICTIONARY
  5
1BC
102
{ACAD_REACTORS
330
C
102
}
330
C
100
AcDbDictionary
281
     1
  3
Layout1
350
1BE
  3
Model
350
1BD
  0
DICTIONARY
  5
1A4
102
{ACAD_REACTORS
330
C
102
}
330
C
100
AcDbDictionary
281
     1
  3
ByBlock
350
1A6
  3
ByLayer
350
1A5
  3
Global
350
1A7
  0
DICTIONARY
  5
242
102
{ACAD_REACTORS
330
C
102
}
330
C
100
AcDbDictionary
281
     1
  3
Standard
350
243
  0
DICTIONARY
  5
17
102
{ACAD_REACTORS
330
C
102
}
330
C
100
AcDbDictionary
281
     1
  3
STANDARD
350
18
  0
DICTIONARY
  5
19
102
{ACAD_REACTORS
330
C
102
}
330
C
100
AcDbDictionary
281
     1
  0
ACDBDICTIONARYWDFLT
  5
F4
102
{ACAD_REACTORS
330
C
102
}
330
C
100
AcDbDictionary
281
     1
  3
Normal
350
F5
100
AcDbDictionaryWithDefault
340
F5
  0
DICTIONARY
  5
230
102
{ACAD_REACTORS
330
C
102
}
330
C
100
AcDbDictionary
281
     1
  3
A0
350
231
  3
A1
350
232
  3
A2
350
233
  3
A3
350
234
  3
A4
350
235
  3
A5
350
236
  3
A6
350
237
  3
A7
350
238
  3
A8
350
239
  3
A9
350
23A
  3
B0
350
23B
  3
B1
350
23C
  3
B2
350
23D
  3
B3
350
23E
  3
B4
350
23F
  3
B5
350
240
  3
B6
350
241
  0
DICTIONARY
  5
244
102
{ACAD_REACTORS
330
C
102
}
330
C
100
AcDbDictionary
281
     1
  3
Imperial24
350
245
  0
DICTIONARY
  5
1BA
102
{ACAD_REACTORS
330
C
102
}
330
C
100
AcDbDictionary
281
     1
  3
Standard
350
1BB
  0
DICTIONARY
  5
1A8
102
{ACAD_REACTORS
330
C
102
}
330
C
100
AcDbDictionary
281
     1
  3
2dWireframe
350
1AE
  3
3D Hidden
350
1B0
  3
3dWireframe
350
1AF
  3
Basic
350
1AD
  3
Brighten
350
1B4
  3
ColorChange
350
1B8
  3
Conceptual
350
1B1
  3
Dim
350
1B3
  3
EdgeColorOff
350
22F
  3
Facepattern
350
1B7
  3
Flat
350
1A9
  3
FlatWithEdges
350
1AA
  3
Gouraud
350
1AB
  3
GouraudWithEdges
350
1AC
  3
Hidden
350
227
  3
JitterOff
350
22D
  3
Linepattern
350
1B6
  3
OverhangOff
350
22E
  3
Realistic
350
1B2
  3
Shaded
350
22C
  3
Shaded with edges
350
22B
  3
Shades of Gray
350
228
  3
Sketchy
350
229
  3
Thicken
350
1B5
  3
Wireframe
350
226
  3
X-Ray
350
22A
  0
XRECORD
  5
2B0
102
{ACAD_REACTORS
330
C
102
}
330
C
100
AcDbXrecord
280
     1
 90
        1
330
1BB
  0
DICTIONARY
  5
1C1
102
{ACAD_REACTORS
330
C
102
}
330
C
100
AcDbDictionary
281
     1
  3
CANNOSCALE
350
2AA
  3
CMLEADERSTYLE
350
2A6
  3
CTABLESTYLE
350
1C2
  3
CVIEWDETAILSTYLE
350
2A7
  3
CVIEWSECTIONSTYLE
350
2A8
  3
DIMASSOC
350
1F4
  3
INDEXCTL
350
1F3
  3
LAYEREVAL
350
2AC
  3
LAYERNOTIFY
350
2AD
  3
LIGHTINGUNITS
350
2AB
  3
MSLTSCALE
350
2A9
  3
SORTENTS
350
1F2
  0
XRECORD
  5
1A1
102
{ACAD_REACTORS
330
EE
102
}
330
EE
100
AcDbXrecord
280
     1
340
1F
  0
XRECORD
  5
1A0
102
{ACAD_REACTORS
330
EC
102
}
330
EC
100
AcDbXrecord
280
     1
340
1B
  0
ACDBDETAILVIEWSTYLE
  5
247
102
{ACAD_XDICTIONARY
360
2E7
102
}
102
{ACAD_REACTORS
330
246
102
}
330
246
100
AcDbModelDocViewStyle
 70
     0
  3
Imperial24
290
     0
100
AcDbDetailViewStyle
 70
     0
 71
     0
 90
        3
 71
     1
340
11
 62
   256
 40
0.24
340
0
 62
   256
 40
0.24
300

 40
0.36
280
     3
 71
     2
340
16
 90
       25
 62
   256
 71
     3
340
11
 62
   256
 40
0.24
 90
        1
 40
0.75
 90
        1
300
%<\AcVar ViewType \f "%tc1">% %<\AcVar ViewDetailId>%\PVARIA %<\AcVar ViewScale \f "%sn">%
 71
     4
340
16
 90
       25
 62
   256
340
16
 90
       25
 62
   256
280
     0
  0
LAYOUT
  5
1BE
102
{ACAD_REACTORS
330
1BC
102
}
330
1BC
100
AcDbPlotSettings
  1

  2
\\druckserv1\AROBBE04
  4

  6

 40
0.0
 41
0.0
 42
0.0
 43
0.0
 44
0.0
 45
0.0
 46
0.0
 47
0.0
 48
0.0
 49
0.0
140
0.0
141
0.0
142
1.0
143
1.0
 70
   688
 72
     0
 73
     0
 74
     5
  7

 75
    16
147
1.0
 76
     0
 77
     2
 78
   300
148
0.0
149
0.0
100
AcDbLayout
  1
Layout1
 70
     1
 71
     1
 10
0.0
 20
0.0
 11
12.0
 21
9.0
 12
0.0
 22
0.0
 32
0.0
 14
1.000000000000000E+20
 24
1.000000000000000E+20
 34
1.000000000000000E+20
 15
-1.000000000000000E+20
 25
-1.000000000000000E+20
 35
-1.000000000000000E+20
146
0.0
 13
0.0
 23
0.0
 33
0.0
 16
1.0
 26
0.0
 36
0.0
 17
0.0
 27
1.0
 37
0.0
 76
     0
330
1B
  0
LAYOUT
  5
1BD
102
{ACAD_REACTORS
330
1BC
102
}
330
1BC
100
AcDbPlotSettings
  1

  2
\\druckserv1\AROBBE04
  4

  6

 40
0.0
 41
0.0
 42
0.0
 43
0.0
 44
0.0
 45
0.0
 46
0.0
 47
0.0
 48
0.0
 49
0.0
140
0.0
141
0.0
142
1.0
143
1.0
 70
  1712
 72
     0
 73
     0
 74
     0
  7

 75
     0
147
1.0
 76
     0
 77
     2
 78
   300
148
0.0
149
0.0
100
AcDbLayout
  1
Model
 70
     1
 71
     0
 10
0.0
 20
0.0
 11
12.0
 21
9.0
 12
0.0
 22
0.0
 32
0.0
 14
0.0
 24
0.0
 34
0.0
 15
0.0
 25
0.0
 35
0.0
146
0.0
 13
0.0
 23
0.0
 33
0.0
 16
1.0
 26
0.0
 36
0.0
 17
0.0
 27
1.0
 37
0.0
 76
     0
330
1F
331
17F
  0
MATERIAL
  5
1A6
102
{ACAD_XDICTIONARY
360
1F8
102
}
102
{ACAD_REACTORS
330
1A4
102
}
330
1A4
100
AcDbMaterial
  1
ByBlock
  0
MATERIAL
  5
1A5
102
{ACAD_XDICTIONARY
360
1F6
102
}
102
{ACAD_REACTORS
330
1A4
102
}
330
1A4
100
AcDbMaterial
  1
ByLayer
  0
MATERIAL
  5
1A7
102
{ACAD_XDICTIONARY
360
1FA
102
}
102
{ACAD_REACTORS
330
1A4
102
}
330
1A4
100
AcDbMaterial
  1
Global
  0
MLEADERSTYLE
  5
243
102
{ACAD_REACTORS
330
242
102
}
330
242
100
AcDbMLeaderStyle
179
     2
170
     2
171
     1
172
     0
 90
        2
 40
0.0
 41
0.0
173
     1
 91
-1056964608
340
14
 92
       -2
290
     1
 42
0.09
291
     1
 43
0.36
  3
Standard
 44
0.18
300

342
11
174
     1
178
     6
175
     1
176
     0
 93
-1056964608
 45
0.18
292
     0
297
     0
 46
0.18
 94
-1056964608
 47
1.0
 49
1.0
140
1.0
293
     1
141
0.0
294
     1
177
     0
142
1.0
295
     0
296
     0
143
0.125
271
     0
272
     9
273
     9
  0
MLINESTYLE
  5
18
102
{ACAD_REACTORS
330
17
102
}
330
17
100
AcDbMlineStyle
  2
STANDARD
 70
     0
  3

 62
   256
 51
90.0
 52
90.0
 71
     2
 49
0.5
 62
   256
  6
BYLAYER
 49
-0.5
 62
   256
  6
BYLAYER
  0
ACDBPLACEHOLDER
  5
F5
102
{ACAD_REACTORS
330
F4
102
}
330
F4
  0
SCALE
  5
231
102
{ACAD_REACTORS
330
230
102
}
330
230
100
AcDbScale
 70
     0
300
1:1
140
1.0
141
1.0
290
     1
  0
SCALE
  5
232
102
{ACAD_REACTORS
330
230
102
}
330
230
100
AcDbScale
 70
     0
300
1/128" = 1'-0"
140
0.0078125
141
12.0
290
     0
  0
SCALE
  5
233
102
{ACAD_REACTORS
330
230
102
}
330
230
100
AcDbScale
 70
     0
300
1/64" = 1'-0"
140
0.015625
141
12.0
290
     0
  0
SCALE
  5
234
102
{ACAD_REACTORS
330
230
102
}
330
230
100
AcDbScale
 70
     0
300
1/32" = 1'-0"
140
0.03125
141
12.0
290
     0
  0
SCALE
  5
235
102
{ACAD_REACTORS
330
230
102
}
330
230
100
AcDbScale
 70
     0
300
1/16" = 1'-0"
140
0.0625
141
12.0
290
     0
  0
SCALE
  5
236
102
{ACAD_REACTORS
330
230
102
}
330
230
100
AcDbScale
 70
     0
300
3/32" = 1'-0"
140
0.09375
141
12.0
290
     0
  0
SCALE
  5
237
102
{ACAD_REACTORS
330
230
102
}
330
230
100
AcDbScale
 70
     0
300
1/8" = 1'-0"
140
0.125
141
12.0
290
     0
  0
SCALE
  5
238
102
{ACAD_REACTORS
330
230
102
}
330
230
100
AcDbScale
 70
     0
300
3/16" = 1'-0"
140
0.1875
141
12.0
290
     0
  0
SCALE
  5
239
102
{ACAD_REACTORS
330
230
102
}
330
230
100
AcDbScale
 70
     0
300
1/4" = 1'-0"
140
0.25
141
12.0
290
     0
  0
SCALE
  5
23A
102
{ACAD_REACTORS
330
230
102
}
330
230
100
AcDbScale
 70
     0
300
3/8" = 1'-0"
140
0.375
141
12.0
290
     0
  0
SCALE
  5
23B
102
{ACAD_REACTORS
330
230
102
}
330
230
100
AcDbScale
 70
     0
300
1/2" = 1'-0"
140
0.5
141
12.0
290
     0
  0
SCALE
  5
23C
102
{ACAD_REACTORS
330
230
102
}
330
230
100
AcDbScale
 70
     0
300
3/4" = 1'-0"
140
0.75
141
12.0
290
     0
  0
SCALE
  5
23D
102
{ACAD_REACTORS
330
230
102
}
330
230
100
AcDbScale
 70
     0
300
1" = 1'-0"
140
1.0
141
12.0
290
     0
  0
SCALE
  5
23E
102
{ACAD_REACTORS
330
230
102
}
330
230
100
AcDbScale
 70
     0
300
1-1/2" = 1'-0"
140
1.5
141
12.0
290
     0
  0
SCALE
  5
23F
102
{ACAD_REACTORS
330
230
102
}
330
230
100
AcDbScale
 70
     0
300
3" = 1'-0"
140
3.0
141
12.0
290
     0
  0
SCALE
  5
240
102
{ACAD_REACTORS
330
230
102
}
330
230
100
AcDbScale
 70
     0
300
6" = 1'-0"
140
6.0
141
12.0
290
     0
  0
SCALE
  5
241
102
{ACAD_REACTORS
330
230
102
}
330
230
100
AcDbScale
 70
     0
300
1'-0" = 1'-0"
140
12.0
141
12.0
290
     0
  0
ACDBSECTIONVIEWSTYLE
  5
245
102
{ACAD_XDICTIONARY
360
2E5
102
}
102
{ACAD_REACTORS
330
244
102
}
330
244
100
AcDbModelDocViewStyle
 70
     0
  3
Imperial24
290
     0
100
AcDbSectionViewStyle
 70
     0
 71
     0
 90
       78
 71
     1
340
11
 62
   256
 40
0.24
340
0
340
0
 62
   256
 40
0.24
300
I, O, Q, S, X, Z
 40
0.48
 90
        3
 40
0.18
 90
        1
 71
     2
340
16
 90
       25
 62
   256
340
16
 90
       50
 62
   256
 40
0.24
 40
0.0
 40
0.24
 71
     3
340
11
 62
   256
 40
0.24
 90
        1
 40
0.75
 90
        1
300
%<\AcVar ViewType \f "%tc1">% %<\AcVar ViewSectionStartId>%-%<\AcVar ViewSectionEndId>%\PVARIA %<\AcVar ViewScale \f "%sn">%
 71
     4
 62
   256
 62
   257
300
ANSI31
 40
1.0
 90
        0
290
     0
290
     0
 90
        6
 40
0.0
 40
1.570796326794896
 40
0.2617993877991494
 40
1.308996938995747
 40
-0.2617993877991494
 40
1.832595714594046
  0
TABLESTYLE
  5
1BB
102
{ACAD_XDICTIONARY
360
2AE
102
}
102
{ACAD_REACTORS
330
1BA
102
}
330
1BA
100
AcDbTableStyle
280
     0
  3
Standard
 70
     0
 71
     0
 40
0.06
 41
0.06
280
     0
281
     0
  7
STANDARD
140
0.18
170
     2
 62
     0
 63
     7
283
     0
 90
      512
 91
        0
  1

274
    -2
284
     1
 64
     0
275
    -2
285
     1
 65
     0
276
    -2
286
     1
 66
     0
277
    -2
287
     1
 67
     0
278
    -2
288
     1
 68
     0
279
    -2
289
     1
 69
     0
  7
STANDARD
140
0.25
170
     5
 62
     0
 63
     7
283
     0
 90
      512
 91
        0
  1

274
    -2
284
     1
 64
     0
275
    -2
285
     1
 65
     0
276
    -2
286
     1
 66
     0
277
    -2
287
     1
 67
     0
278
    -2
288
     1
 68
     0
279
    -2
289
     1
 69
     0
  7
STANDARD
140
0.18
170
     5
 62
     0
 63
     7
283
     0
 90
      512
 91
        0
  1

274
    -2
284
     1
 64
     0
275
    -2
285
     1
 65
     0
276
    -2
286
     1
 66
     0
277
    -2
287
     1
 67
     0
278
    -2
288
     1
 68
     0
279
    -2
289
     1
 69
     0
  0
VISUALSTYLE
  5
1AE
102
{ACAD_XDICTIONARY
360
2BB
102
}
102
{ACAD_REACTORS
330
1A8
102
}
330
1A8
100
AcDbVisualStyle
  2

 70
     4
177
     2
291
     0
 71
     0
176
     1
 72
     2
176
     1
 73
     0
176
     1
 90
        0
176
     1
 40
0.6
176
     1
 41
30.0
176
     1
 63
     7
176
     1
 74
     1
176
     1
 91
        4
176
     1
 64
     7
176
     1
 65
   257
176
     1
 75
     1
176
     1
175
     1
176
     1
 42
1.0
176
     1
 92
        0
176
     1
 66
   257
176
     1
 43
1.0
176
     1
 76
     1
176
     1
 77
     6
176
     1
 78
     2
176
     1
 67
     7
176
     1
 79
     5
176
     1
170
     0
176
     1
171
     0
176
     1
290
     0
176
     1
 93
        1
176
     1
 44
0.0
176
     1
173
     0
176
     1
1001
ACAD
1000
AcDbSavedByObjectVersion
1070
     0
  0
VISUALSTYLE
  5
1B0
102
{ACAD_XDICTIONARY
360
2BF
102
}
102
{ACAD_REACTORS
330
1A8
102
}
330
1A8
100
AcDbVisualStyle
  2

 70
     6
177
     2
291
     0
 71
     1
176
     1
 72
     2
176
     1
 73
     2
176
     1
 90
        0
176
     1
 40
0.6
176
     1
 41
30.0
176
     1
 63
     7
176
     1
 74
     2
176
     1
 91
        2
176
     1
 64
     7
176
     1
 65
   257
176
     1
 75
     2
176
     1
175
     1
176
     1
 42
40.0
176
     1
 92
        0
176
     1
 66
   257
176
     1
 43
1.0
176
     1
 76
     1
176
     1
 77
     6
176
     1
 78
     2
176
     1
 67
     7
176
     1
 79
     3
176
     1
170
     0
176
     1
171
     0
176
     1
290
     0
176
     1
 93
        1
176
     1
 44
0.0
176
     1
173
     0
176
     1
1001
ACAD
1000
AcDbSavedByObjectVersion
1070
     0
  0
VISUALSTYLE
  5
1AF
102
{ACAD_XDICTIONARY
360
2BD
102
}
102
{ACAD_REACTORS
330
1A8
102
}
330
1A8
100
AcDbVisualStyle
  2

 70
     5
177
     2
291
     0
 71
     0
176
     1
 72
     2
176
     1
 73
     0
176
     1
 90
        0
176
     1
 40
0.6
176
     1
 41
30.0
176
     1
 63
     7
176
     1
 74
     1
176
     1
 91
        4
176
     1
 64
     7
176
     1
 65
   257
176
     1
 75
     1
176
     1
175
     1
176
     1
 42
1.0
176
     1
 92
        0
176
     1
 66
   257
176
     1
 43
1.0
176
     1
 76
     1
176
     1
 77
     6
176
     1
 78
     2
176
     1
 67
     7
176
     1
 79
     5
176
     1
170
     0
176
     1
171
     0
176
     1
290
     0
176
     1
 93
        1
176
     1
 44
0.0
176
     1
173
     0
176
     1
1001
ACAD
1000
AcDbSavedByObjectVersion
1070
     0
  0
VISUALSTYLE
  5
1AD
102
{ACAD_XDICTIONARY
360
2B9
102
}
102
{ACAD_REACTORS
330
1A8
102
}
330
1A8
100
AcDbVisualStyle
  2

 70
     7
177
     2
291
     1
 71
     1
176
     1
 72
     0
176
     1
 73
     1
176
     1
 90
        0
176
     1
 40
0.6
176
     1
 41
30.0
176
     1
 63
     7
176
     1
 74
     0
176
     1
 91
        4
176
     1
 64
     7
176
     1
 65
   257
176
     1
 75
     1
176
     1
175
     1
176
     1
 42
1.0
176
     1
 92
        8
176
     1
 66
     7
176
     1
 43
1.0
176
     1
 76
     1
176
     1
 77
     6
176
     1
 78
     2
176
     1
 67
     7
176
     1
 79
     5
176
     1
170
     0
176
     1
171
     0
176
     1
290
     0
176
     1
 93
        1
176
     1
 44
0.0
176
     1
173
     0
176
     1
1001
ACAD
1000
AcDbSavedByObjectVersion
1070
     0
  0
VISUALSTYLE
  5
1B4
102
{ACAD_XDICTIONARY
360
2C7
102
}
102
{ACAD_REACTORS
330
1A8
102
}
330
1A8
100
AcDbVisualStyle
  2

 70
    12
177
     2
291
     1
 71
     2
176
     1
 72
     2
176
     1
 73
     0
176
     1
 90
        0
176
     1
 40
0.6
176
     1
 41
30.0
176
     1
 63
     7
176
     1
 74
     1
176
     1
 91
        4
176
     1
 64
     7
176
     1
 65
   257
176
     1
 75
     1
176
     1
175
     1
176
     1
 42
1.0
176
     1
 92
        8
176
     1
 66
     7
176
     1
 43
1.0
176
     1
 76
     1
176
     1
 77
     6
176
     1
 78
     2
176
     1
 67
     7
176
     1
 79
     5
176
     1
170
     0
176
     1
171
     0
176
     1
290
     0
176
     1
 93
        1
176
     1
 44
50.0
176
     1
173
     0
176
     1
1001
ACAD
1000
AcDbSavedByObjectVersion
1070
     0
  0
VISUALSTYLE
  5
1B8
102
{ACAD_XDICTIONARY
360
2CF
102
}
102
{ACAD_REACTORS
330
1A8
102
}
330
1A8
100
AcDbVisualStyle
  2

 70
    16
177
     2
291
     1
 71
     2
176
     1
 72
     2
176
     1
 73
     3
176
     1
 90
        0
176
     1
 40
0.6
176
     1
 41
30.0
176
     1
 63
     8
176
     1
 74
     1
176
     1
 91
        4
176
     1
 64
     7
176
     1
 65
   257
176
     1
 75
     1
176
     1
175
     1
176
     1
 42
1.0
176
     1
 92
        8
176
     1
 66
     8
176
     1
 43
1.0
176
     1
 76
     1
176
     1
 77
     6
176
     1
 78
     2
176
     1
 67
     7
176
     1
 79
     5
176
     1
170
     0
176
     1
171
     0
176
     1
290
     0
176
     1
 93
        1
176
     1
 44
0.0
176
     1
173
     0
176
     1
1001
ACAD
1000
AcDbSavedByObjectVersion
1070
     0
  0
VISUALSTYLE
  5
1B1
102
{ACAD_XDICTIONARY
360
2C1
102
}
102
{ACAD_REACTORS
330
1A8
102
}
330
1A8
100
AcDbVisualStyle
  2

 70
     9
177
     2
291
     0
 71
     3
176
     1
 72
     2
176
     1
 73
     0
176
     1
 90
        0
176
     1
 40
0.6
176
     1
 41
30.0
176
     1
 63
     7
176
     1
 74
     2
176
     1
 91
        2
176
     1
 64
     7
176
     1
 65
   257
176
     1
 75
     1
176
     1
175
     1
176
     1
 42
40.0
176
     1
 92
        8
176
     1
 66
     7
176
     1
 43
1.0
176
     1
 76
     1
176
     1
 77
     6
176
     1
 78
     2
176
     1
 67
     7
176
     1
 79
     3
176
     1
170
     0
176
     1
171
     0
176
     1
290
     0
176
     1
 93
        1
176
     1
 44
0.0
176
     1
173
     0
176
     1
1001
ACAD
1000
AcDbSavedByObjectVersion
1070
     0
  0
VISUALSTYLE
  5
1B3
102
{ACAD_XDICTIONARY
360
2C5
102
}
102
{ACAD_REACTORS
330
1A8
102
}
330
1A8
100
AcDbVisualStyle
  2

 70
    11
177
     2
291
     1
 71
     2
176
     1
 72
     2
176
     1
 73
     0
176
     1
 90
        0
176
     1
 40
0.6
176
     1
 41
30.0
176
     1
 63
     7
176
     1
 74
     1
176
     1
 91
        4
176
     1
 64
     7
176
     1
 65
   257
176
     1
 75
     1
176
     1
175
     1
176
     1
 42
1.0
176
     1
 92
        8
176
     1
 66
     7
176
     1
 43
1.0
176
     1
 76
     1
176
     1
 77
     6
176
     1
 78
     2
176
     1
 67
     7
176
     1
 79
     5
176
     1
170
     0
176
     1
171
     0
176
     1
290
     0
176
     1
 93
        1
176
     1
 44
-50.0
176
     1
173
     0
176
     1
1001
ACAD
1000
AcDbSavedByObjectVersion
1070
     0
  0
VISUALSTYLE
  5
22F
102
{ACAD_XDICTIONARY
360
2E3
102
}
102
{ACAD_REACTORS
330
1A8
102
}
330
1A8
100
AcDbVisualStyle
  2
EdgeColorOff
 70
    22
177
     2
291
     1
 71
     2
176
     0
 72
     2
176
     0
 73
     0
176
     0
 90
        0
176
     0
 40
0.6
176
     0
 41
30.0
176
     0
 63
     7
421
 16777215
176
     0
 74
     1
176
     0
 91
        4
176
     0
 64
     7
176
     0
 65
   257
176
     0
 75
     1
176
     0
175
     1
176
     0
 42
1.0
176
     0
 92
        8
176
     2
 66
     7
176
     0
 43
1.0
176
     0
 76
     1
176
     0
 77
     6
176
     0
 78
     2
176
     0
 67
     7
176
     0
 79
     5
176
     0
170
     0
176
     0
171
     0
176
     0
290
     0
176
     0
 93
        1
176
     0
 44
0.0
176
     0
173
     0
176
     0
1001
ACAD
1000
AcDbSavedByObjectVersion
1070
     0
  0
VISUALSTYLE
  5
1B7
102
{ACAD_XDICTIONARY
360
2CD
102
}
102
{ACAD_REACTORS
330
1A8
102
}
330
1A8
100
AcDbVisualStyle
  2

 70
    15
177
     2
291
     1
 71
     2
176
     1
 72
     2
176
     1
 73
     0
176
     1
 90
        0
176
     1
 40
0.6
176
     1
 41
30.0
176
     1
 63
     7
176
     1
 74
     1
176
     1
 91
        4
176
     1
 64
     7
176
     1
 65
   257
176
     1
 75
     1
176
     1
175
     1
176
     1
 42
1.0
176
     1
 92
        8
176
     1
 66
     7
176
     1
 43
1.0
176
     1
 76
     1
176
     1
 77
     6
176
     1
 78
     2
176
     1
 67
     7
176
     1
 79
     5
176
     1
170
     0
176
     1
171
     0
176
     1
290
     0
176
     1
 93
        1
176
     1
 44
0.0
176
     1
173
     0
176
     1
1001
ACAD
1000
AcDbSavedByObjectVersion
1070
     0
  0
VISUALSTYLE
  5
1A9
102
{ACAD_XDICTIONARY
360
2B1
102
}
102
{ACAD_REACTORS
330
1A8
102
}
330
1A8
100
AcDbVisualStyle
  2

 70
     0
177
     2
291
     1
 71
     2
176
     1
 72
     1
176
     1
 73
     1
176
     1
 90
        2
176
     1
 40
0.6
176
     1
 41
30.0
176
     1
 63
     7
176
     1
 74
     0
176
     1
 91
        4
176
     1
 64
     7
176
     1
 65
   257
176
     1
 75
     1
176
     1
175
     1
176
     1
 42
1.0
176
     1
 92
        8
176
     1
 66
     7
176
     1
 43
1.0
176
     1
 76
     1
176
     1
 77
     6
176
     1
 78
     2
176
     1
 67
     7
176
     1
 79
     5
176
     1
170
     0
176
     1
171
     0
176
     1
290
     0
176
     1
 93
       13
176
     1
 44
0.0
176
     1
173
     0
176
     1
1001
ACAD
1000
AcDbSavedByObjectVersion
1070
     0
  0
VISUALSTYLE
  5
1AA
102
{ACAD_XDICTIONARY
360
2B3
102
}
102
{ACAD_REACTORS
330
1A8
102
}
330
1A8
100
AcDbVisualStyle
  2

 70
     1
177
     2
291
     1
 71
     2
176
     1
 72
     1
176
     1
 73
     1
176
     1
 90
        2
176
     1
 40
0.6
176
     1
 41
30.0
176
     1
 63
     7
176
     1
 74
     1
176
     1
 91
        4
176
     1
 64
     7
176
     1
 65
   257
176
     1
 75
     1
176
     1
175
     1
176
     1
 42
1.0
176
     1
 92
        0
176
     1
 66
   257
176
     1
 43
1.0
176
     1
 76
     1
176
     1
 77
     6
176
     1
 78
     2
176
     1
 67
     7
176
     1
 79
     5
176
     1
170
     0
176
     1
171
     0
176
     1
290
     0
176
     1
 93
       13
176
     1
 44
0.0
176
     1
173
     0
176
     1
1001
ACAD
1000
AcDbSavedByObjectVersion
1070
     0
  0
VISUALSTYLE
  5
1AB
102
{ACAD_XDICTIONARY
360
2B5
102
}
102
{ACAD_REACTORS
330
1A8
102
}
330
1A8
100
AcDbVisualStyle
  2

 70
     2
177
     2
291
     1
 71
     2
176
     1
 72
     2
176
     1
 73
     1
176
     1
 90
        2
176
     1
 40
0.6
176
     1
 41
30.0
176
     1
 63
     7
176
     1
 74
     0
176
     1
 91
        4
176
     1
 64
     7
176
     1
 65
   257
176
     1
 75
     1
176
     1
175
     1
176
     1
 42
1.0
176
     1
 92
        0
176
     1
 66
     7
176
     1
 43
1.0
176
     1
 76
     1
176
     1
 77
     6
176
     1
 78
     2
176
     1
 67
     7
176
     1
 79
     5
176
     1
170
     0
176
     1
171
     0
176
     1
290
     0
176
     1
 93
       13
176
     1
 44
0.0
176
     1
173
     0
176
     1
1001
ACAD
1000
AcDbSavedByObjectVersion
1070
     0
  0
VISUALSTYLE
  5
1AC
102
{ACAD_XDICTIONARY
360
2B7
102
}
102
{ACAD_REACTORS
330
1A8
102
}
330
1A8
100
AcDbVisualStyle
  2

 70
     3
177
     2
291
     1
 71
     2
176
     1
 72
     2
176
     1
 73
     1
176
     1
 90
        2
176
     1
 40
0.6
176
     1
 41
30.0
176
     1
 63
     7
176
     1
 74
     1
176
     1
 91
        4
176
     1
 64
     7
176
     1
 65
   257
176
     1
 75
     1
176
     1
175
     1
176
     1
 42
1.0
176
     1
 92
        0
176
     1
 66
   257
176
     1
 43
1.0
176
     1
 76
     1
176
     1
 77
     6
176
     1
 78
     2
176
     1
 67
     7
176
     1
 79
     5
176
     1
170
     0
176
     1
171
     0
176
     1
290
     0
176
     1
 93
       13
176
     1
 44
0.0
176
     1
173
     0
176
     1
1001
ACAD
1000
AcDbSavedByObjectVersion
1070
     0
  0
VISUALSTYLE
  5
227
102
{ACAD_XDICTIONARY
360
2D3
102
}
102
{ACAD_REACTORS
330
1A8
102
}
330
1A8
100
AcDbVisualStyle
  2
Hidden
 70
     6
177
     2
291
     0
 71
     1
176
     1
 72
     2
176
     1
 73
     2
176
     1
 90
        0
176
     1
 40
0.6
176
     1
 41
30.0
176
     1
 63
     7
421
 16777215
176
     1
 74
     2
176
     1
 91
        2
176
     1
 64
     7
176
     1
 65
   257
176
     1
 75
     2
176
     1
175
     1
176
     1
 42
40.0
176
     1
 92
        0
176
     1
 66
   257
176
     1
 43
1.0
176
     1
 76
     1
176
     1
 77
     6
176
     1
 78
     2
176
     1
 67
     7
176
     1
 79
     3
176
     1
170
     0
176
     1
171
     0
176
     1
290
     0
176
     1
 93
        1
176
     1
 44
0.0
176
     1
173
     0
176
     1
1001
ACAD
1000
AcDbSavedByObjectVersion
1070
     0
  0
VISUALSTYLE
  5
22D
102
{ACAD_XDICTIONARY
360
2DF
102
}
102
{ACAD_REACTORS
330
1A8
102
}
330
1A8
100
AcDbVisualStyle
  2
JitterOff
 70
    20
177
     2
291
     1
 71
     2
176
     0
 72
     2
176
     0
 73
     0
176
     0
 90
        0
176
     0
 40
0.6
176
     0
 41
30.0
176
     0
 63
     7
421
 16777215
176
     0
 74
     1
176
     0
 91
        4
176
     0
 64
     7
176
     0
 65
   257
176
     0
 75
     1
176
     0
175
     1
176
     0
 42
1.0
176
     0
 92
       10
176
     2
 66
     7
176
     0
 43
1.0
176
     0
 76
     1
176
     0
 77
     6
176
     0
 78
     2
176
     0
 67
     7
176
     0
 79
     5
176
     0
170
     0
176
     0
171
     0
176
     0
290
     0
176
     0
 93
        1
176
     0
 44
0.0
176
     0
173
     0
176
     0
1001
ACAD
1000
AcDbSavedByObjectVersion
1070
     0
  0
VISUALSTYLE
  5
1B6
102
{ACAD_XDICTIONARY
360
2CB
102
}
102
{ACAD_REACTORS
330
1A8
102
}
330
1A8
100
AcDbVisualStyle
  2

 70
    14
177
     2
291
     1
 71
     2
176
     1
 72
     2
176
     1
 73
     0
176
     1
 90
        0
176
     1
 40
0.6
176
     1
 41
30.0
176
     1
 63
     7
176
     1
 74
     1
176
     1
 91
        4
176
     1
 64
     7
176
     1
 65
   257
176
     1
 75
     7
176
     1
175
     7
176
     1
 42
1.0
176
     1
 92
        8
176
     1
 66
     7
176
     1
 43
1.0
176
     1
 76
     1
176
     1
 77
     6
176
     1
 78
     2
176
     1
 67
     7
176
     1
 79
     5
176
     1
170
     0
176
     1
171
     0
176
     1
290
     0
176
     1
 93
        1
176
     1
 44
0.0
176
     1
173
     0
176
     1
1001
ACAD
1000
AcDbSavedByObjectVersion
1070
     0
  0
VISUALSTYLE
  5
22E
102
{ACAD_XDICTIONARY
360
2E1
102
}
102
{ACAD_REACTORS
330
1A8
102
}
330
1A8
100
AcDbVisualStyle
  2
OverhangOff
 70
    21
177
     2
291
     1
 71
     2
176
     0
 72
     2
176
     0
 73
     0
176
     0
 90
        0
176
     0
 40
0.6
176
     0
 41
30.0
176
     0
 63
     7
421
 16777215
176
     0
 74
     1
176
     0
 91
        4
176
     0
 64
     7
176
     0
 65
   257
176
     0
 75
     1
176
     0
175
     1
176
     0
 42
1.0
176
     0
 92
        9
176
     2
 66
     7
176
     0
 43
1.0
176
     0
 76
     1
176
     0
 77
     6
176
     0
 78
     2
176
     0
 67
     7
176
     0
 79
     5
176
     0
170
     0
176
     0
171
     0
176
     0
290
     0
176
     0
 93
        1
176
     0
 44
0.0
176
     0
173
     0
176
     0
1001
ACAD
1000
AcDbSavedByObjectVersion
1070
     0
  0
VISUALSTYLE
  5
1B2
102
{ACAD_XDICTIONARY
360
2C3
102
}
102
{ACAD_REACTORS
330
1A8
102
}
330
1A8
100
AcDbVisualStyle
  2

 70
     8
177
     2
291
     0
 71
     2
176
     1
 72
     2
176
     1
 73
     0
176
     1
 90
        0
176
     1
 40
0.6
176
     1
 41
30.0
176
     1
 63
     7
176
     1
 74
     1
176
     1
 91
        0
176
     1
 64
     7
176
     1
 65
   257
176
     1
 75
     1
176
     1
175
     1
176
     1
 42
1.0
176
     1
 92
        8
176
     1
 66
     8
176
     1
 43
1.0
176
     1
 76
     1
176
     1
 77
     6
176
     1
 78
     2
176
     1
 67
     7
176
     1
 79
     5
176
     1
170
     0
176
     1
171
     0
176
     1
290
     0
176
     1
 93
       13
176
     1
 44
0.0
176
     1
173
     0
176
     1
1001
ACAD
1000
AcDbSavedByObjectVersion
1070
     0
  0
VISUALSTYLE
  5
22C
102
{ACAD_XDICTIONARY
360
2DD
102
}
102
{ACAD_REACTORS
330
1A8
102
}
330
1A8
100
AcDbVisualStyle
  2
Shaded
 70
    27
177
     2
291
     0
 71
     2
176
     1
 72
     2
176
     1
 73
     1
176
     1
 90
        2
176
     1
 40
0.6
176
     1
 41
30.0
176
     1
 63
     7
421
 16777215
176
     1
 74
     0
176
     1
 91
        4
176
     1
 64
     7
176
     1
 65
   257
176
     1
 75
     1
176
     1
175
     1
176
     1
 42
1.0
176
     1
 92
        8
176
     1
 66
   257
176
     1
 43
1.0
176
     1
 76
     1
176
     1
 77
     6
176
     1
 78
     2
176
     1
 67
     8
425
  7895160
176
     1
 79
     3
176
     1
170
     0
176
     1
171
     0
176
     1
290
     0
176
     1
 93
        5
176
     1
 44
0.0
176
     1
173
     0
176
     1
1001
ACAD
1000
AcDbSavedByObjectVersion
1070
     0
  0
VISUALSTYLE
  5
22B
102
{ACAD_XDICTIONARY
360
2DB
102
}
102
{ACAD_REACTORS
330
1A8
102
}
330
1A8
100
AcDbVisualStyle
  2
Shaded with edges
 70
    26
177
     2
291
     0
 71
     2
176
     1
 72
     2
176
     1
 73
     1
176
     1
 90
        2
176
     1
 40
0.6
176
     1
 41
30.0
176
     1
 63
     7
421
 16777215
176
     1
 74
     1
176
     1
 91
       10
176
     1
 64
     7
176
     1
 65
   257
176
     1
 75
     2
176
     1
175
     1
176
     1
 42
1.0
176
     1
 92
        8
176
     1
 66
   257
176
     1
 43
1.0
176
     1
 76
     1
176
     1
 77
     6
176
     1
 78
     2
176
     1
 67
     7
176
     1
 79
     3
176
     1
170
     0
176
     1
171
     0
176
     1
290
     0
176
     1
 93
        5
176
     1
 44
0.0
176
     1
173
     0
176
     1
1001
ACAD
1000
AcDbSavedByObjectVersion
1070
     0
  0
VISUALSTYLE
  5
228
102
{ACAD_XDICTIONARY
360
2D5
102
}
102
{ACAD_REACTORS
330
1A8
102
}
330
1A8
100
AcDbVisualStyle
  2
Shades of Gray
 70
    23
177
     2
291
     0
 71
     2
176
     1
 72
     2
176
     1
 73
     3
176
     1
 90
        0
176
     1
 40
0.6
176
     1
 41
30.0
176
     1
 63
     7
421
 16777215
176
     1
 74
     2
176
     1
 91
        2
176
     1
 64
     7
176
     1
 65
     7
176
     1
 75
     1
176
     1
175
     1
176
     1
 42
40.0
176
     1
 92
        8
176
     1
 66
     7
176
     1
 43
1.0
176
     1
 76
     1
176
     1
 77
     6
176
     1
 78
     2
176
     1
 67
     7
176
     1
 79
     3
176
     1
170
     0
176
     1
171
     0
176
     1
290
     0
176
     1
 93
        1
176
     1
 44
0.0
176
     1
173
     0
176
     1
1001
ACAD
1000
AcDbSavedByObjectVersion
1070
     0
  0
VISUALSTYLE
  5
229
102
{ACAD_XDICTIONARY
360
2D7
102
}
102
{ACAD_REACTORS
330
1A8
102
}
330
1A8
100
AcDbVisualStyle
  2
Sketchy
 70
    24
177
     2
291
     0
 71
     1
176
     1
 72
     2
176
     1
 73
     2
176
     1
 90
        0
176
     1
 40
0.6
176
     1
 41
30.0
176
     1
 63
     7
421
 16777215
176
     1
 74
     2
176
     1
 91
        2
176
     1
 64
     7
176
     1
 65
     7
176
     1
 75
     1
176
     1
175
     1
176
     1
 42
40.0
176
     1
 92
       11
176
     1
 66
     7
176
     1
 43
1.0
176
     1
 76
     1
176
     1
 77
     6
176
     1
 78
     2
176
     1
 67
     7
176
     1
 79
     6
176
     1
170
     0
176
     1
171
     0
176
     1
290
     0
176
     1
 93
        1
176
     1
 44
0.0
176
     1
173
     0
176
     1
1001
ACAD
1000
AcDbSavedByObjectVersion
1070
     0
  0
VISUALSTYLE
  5
1B5
102
{ACAD_XDICTIONARY
360
2C9
102
}
102
{ACAD_REACTORS
330
1A8
102
}
330
1A8
100
AcDbVisualStyle
  2

 70
    13
177
     2
291
     1
 71
     2
176
     1
 72
     2
176
     1
 73
     0
176
     1
 90
        0
176
     1
 40
0.6
176
     1
 41
30.0
176
     1
 63
     7
176
     1
 74
     1
176
     1
 91
        4
176
     1
 64
     7
176
     1
 65
   257
176
     1
 75
     1
176
     1
175
     1
176
     1
 42
1.0
176
     1
 92
       12
176
     1
 66
     7
176
     1
 43
1.0
176
     1
 76
     1
176
     1
 77
     6
176
     1
 78
     2
176
     1
 67
     7
176
     1
 79
     5
176
     1
170
     0
176
     1
171
     0
176
     1
290
     0
176
     1
 93
        1
176
     1
 44
0.0
176
     1
173
     0
176
     1
1001
ACAD
1000
AcDbSavedByObjectVersion
1070
     0
  0
VISUALSTYLE
  5
226
102
{ACAD_XDICTIONARY
360
2D1
102
}
102
{ACAD_REACTORS
330
1A8
102
}
330
1A8
100
AcDbVisualStyle
  2
Wireframe
 70
     5
177
     2
291
     0
 71
     0
176
     1
 72
     2
176
     1
 73
     0
176
     1
 90
        0
176
     1
 40
0.6
176
     1
 41
30.0
176
     1
 63
     7
421
 16777215
176
     1
 74
     1
176
     1
 91
        4
176
     1
 64
     7
176
     1
 65
   257
176
     1
 75
     1
176
     1
175
     1
176
     1
 42
1.0
176
     1
 92
        0
176
     1
 66
   257
176
     1
 43
1.0
176
     1
 76
     1
176
     1
 77
     6
176
     1
 78
     2
176
     1
 67
     7
176
     1
 79
     3
176
     1
170
     0
176
     1
171
     0
176
     1
290
     0
176
     1
 93
        1
176
     1
 44
0.0
176
     1
173
     0
176
     1
1001
ACAD
1000
AcDbSavedByObjectVersion
1070
     0
  0
VISUALSTYLE
  5
22A
102
{ACAD_XDICTIONARY
360
2D9
102
}
102
{ACAD_REACTORS
330
1A8
102
}
330
1A8
100
AcDbVisualStyle
  2
X-Ray
 70
    25
177
     2
291
     0
 71
     2
176
     1
 72
     2
176
     1
 73
     1
176
     1
 90
        1
176
     1
 40
0.5
176
     1
 41
30.0
176
     1
 63
     7
421
 16777215
176
     1
 74
     1
176
     1
 91
        0
176
     1
 64
     7
176
     1
 65
   257
176
     1
 75
     1
176
     1
175
     1
176
     1
 42
1.0
176
     1
 92
        8
176
     1
 66
     7
176
     1
 43
1.0
176
     1
 76
     1
176
     1
 77
     6
176
     1
 78
     2
176
     1
 67
     7
176
     1
 79
     3
176
     1
170
     0
176
     1
171
     0
176
     1
290
     0
176
     1
 93
       13
176
     1
 44
0.0
176
     1
173
     0
176
     1
1001
ACAD
1000
AcDbSavedByObjectVersion
1070
     0
  0
DICTIONARYVAR
  5
2AA
102
{ACAD_REACTORS
330
1C1
102
}
330
1C1
100
DictionaryVariables
280
     0
  1
1:1
  0
DICTIONARYVAR
  5
2A6
102
{ACAD_REACTORS
330
1C1
102
}
330
1C1
100
DictionaryVariables
280
     0
  1
STANDARD
  0
DICTIONARYVAR
  5
1C2
102
{ACAD_REACTORS
330
1C1
102
}
330
1C1
100
DictionaryVariables
280
     0
  1
STANDARD
  0
DICTIONARYVAR
  5
2A7
102
{ACAD_REACTORS
330
1C1
102
}
330
1C1
100
DictionaryVariables
280
     0
  1
Imperial24
  0
DICTIONARYVAR
  5
2A8
102
{ACAD_REACTORS
330
1C1
102
}
330
1C1
100
DictionaryVariables
280
     0
  1
Imperial24
  0
DICTIONARYVAR
  5
1F4
102
{ACAD_REACTORS
330
1C1
102
}
330
1C1
100
DictionaryVariables
280
     0
  1
1
  0
DICTIONARYVAR
  5
1F3
102
{ACAD_REACTORS
330
1C1
102
}
330
1C1
100
DictionaryVariables
280
     0
  1
0
  0
DICTIONARYVAR
  5
2AC
102
{ACAD_REACTORS
330
1C1
102
}
330
1C1
100
DictionaryVariables
280
     0
  1
1
  0
DICTIONARYVAR
  5
2AD
102
{ACAD_REACTORS
330
1C1
102
}
330
1C1
100
DictionaryVariables
280
     0
  1
15
  0
DICTIONARYVAR
  5
2AB
102
{ACAD_REACTORS
330
1C1
102
}
330
1C1
100
DictionaryVariables
280
     0
  1
0
  0
DICTIONARYVAR
  5
2A9
102
{ACAD_REACTORS
330
1C1
102
}
330
1C1
100
DictionaryVariables
280
     0
  1
0
  0
DICTIONARYVAR
  5
1F2
102
{ACAD_REACTORS
330
1C1
102
}
330
1C1
100
DictionaryVariables
280
     0
  1
127
  0
DICTIONARY
  5
2E7
330
247
100
AcDbDictionary
280
     1
281
     1
  3
ACAD_XREC_ROUNDTRIP
360
2E8
  0
DICTIONARY
  5
1F8
330
1A6
100
AcDbDictionary
280
     1
281
     1
  3
ACAD_XREC_ROUNDTRIP
360
1F9
  0
DICTIONARY
  5
1F6
330
1A5
100
AcDbDictionary
280
     1
281
     1
  3
ACAD_XREC_ROUNDTRIP
360
1F7
  0
DICTIONARY
  5
1FA
330
1A7
100
AcDbDictionary
280
     1
281
     1
  3
ACAD_XREC_ROUNDTRIP
360
1FB
  0
DICTIONARY
  5
2E5
330
245
100
AcDbDictionary
280
     1
281
     1
  3
ACAD_XREC_ROUNDTRIP
360
2E6
  0
DICTIONARY
  5
2AE
330
1BB
100
AcDbDictionary
280
     1
281
     1
  3
ACAD_ROUNDTRIP_2008_TABLESTYLE_CELLSTYLEMAP
360
2AF
  0
DICTIONARY
  5
2BB
330
1AE
100
AcDbDictionary
280
     1
281
     1
  3
ACAD_XREC_ROUNDTRIP
360
2BC
  0
DICTIONARY
  5
2BF
330
1B0
100
AcDbDictionary
280
     1
281
     1
  3
ACAD_XREC_ROUNDTRIP
360
2C0
  0
DICTIONARY
  5
2BD
330
1AF
100
AcDbDictionary
280
     1
281
     1
  3
ACAD_XREC_ROUNDTRIP
360
2BE
  0
DICTIONARY
  5
2B9
330
1AD
100
AcDbDictionary
280
     1
281
     1
  3
ACAD_XREC_ROUNDTRIP
360
2BA
  0
DICTIONARY
  5
2C7
330
1B4
100
AcDbDictionary
280
     1
281
     1
  3
ACAD_XREC_ROUNDTRIP
360
2C8
  0
DICTIONARY
  5
2CF
330
1B8
100
AcDbDictionary
280
     1
281
     1
  3
ACAD_XREC_ROUNDTRIP
360
2D0
  0
DICTIONARY
  5
2C1
330
1B1
100
AcDbDictionary
280
     1
281
     1
  3
ACAD_XREC_ROUNDTRIP
360
2C2
  0
DICTIONARY
  5
2C5
330
1B3
100
AcDbDictionary
280
     1
281
     1
  3
ACAD_XREC_ROUNDTRIP
360
2C6
  0
DICTIONARY
  5
2E3
330
22F
100
AcDbDictionary
280
     1
281
     1
  3
ACAD_XREC_ROUNDTRIP
360
2E4
  0
DICTIONARY
  5
2CD
330
1B7
100
AcDbDictionary
280
     1
281
     1
  3
ACAD_XREC_ROUNDTRIP
360
2CE
  0
DICTIONARY
  5
2B1
330
1A9
100
AcDbDictionary
280
     1
281
     1
  3
ACAD_XREC_ROUNDTRIP
360
2B2
  0
DICTIONARY
  5
2B3
330
1AA
100
AcDbDictionary
280
     1
281
     1
  3
ACAD_XREC_ROUNDTRIP
360
2B4
  0
DICTIONARY
  5
2B5
330
1AB
100
AcDbDictionary
280
     1
281
     1
  3
ACAD_XREC_ROUNDTRIP
360
2B6
  0
DICTIONARY
  5
2B7
330
1AC
100
AcDbDictionary
280
     1
281
     1
  3
ACAD_XREC_ROUNDTRIP
360
2B8
  0
DICTIONARY
  5
2D3
330
227
100
AcDbDictionary
280
     1
281
     1
  3
ACAD_XREC_ROUNDTRIP
360
2D4
  0
DICTIONARY
  5
2DF
330
22D
100
AcDbDictionary
280
     1
281
     1
  3
ACAD_XREC_ROUNDTRIP
360
2E0
  0
DICTIONARY
  5
2CB
330
1B6
100
AcDbDictionary
280
     1
281
     1
  3
ACAD_XREC_ROUNDTRIP
360
2CC
  0
DICTIONARY
  5
2E1
330
22E
100
AcDbDictionary
280
     1
281
     1
  3
ACAD_XREC_ROUNDTRIP
360
2E2
  0
DICTIONARY
  5
2C3
330
1B2
100
AcDbDictionary
280
     1
281
     1
  3
ACAD_XREC_ROUNDTRIP
360
2C4
  0
DICTIONARY
  5
2DD
330
22C
100
AcDbDictionary
280
     1
281
     1
  3
ACAD_XREC_ROUNDTRIP
360
2DE
  0
DICTIONARY
  5
2DB
330
22B
100
AcDbDictionary
280
     1
281
     1
  3
ACAD_XREC_ROUNDTRIP
360
2DC
  0
DICTIONARY
  5
2D5
330
228
100
AcDbDictionary
280
     1
281
     1
  3
ACAD_XREC_ROUNDTRIP
360
2D6
  0
DICTIONARY
  5
2D7
330
229
100
AcDbDictionary
280
     1
281
     1
  3
ACAD_XREC_ROUNDTRIP
360
2D8
  0
DICTIONARY
  5
2C9
330
1B5
100
AcDbDictionary
280
     1
281
     1
  3
ACAD_XREC_ROUNDTRIP
360
2CA
  0
DICTIONARY
  5
2D1
330
226
100
AcDbDictionary
280
     1
281
     1
  3
ACAD_XREC_ROUNDTRIP
360
2D2
  0
DICTIONARY
  5
2D9
330
22A
100
AcDbDictionary
280
     1
281
     1
  3
ACAD_XREC_ROUNDTRIP
360
2DA
  0
XRECORD
  5
2E8
102
{ACAD_REACTORS
330
2E7
102
}
330
2E7
100
AcDbXrecord
280
     1
102
DISPLAYNAME
  1
Imperial24
102
FLAGS
 90
        0
  0
XRECORD
  5
1F9
102
{ACAD_REACTORS
330
1F8
102
}
330
1F8
100
AcDbXrecord
280
     1
102
MATERIAL
148
0.0
149
0.0
149
0.0
 93
        0
 94
       63
282
     0
 72
     1
 77
     1
171
     1
175
     1
179
     1
273
     0
  0
XRECORD
  5
1F7
102
{ACAD_REACTORS
330
1F6
102
}
330
1F6
100
AcDbXrecord
280
     1
102
MATERIAL
148
0.0
149
0.0
149
0.0
 93
        0
 94
       63
282
     0
 72
     1
 77
     1
171
     1
175
     1
179
     1
273
     0
  0
XRECORD
  5
1FB
102
{ACAD_REACTORS
330
1FA
102
}
330
1FA
100
AcDbXrecord
280
     1
102
MATERIAL
148
0.0
149
0.0
149
0.0
 93
        0
 94
       63
282
     0
 72
     1
 77
     1
171
     1
175
     1
179
     1
273
     0
  0
XRECORD
  5
2E6
102
{ACAD_REACTORS
330
2E5
102
}
330
2E5
100
AcDbXrecord
280
     1
102
DISPLAYNAME
  1
Imperial24
102
FLAGS
 90
        0
  0
CELLSTYLEMAP
  5
2AF
102
{ACAD_REACTORS
330
2AE
102
}
330
2AE
100
AcDbCellStyleMap
 90
        3
300
CELLSTYLE
  1
TABLEFORMAT_BEGIN
 90
        5
170
     1
 91
        0
 92
    32768
 62
   257
 93
        1
300
CONTENTFORMAT
  1
CONTENTFORMAT_BEGIN
 90
        0
 91
        0
 92
      512
 93
        0
300

 40
0.0
140
1.0
 94
        5
 62
     0
340
11
144
0.25
309
CONTENTFORMAT_END
171
     0
 94
        6
 95
        1
302
GRIDFORMAT
  1
GRIDFORMAT_BEGIN
 90
        0
 91
        1
 62
     0
 92
       -2
340
0
 93
        0
 40
0.045
309
GRIDFORMAT_END
 95
        2
302
GRIDFORMAT
  1
GRIDFORMAT_BEGIN
 90
        0
 91
        1
 62
     0
 92
       -2
340
0
 93
        0
 40
0.045
309
GRIDFORMAT_END
 95
        4
302
GRIDFORMAT
  1
GRIDFORMAT_BEGIN
 90
        0
 91
        1
 62
     0
 92
       -2
340
0
 93
        0
 40
0.045
309
GRIDFORMAT_END
 95
        8
302
GRIDFORMAT
  1
GRIDFORMAT_BEGIN
 90
        0
 91
        1
 62
     0
 92
       -2
340
0
 93
        0
 40
0.045
309
GRIDFORMAT_END
 95
       16
302
GRIDFORMAT
  1
GRIDFORMAT_BEGIN
 90
        0
 91
        1
 62
     0
 92
       -2
340
0
 93
        0
 40
0.045
309
GRIDFORMAT_END
 95
       32
302
GRIDFORMAT
  1
GRIDFORMAT_BEGIN
 90
        0
 91
        1
 62
     0
 92
       -2
340
0
 93
        0
 40
0.045
309
GRIDFORMAT_END
309
TABLEFORMAT_END
  1
CELLSTYLE_BEGIN
 90
        1
 91
        1
300
_TITLE
309
CELLSTYLE_END
300
CELLSTYLE
  1
TABLEFORMAT_BEGIN
 90
        5
170
     1
 91
        0
 92
        0
 62
   257
 93
        1
300
CONTENTFORMAT
  1
CONTENTFORMAT_BEGIN
 90
        0
 91
        0
 92
      512
 93
        0
300

 40
0.0
140
1.0
 94
        5
 62
     0
340
11
144
0.18
309
CONTENTFORMAT_END
171
     0
 94
        6
 95
        1
302
GRIDFORMAT
  1
GRIDFORMAT_BEGIN
 90
        0
 91
        1
 62
     0
 92
       -2
340
0
 93
        0
 40
0.045
309
GRIDFORMAT_END
 95
        2
302
GRIDFORMAT
  1
GRIDFORMAT_BEGIN
 90
        0
 91
        1
 62
     0
 92
       -2
340
0
 93
        0
 40
0.045
309
GRIDFORMAT_END
 95
        4
302
GRIDFORMAT
  1
GRIDFORMAT_BEGIN
 90
        0
 91
        1
 62
     0
 92
       -2
340
0
 93
        0
 40
0.045
309
GRIDFORMAT_END
 95
        8
302
GRIDFORMAT
  1
GRIDFORMAT_BEGIN
 90
        0
 91
        1
 62
     0
 92
       -2
340
0
 93
        0
 40
0.045
309
GRIDFORMAT_END
 95
       16
302
GRIDFORMAT
  1
GRIDFORMAT_BEGIN
 90
        0
 91
        1
 62
     0
 92
       -2
340
0
 93
        0
 40
0.045
309
GRIDFORMAT_END
 95
       32
302
GRIDFORMAT
  1
GRIDFORMAT_BEGIN
 90
        0
 91
        1
 62
     0
 92
       -2
340
0
 93
        0
 40
0.045
309
GRIDFORMAT_END
309
TABLEFORMAT_END
  1
CELLSTYLE_BEGIN
 90
        2
 91
        1
300
_HEADER
309
CELLSTYLE_END
300
CELLSTYLE
  1
TABLEFORMAT_BEGIN
 90
        5
170
     1
 91
        0
 92
        0
 62
   257
 93
        1
300
CONTENTFORMAT
  1
CONTENTFORMAT_BEGIN
 90
        0
 91
        0
 92
      512
 93
        0
300

 40
0.0
140
1.0
 94
        2
 62
     0
340
11
144
0.18
309
CONTENTFORMAT_END
171
     0
 94
        6
 95
        1
302
GRIDFORMAT
  1
GRIDFORMAT_BEGIN
 90
        0
 91
        1
 62
     0
 92
       -2
340
0
 93
        0
 40
0.045
309
GRIDFORMAT_END
 95
        2
302
GRIDFORMAT
  1
GRIDFORMAT_BEGIN
 90
        0
 91
        1
 62
     0
 92
       -2
340
0
 93
        0
 40
0.045
309
GRIDFORMAT_END
 95
        4
302
GRIDFORMAT
  1
GRIDFORMAT_BEGIN
 90
        0
 91
        1
 62
     0
 92
       -2
340
0
 93
        0
 40
0.045
309
GRIDFORMAT_END
 95
        8
302
GRIDFORMAT
  1
GRIDFORMAT_BEGIN
 90
        0
 91
        1
 62
     0
 92
       -2
340
0
 93
        0
 40
0.045
309
GRIDFORMAT_END
 95
       16
302
GRIDFORMAT
  1
GRIDFORMAT_BEGIN
 90
        0
 91
        1
 62
     0
 92
       -2
340
0
 93
        0
 40
0.045
309
GRIDFORMAT_END
 95
       32
302
GRIDFORMAT
  1
GRIDFORMAT_BEGIN
 90
        0
 91
        1
 62
     0
 92
       -2
340
0
 93
        0
 40
0.045
309
GRIDFORMAT_END
309
TABLEFORMAT_END
  1
CELLSTYLE_BEGIN
 90
        3
 91
        2
300
_DATA
309
CELLSTYLE_END
  0
XRECORD
  5
2BC
102
{ACAD_REACTORS
330
2BB
102
}
330
2BB
100
AcDbXrecord
280
     1
102
RTVSPost2010Prop28
280
     1
102
RTVSPost2010PropOp28
 70
     1
102
RTVSPost2010Prop29
280
     1
102
RTVSPost2010PropOp29
 70
     1
102
RTVSPost2010Prop30
280
     0
102
RTVSPost2010PropOp30
 70
     1
102
RTVSPost2010Prop31
280
     0
102
RTVSPost2010PropOp31
 70
     1
102
RTVSPost2010Prop32
280
     0
102
RTVSPost2010PropOp32
 70
     1
102
RTVSPost2010Prop33
280
     0
102
RTVSPost2010PropOp33
 70
     1
102
RTVSPost2010Prop34
280
     0
102
RTVSPost2010PropOp34
 70
     1
102
RTVSPost2010Prop35
280
     0
102
RTVSPost2010PropOp35
 70
     1
102
RTVSPost2010Prop36
280
     0
102
RTVSPost2010PropOp36
 70
     1
102
RTVSPost2010Prop37
 90
       50
102
RTVSPost2010PropOp37
 70
     1
102
RTVSPost2010Prop38
140
0.0
102
RTVSPost2010PropOp38
 70
     1
102
RTVSPost2010Prop39
140
1.0
102
RTVSPost2010PropOp39
 70
     1
102
RTVSPost2010Prop40
 90
        0
102
RTVSPost2010PropOp40
 70
     1
102
RTVSPost2010Prop41ColorIndex
 90
       18
102
RTVSPost2010Prop41ColorRGB
 90
        0
102
RTVSPost2010PropOp41
 70
     1
102
RTVSPost2010Prop42
 90
       50
102
RTVSPost2010PropOp42
 70
     1
102
RTVSPost2010Prop43
 90
        3
102
RTVSPost2010PropOp43
 70
     1
102
RTVSPost2010Prop44ColorIndex
 90
        5
102
RTVSPost2010Prop44ColorRGB
 90
      255
102
RTVSPost2010PropOp44
 70
     1
102
RTVSPost2010Prop45
280
     0
102
RTVSPost2010PropOp45
 70
     1
102
RTVSPost2010Prop46
 90
       50
102
RTVSPost2010PropOp46
 70
     1
102
RTVSPost2010Prop47
 90
       50
102
RTVSPost2010PropOp47
 70
     1
102
RTVSPost2010Prop48
 90
       50
102
RTVSPost2010PropOp48
 70
     1
102
RTVSPost2010Prop49
280
     0
102
RTVSPost2010PropOp49
 70
     1
102
RTVSPost2010Prop50
 90
       50
102
RTVSPost2010PropOp50
 70
     1
102
RTVSPost2010Prop51ColorIndex
 90
      256
102
RTVSPost2010Prop51ColorRGB
 90
-16777216
102
RTVSPost2010PropOp51
 70
     0
102
RTVSPost2010Prop52
140
1.0
102
RTVSPost2010PropOp52
 70
     0
102
RTVSPost2010Prop53
 90
        2
102
RTVSPost2010PropOp53
 70
     1
102
RTVSPost2010Prop54
  1
strokes_ogs.tif
102
RTVSPost2010PropOp54
 70
     1
102
RTVSPost2010Prop55
280
     0
102
RTVSPost2010PropOp55
 70
     1
102
RTVSPost2010Prop56
140
1.0
102
RTVSPost2010PropOp56
 70
     1
102
RTVSPost2010Prop57
140
1.0
102
RTVSPost2010PropOp57
 70
     1
  0
XRECORD
  5
2C0
102
{ACAD_REACTORS
330
2BF
102
}
330
2BF
100
AcDbXrecord
280
     1
102
RTVSPost2010Prop28
280
     0
102
RTVSPost2010PropOp28
 70
     1
102
RTVSPost2010Prop29
280
     1
102
RTVSPost2010PropOp29
 70
     1
102
RTVSPost2010Prop30
280
     1
102
RTVSPost2010PropOp30
 70
     1
102
RTVSPost2010Prop31
280
     0
102
RTVSPost2010PropOp31
 70
     1
102
RTVSPost2010Prop32
280
     0
102
RTVSPost2010PropOp32
 70
     1
102
RTVSPost2010Prop33
280
     0
102
RTVSPost2010PropOp33
 70
     1
102
RTVSPost2010Prop34
280
     0
102
RTVSPost2010PropOp34
 70
     1
102
RTVSPost2010Prop35
280
     0
102
RTVSPost2010PropOp35
 70
     1
102
RTVSPost2010Prop36
280
     0
102
RTVSPost2010PropOp36
 70
     1
102
RTVSPost2010Prop37
 90
       50
102
RTVSPost2010PropOp37
 70
     1
102
RTVSPost2010Prop38
140
0.0
102
RTVSPost2010PropOp38
 70
     1
102
RTVSPost2010Prop39
140
1.0
102
RTVSPost2010PropOp39
 70
     1
102
RTVSPost2010Prop40
 90
        0
102
RTVSPost2010PropOp40
 70
     1
102
RTVSPost2010Prop41ColorIndex
 90
       18
102
RTVSPost2010Prop41ColorRGB
 90
        0
102
RTVSPost2010PropOp41
 70
     1
102
RTVSPost2010Prop42
 90
       50
102
RTVSPost2010PropOp42
 70
     1
102
RTVSPost2010Prop43
 90
        3
102
RTVSPost2010PropOp43
 70
     1
102
RTVSPost2010Prop44ColorIndex
 90
        5
102
RTVSPost2010Prop44ColorRGB
 90
      255
102
RTVSPost2010PropOp44
 70
     1
102
RTVSPost2010Prop45
280
     0
102
RTVSPost2010PropOp45
 70
     1
102
RTVSPost2010Prop46
 90
       50
102
RTVSPost2010PropOp46
 70
     1
102
RTVSPost2010Prop47
 90
       50
102
RTVSPost2010PropOp47
 70
     1
102
RTVSPost2010Prop48
 90
       50
102
RTVSPost2010PropOp48
 70
     1
102
RTVSPost2010Prop49
280
     0
102
RTVSPost2010PropOp49
 70
     1
102
RTVSPost2010Prop50
 90
       50
102
RTVSPost2010PropOp50
 70
     1
102
RTVSPost2010Prop51ColorIndex
 90
      256
102
RTVSPost2010Prop51ColorRGB
 90
-16777216
102
RTVSPost2010PropOp51
 70
     0
102
RTVSPost2010Prop52
140
1.0
102
RTVSPost2010PropOp52
 70
     0
102
RTVSPost2010Prop53
 90
        2
102
RTVSPost2010PropOp53
 70
     1
102
RTVSPost2010Prop54
  1
strokes_ogs.tif
102
RTVSPost2010PropOp54
 70
     1
102
RTVSPost2010Prop55
280
     0
102
RTVSPost2010PropOp55
 70
     1
102
RTVSPost2010Prop56
140
1.0
102
RTVSPost2010PropOp56
 70
     1
102
RTVSPost2010Prop57
140
1.0
102
RTVSPost2010PropOp57
 70
     1
  0
XRECORD
  5
2BE
102
{ACAD_REACTORS
330
2BD
102
}
330
2BD
100
AcDbXrecord
280
     1
102
RTVSPost2010Prop28
280
     0
102
RTVSPost2010PropOp28
 70
     1
102
RTVSPost2010Prop29
280
     1
102
RTVSPost2010PropOp29
 70
     1
102
RTVSPost2010Prop30
280
     1
102
RTVSPost2010PropOp30
 70
     1
102
RTVSPost2010Prop31
280
     0
102
RTVSPost2010PropOp31
 70
     1
102
RTVSPost2010Prop32
280
     0
102
RTVSPost2010PropOp32
 70
     1
102
RTVSPost2010Prop33
280
     0
102
RTVSPost2010PropOp33
 70
     1
102
RTVSPost2010Prop34
280
     0
102
RTVSPost2010PropOp34
 70
     1
102
RTVSPost2010Prop35
280
     0
102
RTVSPost2010PropOp35
 70
     1
102
RTVSPost2010Prop36
280
     0
102
RTVSPost2010PropOp36
 70
     1
102
RTVSPost2010Prop37
 90
       50
102
RTVSPost2010PropOp37
 70
     1
102
RTVSPost2010Prop38
140
0.0
102
RTVSPost2010PropOp38
 70
     1
102
RTVSPost2010Prop39
140
1.0
102
RTVSPost2010PropOp39
 70
     1
102
RTVSPost2010Prop40
 90
        0
102
RTVSPost2010PropOp40
 70
     1
102
RTVSPost2010Prop41ColorIndex
 90
       18
102
RTVSPost2010Prop41ColorRGB
 90
        0
102
RTVSPost2010PropOp41
 70
     1
102
RTVSPost2010Prop42
 90
       50
102
RTVSPost2010PropOp42
 70
     1
102
RTVSPost2010Prop43
 90
        3
102
RTVSPost2010PropOp43
 70
     1
102
RTVSPost2010Prop44ColorIndex
 90
        5
102
RTVSPost2010Prop44ColorRGB
 90
      255
102
RTVSPost2010PropOp44
 70
     1
102
RTVSPost2010Prop45
280
     0
102
RTVSPost2010PropOp45
 70
     1
102
RTVSPost2010Prop46
 90
       50
102
RTVSPost2010PropOp46
 70
     1
102
RTVSPost2010Prop47
 90
       50
102
RTVSPost2010PropOp47
 70
     1
102
RTVSPost2010Prop48
 90
       50
102
RTVSPost2010PropOp48
 70
     1
102
RTVSPost2010Prop49
280
     0
102
RTVSPost2010PropOp49
 70
     1
102
RTVSPost2010Prop50
 90
       50
102
RTVSPost2010PropOp50
 70
     1
102
RTVSPost2010Prop51ColorIndex
 90
      256
102
RTVSPost2010Prop51ColorRGB
 90
-16777216
102
RTVSPost2010PropOp51
 70
     0
102
RTVSPost2010Prop52
140
1.0
102
RTVSPost2010PropOp52
 70
     0
102
RTVSPost2010Prop53
 90
        2
102
RTVSPost2010PropOp53
 70
     1
102
RTVSPost2010Prop54
  1
strokes_ogs.tif
102
RTVSPost2010PropOp54
 70
     1
102
RTVSPost2010Prop55
280
     0
102
RTVSPost2010PropOp55
 70
     1
102
RTVSPost2010Prop56
140
1.0
102
RTVSPost2010PropOp56
 70
     1
102
RTVSPost2010Prop57
140
1.0
102
RTVSPost2010PropOp57
 70
     1
  0
XRECORD
  5
2BA
102
{ACAD_REACTORS
330
2B9
102
}
330
2B9
100
AcDbXrecord
280
     1
102
RTVSPost2010Prop28
280
     0
102
RTVSPost2010PropOp28
 70
     1
102
RTVSPost2010Prop29
280
     1
102
RTVSPost2010PropOp29
 70
     1
102
RTVSPost2010Prop30
280
     1
102
RTVSPost2010PropOp30
 70
     1
102
RTVSPost2010Prop31
280
     0
102
RTVSPost2010PropOp31
 70
     1
102
RTVSPost2010Prop32
280
     0
102
RTVSPost2010PropOp32
 70
     1
102
RTVSPost2010Prop33
280
     0
102
RTVSPost2010PropOp33
 70
     1
102
RTVSPost2010Prop34
280
     0
102
RTVSPost2010PropOp34
 70
     1
102
RTVSPost2010Prop35
280
     0
102
RTVSPost2010PropOp35
 70
     1
102
RTVSPost2010Prop36
280
     0
102
RTVSPost2010PropOp36
 70
     1
102
RTVSPost2010Prop37
 90
       50
102
RTVSPost2010PropOp37
 70
     1
102
RTVSPost2010Prop38
140
0.0
102
RTVSPost2010PropOp38
 70
     1
102
RTVSPost2010Prop39
140
1.0
102
RTVSPost2010PropOp39
 70
     1
102
RTVSPost2010Prop40
 90
        0
102
RTVSPost2010PropOp40
 70
     1
102
RTVSPost2010Prop41ColorIndex
 90
       18
102
RTVSPost2010Prop41ColorRGB
 90
        0
102
RTVSPost2010PropOp41
 70
     1
102
RTVSPost2010Prop42
 90
       50
102
RTVSPost2010PropOp42
 70
     1
102
RTVSPost2010Prop43
 90
        3
102
RTVSPost2010PropOp43
 70
     1
102
RTVSPost2010Prop44ColorIndex
 90
        5
102
RTVSPost2010Prop44ColorRGB
 90
      255
102
RTVSPost2010PropOp44
 70
     1
102
RTVSPost2010Prop45
280
     0
102
RTVSPost2010PropOp45
 70
     1
102
RTVSPost2010Prop46
 90
       50
102
RTVSPost2010PropOp46
 70
     1
102
RTVSPost2010Prop47
 90
       50
102
RTVSPost2010PropOp47
 70
     1
102
RTVSPost2010Prop48
 90
       50
102
RTVSPost2010PropOp48
 70
     1
102
RTVSPost2010Prop49
280
     0
102
RTVSPost2010PropOp49
 70
     1
102
RTVSPost2010Prop50
 90
       50
102
RTVSPost2010PropOp50
 70
     1
102
RTVSPost2010Prop51ColorIndex
 90
      256
102
RTVSPost2010Prop51ColorRGB
 90
-16777216
102
RTVSPost2010PropOp51
 70
     0
102
RTVSPost2010Prop52
140
1.0
102
RTVSPost2010PropOp52
 70
     0
102
RTVSPost2010Prop53
 90
        2
102
RTVSPost2010PropOp53
 70
     1
102
RTVSPost2010Prop54
  1
strokes_ogs.tif
102
RTVSPost2010PropOp54
 70
     1
102
RTVSPost2010Prop55
280
     0
102
RTVSPost2010PropOp55
 70
     1
102
RTVSPost2010Prop56
140
1.0
102
RTVSPost2010PropOp56
 70
     1
102
RTVSPost2010Prop57
140
1.0
102
RTVSPost2010PropOp57
 70
     1
  0
XRECORD
  5
2C8
102
{ACAD_REACTORS
330
2C7
102
}
330
2C7
100
AcDbXrecord
280
     1
102
RTVSPost2010Prop28
280
     0
102
RTVSPost2010PropOp28
 70
     1
102
RTVSPost2010Prop29
280
     1
102
RTVSPost2010PropOp29
 70
     1
102
RTVSPost2010Prop30
280
     1
102
RTVSPost2010PropOp30
 70
     1
102
RTVSPost2010Prop31
280
     0
102
RTVSPost2010PropOp31
 70
     1
102
RTVSPost2010Prop32
280
     0
102
RTVSPost2010PropOp32
 70
     1
102
RTVSPost2010Prop33
280
     0
102
RTVSPost2010PropOp33
 70
     1
102
RTVSPost2010Prop34
280
     0
102
RTVSPost2010PropOp34
 70
     1
102
RTVSPost2010Prop35
280
     0
102
RTVSPost2010PropOp35
 70
     1
102
RTVSPost2010Prop36
280
     0
102
RTVSPost2010PropOp36
 70
     1
102
RTVSPost2010Prop37
 90
       50
102
RTVSPost2010PropOp37
 70
     1
102
RTVSPost2010Prop38
140
0.0
102
RTVSPost2010PropOp38
 70
     1
102
RTVSPost2010Prop39
140
1.0
102
RTVSPost2010PropOp39
 70
     1
102
RTVSPost2010Prop40
 90
        0
102
RTVSPost2010PropOp40
 70
     1
102
RTVSPost2010Prop41ColorIndex
 90
       18
102
RTVSPost2010Prop41ColorRGB
 90
        0
102
RTVSPost2010PropOp41
 70
     1
102
RTVSPost2010Prop42
 90
       50
102
RTVSPost2010PropOp42
 70
     1
102
RTVSPost2010Prop43
 90
        3
102
RTVSPost2010PropOp43
 70
     1
102
RTVSPost2010Prop44ColorIndex
 90
        5
102
RTVSPost2010Prop44ColorRGB
 90
      255
102
RTVSPost2010PropOp44
 70
     1
102
RTVSPost2010Prop45
280
     0
102
RTVSPost2010PropOp45
 70
     1
102
RTVSPost2010Prop46
 90
       50
102
RTVSPost2010PropOp46
 70
     1
102
RTVSPost2010Prop47
 90
       50
102
RTVSPost2010PropOp47
 70
     1
102
RTVSPost2010Prop48
 90
       50
102
RTVSPost2010PropOp48
 70
     1
102
RTVSPost2010Prop49
280
     0
102
RTVSPost2010PropOp49
 70
     1
102
RTVSPost2010Prop50
 90
       50
102
RTVSPost2010PropOp50
 70
     1
102
RTVSPost2010Prop51ColorIndex
 90
      256
102
RTVSPost2010Prop51ColorRGB
 90
-16777216
102
RTVSPost2010PropOp51
 70
     0
102
RTVSPost2010Prop52
140
1.0
102
RTVSPost2010PropOp52
 70
     0
102
RTVSPost2010Prop53
 90
        2
102
RTVSPost2010PropOp53
 70
     1
102
RTVSPost2010Prop54
  1
strokes_ogs.tif
102
RTVSPost2010PropOp54
 70
     1
102
RTVSPost2010Prop55
280
     0
102
RTVSPost2010PropOp55
 70
     1
102
RTVSPost2010Prop56
140
1.0
102
RTVSPost2010PropOp56
 70
     1
102
RTVSPost2010Prop57
140
1.0
102
RTVSPost2010PropOp57
 70
     1
  0
XRECORD
  5
2D0
102
{ACAD_REACTORS
330
2CF
102
}
330
2CF
100
AcDbXrecord
280
     1
102
RTVSPost2010Prop28
280
     0
102
RTVSPost2010PropOp28
 70
     1
102
RTVSPost2010Prop29
280
     1
102
RTVSPost2010PropOp29
 70
     1
102
RTVSPost2010Prop30
280
     1
102
RTVSPost2010PropOp30
 70
     1
102
RTVSPost2010Prop31
280
     0
102
RTVSPost2010PropOp31
 70
     1
102
RTVSPost2010Prop32
280
     0
102
RTVSPost2010PropOp32
 70
     1
102
RTVSPost2010Prop33
280
     0
102
RTVSPost2010PropOp33
 70
     1
102
RTVSPost2010Prop34
280
     0
102
RTVSPost2010PropOp34
 70
     1
102
RTVSPost2010Prop35
280
     0
102
RTVSPost2010PropOp35
 70
     1
102
RTVSPost2010Prop36
280
     0
102
RTVSPost2010PropOp36
 70
     1
102
RTVSPost2010Prop37
 90
       50
102
RTVSPost2010PropOp37
 70
     1
102
RTVSPost2010Prop38
140
0.0
102
RTVSPost2010PropOp38
 70
     1
102
RTVSPost2010Prop39
140
1.0
102
RTVSPost2010PropOp39
 70
     1
102
RTVSPost2010Prop40
 90
        0
102
RTVSPost2010PropOp40
 70
     1
102
RTVSPost2010Prop41ColorIndex
 90
       18
102
RTVSPost2010Prop41ColorRGB
 90
        0
102
RTVSPost2010PropOp41
 70
     1
102
RTVSPost2010Prop42
 90
       50
102
RTVSPost2010PropOp42
 70
     1
102
RTVSPost2010Prop43
 90
        3
102
RTVSPost2010PropOp43
 70
     1
102
RTVSPost2010Prop44ColorIndex
 90
        5
102
RTVSPost2010Prop44ColorRGB
 90
      255
102
RTVSPost2010PropOp44
 70
     1
102
RTVSPost2010Prop45
280
     0
102
RTVSPost2010PropOp45
 70
     1
102
RTVSPost2010Prop46
 90
       50
102
RTVSPost2010PropOp46
 70
     1
102
RTVSPost2010Prop47
 90
       50
102
RTVSPost2010PropOp47
 70
     1
102
RTVSPost2010Prop48
 90
       50
102
RTVSPost2010PropOp48
 70
     1
102
RTVSPost2010Prop49
280
     0
102
RTVSPost2010PropOp49
 70
     1
102
RTVSPost2010Prop50
 90
       50
102
RTVSPost2010PropOp50
 70
     1
102
RTVSPost2010Prop51ColorIndex
 90
      256
102
RTVSPost2010Prop51ColorRGB
 90
-16777216
102
RTVSPost2010PropOp51
 70
     0
102
RTVSPost2010Prop52
140
1.0
102
RTVSPost2010PropOp52
 70
     0
102
RTVSPost2010Prop53
 90
        2
102
RTVSPost2010PropOp53
 70
     1
102
RTVSPost2010Prop54
  1
strokes_ogs.tif
102
RTVSPost2010PropOp54
 70
     1
102
RTVSPost2010Prop55
280
     0
102
RTVSPost2010PropOp55
 70
     1
102
RTVSPost2010Prop56
140
1.0
102
RTVSPost2010PropOp56
 70
     1
102
RTVSPost2010Prop57
140
1.0
102
RTVSPost2010PropOp57
 70
     1
  0
XRECORD
  5
2C2
102
{ACAD_REACTORS
330
2C1
102
}
330
2C1
100
AcDbXrecord
280
     1
102
RTVSPost2010Prop28
280
     0
102
RTVSPost2010PropOp28
 70
     1
102
RTVSPost2010Prop29
280
     1
102
RTVSPost2010PropOp29
 70
     1
102
RTVSPost2010Prop30
280
     1
102
RTVSPost2010PropOp30
 70
     1
102
RTVSPost2010Prop31
280
     0
102
RTVSPost2010PropOp31
 70
     1
102
RTVSPost2010Prop32
280
     0
102
RTVSPost2010PropOp32
 70
     1
102
RTVSPost2010Prop33
280
     0
102
RTVSPost2010PropOp33
 70
     1
102
RTVSPost2010Prop34
280
     0
102
RTVSPost2010PropOp34
 70
     1
102
RTVSPost2010Prop35
280
     0
102
RTVSPost2010PropOp35
 70
     1
102
RTVSPost2010Prop36
280
     0
102
RTVSPost2010PropOp36
 70
     1
102
RTVSPost2010Prop37
 90
       50
102
RTVSPost2010PropOp37
 70
     1
102
RTVSPost2010Prop38
140
0.0
102
RTVSPost2010PropOp38
 70
     1
102
RTVSPost2010Prop39
140
1.0
102
RTVSPost2010PropOp39
 70
     1
102
RTVSPost2010Prop40
 90
        0
102
RTVSPost2010PropOp40
 70
     1
102
RTVSPost2010Prop41ColorIndex
 90
       18
102
RTVSPost2010Prop41ColorRGB
 90
        0
102
RTVSPost2010PropOp41
 70
     1
102
RTVSPost2010Prop42
 90
       50
102
RTVSPost2010PropOp42
 70
     1
102
RTVSPost2010Prop43
 90
        3
102
RTVSPost2010PropOp43
 70
     1
102
RTVSPost2010Prop44ColorIndex
 90
        5
102
RTVSPost2010Prop44ColorRGB
 90
      255
102
RTVSPost2010PropOp44
 70
     1
102
RTVSPost2010Prop45
280
     0
102
RTVSPost2010PropOp45
 70
     1
102
RTVSPost2010Prop46
 90
       50
102
RTVSPost2010PropOp46
 70
     1
102
RTVSPost2010Prop47
 90
       50
102
RTVSPost2010PropOp47
 70
     1
102
RTVSPost2010Prop48
 90
       50
102
RTVSPost2010PropOp48
 70
     1
102
RTVSPost2010Prop49
280
     0
102
RTVSPost2010PropOp49
 70
     1
102
RTVSPost2010Prop50
 90
       50
102
RTVSPost2010PropOp50
 70
     1
102
RTVSPost2010Prop51ColorIndex
 90
      256
102
RTVSPost2010Prop51ColorRGB
 90
-16777216
102
RTVSPost2010PropOp51
 70
     0
102
RTVSPost2010Prop52
140
1.0
102
RTVSPost2010PropOp52
 70
     0
102
RTVSPost2010Prop53
 90
        2
102
RTVSPost2010PropOp53
 70
     1
102
RTVSPost2010Prop54
  1
strokes_ogs.tif
102
RTVSPost2010PropOp54
 70
     1
102
RTVSPost2010Prop55
280
     0
102
RTVSPost2010PropOp55
 70
     1
102
RTVSPost2010Prop56
140
1.0
102
RTVSPost2010PropOp56
 70
     1
102
RTVSPost2010Prop57
140
1.0
102
RTVSPost2010PropOp57
 70
     1
  0
XRECORD
  5
2C6
102
{ACAD_REACTORS
330
2C5
102
}
330
2C5
100
AcDbXrecord
280
     1
102
RTVSPost2010Prop28
280
     0
102
RTVSPost2010PropOp28
 70
     1
102
RTVSPost2010Prop29
280
     1
102
RTVSPost2010PropOp29
 70
     1
102
RTVSPost2010Prop30
280
     1
102
RTVSPost2010PropOp30
 70
     1
102
RTVSPost2010Prop31
280
     0
102
RTVSPost2010PropOp31
 70
     1
102
RTVSPost2010Prop32
280
     0
102
RTVSPost2010PropOp32
 70
     1
102
RTVSPost2010Prop33
280
     0
102
RTVSPost2010PropOp33
 70
     1
102
RTVSPost2010Prop34
280
     0
102
RTVSPost2010PropOp34
 70
     1
102
RTVSPost2010Prop35
280
     0
102
RTVSPost2010PropOp35
 70
     1
102
RTVSPost2010Prop36
280
     0
102
RTVSPost2010PropOp36
 70
     1
102
RTVSPost2010Prop37
 90
       50
102
RTVSPost2010PropOp37
 70
     1
102
RTVSPost2010Prop38
140
0.0
102
RTVSPost2010PropOp38
 70
     1
102
RTVSPost2010Prop39
140
1.0
102
RTVSPost2010PropOp39
 70
     1
102
RTVSPost2010Prop40
 90
        0
102
RTVSPost2010PropOp40
 70
     1
102
RTVSPost2010Prop41ColorIndex
 90
       18
102
RTVSPost2010Prop41ColorRGB
 90
        0
102
RTVSPost2010PropOp41
 70
     1
102
RTVSPost2010Prop42
 90
       50
102
RTVSPost2010PropOp42
 70
     1
102
RTVSPost2010Prop43
 90
        3
102
RTVSPost2010PropOp43
 70
     1
102
RTVSPost2010Prop44ColorIndex
 90
        5
102
RTVSPost2010Prop44ColorRGB
 90
      255
102
RTVSPost2010PropOp44
 70
     1
102
RTVSPost2010Prop45
280
     0
102
RTVSPost2010PropOp45
 70
     1
102
RTVSPost2010Prop46
 90
       50
102
RTVSPost2010PropOp46
 70
     1
102
RTVSPost2010Prop47
 90
       50
102
RTVSPost2010PropOp47
 70
     1
102
RTVSPost2010Prop48
 90
       50
102
RTVSPost2010PropOp48
 70
     1
102
RTVSPost2010Prop49
280
     0
102
RTVSPost2010PropOp49
 70
     1
102
RTVSPost2010Prop50
 90
       50
102
RTVSPost2010PropOp50
 70
     1
102
RTVSPost2010Prop51ColorIndex
 90
      256
102
RTVSPost2010Prop51ColorRGB
 90
-16777216
102
RTVSPost2010PropOp51
 70
     0
102
RTVSPost2010Prop52
140
1.0
102
RTVSPost2010PropOp52
 70
     0
102
RTVSPost2010Prop53
 90
        2
102
RTVSPost2010PropOp53
 70
     1
102
RTVSPost2010Prop54
  1
strokes_ogs.tif
102
RTVSPost2010PropOp54
 70
     1
102
RTVSPost2010Prop55
280
     0
102
RTVSPost2010PropOp55
 70
     1
102
RTVSPost2010Prop56
140
1.0
102
RTVSPost2010PropOp56
 70
     1
102
RTVSPost2010Prop57
140
1.0
102
RTVSPost2010PropOp57
 70
     1
  0
XRECORD
  5
2E4
102
{ACAD_REACTORS
330
2E3
102
}
330
2E3
100
AcDbXrecord
280
     1
102
RTVSPost2010Prop28
280
     0
102
RTVSPost2010PropOp28
 70
     1
102
RTVSPost2010Prop29
280
     1
102
RTVSPost2010PropOp29
 70
     1
102
RTVSPost2010Prop30
280
     1
102
RTVSPost2010PropOp30
 70
     1
102
RTVSPost2010Prop31
280
     0
102
RTVSPost2010PropOp31
 70
     1
102
RTVSPost2010Prop32
280
     0
102
RTVSPost2010PropOp32
 70
     1
102
RTVSPost2010Prop33
280
     0
102
RTVSPost2010PropOp33
 70
     1
102
RTVSPost2010Prop34
280
     0
102
RTVSPost2010PropOp34
 70
     1
102
RTVSPost2010Prop35
280
     0
102
RTVSPost2010PropOp35
 70
     1
102
RTVSPost2010Prop36
280
     0
102
RTVSPost2010PropOp36
 70
     1
102
RTVSPost2010Prop37
 90
       50
102
RTVSPost2010PropOp37
 70
     0
102
RTVSPost2010Prop38
140
0.0
102
RTVSPost2010PropOp38
 70
     0
102
RTVSPost2010Prop39
140
1.0
102
RTVSPost2010PropOp39
 70
     0
102
RTVSPost2010Prop40
 90
        0
102
RTVSPost2010PropOp40
 70
     0
102
RTVSPost2010Prop41ColorIndex
 90
       18
102
RTVSPost2010Prop41ColorRGB
 90
        0
102
RTVSPost2010PropOp41
 70
     0
102
RTVSPost2010Prop42
 90
       50
102
RTVSPost2010PropOp42
 70
     0
102
RTVSPost2010Prop43
 90
        3
102
RTVSPost2010PropOp43
 70
     0
102
RTVSPost2010Prop44ColorIndex
 90
        5
102
RTVSPost2010Prop44ColorRGB
 90
      255
102
RTVSPost2010PropOp44
 70
     0
102
RTVSPost2010Prop45
280
     0
102
RTVSPost2010PropOp45
 70
     1
102
RTVSPost2010Prop46
 90
       50
102
RTVSPost2010PropOp46
 70
     0
102
RTVSPost2010Prop47
 90
       50
102
RTVSPost2010PropOp47
 70
     0
102
RTVSPost2010Prop48
 90
       50
102
RTVSPost2010PropOp48
 70
     0
102
RTVSPost2010Prop49
280
     0
102
RTVSPost2010PropOp49
 70
     1
102
RTVSPost2010Prop50
 90
       50
102
RTVSPost2010PropOp50
 70
     0
102
RTVSPost2010Prop51ColorIndex
 90
      256
102
RTVSPost2010Prop51ColorRGB
 90
-16777216
102
RTVSPost2010PropOp51
 70
     0
102
RTVSPost2010Prop52
140
1.0
102
RTVSPost2010PropOp52
 70
     0
102
RTVSPost2010Prop53
 90
        2
102
RTVSPost2010PropOp53
 70
     0
102
RTVSPost2010Prop54
  1
strokes_ogs.tif
102
RTVSPost2010PropOp54
 70
     0
102
RTVSPost2010Prop55
280
     0
102
RTVSPost2010PropOp55
 70
     1
102
RTVSPost2010Prop56
140
1.0
102
RTVSPost2010PropOp56
 70
     0
102
RTVSPost2010Prop57
140
1.0
102
RTVSPost2010PropOp57
 70
     0
  0
XRECORD
  5
2CE
102
{ACAD_REACTORS
330
2CD
102
}
330
2CD
100
AcDbXrecord
280
     1
102
RTVSPost2010Prop28
280
     0
102
RTVSPost2010PropOp28
 70
     1
102
RTVSPost2010Prop29
280
     1
102
RTVSPost2010PropOp29
 70
     1
102
RTVSPost2010Prop30
280
     1
102
RTVSPost2010PropOp30
 70
     1
102
RTVSPost2010Prop31
280
     0
102
RTVSPost2010PropOp31
 70
     1
102
RTVSPost2010Prop32
280
     0
102
RTVSPost2010PropOp32
 70
     1
102
RTVSPost2010Prop33
280
     0
102
RTVSPost2010PropOp33
 70
     1
102
RTVSPost2010Prop34
280
     0
102
RTVSPost2010PropOp34
 70
     1
102
RTVSPost2010Prop35
280
     0
102
RTVSPost2010PropOp35
 70
     1
102
RTVSPost2010Prop36
280
     0
102
RTVSPost2010PropOp36
 70
     1
102
RTVSPost2010Prop37
 90
       50
102
RTVSPost2010PropOp37
 70
     1
102
RTVSPost2010Prop38
140
0.0
102
RTVSPost2010PropOp38
 70
     1
102
RTVSPost2010Prop39
140
1.0
102
RTVSPost2010PropOp39
 70
     1
102
RTVSPost2010Prop40
 90
        0
102
RTVSPost2010PropOp40
 70
     1
102
RTVSPost2010Prop41ColorIndex
 90
       18
102
RTVSPost2010Prop41ColorRGB
 90
        0
102
RTVSPost2010PropOp41
 70
     1
102
RTVSPost2010Prop42
 90
       50
102
RTVSPost2010PropOp42
 70
     1
102
RTVSPost2010Prop43
 90
        3
102
RTVSPost2010PropOp43
 70
     1
102
RTVSPost2010Prop44ColorIndex
 90
        5
102
RTVSPost2010Prop44ColorRGB
 90
      255
102
RTVSPost2010PropOp44
 70
     1
102
RTVSPost2010Prop45
280
     0
102
RTVSPost2010PropOp45
 70
     1
102
RTVSPost2010Prop46
 90
       50
102
RTVSPost2010PropOp46
 70
     1
102
RTVSPost2010Prop47
 90
       50
102
RTVSPost2010PropOp47
 70
     1
102
RTVSPost2010Prop48
 90
       50
102
RTVSPost2010PropOp48
 70
     1
102
RTVSPost2010Prop49
280
     0
102
RTVSPost2010PropOp49
 70
     1
102
RTVSPost2010Prop50
 90
       50
102
RTVSPost2010PropOp50
 70
     1
102
RTVSPost2010Prop51ColorIndex
 90
      256
102
RTVSPost2010Prop51ColorRGB
 90
-16777216
102
RTVSPost2010PropOp51
 70
     0
102
RTVSPost2010Prop52
140
1.0
102
RTVSPost2010PropOp52
 70
     0
102
RTVSPost2010Prop53
 90
        2
102
RTVSPost2010PropOp53
 70
     1
102
RTVSPost2010Prop54
  1
strokes_ogs.tif
102
RTVSPost2010PropOp54
 70
     1
102
RTVSPost2010Prop55
280
     0
102
RTVSPost2010PropOp55
 70
     1
102
RTVSPost2010Prop56
140
1.0
102
RTVSPost2010PropOp56
 70
     1
102
RTVSPost2010Prop57
140
1.0
102
RTVSPost2010PropOp57
 70
     1
  0
XRECORD
  5
2B2
102
{ACAD_REACTORS
330
2B1
102
}
330
2B1
100
AcDbXrecord
280
     1
102
RTVSPost2010Prop28
280
     0
102
RTVSPost2010PropOp28
 70
     1
102
RTVSPost2010Prop29
280
     1
102
RTVSPost2010PropOp29
 70
     1
102
RTVSPost2010Prop30
280
     1
102
RTVSPost2010PropOp30
 70
     1
102
RTVSPost2010Prop31
280
     0
102
RTVSPost2010PropOp31
 70
     1
102
RTVSPost2010Prop32
280
     0
102
RTVSPost2010PropOp32
 70
     1
102
RTVSPost2010Prop33
280
     0
102
RTVSPost2010PropOp33
 70
     1
102
RTVSPost2010Prop34
280
     0
102
RTVSPost2010PropOp34
 70
     1
102
RTVSPost2010Prop35
280
     0
102
RTVSPost2010PropOp35
 70
     1
102
RTVSPost2010Prop36
280
     0
102
RTVSPost2010PropOp36
 70
     1
102
RTVSPost2010Prop37
 90
       50
102
RTVSPost2010PropOp37
 70
     1
102
RTVSPost2010Prop38
140
0.0
102
RTVSPost2010PropOp38
 70
     1
102
RTVSPost2010Prop39
140
1.0
102
RTVSPost2010PropOp39
 70
     1
102
RTVSPost2010Prop40
 90
        0
102
RTVSPost2010PropOp40
 70
     1
102
RTVSPost2010Prop41ColorIndex
 90
       18
102
RTVSPost2010Prop41ColorRGB
 90
        0
102
RTVSPost2010PropOp41
 70
     1
102
RTVSPost2010Prop42
 90
       50
102
RTVSPost2010PropOp42
 70
     1
102
RTVSPost2010Prop43
 90
        3
102
RTVSPost2010PropOp43
 70
     1
102
RTVSPost2010Prop44ColorIndex
 90
        5
102
RTVSPost2010Prop44ColorRGB
 90
      255
102
RTVSPost2010PropOp44
 70
     1
102
RTVSPost2010Prop45
280
     0
102
RTVSPost2010PropOp45
 70
     1
102
RTVSPost2010Prop46
 90
       50
102
RTVSPost2010PropOp46
 70
     1
102
RTVSPost2010Prop47
 90
       50
102
RTVSPost2010PropOp47
 70
     1
102
RTVSPost2010Prop48
 90
       50
102
RTVSPost2010PropOp48
 70
     1
102
RTVSPost2010Prop49
280
     0
102
RTVSPost2010PropOp49
 70
     1
102
RTVSPost2010Prop50
 90
       50
102
RTVSPost2010PropOp50
 70
     1
102
RTVSPost2010Prop51ColorIndex
 90
      256
102
RTVSPost2010Prop51ColorRGB
 90
-16777216
102
RTVSPost2010PropOp51
 70
     0
102
RTVSPost2010Prop52
140
1.0
102
RTVSPost2010PropOp52
 70
     0
102
RTVSPost2010Prop53
 90
        2
102
RTVSPost2010PropOp53
 70
     1
102
RTVSPost2010Prop54
  1
strokes_ogs.tif
102
RTVSPost2010PropOp54
 70
     1
102
RTVSPost2010Prop55
280
     0
102
RTVSPost2010PropOp55
 70
     1
102
RTVSPost2010Prop56
140
1.0
102
RTVSPost2010PropOp56
 70
     1
102
RTVSPost2010Prop57
140
1.0
102
RTVSPost2010PropOp57
 70
     1
  0
XRECORD
  5
2B4
102
{ACAD_REACTORS
330
2B3
102
}
330
2B3
100
AcDbXrecord
280
     1
102
RTVSPost2010Prop28
280
     0
102
RTVSPost2010PropOp28
 70
     1
102
RTVSPost2010Prop29
280
     1
102
RTVSPost2010PropOp29
 70
     1
102
RTVSPost2010Prop30
280
     1
102
RTVSPost2010PropOp30
 70
     1
102
RTVSPost2010Prop31
280
     0
102
RTVSPost2010PropOp31
 70
     1
102
RTVSPost2010Prop32
280
     0
102
RTVSPost2010PropOp32
 70
     1
102
RTVSPost2010Prop33
280
     0
102
RTVSPost2010PropOp33
 70
     1
102
RTVSPost2010Prop34
280
     0
102
RTVSPost2010PropOp34
 70
     1
102
RTVSPost2010Prop35
280
     0
102
RTVSPost2010PropOp35
 70
     1
102
RTVSPost2010Prop36
280
     0
102
RTVSPost2010PropOp36
 70
     1
102
RTVSPost2010Prop37
 90
       50
102
RTVSPost2010PropOp37
 70
     1
102
RTVSPost2010Prop38
140
0.0
102
RTVSPost2010PropOp38
 70
     1
102
RTVSPost2010Prop39
140
1.0
102
RTVSPost2010PropOp39
 70
     1
102
RTVSPost2010Prop40
 90
        0
102
RTVSPost2010PropOp40
 70
     1
102
RTVSPost2010Prop41ColorIndex
 90
       18
102
RTVSPost2010Prop41ColorRGB
 90
        0
102
RTVSPost2010PropOp41
 70
     1
102
RTVSPost2010Prop42
 90
       50
102
RTVSPost2010PropOp42
 70
     1
102
RTVSPost2010Prop43
 90
        3
102
RTVSPost2010PropOp43
 70
     1
102
RTVSPost2010Prop44ColorIndex
 90
        5
102
RTVSPost2010Prop44ColorRGB
 90
      255
102
RTVSPost2010PropOp44
 70
     1
102
RTVSPost2010Prop45
280
     0
102
RTVSPost2010PropOp45
 70
     1
102
RTVSPost2010Prop46
 90
       50
102
RTVSPost2010PropOp46
 70
     1
102
RTVSPost2010Prop47
 90
       50
102
RTVSPost2010PropOp47
 70
     1
102
RTVSPost2010Prop48
 90
       50
102
RTVSPost2010PropOp48
 70
     1
102
RTVSPost2010Prop49
280
     0
102
RTVSPost2010PropOp49
 70
     1
102
RTVSPost2010Prop50
 90
       50
102
RTVSPost2010PropOp50
 70
     1
102
RTVSPost2010Prop51ColorIndex
 90
      256
102
RTVSPost2010Prop51ColorRGB
 90
-16777216
102
RTVSPost2010PropOp51
 70
     0
102
RTVSPost2010Prop52
140
1.0
102
RTVSPost2010PropOp52
 70
     0
102
RTVSPost2010Prop53
 90
        2
102
RTVSPost2010PropOp53
 70
     1
102
RTVSPost2010Prop54
  1
strokes_ogs.tif
102
RTVSPost2010PropOp54
 70
     1
102
RTVSPost2010Prop55
280
     0
102
RTVSPost2010PropOp55
 70
     1
102
RTVSPost2010Prop56
140
1.0
102
RTVSPost2010PropOp56
 70
     1
102
RTVSPost2010Prop57
140
1.0
102
RTVSPost2010PropOp57
 70
     1
  0
XRECORD
  5
2B6
102
{ACAD_REACTORS
330
2B5
102
}
330
2B5
100
AcDbXrecord
280
     1
102
RTVSPost2010Prop28
280
     0
102
RTVSPost2010PropOp28
 70
     1
102
RTVSPost2010Prop29
280
     1
102
RTVSPost2010PropOp29
 70
     1
102
RTVSPost2010Prop30
280
     1
102
RTVSPost2010PropOp30
 70
     1
102
RTVSPost2010Prop31
280
     0
102
RTVSPost2010PropOp31
 70
     1
102
RTVSPost2010Prop32
280
     0
102
RTVSPost2010PropOp32
 70
     1
102
RTVSPost2010Prop33
280
     0
102
RTVSPost2010PropOp33
 70
     1
102
RTVSPost2010Prop34
280
     0
102
RTVSPost2010PropOp34
 70
     1
102
RTVSPost2010Prop35
280
     0
102
RTVSPost2010PropOp35
 70
     1
102
RTVSPost2010Prop36
280
     0
102
RTVSPost2010PropOp36
 70
     1
102
RTVSPost2010Prop37
 90
       50
102
RTVSPost2010PropOp37
 70
     1
102
RTVSPost2010Prop38
140
0.0
102
RTVSPost2010PropOp38
 70
     1
102
RTVSPost2010Prop39
140
1.0
102
RTVSPost2010PropOp39
 70
     1
102
RTVSPost2010Prop40
 90
        0
102
RTVSPost2010PropOp40
 70
     1
102
RTVSPost2010Prop41ColorIndex
 90
       18
102
RTVSPost2010Prop41ColorRGB
 90
        0
102
RTVSPost2010PropOp41
 70
     1
102
RTVSPost2010Prop42
 90
       50
102
RTVSPost2010PropOp42
 70
     1
102
RTVSPost2010Prop43
 90
        3
102
RTVSPost2010PropOp43
 70
     1
102
RTVSPost2010Prop44ColorIndex
 90
        5
102
RTVSPost2010Prop44ColorRGB
 90
      255
102
RTVSPost2010PropOp44
 70
     1
102
RTVSPost2010Prop45
280
     0
102
RTVSPost2010PropOp45
 70
     1
102
RTVSPost2010Prop46
 90
       50
102
RTVSPost2010PropOp46
 70
     1
102
RTVSPost2010Prop47
 90
       50
102
RTVSPost2010PropOp47
 70
     1
102
RTVSPost2010Prop48
 90
       50
102
RTVSPost2010PropOp48
 70
     1
102
RTVSPost2010Prop49
280
     0
102
RTVSPost2010PropOp49
 70
     1
102
RTVSPost2010Prop50
 90
       50
102
RTVSPost2010PropOp50
 70
     1
102
RTVSPost2010Prop51ColorIndex
 90
      256
102
RTVSPost2010Prop51ColorRGB
 90
-16777216
102
RTVSPost2010PropOp51
 70
     0
102
RTVSPost2010Prop52
140
1.0
102
RTVSPost2010PropOp52
 70
     0
102
RTVSPost2010Prop53
 90
        2
102
RTVSPost2010PropOp53
 70
     1
102
RTVSPost2010Prop54
  1
strokes_ogs.tif
102
RTVSPost2010PropOp54
 70
     1
102
RTVSPost2010Prop55
280
     0
102
RTVSPost2010PropOp55
 70
     1
102
RTVSPost2010Prop56
140
1.0
102
RTVSPost2010PropOp56
 70
     1
102
RTVSPost2010Prop57
140
1.0
102
RTVSPost2010PropOp57
 70
     1
  0
XRECORD
  5
2B8
102
{ACAD_REACTORS
330
2B7
102
}
330
2B7
100
AcDbXrecord
280
     1
102
RTVSPost2010Prop28
280
     0
102
RTVSPost2010PropOp28
 70
     1
102
RTVSPost2010Prop29
280
     1
102
RTVSPost2010PropOp29
 70
     1
102
RTVSPost2010Prop30
280
     1
102
RTVSPost2010PropOp30
 70
     1
102
RTVSPost2010Prop31
280
     0
102
RTVSPost2010PropOp31
 70
     1
102
RTVSPost2010Prop32
280
     0
102
RTVSPost2010PropOp32
 70
     1
102
RTVSPost2010Prop33
280
     0
102
RTVSPost2010PropOp33
 70
     1
102
RTVSPost2010Prop34
280
     0
102
RTVSPost2010PropOp34
 70
     1
102
RTVSPost2010Prop35
280
     0
102
RTVSPost2010PropOp35
 70
     1
102
RTVSPost2010Prop36
280
     0
102
RTVSPost2010PropOp36
 70
     1
102
RTVSPost2010Prop37
 90
       50
102
RTVSPost2010PropOp37
 70
     1
102
RTVSPost2010Prop38
140
0.0
102
RTVSPost2010PropOp38
 70
     1
102
RTVSPost2010Prop39
140
1.0
102
RTVSPost2010PropOp39
 70
     1
102
RTVSPost2010Prop40
 90
        0
102
RTVSPost2010PropOp40
 70
     1
102
RTVSPost2010Prop41ColorIndex
 90
       18
102
RTVSPost2010Prop41ColorRGB
 90
        0
102
RTVSPost2010PropOp41
 70
     1
102
RTVSPost2010Prop42
 90
       50
102
RTVSPost2010PropOp42
 70
     1
102
RTVSPost2010Prop43
 90
        3
102
RTVSPost2010PropOp43
 70
     1
102
RTVSPost2010Prop44ColorIndex
 90
        5
102
RTVSPost2010Prop44ColorRGB
 90
      255
102
RTVSPost2010PropOp44
 70
     1
102
RTVSPost2010Prop45
280
     0
102
RTVSPost2010PropOp45
 70
     1
102
RTVSPost2010Prop46
 90
       50
102
RTVSPost2010PropOp46
 70
     1
102
RTVSPost2010Prop47
 90
       50
102
RTVSPost2010PropOp47
 70
     1
102
RTVSPost2010Prop48
 90
       50
102
RTVSPost2010PropOp48
 70
     1
102
RTVSPost2010Prop49
280
     0
102
RTVSPost2010PropOp49
 70
     1
102
RTVSPost2010Prop50
 90
       50
102
RTVSPost2010PropOp50
 70
     1
102
RTVSPost2010Prop51ColorIndex
 90
      256
102
RTVSPost2010Prop51ColorRGB
 90
-16777216
102
RTVSPost2010PropOp51
 70
     0
102
RTVSPost2010Prop52
140
1.0
102
RTVSPost2010PropOp52
 70
     0
102
RTVSPost2010Prop53
 90
        2
102
RTVSPost2010PropOp53
 70
     1
102
RTVSPost2010Prop54
  1
strokes_ogs.tif
102
RTVSPost2010PropOp54
 70
     1
102
RTVSPost2010Prop55
280
     0
102
RTVSPost2010PropOp55
 70
     1
102
RTVSPost2010Prop56
140
1.0
102
RTVSPost2010PropOp56
 70
     1
102
RTVSPost2010Prop57
140
1.0
102
RTVSPost2010PropOp57
 70
     1
  0
XRECORD
  5
2D4
102
{ACAD_REACTORS
330
2D3
102
}
330
2D3
100
AcDbXrecord
280
     1
102
RTVSPost2010Prop28
280
     0
102
RTVSPost2010PropOp28
 70
     1
102
RTVSPost2010Prop29
280
     1
102
RTVSPost2010PropOp29
 70
     1
102
RTVSPost2010Prop30
280
     1
102
RTVSPost2010PropOp30
 70
     1
102
RTVSPost2010Prop31
280
     0
102
RTVSPost2010PropOp31
 70
     1
102
RTVSPost2010Prop32
280
     0
102
RTVSPost2010PropOp32
 70
     1
102
RTVSPost2010Prop33
280
     0
102
RTVSPost2010PropOp33
 70
     1
102
RTVSPost2010Prop34
280
     0
102
RTVSPost2010PropOp34
 70
     1
102
RTVSPost2010Prop35
280
     0
102
RTVSPost2010PropOp35
 70
     1
102
RTVSPost2010Prop36
280
     0
102
RTVSPost2010PropOp36
 70
     1
102
RTVSPost2010Prop37
 90
       50
102
RTVSPost2010PropOp37
 70
     1
102
RTVSPost2010Prop38
140
0.0
102
RTVSPost2010PropOp38
 70
     1
102
RTVSPost2010Prop39
140
1.0
102
RTVSPost2010PropOp39
 70
     1
102
RTVSPost2010Prop40
 90
        0
102
RTVSPost2010PropOp40
 70
     1
102
RTVSPost2010Prop41ColorIndex
 90
       18
102
RTVSPost2010Prop41ColorRGB
 90
        0
102
RTVSPost2010PropOp41
 70
     1
102
RTVSPost2010Prop42
 90
       50
102
RTVSPost2010PropOp42
 70
     1
102
RTVSPost2010Prop43
 90
        3
102
RTVSPost2010PropOp43
 70
     1
102
RTVSPost2010Prop44ColorIndex
 90
        5
102
RTVSPost2010Prop44ColorRGB
 90
      255
102
RTVSPost2010PropOp44
 70
     1
102
RTVSPost2010Prop45
280
     0
102
RTVSPost2010PropOp45
 70
     1
102
RTVSPost2010Prop46
 90
       50
102
RTVSPost2010PropOp46
 70
     1
102
RTVSPost2010Prop47
 90
       50
102
RTVSPost2010PropOp47
 70
     1
102
RTVSPost2010Prop48
 90
       50
102
RTVSPost2010PropOp48
 70
     1
102
RTVSPost2010Prop49
280
     0
102
RTVSPost2010PropOp49
 70
     1
102
RTVSPost2010Prop50
 90
       50
102
RTVSPost2010PropOp50
 70
     1
102
RTVSPost2010Prop51ColorIndex
 90
      256
102
RTVSPost2010Prop51ColorRGB
 90
-16777216
102
RTVSPost2010PropOp51
 70
     0
102
RTVSPost2010Prop52
140
1.0
102
RTVSPost2010PropOp52
 70
     0
102
RTVSPost2010Prop53
 90
        2
102
RTVSPost2010PropOp53
 70
     1
102
RTVSPost2010Prop54
  1
strokes_ogs.tif
102
RTVSPost2010PropOp54
 70
     1
102
RTVSPost2010Prop55
280
     0
102
RTVSPost2010PropOp55
 70
     1
102
RTVSPost2010Prop56
140
1.0
102
RTVSPost2010PropOp56
 70
     1
102
RTVSPost2010Prop57
140
1.0
102
RTVSPost2010PropOp57
 70
     1
  0
XRECORD
  5
2E0
102
{ACAD_REACTORS
330
2DF
102
}
330
2DF
100
AcDbXrecord
280
     1
102
RTVSPost2010Prop28
280
     0
102
RTVSPost2010PropOp28
 70
     1
102
RTVSPost2010Prop29
280
     1
102
RTVSPost2010PropOp29
 70
     1
102
RTVSPost2010Prop30
280
     1
102
RTVSPost2010PropOp30
 70
     1
102
RTVSPost2010Prop31
280
     0
102
RTVSPost2010PropOp31
 70
     1
102
RTVSPost2010Prop32
280
     0
102
RTVSPost2010PropOp32
 70
     1
102
RTVSPost2010Prop33
280
     0
102
RTVSPost2010PropOp33
 70
     1
102
RTVSPost2010Prop34
280
     0
102
RTVSPost2010PropOp34
 70
     1
102
RTVSPost2010Prop35
280
     0
102
RTVSPost2010PropOp35
 70
     1
102
RTVSPost2010Prop36
280
     0
102
RTVSPost2010PropOp36
 70
     1
102
RTVSPost2010Prop37
 90
       50
102
RTVSPost2010PropOp37
 70
     0
102
RTVSPost2010Prop38
140
0.0
102
RTVSPost2010PropOp38
 70
     0
102
RTVSPost2010Prop39
140
1.0
102
RTVSPost2010PropOp39
 70
     0
102
RTVSPost2010Prop40
 90
        0
102
RTVSPost2010PropOp40
 70
     0
102
RTVSPost2010Prop41ColorIndex
 90
       18
102
RTVSPost2010Prop41ColorRGB
 90
        0
102
RTVSPost2010PropOp41
 70
     0
102
RTVSPost2010Prop42
 90
       50
102
RTVSPost2010PropOp42
 70
     0
102
RTVSPost2010Prop43
 90
        3
102
RTVSPost2010PropOp43
 70
     0
102
RTVSPost2010Prop44ColorIndex
 90
        5
102
RTVSPost2010Prop44ColorRGB
 90
      255
102
RTVSPost2010PropOp44
 70
     0
102
RTVSPost2010Prop45
280
     0
102
RTVSPost2010PropOp45
 70
     1
102
RTVSPost2010Prop46
 90
       50
102
RTVSPost2010PropOp46
 70
     0
102
RTVSPost2010Prop47
 90
       50
102
RTVSPost2010PropOp47
 70
     0
102
RTVSPost2010Prop48
 90
       50
102
RTVSPost2010PropOp48
 70
     0
102
RTVSPost2010Prop49
280
     0
102
RTVSPost2010PropOp49
 70
     1
102
RTVSPost2010Prop50
 90
       50
102
RTVSPost2010PropOp50
 70
     0
102
RTVSPost2010Prop51ColorIndex
 90
      256
102
RTVSPost2010Prop51ColorRGB
 90
-16777216
102
RTVSPost2010PropOp51
 70
     0
102
RTVSPost2010Prop52
140
1.0
102
RTVSPost2010PropOp52
 70
     0
102
RTVSPost2010Prop53
 90
        2
102
RTVSPost2010PropOp53
 70
     0
102
RTVSPost2010Prop54
  1
strokes_ogs.tif
102
RTVSPost2010PropOp54
 70
     0
102
RTVSPost2010Prop55
280
     0
102
RTVSPost2010PropOp55
 70
     1
102
RTVSPost2010Prop56
140
1.0
102
RTVSPost2010PropOp56
 70
     0
102
RTVSPost2010Prop57
140
1.0
102
RTVSPost2010PropOp57
 70
     0
  0
XRECORD
  5
2CC
102
{ACAD_REACTORS
330
2CB
102
}
330
2CB
100
AcDbXrecord
280
     1
102
RTVSPost2010Prop28
280
     0
102
RTVSPost2010PropOp28
 70
     1
102
RTVSPost2010Prop29
280
     1
102
RTVSPost2010PropOp29
 70
     1
102
RTVSPost2010Prop30
280
     1
102
RTVSPost2010PropOp30
 70
     1
102
RTVSPost2010Prop31
280
     0
102
RTVSPost2010PropOp31
 70
     1
102
RTVSPost2010Prop32
280
     0
102
RTVSPost2010PropOp32
 70
     1
102
RTVSPost2010Prop33
280
     0
102
RTVSPost2010PropOp33
 70
     1
102
RTVSPost2010Prop34
280
     0
102
RTVSPost2010PropOp34
 70
     1
102
RTVSPost2010Prop35
280
     0
102
RTVSPost2010PropOp35
 70
     1
102
RTVSPost2010Prop36
280
     0
102
RTVSPost2010PropOp36
 70
     1
102
RTVSPost2010Prop37
 90
       50
102
RTVSPost2010PropOp37
 70
     1
102
RTVSPost2010Prop38
140
0.0
102
RTVSPost2010PropOp38
 70
     1
102
RTVSPost2010Prop39
140
1.0
102
RTVSPost2010PropOp39
 70
     1
102
RTVSPost2010Prop40
 90
        0
102
RTVSPost2010PropOp40
 70
     1
102
RTVSPost2010Prop41ColorIndex
 90
       18
102
RTVSPost2010Prop41ColorRGB
 90
        0
102
RTVSPost2010PropOp41
 70
     1
102
RTVSPost2010Prop42
 90
       50
102
RTVSPost2010PropOp42
 70
     1
102
RTVSPost2010Prop43
 90
        3
102
RTVSPost2010PropOp43
 70
     1
102
RTVSPost2010Prop44ColorIndex
 90
        5
102
RTVSPost2010Prop44ColorRGB
 90
      255
102
RTVSPost2010PropOp44
 70
     1
102
RTVSPost2010Prop45
280
     0
102
RTVSPost2010PropOp45
 70
     1
102
RTVSPost2010Prop46
 90
       50
102
RTVSPost2010PropOp46
 70
     1
102
RTVSPost2010Prop47
 90
       50
102
RTVSPost2010PropOp47
 70
     1
102
RTVSPost2010Prop48
 90
       50
102
RTVSPost2010PropOp48
 70
     1
102
RTVSPost2010Prop49
280
     0
102
RTVSPost2010PropOp49
 70
     1
102
RTVSPost2010Prop50
 90
       50
102
RTVSPost2010PropOp50
 70
     1
102
RTVSPost2010Prop51ColorIndex
 90
      256
102
RTVSPost2010Prop51ColorRGB
 90
-16777216
102
RTVSPost2010PropOp51
 70
     0
102
RTVSPost2010Prop52
140
1.0
102
RTVSPost2010PropOp52
 70
     0
102
RTVSPost2010Prop53
 90
        2
102
RTVSPost2010PropOp53
 70
     1
102
RTVSPost2010Prop54
  1
strokes_ogs.tif
102
RTVSPost2010PropOp54
 70
     1
102
RTVSPost2010Prop55
280
     0
102
RTVSPost2010PropOp55
 70
     1
102
RTVSPost2010Prop56
140
1.0
102
RTVSPost2010PropOp56
 70
     1
102
RTVSPost2010Prop57
140
1.0
102
RTVSPost2010PropOp57
 70
     1
  0
XRECORD
  5
2E2
102
{ACAD_REACTORS
330
2E1
102
}
330
2E1
100
AcDbXrecord
280
     1
102
RTVSPost2010Prop28
280
     0
102
RTVSPost2010PropOp28
 70
     1
102
RTVSPost2010Prop29
280
     1
102
RTVSPost2010PropOp29
 70
     1
102
RTVSPost2010Prop30
280
     1
102
RTVSPost2010PropOp30
 70
     1
102
RTVSPost2010Prop31
280
     0
102
RTVSPost2010PropOp31
 70
     1
102
RTVSPost2010Prop32
280
     0
102
RTVSPost2010PropOp32
 70
     1
102
RTVSPost2010Prop33
280
     0
102
RTVSPost2010PropOp33
 70
     1
102
RTVSPost2010Prop34
280
     0
102
RTVSPost2010PropOp34
 70
     1
102
RTVSPost2010Prop35
280
     0
102
RTVSPost2010PropOp35
 70
     1
102
RTVSPost2010Prop36
280
     0
102
RTVSPost2010PropOp36
 70
     1
102
RTVSPost2010Prop37
 90
       50
102
RTVSPost2010PropOp37
 70
     0
102
RTVSPost2010Prop38
140
0.0
102
RTVSPost2010PropOp38
 70
     0
102
RTVSPost2010Prop39
140
1.0
102
RTVSPost2010PropOp39
 70
     0
102
RTVSPost2010Prop40
 90
        0
102
RTVSPost2010PropOp40
 70
     0
102
RTVSPost2010Prop41ColorIndex
 90
       18
102
RTVSPost2010Prop41ColorRGB
 90
        0
102
RTVSPost2010PropOp41
 70
     0
102
RTVSPost2010Prop42
 90
       50
102
RTVSPost2010PropOp42
 70
     0
102
RTVSPost2010Prop43
 90
        3
102
RTVSPost2010PropOp43
 70
     0
102
RTVSPost2010Prop44ColorIndex
 90
        5
102
RTVSPost2010Prop44ColorRGB
 90
      255
102
RTVSPost2010PropOp44
 70
     0
102
RTVSPost2010Prop45
280
     0
102
RTVSPost2010PropOp45
 70
     1
102
RTVSPost2010Prop46
 90
       50
102
RTVSPost2010PropOp46
 70
     0
102
RTVSPost2010Prop47
 90
       50
102
RTVSPost2010PropOp47
 70
     0
102
RTVSPost2010Prop48
 90
       50
102
RTVSPost2010PropOp48
 70
     0
102
RTVSPost2010Prop49
280
     0
102
RTVSPost2010PropOp49
 70
     1
102
RTVSPost2010Prop50
 90
       50
102
RTVSPost2010PropOp50
 70
     0
102
RTVSPost2010Prop51ColorIndex
 90
      256
102
RTVSPost2010Prop51ColorRGB
 90
-16777216
102
RTVSPost2010PropOp51
 70
     0
102
RTVSPost2010Prop52
140
1.0
102
RTVSPost2010PropOp52
 70
     0
102
RTVSPost2010Prop53
 90
        2
102
RTVSPost2010PropOp53
 70
     0
102
RTVSPost2010Prop54
  1
strokes_ogs.tif
102
RTVSPost2010PropOp54
 70
     0
102
RTVSPost2010Prop55
280
     0
102
RTVSPost2010PropOp55
 70
     1
102
RTVSPost2010Prop56
140
1.0
102
RTVSPost2010PropOp56
 70
     0
102
RTVSPost2010Prop57
140
1.0
102
RTVSPost2010PropOp57
 70
     0
  0
XRECORD
  5
2C4
102
{ACAD_REACTORS
330
2C3
102
}
330
2C3
100
AcDbXrecord
280
     1
102
RTVSPost2010Prop28
280
     0
102
RTVSPost2010PropOp28
 70
     1
102
RTVSPost2010Prop29
280
     1
102
RTVSPost2010PropOp29
 70
     1
102
RTVSPost2010Prop30
280
     1
102
RTVSPost2010PropOp30
 70
     1
102
RTVSPost2010Prop31
280
     0
102
RTVSPost2010PropOp31
 70
     1
102
RTVSPost2010Prop32
280
     0
102
RTVSPost2010PropOp32
 70
     1
102
RTVSPost2010Prop33
280
     0
102
RTVSPost2010PropOp33
 70
     1
102
RTVSPost2010Prop34
280
     0
102
RTVSPost2010PropOp34
 70
     1
102
RTVSPost2010Prop35
280
     0
102
RTVSPost2010PropOp35
 70
     1
102
RTVSPost2010Prop36
280
     0
102
RTVSPost2010PropOp36
 70
     1
102
RTVSPost2010Prop37
 90
       50
102
RTVSPost2010PropOp37
 70
     1
102
RTVSPost2010Prop38
140
0.0
102
RTVSPost2010PropOp38
 70
     1
102
RTVSPost2010Prop39
140
1.0
102
RTVSPost2010PropOp39
 70
     1
102
RTVSPost2010Prop40
 90
        0
102
RTVSPost2010PropOp40
 70
     1
102
RTVSPost2010Prop41ColorIndex
 90
       18
102
RTVSPost2010Prop41ColorRGB
 90
        0
102
RTVSPost2010PropOp41
 70
     1
102
RTVSPost2010Prop42
 90
       50
102
RTVSPost2010PropOp42
 70
     1
102
RTVSPost2010Prop43
 90
        3
102
RTVSPost2010PropOp43
 70
     1
102
RTVSPost2010Prop44ColorIndex
 90
        5
102
RTVSPost2010Prop44ColorRGB
 90
      255
102
RTVSPost2010PropOp44
 70
     1
102
RTVSPost2010Prop45
280
     0
102
RTVSPost2010PropOp45
 70
     1
102
RTVSPost2010Prop46
 90
       50
102
RTVSPost2010PropOp46
 70
     1
102
RTVSPost2010Prop47
 90
       50
102
RTVSPost2010PropOp47
 70
     1
102
RTVSPost2010Prop48
 90
       50
102
RTVSPost2010PropOp48
 70
     1
102
RTVSPost2010Prop49
280
     0
102
RTVSPost2010PropOp49
 70
     1
102
RTVSPost2010Prop50
 90
       50
102
RTVSPost2010PropOp50
 70
     1
102
RTVSPost2010Prop51ColorIndex
 90
      256
102
RTVSPost2010Prop51ColorRGB
 90
-16777216
102
RTVSPost2010PropOp51
 70
     0
102
RTVSPost2010Prop52
140
1.0
102
RTVSPost2010PropOp52
 70
     0
102
RTVSPost2010Prop53
 90
        2
102
RTVSPost2010PropOp53
 70
     1
102
RTVSPost2010Prop54
  1
strokes_ogs.tif
102
RTVSPost2010PropOp54
 70
     1
102
RTVSPost2010Prop55
280
     0
102
RTVSPost2010PropOp55
 70
     1
102
RTVSPost2010Prop56
140
1.0
102
RTVSPost2010PropOp56
 70
     1
102
RTVSPost2010Prop57
140
1.0
102
RTVSPost2010PropOp57
 70
     1
  0
XRECORD
  5
2DE
102
{ACAD_REACTORS
330
2DD
102
}
330
2DD
100
AcDbXrecord
280
     1
102
RTVSPost2010Prop28
280
     0
102
RTVSPost2010PropOp28
 70
     1
102
RTVSPost2010Prop29
280
     1
102
RTVSPost2010PropOp29
 70
     1
102
RTVSPost2010Prop30
280
     1
102
RTVSPost2010PropOp30
 70
     1
102
RTVSPost2010Prop31
280
     0
102
RTVSPost2010PropOp31
 70
     1
102
RTVSPost2010Prop32
280
     0
102
RTVSPost2010PropOp32
 70
     1
102
RTVSPost2010Prop33
280
     0
102
RTVSPost2010PropOp33
 70
     1
102
RTVSPost2010Prop34
280
     0
102
RTVSPost2010PropOp34
 70
     1
102
RTVSPost2010Prop35
280
     0
102
RTVSPost2010PropOp35
 70
     1
102
RTVSPost2010Prop36
280
     0
102
RTVSPost2010PropOp36
 70
     1
102
RTVSPost2010Prop37
 90
       50
102
RTVSPost2010PropOp37
 70
     1
102
RTVSPost2010Prop38
140
0.0
102
RTVSPost2010PropOp38
 70
     1
102
RTVSPost2010Prop39
140
1.0
102
RTVSPost2010PropOp39
 70
     1
102
RTVSPost2010Prop40
 90
        0
102
RTVSPost2010PropOp40
 70
     1
102
RTVSPost2010Prop41ColorIndex
 90
       18
102
RTVSPost2010Prop41ColorRGB
 90
        0
102
RTVSPost2010PropOp41
 70
     1
102
RTVSPost2010Prop42
 90
       50
102
RTVSPost2010PropOp42
 70
     1
102
RTVSPost2010Prop43
 90
        3
102
RTVSPost2010PropOp43
 70
     1
102
RTVSPost2010Prop44ColorIndex
 90
        5
102
RTVSPost2010Prop44ColorRGB
 90
      255
102
RTVSPost2010PropOp44
 70
     1
102
RTVSPost2010Prop45
280
     0
102
RTVSPost2010PropOp45
 70
     1
102
RTVSPost2010Prop46
 90
       50
102
RTVSPost2010PropOp46
 70
     1
102
RTVSPost2010Prop47
 90
       50
102
RTVSPost2010PropOp47
 70
     1
102
RTVSPost2010Prop48
 90
       50
102
RTVSPost2010PropOp48
 70
     1
102
RTVSPost2010Prop49
280
     0
102
RTVSPost2010PropOp49
 70
     1
102
RTVSPost2010Prop50
 90
       50
102
RTVSPost2010PropOp50
 70
     1
102
RTVSPost2010Prop51ColorIndex
 90
      256
102
RTVSPost2010Prop51ColorRGB
 90
-16777216
102
RTVSPost2010PropOp51
 70
     0
102
RTVSPost2010Prop52
140
1.0
102
RTVSPost2010PropOp52
 70
     0
102
RTVSPost2010Prop53
 90
        2
102
RTVSPost2010PropOp53
 70
     1
102
RTVSPost2010Prop54
  1
strokes_ogs.tif
102
RTVSPost2010PropOp54
 70
     1
102
RTVSPost2010Prop55
280
     0
102
RTVSPost2010PropOp55
 70
     1
102
RTVSPost2010Prop56
140
1.0
102
RTVSPost2010PropOp56
 70
     1
102
RTVSPost2010Prop57
140
1.0
102
RTVSPost2010PropOp57
 70
     1
  0
XRECORD
  5
2DC
102
{ACAD_REACTORS
330
2DB
102
}
330
2DB
100
AcDbXrecord
280
     1
102
RTVSPost2010Prop28
280
     0
102
RTVSPost2010PropOp28
 70
     1
102
RTVSPost2010Prop29
280
     1
102
RTVSPost2010PropOp29
 70
     1
102
RTVSPost2010Prop30
280
     1
102
RTVSPost2010PropOp30
 70
     1
102
RTVSPost2010Prop31
280
     0
102
RTVSPost2010PropOp31
 70
     1
102
RTVSPost2010Prop32
280
     0
102
RTVSPost2010PropOp32
 70
     1
102
RTVSPost2010Prop33
280
     0
102
RTVSPost2010PropOp33
 70
     1
102
RTVSPost2010Prop34
280
     0
102
RTVSPost2010PropOp34
 70
     1
102
RTVSPost2010Prop35
280
     0
102
RTVSPost2010PropOp35
 70
     1
102
RTVSPost2010Prop36
280
     0
102
RTVSPost2010PropOp36
 70
     1
102
RTVSPost2010Prop37
 90
       50
102
RTVSPost2010PropOp37
 70
     1
102
RTVSPost2010Prop38
140
0.0
102
RTVSPost2010PropOp38
 70
     1
102
RTVSPost2010Prop39
140
1.0
102
RTVSPost2010PropOp39
 70
     1
102
RTVSPost2010Prop40
 90
        0
102
RTVSPost2010PropOp40
 70
     1
102
RTVSPost2010Prop41ColorIndex
 90
       18
102
RTVSPost2010Prop41ColorRGB
 90
        0
102
RTVSPost2010PropOp41
 70
     1
102
RTVSPost2010Prop42
 90
       50
102
RTVSPost2010PropOp42
 70
     1
102
RTVSPost2010Prop43
 90
        3
102
RTVSPost2010PropOp43
 70
     1
102
RTVSPost2010Prop44ColorIndex
 90
        5
102
RTVSPost2010Prop44ColorRGB
 90
      255
102
RTVSPost2010PropOp44
 70
     1
102
RTVSPost2010Prop45
280
     0
102
RTVSPost2010PropOp45
 70
     1
102
RTVSPost2010Prop46
 90
       50
102
RTVSPost2010PropOp46
 70
     1
102
RTVSPost2010Prop47
 90
       50
102
RTVSPost2010PropOp47
 70
     1
102
RTVSPost2010Prop48
 90
       50
102
RTVSPost2010PropOp48
 70
     1
102
RTVSPost2010Prop49
280
     0
102
RTVSPost2010PropOp49
 70
     1
102
RTVSPost2010Prop50
 90
       50
102
RTVSPost2010PropOp50
 70
     1
102
RTVSPost2010Prop51ColorIndex
 90
      256
102
RTVSPost2010Prop51ColorRGB
 90
-16777216
102
RTVSPost2010PropOp51
 70
     0
102
RTVSPost2010Prop52
140
1.0
102
RTVSPost2010PropOp52
 70
     0
102
RTVSPost2010Prop53
 90
        2
102
RTVSPost2010PropOp53
 70
     1
102
RTVSPost2010Prop54
  1
strokes_ogs.tif
102
RTVSPost2010PropOp54
 70
     1
102
RTVSPost2010Prop55
280
     0
102
RTVSPost2010PropOp55
 70
     1
102
RTVSPost2010Prop56
140
1.0
102
RTVSPost2010PropOp56
 70
     1
102
RTVSPost2010Prop57
140
1.0
102
RTVSPost2010PropOp57
 70
     1
  0
XRECORD
  5
2D6
102
{ACAD_REACTORS
330
2D5
102
}
330
2D5
100
AcDbXrecord
280
     1
102
RTVSPost2010Prop28
280
     0
102
RTVSPost2010PropOp28
 70
     1
102
RTVSPost2010Prop29
280
     1
102
RTVSPost2010PropOp29
 70
     1
102
RTVSPost2010Prop30
280
     1
102
RTVSPost2010PropOp30
 70
     1
102
RTVSPost2010Prop31
280
     0
102
RTVSPost2010PropOp31
 70
     1
102
RTVSPost2010Prop32
280
     0
102
RTVSPost2010PropOp32
 70
     1
102
RTVSPost2010Prop33
280
     0
102
RTVSPost2010PropOp33
 70
     1
102
RTVSPost2010Prop34
280
     0
102
RTVSPost2010PropOp34
 70
     1
102
RTVSPost2010Prop35
280
     0
102
RTVSPost2010PropOp35
 70
     1
102
RTVSPost2010Prop36
280
     0
102
RTVSPost2010PropOp36
 70
     1
102
RTVSPost2010Prop37
 90
       50
102
RTVSPost2010PropOp37
 70
     1
102
RTVSPost2010Prop38
140
0.0
102
RTVSPost2010PropOp38
 70
     1
102
RTVSPost2010Prop39
140
1.0
102
RTVSPost2010PropOp39
 70
     1
102
RTVSPost2010Prop40
 90
        0
102
RTVSPost2010PropOp40
 70
     1
102
RTVSPost2010Prop41ColorIndex
 90
       18
102
RTVSPost2010Prop41ColorRGB
 90
        0
102
RTVSPost2010PropOp41
 70
     1
102
RTVSPost2010Prop42
 90
       50
102
RTVSPost2010PropOp42
 70
     1
102
RTVSPost2010Prop43
 90
        3
102
RTVSPost2010PropOp43
 70
     1
102
RTVSPost2010Prop44ColorIndex
 90
        5
102
RTVSPost2010Prop44ColorRGB
 90
      255
102
RTVSPost2010PropOp44
 70
     1
102
RTVSPost2010Prop45
280
     0
102
RTVSPost2010PropOp45
 70
     1
102
RTVSPost2010Prop46
 90
       50
102
RTVSPost2010PropOp46
 70
     1
102
RTVSPost2010Prop47
 90
       50
102
RTVSPost2010PropOp47
 70
     1
102
RTVSPost2010Prop48
 90
       50
102
RTVSPost2010PropOp48
 70
     1
102
RTVSPost2010Prop49
280
     0
102
RTVSPost2010PropOp49
 70
     1
102
RTVSPost2010Prop50
 90
       50
102
RTVSPost2010PropOp50
 70
     1
102
RTVSPost2010Prop51ColorIndex
 90
      256
102
RTVSPost2010Prop51ColorRGB
 90
-16777216
102
RTVSPost2010PropOp51
 70
     0
102
RTVSPost2010Prop52
140
1.0
102
RTVSPost2010PropOp52
 70
     0
102
RTVSPost2010Prop53
 90
        2
102
RTVSPost2010PropOp53
 70
     1
102
RTVSPost2010Prop54
  1
strokes_ogs.tif
102
RTVSPost2010PropOp54
 70
     1
102
RTVSPost2010Prop55
280
     0
102
RTVSPost2010PropOp55
 70
     1
102
RTVSPost2010Prop56
140
1.0
102
RTVSPost2010PropOp56
 70
     1
102
RTVSPost2010Prop57
140
1.0
102
RTVSPost2010PropOp57
 70
     1
  0
XRECORD
  5
2D8
102
{ACAD_REACTORS
330
2D7
102
}
330
2D7
100
AcDbXrecord
280
     1
102
RTVSPost2010Prop28
280
     0
102
RTVSPost2010PropOp28
 70
     1
102
RTVSPost2010Prop29
280
     1
102
RTVSPost2010PropOp29
 70
     1
102
RTVSPost2010Prop30
280
     1
102
RTVSPost2010PropOp30
 70
     1
102
RTVSPost2010Prop31
280
     0
102
RTVSPost2010PropOp31
 70
     1
102
RTVSPost2010Prop32
280
     0
102
RTVSPost2010PropOp32
 70
     1
102
RTVSPost2010Prop33
280
     0
102
RTVSPost2010PropOp33
 70
     1
102
RTVSPost2010Prop34
280
     0
102
RTVSPost2010PropOp34
 70
     1
102
RTVSPost2010Prop35
280
     0
102
RTVSPost2010PropOp35
 70
     1
102
RTVSPost2010Prop36
280
     0
102
RTVSPost2010PropOp36
 70
     1
102
RTVSPost2010Prop37
 90
       50
102
RTVSPost2010PropOp37
 70
     1
102
RTVSPost2010Prop38
140
0.0
102
RTVSPost2010PropOp38
 70
     1
102
RTVSPost2010Prop39
140
1.0
102
RTVSPost2010PropOp39
 70
     1
102
RTVSPost2010Prop40
 90
        0
102
RTVSPost2010PropOp40
 70
     1
102
RTVSPost2010Prop41ColorIndex
 90
       18
102
RTVSPost2010Prop41ColorRGB
 90
        0
102
RTVSPost2010PropOp41
 70
     1
102
RTVSPost2010Prop42
 90
       50
102
RTVSPost2010PropOp42
 70
     1
102
RTVSPost2010Prop43
 90
        3
102
RTVSPost2010PropOp43
 70
     1
102
RTVSPost2010Prop44ColorIndex
 90
        5
102
RTVSPost2010Prop44ColorRGB
 90
      255
102
RTVSPost2010PropOp44
 70
     1
102
RTVSPost2010Prop45
280
     0
102
RTVSPost2010PropOp45
 70
     1
102
RTVSPost2010Prop46
 90
       50
102
RTVSPost2010PropOp46
 70
     1
102
RTVSPost2010Prop47
 90
       50
102
RTVSPost2010PropOp47
 70
     1
102
RTVSPost2010Prop48
 90
       50
102
RTVSPost2010PropOp48
 70
     1
102
RTVSPost2010Prop49
280
     0
102
RTVSPost2010PropOp49
 70
     1
102
RTVSPost2010Prop50
 90
       50
102
RTVSPost2010PropOp50
 70
     1
102
RTVSPost2010Prop51ColorIndex
 90
      256
102
RTVSPost2010Prop51ColorRGB
 90
-16777216
102
RTVSPost2010PropOp51
 70
     0
102
RTVSPost2010Prop52
140
1.0
102
RTVSPost2010PropOp52
 70
     0
102
RTVSPost2010Prop53
 90
        2
102
RTVSPost2010PropOp53
 70
     1
102
RTVSPost2010Prop54
  1
strokes_ogs.tif
102
RTVSPost2010PropOp54
 70
     1
102
RTVSPost2010Prop55
280
     0
102
RTVSPost2010PropOp55
 70
     1
102
RTVSPost2010Prop56
140
1.0
102
RTVSPost2010PropOp56
 70
     1
102
RTVSPost2010Prop57
140
1.0
102
RTVSPost2010PropOp57
 70
     1
  0
XRECORD
  5
2CA
102
{ACAD_REACTORS
330
2C9
102
}
330
2C9
100
AcDbXrecord
280
     1
102
RTVSPost2010Prop28
280
     0
102
RTVSPost2010PropOp28
 70
     1
102
RTVSPost2010Prop29
280
     1
102
RTVSPost2010PropOp29
 70
     1
102
RTVSPost2010Prop30
280
     1
102
RTVSPost2010PropOp30
 70
     1
102
RTVSPost2010Prop31
280
     0
102
RTVSPost2010PropOp31
 70
     1
102
RTVSPost2010Prop32
280
     0
102
RTVSPost2010PropOp32
 70
     1
102
RTVSPost2010Prop33
280
     0
102
RTVSPost2010PropOp33
 70
     1
102
RTVSPost2010Prop34
280
     0
102
RTVSPost2010PropOp34
 70
     1
102
RTVSPost2010Prop35
280
     0
102
RTVSPost2010PropOp35
 70
     1
102
RTVSPost2010Prop36
280
     0
102
RTVSPost2010PropOp36
 70
     1
102
RTVSPost2010Prop37
 90
       50
102
RTVSPost2010PropOp37
 70
     1
102
RTVSPost2010Prop38
140
0.0
102
RTVSPost2010PropOp38
 70
     1
102
RTVSPost2010Prop39
140
1.0
102
RTVSPost2010PropOp39
 70
     1
102
RTVSPost2010Prop40
 90
        0
102
RTVSPost2010PropOp40
 70
     1
102
RTVSPost2010Prop41ColorIndex
 90
       18
102
RTVSPost2010Prop41ColorRGB
 90
        0
102
RTVSPost2010PropOp41
 70
     1
102
RTVSPost2010Prop42
 90
       50
102
RTVSPost2010PropOp42
 70
     1
102
RTVSPost2010Prop43
 90
        3
102
RTVSPost2010PropOp43
 70
     1
102
RTVSPost2010Prop44ColorIndex
 90
        5
102
RTVSPost2010Prop44ColorRGB
 90
      255
102
RTVSPost2010PropOp44
 70
     1
102
RTVSPost2010Prop45
280
     0
102
RTVSPost2010PropOp45
 70
     1
102
RTVSPost2010Prop46
 90
       50
102
RTVSPost2010PropOp46
 70
     1
102
RTVSPost2010Prop47
 90
       50
102
RTVSPost2010PropOp47
 70
     1
102
RTVSPost2010Prop48
 90
       50
102
RTVSPost2010PropOp48
 70
     1
102
RTVSPost2010Prop49
280
     0
102
RTVSPost2010PropOp49
 70
     1
102
RTVSPost2010Prop50
 90
       50
102
RTVSPost2010PropOp50
 70
     1
102
RTVSPost2010Prop51ColorIndex
 90
      256
102
RTVSPost2010Prop51ColorRGB
 90
-16777216
102
RTVSPost2010PropOp51
 70
     0
102
RTVSPost2010Prop52
140
1.0
102
RTVSPost2010PropOp52
 70
     0
102
RTVSPost2010Prop53
 90
        2
102
RTVSPost2010PropOp53
 70
     1
102
RTVSPost2010Prop54
  1
strokes_ogs.tif
102
RTVSPost2010PropOp54
 70
     1
102
RTVSPost2010Prop55
280
     0
102
RTVSPost2010PropOp55
 70
     1
102
RTVSPost2010Prop56
140
1.0
102
RTVSPost2010PropOp56
 70
     1
102
RTVSPost2010Prop57
140
1.0
102
RTVSPost2010PropOp57
 70
     1
  0
XRECORD
  5
2D2
102
{ACAD_REACTORS
330
2D1
102
}
330
2D1
100
AcDbXrecord
280
     1
102
RTVSPost2010Prop28
280
     0
102
RTVSPost2010PropOp28
 70
     1
102
RTVSPost2010Prop29
280
     1
102
RTVSPost2010PropOp29
 70
     1
102
RTVSPost2010Prop30
280
     1
102
RTVSPost2010PropOp30
 70
     1
102
RTVSPost2010Prop31
280
     0
102
RTVSPost2010PropOp31
 70
     1
102
RTVSPost2010Prop32
280
     0
102
RTVSPost2010PropOp32
 70
     1
102
RTVSPost2010Prop33
280
     0
102
RTVSPost2010PropOp33
 70
     1
102
RTVSPost2010Prop34
280
     0
102
RTVSPost2010PropOp34
 70
     1
102
RTVSPost2010Prop35
280
     0
102
RTVSPost2010PropOp35
 70
     1
102
RTVSPost2010Prop36
280
     0
102
RTVSPost2010PropOp36
 70
     1
102
RTVSPost2010Prop37
 90
       50
102
RTVSPost2010PropOp37
 70
     1
102
RTVSPost2010Prop38
140
0.0
102
RTVSPost2010PropOp38
 70
     1
102
RTVSPost2010Prop39
140
1.0
102
RTVSPost2010PropOp39
 70
     1
102
RTVSPost2010Prop40
 90
        0
102
RTVSPost2010PropOp40
 70
     1
102
RTVSPost2010Prop41ColorIndex
 90
       18
102
RTVSPost2010Prop41ColorRGB
 90
        0
102
RTVSPost2010PropOp41
 70
     1
102
RTVSPost2010Prop42
 90
       50
102
RTVSPost2010PropOp42
 70
     1
102
RTVSPost2010Prop43
 90
        3
102
RTVSPost2010PropOp43
 70
     1
102
RTVSPost2010Prop44ColorIndex
 90
        5
102
RTVSPost2010Prop44ColorRGB
 90
      255
102
RTVSPost2010PropOp44
 70
     1
102
RTVSPost2010Prop45
280
     0
102
RTVSPost2010PropOp45
 70
     1
102
RTVSPost2010Prop46
 90
       50
102
RTVSPost2010PropOp46
 70
     1
102
RTVSPost2010Prop47
 90
       50
102
RTVSPost2010PropOp47
 70
     1
102
RTVSPost2010Prop48
 90
       50
102
RTVSPost2010PropOp48
 70
     1
102
RTVSPost2010Prop49
280
     0
102
RTVSPost2010PropOp49
 70
     1
102
RTVSPost2010Prop50
 90
       50
102
RTVSPost2010PropOp50
 70
     1
102
RTVSPost2010Prop51ColorIndex
 90
      256
102
RTVSPost2010Prop51ColorRGB
 90
-16777216
102
RTVSPost2010PropOp51
 70
     0
102
RTVSPost2010Prop52
140
1.0
102
RTVSPost2010PropOp52
 70
     0
102
RTVSPost2010Prop53
 90
        2
102
RTVSPost2010PropOp53
 70
     1
102
RTVSPost2010Prop54
  1
strokes_ogs.tif
102
RTVSPost2010PropOp54
 70
     1
102
RTVSPost2010Prop55
280
     0
102
RTVSPost2010PropOp55
 70
     1
102
RTVSPost2010Prop56
140
1.0
102
RTVSPost2010PropOp56
 70
     1
102
RTVSPost2010Prop57
140
1.0
102
RTVSPost2010PropOp57
 70
     1
  0
XRECORD
  5
2DA
102
{ACAD_REACTORS
330
2D9
102
}
330
2D9
100
AcDbXrecord
280
     1
102
RTVSPost2010Prop28
280
     0
102
RTVSPost2010PropOp28
 70
     1
102
RTVSPost2010Prop29
280
     1
102
RTVSPost2010PropOp29
 70
     1
102
RTVSPost2010Prop30
280
     1
102
RTVSPost2010PropOp30
 70
     1
102
RTVSPost2010Prop31
280
     0
102
RTVSPost2010PropOp31
 70
     1
102
RTVSPost2010Prop32
280
     0
102
RTVSPost2010PropOp32
 70
     1
102
RTVSPost2010Prop33
280
     0
102
RTVSPost2010PropOp33
 70
     1
102
RTVSPost2010Prop34
280
     0
102
RTVSPost2010PropOp34
 70
     1
102
RTVSPost2010Prop35
280
     0
102
RTVSPost2010PropOp35
 70
     1
102
RTVSPost2010Prop36
280
     0
102
RTVSPost2010PropOp36
 70
     1
102
RTVSPost2010Prop37
 90
       50
102
RTVSPost2010PropOp37
 70
     1
102
RTVSPost2010Prop38
140
0.0
102
RTVSPost2010PropOp38
 70
     1
102
RTVSPost2010Prop39
140
1.0
102
RTVSPost2010PropOp39
 70
     1
102
RTVSPost2010Prop40
 90
        0
102
RTVSPost2010PropOp40
 70
     1
102
RTVSPost2010Prop41ColorIndex
 90
       18
102
RTVSPost2010Prop41ColorRGB
 90
        0
102
RTVSPost2010PropOp41
 70
     1
102
RTVSPost2010Prop42
 90
       50
102
RTVSPost2010PropOp42
 70
     1
102
RTVSPost2010Prop43
 90
        3
102
RTVSPost2010PropOp43
 70
     1
102
RTVSPost2010Prop44ColorIndex
 90
        5
102
RTVSPost2010Prop44ColorRGB
 90
      255
102
RTVSPost2010PropOp44
 70
     1
102
RTVSPost2010Prop45
280
     0
102
RTVSPost2010PropOp45
 70
     1
102
RTVSPost2010Prop46
 90
       50
102
RTVSPost2010PropOp46
 70
     1
102
RTVSPost2010Prop47
 90
       50
102
RTVSPost2010PropOp47
 70
     1
102
RTVSPost2010Prop48
 90
       50
102
RTVSPost2010PropOp48
 70
     1
102
RTVSPost2010Prop49
280
     0
102
RTVSPost2010PropOp49
 70
     1
102
RTVSPost2010Prop50
 90
       50
102
RTVSPost2010PropOp50
 70
     1
102
RTVSPost2010Prop51ColorIndex
 90
      256
102
RTVSPost2010Prop51ColorRGB
 90
-16777216
102
RTVSPost2010PropOp51
 70
     0
102
RTVSPost2010Prop52
140
1.0
102
RTVSPost2010PropOp52
 70
     0
102
RTVSPost2010Prop53
 90
        2
102
RTVSPost2010PropOp53
 70
     1
102
RTVSPost2010Prop54
  1
strokes_ogs.tif
102
RTVSPost2010PropOp54
 70
     1
102
RTVSPost2010Prop55
280
     0
102
RTVSPost2010PropOp55
 70
     1
102
RTVSPost2010Prop56
140
1.0
102
RTVSPost2010PropOp56
 70
     1
102
RTVSPost2010Prop57
140
1.0
102
RTVSPost2010PropOp57
 70
     1
  0
ENDSEC
  0
EOF
