  0
SECTION
  2
HEADER
  9
$ACADVER
  1
AC1027
  9
$ACADMAINTVER
 70
   125
  9
$DWGCODEPAGE
  3
ANSI_1252
  9
$LASTSAVEDBY
  1
kaschu
  9
$REQUIREDVERSIONS
160
                 0
  9
$INSBASE
 10
0.0
 20
0.0
 30
0.0
  9
$EXTMIN
 10
-0.0045589011915581
 20
81.75621472607463
 30
0.0
  9
$EXTMAX
 10
2671.486859815141
 20
1104.243154175933
 30
0.0
  9
$LIMMIN
 10
0.0
 20
0.0
  9
$LIMMAX
 10
420.0
 20
297.0
  9
$ORTHOMODE
 70
     1
  9
$REGENMODE
 70
     1
  9
$FILLMODE
 70
     1
  9
$QTEXTMODE
 70
     0
  9
$MIRRTEXT
 70
     1
  9
$LTSCALE
 40
1.0
  9
$ATTMODE
 70
     1
  9
$TEXTSIZE
 40
2.5
  9
$TRACEWID
 40
1.0
  9
$TEXTSTYLE
  7
Standard
  9
$CLAYER
  8
0
  9
$CELTYPE
  6
ByLayer
  9
$CECOLOR
 62
   256
  9
$CELTSCALE
 40
1.0
  9
$DISPSILH
 70
     0
  9
$DIMSCALE
 40
1.0
  9
$DIMASZ
 40
2.5
  9
$DIMEXO
 40
0.625
  9
$DIMDLI
 40
3.75
  9
$DIMRND
 40
0.0
  9
$DIMDLE
 40
0.0
  9
$DIMEXE
 40
1.25
  9
$DIMTP
 40
0.0
  9
$DIMTM
 40
0.0
  9
$DIMTXT
 40
2.5
  9
$DIMCEN
 40
2.5
  9
$DIMTSZ
 40
0.0
  9
$DIMTOL
 70
     0
  9
$DIMLIM
 70
     0
  9
$DIMTIH
 70
     0
  9
$DIMTOH
 70
     0
  9
$DIMSE1
 70
     0
  9
$DIMSE2
 70
     0
  9
$DIMTAD
 70
     1
  9
$DIMZIN
 70
     8
  9
$DIMBLK
  1

  9
$DIMASO
 70
     1
  9
$DIMSHO
 70
     1
  9
$DIMPOST
  1

  9
$DIMAPOST
  1

  9
$DIMALT
 70
     0
  9
$DIMALTD
 70
     3
  9
$DIMALTF
 40
0.03937007874016
  9
$DIMLFAC
 40
1.0
  9
$DIMTOFL
 70
     1
  9
$DIMTVP
 40
0.0
  9
$DIMTIX
 70
     0
  9
$DIMSOXD
 70
     0
  9
$DIMSAH
 70
     0
  9
$DIMBLK1
  1

  9
$DIMBLK2
  1

  9
$DIMSTYLE
  2
ISO-25
  9
$DIMCLRD
 70
     0
  9
$DIMCLRE
 70
     0
  9
$DIMCLRT
 70
     0
  9
$DIMTFAC
 40
1.0
  9
$DIMGAP
 40
0.625
  9
$DIMJUST
 70
     0
  9
$DIMSD1
 70
     0
  9
$DIMSD2
 70
     0
  9
$DIMTOLJ
 70
     0
  9
$DIMTZIN
 70
     8
  9
$DIMALTZ
 70
     0
  9
$DIMALTTZ
 70
     0
  9
$DIMUPT
 70
     0
  9
$DIMDEC
 70
     2
  9
$DIMTDEC
 70
     2
  9
$DIMALTU
 70
     2
  9
$DIMALTTD
 70
     3
  9
$DIMTXSTY
  7
Standard
  9
$DIMAUNIT
 70
     0
  9
$DIMADEC
 70
     0
  9
$DIMALTRND
 40
0.0
  9
$DIMAZIN
 70
     0
  9
$DIMDSEP
 70
    44
  9
$DIMATFIT
 70
     3
  9
$DIMFRAC
 70
     0
  9
$DIMLDRBLK
  1

  9
$DIMLUNIT
 70
     2
  9
$DIMLWD
 70
    -2
  9
$DIMLWE
 70
    -2
  9
$DIMTMOVE
 70
     0
  9
$DIMFXL
 40
1.0
  9
$DIMFXLON
 70
     0
  9
$DIMJOGANG
 40
0.7853981633974483
  9
$DIMTFILL
 70
     0
  9
$DIMTFILLCLR
 70
     0
  9
$DIMARCSYM
 70
     0
  9
$DIMLTYPE
  6

  9
$DIMLTEX1
  6

  9
$DIMLTEX2
  6

  9
$DIMTXTDIRECTION
 70
     0
  9
$LUNITS
 70
     2
  9
$LUPREC
 70
     4
  9
$SKETCHINC
 40
1.0
  9
$FILLETRAD
 40
10.0
  9
$AUNITS
 70
     0
  9
$AUPREC
 70
     0
  9
$MENU
  1
.
  9
$ELEVATION
 40
0.0
  9
$PELEVATION
 40
0.0
  9
$THICKNESS
 40
0.0
  9
$LIMCHECK
 70
     0
  9
$CHAMFERA
 40
0.0
  9
$CHAMFERB
 40
0.0
  9
$CHAMFERC
 40
0.0
  9
$CHAMFERD
 40
0.0
  9
$SKPOLY
 70
     0
  9
$TDCREATE
 40
2459124.600868056
  9
$TDUCREATE
 40
2459124.517542141
  9
$TDUPDATE
 40
2459125.340601852
  9
$TDUUPDATE
 40
2459125.257268519
  9
$TDINDWG
 40
0.0245949190
  9
$TDUSRTIMER
 40
0.0245949190
  9
$USRTIMER
 70
     1
  9
$ANGBASE
 50
0.0
  9
$ANGDIR
 70
     0
  9
$PDMODE
 70
     0
  9
$PDSIZE
 40
0.0
  9
$PLINEWID
 40
0.0
  9
$SPLFRAME
 70
     0
  9
$SPLINETYPE
 70
     6
  9
$SPLINESEGS
 70
     8
  9
$HANDSEED
  5
C398
  9
$SURFTAB1
 70
     6
  9
$SURFTAB2
 70
     6
  9
$SURFTYPE
 70
     6
  9
$SURFU
 70
     6
  9
$SURFV
 70
     6
  9
$UCSBASE
  2

  9
$UCSNAME
  2

  9
$UCSORG
 10
0.0
 20
0.0
 30
0.0
  9
$UCSXDIR
 10
1.0
 20
0.0
 30
0.0
  9
$UCSYDIR
 10
0.0
 20
1.0
 30
0.0
  9
$UCSORTHOREF
  2

  9
$UCSORTHOVIEW
 70
     0
  9
$UCSORGTOP
 10
0.0
 20
0.0
 30
0.0
  9
$UCSORGBOTTOM
 10
0.0
 20
0.0
 30
0.0
  9
$UCSORGLEFT
 10
0.0
 20
0.0
 30
0.0
  9
$UCSORGRIGHT
 10
0.0
 20
0.0
 30
0.0
  9
$UCSORGFRONT
 10
0.0
 20
0.0
 30
0.0
  9
$UCSORGBACK
 10
0.0
 20
0.0
 30
0.0
  9
$PUCSBASE
  2

  9
$PUCSNAME
  2

  9
$PUCSORG
 10
0.0
 20
0.0
 30
0.0
  9
$PUCSXDIR
 10
1.0
 20
0.0
 30
0.0
  9
$PUCSYDIR
 10
0.0
 20
1.0
 30
0.0
  9
$PUCSORTHOREF
  2

  9
$PUCSORTHOVIEW
 70
     0
  9
$PUCSORGTOP
 10
0.0
 20
0.0
 30
0.0
  9
$PUCSORGBOTTOM
 10
0.0
 20
0.0
 30
0.0
  9
$PUCSORGLEFT
 10
0.0
 20
0.0
 30
0.0
  9
$PUCSORGRIGHT
 10
0.0
 20
0.0
 30
0.0
  9
$PUCSORGFRONT
 10
0.0
 20
0.0
 30
0.0
  9
$PUCSORGBACK
 10
0.0
 20
0.0
 30
0.0
  9
$USERI1
 70
     0
  9
$USERI2
 70
     0
  9
$USERI3
 70
     0
  9
$USERI4
 70
     0
  9
$USERI5
 70
     0
  9
$USERR1
 40
0.0
  9
$USERR2
 40
0.0
  9
$USERR3
 40
0.0
  9
$USERR4
 40
0.0
  9
$USERR5
 40
0.0
  9
$WORLDVIEW
 70
     1
  9
$SHADEDGE
 70
     3
  9
$SHADEDIF
 70
    70
  9
$TILEMODE
 70
     1
  9
$MAXACTVP
 70
    64
  9
$PINSBASE
 10
0.0
 20
0.0
 30
0.0
  9
$PLIMCHECK
 70
     0
  9
$PEXTMIN
 10
1.000000000000000E+20
 20
1.000000000000000E+20
 30
1.000000000000000E+20
  9
$PEXTMAX
 10
-1.000000000000000E+20
 20
-1.000000000000000E+20
 30
-1.000000000000000E+20
  9
$PLIMMIN
 10
0.0
 20
0.0
  9
$PLIMMAX
 10
420.0
 20
297.0
  9
$UNITMODE
 70
     0
  9
$VISRETAIN
 70
     1
  9
$PLINEGEN
 70
     0
  9
$PSLTSCALE
 70
     1
  9
$TREEDEPTH
 70
  3020
  9
$CMLSTYLE
  2
Standard
  9
$CMLJUST
 70
     0
  9
$CMLSCALE
 40
20.0
  9
$PROXYGRAPHICS
 70
     1
  9
$MEASUREMENT
 70
     1
  9
$CELWEIGHT
370
    -1
  9
$ENDCAPS
280
     0
  9
$JOINSTYLE
280
     0
  9
$LWDISPLAY
290
     0
  9
$INSUNITS
 70
     5
  9
$HYPERLINKBASE
  1

  9
$STYLESHEET
  1

  9
$XEDIT
290
     1
  9
$CEPSNTYPE
380
     0
  9
$PSTYLEMODE
290
     1
  9
$FINGERPRINTGUID
  2
{D8C1A8D5-AFD7-450C-A18D-578176CB35E3}
  9
$VERSIONGUID
  2
{09DED2BF-1105-744C-80EF-FCA7D3F01E8F}
  9
$EXTNAMES
290
     1
  9
$PSVPSCALE
 40
0.0
  9
$OLESTARTUP
290
     0
  9
$SORTENTS
280
   127
  9
$INDEXCTL
280
     0
  9
$HIDETEXT
280
     1
  9
$XCLIPFRAME
280
     2
  9
$HALOGAP
280
     0
  9
$OBSCOLOR
 70
   257
  9
$OBSLTYPE
280
     0
  9
$INTERSECTIONDISPLAY
280
     0
  9
$INTERSECTIONCOLOR
 70
   257
  9
$DIMASSOC
280
     2
  9
$PROJECTNAME
  1

  9
$CAMERADISPLAY
290
     0
  9
$LENSLENGTH
 40
50.0
  9
$CAMERAHEIGHT
 40
0.0
  9
$STEPSPERSEC
 40
2.0
  9
$STEPSIZE
 40
6.0
  9
$3DDWFPREC
 40
2.0
  9
$PSOLWIDTH
 40
5.0
  9
$PSOLHEIGHT
 40
80.0
  9
$LOFTANG1
 40
1.570796326794896
  9
$LOFTANG2
 40
1.570796326794896
  9
$LOFTMAG1
 40
0.0
  9
$LOFTMAG2
 40
0.0
  9
$LOFTPARAM
 70
     7
  9
$LOFTNORMALS
280
     1
  9
$LATITUDE
 40
37.795
  9
$LONGITUDE
 40
-122.394
  9
$NORTHDIRECTION
 40
0.0
  9
$TIMEZONE
 70
 -8000
  9
$LIGHTGLYPHDISPLAY
280
     1
  9
$TILEMODELIGHTSYNCH
280
     1
  9
$CMATERIAL
347
44
  9
$SOLIDHIST
280
     0
  9
$SHOWHIST
280
     1
  9
$DWFFRAME
280
     2
  9
$DGNFRAME
280
     2
  9
$REALWORLDSCALE
290
     1
  9
$INTERFERECOLOR
 62
   256
  9
$INTERFEREOBJVS
345
33
  9
$INTERFEREVPVS
346
30
  9
$CSHADOW
280
     0
  9
$SHADOWPLANELOCATION
 40
0.0
  0
ENDSEC
  0
SECTION
  2
CLASSES
  0
CLASS
  1
ACDBDICTIONARYWDFLT
  2
AcDbDictionaryWithDefault
  3
ObjectDBX Classes
 90
        0
 91
        1
280
     0
281
     0
  0
CLASS
  1
VISUALSTYLE
  2
AcDbVisualStyle
  3
ObjectDBX Classes
 90
     4095
 91
       24
280
     0
281
     0
  0
CLASS
  1
MATERIAL
  2
AcDbMaterial
  3
ObjectDBX Classes
 90
     1153
 91
        3
280
     0
281
     0
  0
CLASS
  1
SCALE
  2
AcDbScale
  3
ObjectDBX Classes
 90
     1153
 91
       33
280
     0
281
     0
  0
CLASS
  1
TABLESTYLE
  2
AcDbTableStyle
  3
ObjectDBX Classes
 90
     4095
 91
        1
280
     0
281
     0
  0
CLASS
  1
MLEADERSTYLE
  2
AcDbMLeaderStyle
  3
ACDB_MLEADERSTYLE_CLASS
 90
     4095
 91
        1
280
     0
281
     0
  0
CLASS
  1
SUN
  2
AcDbSun
  3
SCENEOE
 90
     1153
 91
        1
280
     0
281
     0
  0
CLASS
  1
DICTIONARYVAR
  2
AcDbDictionaryVar
  3
ObjectDBX Classes
 90
        0
 91
        7
280
     0
281
     0
  0
CLASS
  1
ACDBSECTIONVIEWSTYLE
  2
AcDbSectionViewStyle
  3
ObjectDBX Classes
 90
     1025
 91
        2
280
     0
281
     0
  0
CLASS
  1
ACDBDETAILVIEWSTYLE
  2
AcDbDetailViewStyle
  3
ObjectDBX Classes
 90
     1025
 91
        2
280
     0
281
     0
  0
CLASS
  1
CELLSTYLEMAP
  2
AcDbCellStyleMap
  3
ObjectDBX Classes
 90
     1152
 91
        3
280
     0
281
     0
  0
CLASS
  1
DIMASSOC
  2
AcDbDimAssoc
  3
"AcDbDimAssoc|Product Desc:     AcDim ARX App For Dimension|Company:          Autodesk, Inc.|WEB Address:      www.autodesk.com"
 90
        0
 91
        5
280
     0
281
     0
  0
CLASS
  1
SORTENTSTABLE
  2
AcDbSortentsTable
  3
ObjectDBX Classes
 90
        0
 91
        1
280
     0
281
     0
  0
ENDSEC
  0
SECTION
  2
TABLES
  0
TABLE
  2
VPORT
  5
8
330
0
100
AcDbSymbolTable
 70
     1
1001
ACAD
1000
DbSaveVer
1071
      224
  0
VPORT
  5
29
330
8
100
AcDbSymbolTableRecord
100
AcDbViewportTableRecord
  2
*Active
 70
     0
 10
0.0
 20
0.0
 11
1.0
 21
1.0
 12
603.5932456446261
 22
642.4267537355183
 13
0.0
 23
0.0
 14
10.0
 24
10.0
 15
10.0
 25
10.0
 16
0.0
 26
0.0
 36
1.0
 17
0.0
 27
0.0
 37
0.0
 40
1905.950654553552
 41
2.046436285097192
 42
50.0
 43
0.0
 44
0.0
 50
0.0
 51
0.0
 71
     0
 72
   100
 73
     1
 74
     3
 75
     0
 76
     0
 77
     0
 78
     0
281
     0
 65
     1
110
0.0
120
0.0
130
0.0
111
1.0
121
0.0
131
0.0
112
0.0
122
1.0
132
0.0
 79
     0
146
0.0
348
2F
 60
     3
 61
     5
292
     1
282
     1
141
0.0
142
0.0
 63
   250
421
  3355443
361
6D
1001
ACAD_NAV_VCDISPLAY
1070
     3
  0
ENDTAB
  0
TABLE
  2
LTYPE
  5
5
330
0
100
AcDbSymbolTable
 70
    11
  0
LTYPE
  5
14
330
5
100
AcDbSymbolTableRecord
100
AcDbLinetypeTableRecord
  2
ByBlock
 70
     0
  3

 72
    65
 73
     0
 40
0.0
  0
LTYPE
  5
15
330
5
100
AcDbSymbolTableRecord
100
AcDbLinetypeTableRecord
  2
ByLayer
 70
     0
  3

 72
    65
 73
     0
 40
0.0
  0
LTYPE
  5
16
330
5
100
AcDbSymbolTableRecord
100
AcDbLinetypeTableRecord
  2
Continuous
 70
     0
  3
Solid line
 72
    65
 73
     0
 40
0.0
  0
LTYPE
  5
6F
330
5
100
AcDbSymbolTableRecord
100
AcDbLinetypeTableRecord
  2
CUSTOM
 70
     0
  3

 72
    65
 73
     0
 40
0.0
  0
LTYPE
  5
70
330
5
100
AcDbSymbolTableRecord
100
AcDbLinetypeTableRecord
  2
SOLID
 70
     0
  3

 72
    65
 73
     0
 40
0.0
  0
LTYPE
  5
71
330
5
100
AcDbSymbolTableRecord
100
AcDbLinetypeTableRecord
  2
DASHED
 70
     0
  3

 72
    65
 73
     2
 40
0.1705000001988683
 49
0.0852500000994342
 74
     0
 49
-0.0852500000994342
 74
     0
  0
LTYPE
  5
72
330
5
100
AcDbSymbolTableRecord
100
AcDbLinetypeTableRecord
  2
LONG_DASH
 70
     0
  3

 72
    65
 73
     2
 40
0.1705000001988683
 49
0.1278750001491512
 74
     0
 49
-0.0426250000497171
 74
     0
  0
LTYPE
  5
73
330
5
100
AcDbSymbolTableRecord
100
AcDbLinetypeTableRecord
  2
SHORT_DASH
 70
     0
  3

 72
    65
 73
     4
 40
0.1705000001988683
 49
0.0341000000397737
 74
     0
 49
-0.0511500000596605
 74
     0
 49
0.0341000000397737
 74
     0
 49
-0.0511500000596605
 74
     0
  0
LTYPE
  5
74
330
5
100
AcDbSymbolTableRecord
100
AcDbLinetypeTableRecord
  2
DOTTED
 70
     0
  3

 72
    65
 73
     8
 40
0.1705000001988683
 49
0.0085250000099434
 74
     0
 49
-0.0341000000397737
 74
     0
 49
0.0085250000099434
 74
     0
 49
-0.0341000000397737
 74
     0
 49
0.0085250000099434
 74
     0
 49
-0.0341000000397737
 74
     0
 49
0.0085250000099434
 74
     0
 49
-0.0341000000397737
 74
     0
  0
LTYPE
  5
75
330
5
100
AcDbSymbolTableRecord
100
AcDbLinetypeTableRecord
  2
DOTDASH
 70
     0
  3

 72
    65
 73
     4
 40
0.1705000001988683
 49
0.0085250000099434
 74
     0
 49
-0.0426250000497171
 74
     0
 49
0.0767250000894908
 74
     0
 49
-0.0426250000497171
 74
     0
  0
LTYPE
  5
76
330
5
100
AcDbSymbolTableRecord
100
AcDbLinetypeTableRecord
  2
DOTDOTDASH
 70
     0
  3

 72
    65
 73
     6
 40
0.1705000001988683
 49
0.0085250000099434
 74
     0
 49
-0.0255750000298303
 74
     0
 49
0.0085250000099434
 74
     0
 49
-0.0255750000298303
 74
     0
 49
0.0767250000894908
 74
     0
 49
-0.0255750000298303
 74
     0
  0
LTYPE
  5
77
330
5
100
AcDbSymbolTableRecord
100
AcDbLinetypeTableRecord
  2
DASHDASHDOT
 70
     0
  3

 72
    65
 73
     6
 40
0.1705000001988683
 49
0.0085250000099434
 74
     0
 49
-0.0255750000298303
 74
     0
 49
0.0085250000099434
 74
     0
 49
-0.0255750000298303
 74
     0
 49
0.0767250000894908
 74
     0
 49
-0.0255750000298303
 74
     0
  0
ENDTAB
  0
TABLE
  2
LAYER
  5
2
102
{ACAD_XDICTIONARY
360
B8
102
}
330
0
100
AcDbSymbolTable
 70
     4
  0
LAYER
  5
10
330
2
100
AcDbSymbolTableRecord
100
AcDbLayerTableRecord
  2
0
 70
     0
 62
     7
  6
Continuous
370
    -3
390
F
347
46
348
0
  0
LAYER
  5
B5
330
2
100
AcDbSymbolTableRecord
100
AcDbLayerTableRecord
  2
HEWI
 70
     0
 62
     7
  6
Continuous
370
     9
390
F
347
46
348
0
1001
AcAecLayerStandard
1000

1000

1001
AcCmTransparency
1071
        0
  0
LAYER
  5
BD2C
330
2
100
AcDbSymbolTableRecord
100
AcDbLayerTableRecord
  2
Defpoints
 70
     0
 62
     7
  6
Continuous
290
     0
370
    -3
390
F
347
46
348
0
  0
LAYER
  5
BFF4
330
2
100
AcDbSymbolTableRecord
100
AcDbLayerTableRecord
  2
PV-DE
 70
     2
 62
     7
  6
Continuous
370
    -3
390
F
347
46
348
0
  0
ENDTAB
  0
TABLE
  2
STYLE
  5
3
330
0
100
AcDbSymbolTable
 70
     1
  0
STYLE
  5
11
330
3
100
AcDbSymbolTableRecord
100
AcDbTextStyleTableRecord
  2
Standard
 70
     0
 40
0.0
 41
1.0
 50
0.0
 71
     0
 42
2.5
  3
txt
  4

  0
ENDTAB
  0
TABLE
  2
VIEW
  5
6
330
0
100
AcDbSymbolTable
 70
     0
  0
ENDTAB
  0
TABLE
  2
UCS
  5
7
330
0
100
AcDbSymbolTable
 70
     0
  0
ENDTAB
  0
TABLE
  2
APPID
  5
9
330
0
100
AcDbSymbolTable
 70
     5
  0
APPID
  5
12
330
9
100
AcDbSymbolTableRecord
100
AcDbRegAppTableRecord
  2
ACAD
 70
     0
  0
APPID
  5
91
330
9
100
AcDbSymbolTableRecord
100
AcDbRegAppTableRecord
  2
ACAD_NAV_VCDISPLAY
 70
     0
  0
APPID
  5
AC
330
9
100
AcDbSymbolTableRecord
100
AcDbRegAppTableRecord
  2
ACAD_EXEMPT_FROM_CAD_STANDARDS
 70
     0
  0
APPID
  5
B6
330
9
100
AcDbSymbolTableRecord
100
AcDbRegAppTableRecord
  2
AcAecLayerStandard
 70
     0
  0
APPID
  5
B7
330
9
100
AcDbSymbolTableRecord
100
AcDbRegAppTableRecord
  2
AcCmTransparency
 70
     0
  0
ENDTAB
  0
TABLE
  2
DIMSTYLE
  5
A
330
0
100
AcDbSymbolTable
 70
     3
100
AcDbDimStyleTable
 71
     1
340
27
  0
DIMSTYLE
105
27
330
A
100
AcDbSymbolTableRecord
100
AcDbDimStyleTableRecord
  2
ISO-25
 70
     0
 41
2.5
 42
0.625
 43
3.75
 44
1.25
 73
     0
 74
     0
 77
     1
 78
     8
140
2.5
141
2.5
143
0.03937007874016
147
0.625
171
     3
172
     1
271
     2
272
     2
274
     3
278
    44
283
     0
284
     8
340
11
  0
DIMSTYLE
105
BFF5
330
A
100
AcDbSymbolTableRecord
100
AcDbDimStyleTableRecord
  2
STANDARD
 70
     0
340
11
  0
ENDTAB
  0
TABLE
  2
BLOCK_RECORD
  5
1
330
0
100
AcDbSymbolTable
 70
    15
  0
BLOCK_RECORD
  5
1F
102
{ACAD_XDICTIONARY
360
BFA4
102
}
330
1
100
AcDbSymbolTableRecord
100
AcDbBlockTableRecord
  2
*Model_Space
340
22
 70
     0
280
     1
281
     0
  0
BLOCK_RECORD
  5
1B
330
1
100
AcDbSymbolTableRecord
100
AcDbBlockTableRecord
  2
*Paper_Space
340
1E
 70
     0
280
     1
281
     0
  0
BLOCK_RECORD
  5
23
330
1
100
AcDbSymbolTableRecord
100
AcDbBlockTableRecord
  2
*Paper_Space0
340
26
 70
     0
280
     1
281
     0
  0
BLOCK_RECORD
  5
BD2D
330
1
100
AcDbSymbolTableRecord
100
AcDbBlockTableRecord
  2
*D1
340
0
 70
     0
280
     1
281
     0
  0
BLOCK_RECORD
  5
BD3A
330
1
100
AcDbSymbolTableRecord
100
AcDbBlockTableRecord
  2
*D2
340
0
 70
     0
280
     1
281
     0
  0
BLOCK_RECORD
  5
BF23
330
1
100
AcDbSymbolTableRecord
100
AcDbBlockTableRecord
  2
A$C45da9a32
340
0
 70
     5
280
     1
281
     0
  0
BLOCK_RECORD
  5
BF4F
330
1
100
AcDbSymbolTableRecord
100
AcDbBlockTableRecord
  2
*D4
340
0
 70
     0
280
     1
281
     0
  0
BLOCK_RECORD
  5
BF72
330
1
100
AcDbSymbolTableRecord
100
AcDbBlockTableRecord
  2
*D5
340
0
 70
     0
280
     1
281
     0
  0
BLOCK_RECORD
  5
BF8A
330
1
100
AcDbSymbolTableRecord
100
AcDbBlockTableRecord
  2
*D6
340
0
 70
     0
280
     1
281
     0
  0
BLOCK_RECORD
  5
C303
330
1
100
AcDbSymbolTableRecord
100
AcDbBlockTableRecord
  2
*D9
340
0
 70
     0
280
     1
281
     0
  0
BLOCK_RECORD
  5
C31B
330
1
100
AcDbSymbolTableRecord
100
AcDbBlockTableRecord
  2
*D10
340
0
 70
     0
280
     1
281
     0
  0
BLOCK_RECORD
  5
C333
330
1
100
AcDbSymbolTableRecord
100
AcDbBlockTableRecord
  2
*D11
340
0
 70
     0
280
     1
281
     0
  0
BLOCK_RECORD
  5
C340
330
1
100
AcDbSymbolTableRecord
100
AcDbBlockTableRecord
  2
*D12
340
0
 70
     0
280
     1
281
     0
  0
BLOCK_RECORD
  5
C358
330
1
100
AcDbSymbolTableRecord
100
AcDbBlockTableRecord
  2
*D13
340
0
 70
     0
280
     1
281
     0
  0
BLOCK_RECORD
  5
C370
330
1
100
AcDbSymbolTableRecord
100
AcDbBlockTableRecord
  2
*D14
340
0
 70
     0
280
     1
281
     0
  0
ENDTAB
  0
ENDSEC
  0
SECTION
  2
BLOCKS
  0
BLOCK
  5
20
330
1F
100
AcDbEntity
  8
0
100
AcDbBlockBegin
  2
*Model_Space
 70
     0
 10
0.0
 20
0.0
 30
0.0
  3
*Model_Space
  1

  0
ENDBLK
  5
21
330
1F
100
AcDbEntity
  8
0
100
AcDbBlockEnd
  0
BLOCK
  5
1C
330
1B
100
AcDbEntity
 67
     1
  8
0
100
AcDbBlockBegin
  2
*Paper_Space
 70
     0
 10
0.0
 20
0.0
 30
0.0
  3
*Paper_Space
  1

  0
ENDBLK
  5
1D
330
1B
100
AcDbEntity
 67
     1
  8
0
100
AcDbBlockEnd
  0
BLOCK
  5
24
330
23
100
AcDbEntity
 67
     1
  8
0
100
AcDbBlockBegin
  2
*Paper_Space0
 70
     0
 10
0.0
 20
0.0
 30
0.0
  3
*Paper_Space0
  1

  0
ENDBLK
  5
25
330
23
100
AcDbEntity
 67
     1
  8
0
100
AcDbBlockEnd
  0
BLOCK
  5
BD2E
330
BD2D
100
AcDbEntity
  8
0
100
AcDbBlockBegin
  2
*D1
 70
     1
 10
0.0
 20
0.0
 30
0.0
  3
*D1
  1

  0
LINE
  5
BD30
330
BD2D
100
AcDbEntity
  8
0
 62
     0
440
 16777216
370
    -2
100
AcDbLine
 10
338.6835712293565
 20
619.9549675518547
 30
0.0
 11
338.6835712293565
 21
816.8960688879311
 31
0.0
  0
LINE
  5
BD31
330
BD2D
100
AcDbEntity
  8
0
 62
     0
440
 16777216
370
    -2
100
AcDbLine
 10
988.2687777373712
 20
426.6423699263162
 30
0.0
 11
988.2687777373712
 21
816.8960688879311
 31
0.0
  0
LINE
  5
BD32
330
BD2D
100
AcDbEntity
  8
0
 62
     0
440
 16777216
370
    -2
100
AcDbLine
 10
341.1835712293564
 20
815.646068887931
 30
0.0
 11
985.7687777373712
 21
815.646068887931
 31
0.0
  0
SOLID
  5
BD33
330
BD2D
100
AcDbEntity
  8
0
 62
     0
440
 16777216
100
AcDbTrace
 10
341.1835712293564
 20
816.0627355545976
 30
0.0
 11
341.1835712293564
 21
815.2294022212641
 31
0.0
 12
338.6835712293565
 22
815.646068887931
 32
0.0
 13
338.6835712293565
 23
815.646068887931
 33
0.0
  0
SOLID
  5
BD34
330
BD2D
100
AcDbEntity
  8
0
 62
     0
440
 16777216
100
AcDbTrace
 10
985.7687777373712
 20
816.0627355545976
 30
0.0
 11
985.7687777373712
 21
815.2294022212641
 31
0.0
 12
988.2687777373712
 22
815.646068887931
 32
0.0
 13
988.2687777373712
 23
815.646068887931
 33
0.0
  0
MTEXT
  5
BD35
330
BD2D
100
AcDbEntity
  8
0
 62
     0
440
 16777216
100
AcDbMText
 10
663.4761744833637
 20
817.7294022212644
 30
0.0
 40
2.5
 41
0.0
 46
0.0
 71
     5
 72
     1
  1
649,59
 73
     1
 44
1.0
  0
POINT
  5
BD36
330
BD2D
100
AcDbEntity
  8
Defpoints
 62
     0
440
 16777216
100
AcDbPoint
 10
338.6835712293565
 20
619.3299675518548
 30
0.0
  0
POINT
  5
BD37
330
BD2D
100
AcDbEntity
  8
Defpoints
 62
     0
440
 16777216
100
AcDbPoint
 10
988.2687777373712
 20
426.0173699263162
 30
0.0
  0
POINT
  5
BD38
330
BD2D
100
AcDbEntity
  8
Defpoints
 62
     0
440
 16777216
100
AcDbPoint
 10
988.2687777373712
 20
815.646068887931
 30
0.0
  0
ENDBLK
  5
BD2F
330
BD2D
100
AcDbEntity
  8
0
100
AcDbBlockEnd
  0
BLOCK
  5
BD3B
330
BD3A
100
AcDbEntity
  8
0
100
AcDbBlockBegin
  2
*D2
 70
     1
 10
0.0
 20
0.0
 30
0.0
  3
*D2
  1

  0
LINE
  5
BD47
330
BD3A
100
AcDbEntity
  8
0
 62
     0
440
 16777216
370
    -2
100
AcDbLine
 10
335.1732660822336
 20
617.0049975843796
 30
0.0
 11
335.1732660822336
 21
804.7957966841105
 31
0.0
  0
LINE
  5
BD48
330
BD3A
100
AcDbEntity
  8
0
 62
     0
440
 16777216
370
    -2
100
AcDbLine
 10
989.5339560217554
 20
409.8104453443381
 30
0.0
 11
989.5339560217554
 21
804.7957966841105
 31
0.0
  0
LINE
  5
BD49
330
BD3A
100
AcDbEntity
  8
0
 62
     0
440
 16777216
370
    -2
100
AcDbLine
 10
337.6732660822336
 20
803.5457966841109
 30
0.0
 11
987.0339560217551
 21
803.5457966841109
 31
0.0
  0
SOLID
  5
BD4A
330
BD3A
100
AcDbEntity
  8
0
 62
     0
440
 16777216
100
AcDbTrace
 10
337.6732660822336
 20
803.9624633507774
 30
0.0
 11
337.6732660822336
 21
803.1291300174443
 31
0.0
 12
335.1732660822336
 22
803.5457966841109
 32
0.0
 13
335.1732660822336
 23
803.5457966841109
 33
0.0
  0
SOLID
  5
BD4B
330
BD3A
100
AcDbEntity
  8
0
 62
     0
440
 16777216
100
AcDbTrace
 10
987.0339560217551
 20
803.9624633507774
 30
0.0
 11
987.0339560217551
 21
803.1291300174443
 31
0.0
 12
989.5339560217554
 22
803.5457966841109
 32
0.0
 13
989.5339560217554
 23
803.5457966841109
 33
0.0
  0
MTEXT
  5
BD4C
330
BD3A
100
AcDbEntity
  8
0
 62
     0
440
 16777216
100
AcDbMText
 10
662.3536110519944
 20
805.6291300174443
 30
0.0
 40
2.5
 41
0.0
 46
0.0
 71
     5
 72
     1
  1
654,36
 73
     1
 44
1.0
  0
POINT
  5
BD4D
330
BD3A
100
AcDbEntity
  8
Defpoints
 62
     0
440
 16777216
100
AcDbPoint
 10
335.1732660822336
 20
616.3799975843796
 30
0.0
  0
POINT
  5
BD4E
330
BD3A
100
AcDbEntity
  8
Defpoints
 62
     0
440
 16777216
100
AcDbPoint
 10
989.5339560217554
 20
409.1854453443382
 30
0.0
  0
POINT
  5
BD4F
330
BD3A
100
AcDbEntity
  8
Defpoints
 62
     0
440
 16777216
100
AcDbPoint
 10
989.5339560217554
 20
803.5457966841109
 30
0.0
  0
ENDBLK
  5
BD3C
330
BD3A
100
AcDbEntity
  8
0
100
AcDbBlockEnd
  0
BLOCK
  5
BF40
330
BF23
100
AcDbEntity
  8
0
100
AcDbBlockBegin
  2
A$C45da9a32
 70
     0
 10
0.0
 20
0.0
 30
0.0
  3
A$C45da9a32
  1

  0
LWPOLYLINE
  5
BF24
330
BF23
100
AcDbEntity
  8
0
  6
CUSTOM
 62
    18
420
        0
370
     9
100
AcDbPolyline
 90
       14
 70
     0
 43
0.0
 10
0.0030986771520531
 20
18.71966181379682
 10
0.0030986771520531
 20
20.13387531034382
 10
0.136613348305076
 20
21.06050974519982
 10
0.2304153004879055
 20
21.32160107606512
 10
0.6196499810722571
 20
22.19705968164243
 10
1.250582812004167
 20
22.99902889275033
 10
1.403100703260918
 20
23.17433946850963
 10
2.225208000897509
 20
23.84965275378133
 10
3.2230340223267
 20
24.39385298583352
 10
3.362971262994477
 20
24.44622569859982
 10
4.447155054382918
 20
24.82026554788613
 10
5.457926630301471
 20
25.01368367735772
 10
6.500995451933306
 20
25.07882876431742
 10
7.780995431946847
 20
25.07882876431742
  0
LWPOLYLINE
  5
BF25
330
BF23
100
AcDbEntity
  8
0
  6
CUSTOM
 62
    18
420
        0
370
     9
100
AcDbPolyline
 90
        5
 70
     0
 43
0.0
 10
4.643425639538405
 20
21.40755056914434
 10
5.206999135376121
 20
21.60198157532542
 10
5.84382305688399
 20
21.72384223567183
 10
6.500995451933306
 20
21.76488607854695
 10
7.780995431946847
 20
21.76488607854695
  0
LWPOLYLINE
  5
BF26
330
BF23
100
AcDbEntity
  8
0
  6
CUSTOM
 62
    18
420
        0
370
     9
100
AcDbPolyline
 90
        3
 70
     0
 43
0.0
 10
3.354004278413256
 20
20.23339976384592
 10
3.471388141269598
 20
20.49741712411601
 10
3.796395187123195
 20
20.91052868114623
  0
LWPOLYLINE
  5
BF27
330
BF23
100
AcDbEntity
  8
0
  6
CUSTOM
 62
    18
420
        0
370
     9
100
AcDbPolyline
 90
       13
 70
     0
 43
0.0
 10
3.298892161362444
 20
18.71966181379682
 10
3.20312239257224
 20
18.99441042003212
 10
3.017148645844939
 20
19.24496900610262
 10
2.751779039353266
 20
19.45677601772903
 10
2.422435890047295
 20
19.61752200128302
 10
2.048259424651078
 20
19.71786498448823
 10
1.650995419257228
 20
19.75197339789263
 10
1.253731413863377
 20
19.71786498448823
 10
0.8795549484671028
 20
19.61752200128302
 10
0.5502117991611472
 20
19.45677601772903
 10
0.2848421926695721
 20
19.24496900610262
 10
0.0988684459422729
 20
18.99441042003212
 10
0.0030986771520531
 20
18.71966181379682
  0
LWPOLYLINE
  5
BF28
330
BF23
100
AcDbEntity
  8
0
  6
CUSTOM
 62
    18
420
        0
370
     9
100
AcDbPolyline
 90
        3
 70
     0
 43
0.0
 10
3.685138052854084
 20
20.76911141521911
 10
4.104627821742666
 20
21.11369783937613
 10
4.663860011297741
 20
21.41869518439532
  0
LINE
  5
BF29
330
BF23
100
AcDbEntity
  8
0
  6
CUSTOM
 62
    18
420
        0
370
     9
100
AcDbLine
 10
3.298892161362444
 20
18.71966181379682
 30
0.0
 11
3.298892161362444
 21
20.13387531034382
 31
0.0
  0
LINE
  5
BF2A
330
BF23
100
AcDbEntity
  8
0
  6
CUSTOM
 62
    18
420
        0
370
     9
100
AcDbLine
 10
3.364686953532397
 20
20.30754093321601
 30
0.0
 11
3.298892161362444
 21
19.85090407426742
 31
0.0
  0
LINE
  5
BF2B
330
BF23
100
AcDbEntity
  8
0
  6
CUSTOM
 62
    18
420
        0
370
     9
100
AcDbLine
 10
0.0030986771520531
 20
18.71966181379682
 30
0.0
 11
0.0030986771520531
 21
18.55760171770882
 31
0.0
  0
LWPOLYLINE
  5
BF2C
330
BF23
100
AcDbEntity
  8
0
  6
CUSTOM
 62
    18
420
        0
370
     9
100
AcDbPolyline
 90
       15
 70
     0
 43
0.0
 10
7.755000052248077
 20
1.848427533071428
 10
7.755000052248077
 20
1.507926279297605
 10
7.755000052248077
 20
0.9362000426079362
 10
7.755000052248077
 20
0.5133526211641311
 10
7.755000052248077
 20
0.2639447860499331
 10
7.755000052248077
 20
0.2024632018018337
 10
7.760014469845501
 20
0.1554670869587369
 10
7.774806278801037
 20
0.1132023353467559
 10
7.798633756048445
 20
0.0752881283520139
 10
7.830302092383661
 20
0.0436256426291095
 10
7.86822330518737
 20
0.019802567423227
 10
7.910495866504476
 20
0.0050134912016233
 10
7.955000053595568
 20
0.0
 10
8.955000060332892
 20
0.0
 10
8.955000060332892
 20
0.0320933726466137
  0
LWPOLYLINE
  5
BF2D
330
BF23
100
AcDbEntity
  8
0
  6
CUSTOM
 62
    18
420
        0
370
     9
100
AcDbPolyline
 90
       11
 70
     0
 43
0.0
 10
7.834082559149647
 20
6.942092792307335
 10
7.830302092383661
 20
6.939728357841318
 10
7.798633756048445
 20
6.908206539592327
 10
7.774806278801037
 20
6.870460774701713
 10
7.760014469845501
 20
6.828383793433943
 10
7.755000052248077
 20
6.796367353931231
 10
7.755000052248077
 20
6.667036338355615
 10
7.755000052248077
 20
6.353712867588113
 10
7.755000052248077
 20
5.874596097282505
 10
7.755000052248077
 20
5.257515160882717
 10
7.755000052248077
 20
5.168427384811734
  0
LINE
  5
BF2E
330
BF23
100
AcDbEntity
  8
0
  6
CUSTOM
 62
    18
420
        0
370
     9
100
AcDbLine
 10
3.298892161362444
 20
18.54600854706413
 30
0.0
 11
3.298892161362444
 21
18.71966181379682
 31
0.0
  0
LWPOLYLINE
  5
BF2F
330
BF23
100
AcDbEntity
  8
0
  6
CUSTOM
 62
    18
420
        0
370
     9
100
AcDbPolyline
 90
       28
 70
     0
 43
0.0
 10
0.0019900391671683
 20
3.515742850736017
 10
0.0
 20
3.599069220620521
 10
0.0
 20
3.894817249975716
 10
0.0
 20
4.376514098557406
 10
0.0
 20
4.764176604185933
 10
0.0
 20
5.212778661352728
 10
0.0
 20
6.803768844968117
 10
0.0013815039894354
 20
6.812022384574902
 10
0.0492873615643532
 20
7.091004444049332
 10
0.1902208199774833
 20
7.353773080285633
 10
0.1938230054738028
 20
7.360233691209714
 10
0.4190364077472141
 20
7.590947024216317
 10
0.423924203871124
 20
7.594795571452721
 10
0.7194984189645766
 20
7.779955647569637
 10
1.06915000435829
 20
7.909717731310221
 10
1.452558480840862
 20
7.976540522033502
 10
1.847441541392399
 20
7.976540522033502
 10
2.230850017875013
 20
7.909717731310221
 10
2.580501603268658
 20
7.779955647569637
 10
2.876075818362109
 20
7.594795571452721
 10
2.880963614486076
 20
7.590947024216317
 10
3.106177016759446
 20
7.360233691209714
 10
3.109779202255765
 20
7.353773080285633
 10
3.250712660668938
 20
7.091004444049332
 10
3.298618575988683
 20
6.812022341015817
 10
3.300000022233247
 20
6.803768844968117
 10
3.300000022233247
 20
5.212778661352728
 10
3.300000022233247
 20
5.168427393729331
  0
LWPOLYLINE
  5
BF30
330
BF23
100
AcDbEntity
  8
0
  6
CUSTOM
 62
    18
420
        0
370
     9
100
AcDbPolyline
 90
        3
 70
     0
 43
0.0
 10
0.5097031272055688
 20
2.311624513945844
 10
0.5324854104051015
 20
2.285409014940825
 10
0.5346993247536318
 20
2.283409641067236
  0
LWPOLYLINE
  5
BF31
330
BF23
100
AcDbEntity
  8
0
  6
CUSTOM
 62
    18
420
        0
370
     9
100
AcDbPolyline
 90
        3
 70
     0
 43
0.0
 10
0.7998499311824503
 20
2.093586926123832
 10
0.8646868073145697
 20
2.04822178910092
 10
0.8685748396199244
 20
2.046149549514495
  0
LWPOLYLINE
  5
BF32
330
BF23
100
AcDbEntity
  8
0
  6
CUSTOM
 62
    18
420
        0
370
     9
100
AcDbPolyline
 90
        3
 70
     0
 43
0.0
 10
0.3731757320088889
 20
2.465732078086431
 10
0.414957268313458
 20
2.405201075878323
 10
0.4700107268831745
 20
2.356427970166606
  0
LWPOLYLINE
  5
BF33
330
BF23
100
AcDbEntity
  8
0
  6
CUSTOM
 62
    18
420
        0
370
     9
100
AcDbPolyline
 90
       42
 70
     1
 43
0.0
 10
7.780995460557107
 20
2.338231389412101
 10
7.780995460557107
 20
3.110656435856611
 10
7.780995460557107
 20
3.906198488512415
 10
7.780995460557107
 20
4.678623534956813
 10
7.780995460557107
 20
5.383041039141403
 10
7.780995460557107
 20
5.978512816176419
 10
7.780995460557107
 20
6.430432210832321
 10
7.780995460557107
 20
6.712535310551911
 10
7.780995460557107
 20
6.808427308582507
 10
7.784838174040657
 20
6.847445120345724
 10
7.796219520285362
 20
6.884963970008412
 10
7.819192240574039
 20
6.925984531307731
 10
7.851105747284278
 20
6.960508379317103
 10
7.89019725231715
 20
6.986628512293918
 10
7.934306635226361
 20
7.002901514589438
 10
7.980995461904597
 20
7.008427299273336
 10
8.980995468641948
 20
7.008427299273336
 10
8.980995468641948
 20
6.914084350694025
 10
8.980995468641948
 20
6.636141557733735
 10
8.980995468641948
 20
6.189582888303732
 10
8.980995468641948
 20
5.598482435860431
 10
8.980995468641948
 20
4.894706578795733
 10
8.980995468641948
 20
4.116196055729517
 10
8.980995468641948
 20
3.304920570470328
 10
8.980995468641948
 20
2.504616194419098
 10
8.980995468641948
 20
1.758427543640094
 10
8.980995468641948
 20
1.106581841440402
 10
8.980995468641948
 20
0.584220258349518
 10
8.980995468641948
 20
0.2195034425202493
 10
8.980995468641948
 20
0.0320933718973322
 10
7.980995461904597
 20
0.0320933718973322
 10
7.934306388818852
 20
0.0139536407589276
 10
7.890197361344931
 20
0.0302263192434111
 10
7.851105851363441
 20
0.056346429745247
 10
7.819192061939459
 20
0.0908705707998365
 10
7.796219554157418
 20
0.1318909328759332
 10
7.784838404502322
 20
0.1694095531994151
 10
7.780995460557107
 20
0.208427615786519
 10
7.780995460557107
 20
0.304319613817114
 10
7.780995460557107
 20
0.5864227135367344
 10
7.780995460557107
 20
1.038342108192607
 10
7.780995460557107
 20
1.63381388522751
  0
LWPOLYLINE
  5
BF34
330
BF23
100
AcDbEntity
  8
0
  6
CUSTOM
 62
    18
420
        0
370
     9
100
AcDbPolyline
 90
        3
 70
     0
 43
0.0
 10
0.042704685434245
 20
3.147648703007916
 10
0.0479460015701108
 20
3.104482583352421
 10
0.0633653405825356
 20
3.063825129981921
  0
LWPOLYLINE
  5
BF35
330
BF23
100
AcDbEntity
  8
0
  6
CUSTOM
 62
    18
420
        0
370
     9
100
AcDbPolyline
 90
        3
 70
     0
 43
0.0
 10
0.167811344675016
 20
2.788423665774813
 10
0.1889975589456014
 20
2.732560212866104
 10
0.2229371403884244
 20
2.683390243043105
  0
LWPOLYLINE
  5
BF36
330
BF23
100
AcDbEntity
  8
0
  6
CUSTOM
 62
    18
420
        0
370
     9
100
AcDbPolyline
 90
        3
 70
     0
 43
0.0
 10
0.0030986772929822
 20
3.524873313173826
 10
0.0
 20
3.499353411047223
 10
0.0030986772929822
 20
3.473833508920533
  0
LWPOLYLINE
  5
BF37
330
BF23
100
AcDbEntity
  8
0
  6
CUSTOM
 62
    18
420
        0
370
     9
100
AcDbPolyline
 90
        3
 70
     0
 43
0.0
 10
1.203257093098258
 20
1.915806504145733
 10
1.244948954605348
 20
1.899843046698236
 10
1.246122253955276
 20
1.899549893830736
  0
LWPOLYLINE
  5
BF38
330
BF23
100
AcDbEntity
  8
0
  6
CUSTOM
 62
    18
420
        0
370
     9
100
AcDbPolyline
 90
        3
 70
     0
 43
0.0
 10
1.360645875935488
 20
1.883682353852492
 10
1.451114487355425
 20
1.861383845026409
 10
1.544290639938694
 20
1.861383845026409
  0
LWPOLYLINE
  5
BF39
330
BF23
100
AcDbEntity
  8
0
  6
CUSTOM
 62
    18
420
        0
370
     9
100
AcDbPolyline
 90
        3
 70
     0
 43
0.0
 10
0.984532640042687
 20
1.998757744603095
 10
1.064901943554474
 20
1.956576682426429
 10
1.153030439114515
 20
1.934854960325906
  0
LWPOLYLINE
  5
BF3A
330
BF23
100
AcDbEntity
  8
0
  6
CUSTOM
 62
    18
420
        0
370
     9
100
AcDbPolyline
 90
        3
 70
     0
 43
0.0
 10
0.0505883743078641
 20
3.90119160266633
 10
0.0479460015701108
 20
3.894224238741912
 10
0.047047811868211
 20
3.886826981423324
  0
LINE
  5
BF3B
330
BF23
100
AcDbEntity
  8
0
  6
CUSTOM
 62
    18
420
        0
370
     9
100
AcDbLine
 10
0.0030986771561174
 20
3.469322267332813
 30
0.0
 11
0.0029645576664166
 21
3.474938081529329
 31
0.0
  0
LWPOLYLINE
  5
BF3C
330
BF23
100
AcDbEntity
  8
0
  6
CUSTOM
 62
    18
420
        0
370
     9
100
AcDbPolyline
 90
        3
 70
     0
 43
0.0
 10
0.6497472143862524
 20
2.197195345496339
 10
0.7126931726953388
 20
2.141430095528619
 10
0.7871555344068355
 20
2.102349235399913
  0
LWPOLYLINE
  5
BF3D
330
BF23
100
AcDbEntity
  8
0
  6
CUSTOM
 62
    18
420
        0
370
     9
100
AcDbPolyline
 90
       26
 70
     0
 43
0.0
 10
3.293669656857503
 20
6.840842576247012
 10
3.300000022233247
 20
6.877707762659525
 10
3.300000022233247
 20
18.53851262344452
 10
3.298930053102537
 20
18.54578788409103
 10
3.251015057834948
 20
18.82482270927551
 10
3.247942639316548
 20
18.83125115164901
 10
3.107253065206548
 20
19.09356506871171
 10
2.881873240492211
 20
19.32444888835741
 10
2.877108942395294
 20
19.32899200643413
 10
2.581285668619314
 20
19.51430810334801
 10
2.231339457514934
 20
19.64417952806613
 10
1.847607910868759
 20
19.71105862544722
 10
1.846548432775889
 20
19.71107688143012
 10
1.453451589457386
 20
19.71107688143012
 10
1.452392111364473
 20
19.71105862544722
 10
1.068660564718371
 20
19.64417952806613
 10
0.7187143536139189
 20
19.51430810334801
 10
0.422891079837939
 20
19.32899200643413
 10
0.4181267817410941
 20
19.32444888835741
 10
0.1927469570266993
 20
19.09356506871171
 10
0.0520573829167432
 20
18.83125115164901
 10
0.048984964398386
 20
18.82482270927551
 10
0.0010700567322175
 20
18.54578794616063
 10
0.0
 20
18.53851262344452
 10
0.0
 20
6.877707762659525
 10
0.0063303875237466
 20
6.840842447267108
  0
LWPOLYLINE
  5
BF3E
330
BF23
100
AcDbEntity
  8
0
  6
CUSTOM
 62
    18
420
        0
370
     9
100
AcDbPolyline
 90
       32
 70
     0
 43
0.0
 10
7.780995431946847
 20
1.848427539450909
 10
6.500995451933306
 20
1.848427539450909
 10
5.650875096804568
 20
1.848427539450909
 10
4.82707702207945
 20
1.848427539450909
 10
3.943446895794763
 20
1.848427539450909
 10
3.164918089266535
 20
1.848427539450909
 10
2.523488982084785
 20
1.848427539450909
 10
2.045518886974235
 20
1.848427539450909
 10
1.750650396194018
 20
1.848427539450909
 10
1.650995419257228
 20
1.848427539450909
 10
1.253731413863377
 20
1.896664120278528
 10
0.8795549484671028
 20
2.038570528016235
 10
0.5502117991611472
 20
2.265899678055233
 10
0.2848421926695721
 20
2.565440026503096
 10
0.0988684459422729
 20
2.919783377093011
 10
0.0030986771520531
 20
3.308336582274107
 10
0.0030986771520531
 20
3.708518342094919
 10
0.0988684459422729
 20
4.097071547276101
 10
0.2848421926695721
 20
4.451414897865902
 10
0.5502117991611472
 20
4.750955246313822
 10
0.8795549484671028
 20
4.978284396352818
 10
1.253731413863377
 20
5.120190804090498
 10
1.650995419257228
 20
5.168427384918088
 10
1.75065015091873
 20
5.168427384918088
 10
2.045519061170948
 20
5.168427384918088
 10
2.523488999563666
 20
5.168427384918088
 10
3.164917911320073
 20
5.168427384918088
 10
3.9434470168122
 20
5.168427384918088
 10
4.827077094879554
 20
5.168427384918088
 10
5.650874843592759
 20
5.168427384918088
 10
6.500995451933306
 20
5.168427384918088
 10
7.780995431946847
 20
5.168427384918088
  0
LWPOLYLINE
  5
BF3F
330
BF23
100
AcDbEntity
  8
0
  6
CUSTOM
 62
    18
420
        0
370
     9
100
AcDbPolyline
 90
       43
 70
     1
 43
0.0
 10
8.980995468641948
 20
26.84954943806612
 10
8.980995468641948
 20
26.92037658387763
 10
7.980995461904597
 20
26.92037658387763
 10
7.934306388818852
 20
26.91485290599482
 10
7.890197361344931
 20
26.89858711166571
 10
7.851105851363441
 20
26.87247805127441
 10
7.819192061939459
 20
26.83796851565491
 10
7.796219554157418
 20
26.79696550723962
 10
7.784838404502322
 20
26.75946275916533
 10
7.780995460557107
 20
26.71583659704743
 10
7.780995460557107
 20
26.57243613426333
 10
7.780995460557107
 20
26.24593548857722
 10
7.780995460557107
 20
25.75530969073483
 10
7.780995460557107
 20
25.12907212875433
 10
7.780995460557107
 20
24.40361745345733
 10
7.780995460557107
 20
23.62110645365143
 10
7.780995460557107
 20
22.82701582433383
 10
7.780995460557107
 20
22.06749522647833
 10
7.780995460557107
 20
21.38668523648723
 10
7.780995460557107
 20
20.82415205633522
 10
7.780995460557107
 20
20.41258806972783
 10
7.780995460557107
 20
20.17591187959252
 10
7.780995460557107
 20
20.12787824581693
 10
7.784838404502322
 20
20.09554548366782
 10
7.796219554157418
 20
20.05816963302182
 10
7.819192061939459
 20
20.01730536580783
 10
7.851105851363441
 20
19.98291259953312
 10
7.890197361344931
 20
19.95689188393751
 10
7.934306388818852
 20
19.94068112790762
 10
7.980995461904597
 20
19.93517614040232
 10
8.980995468641948
 20
19.93517614040232
 10
8.980995468641948
 20
19.95881184758991
 10
8.980995468641948
 20
20.16914123803943
 10
8.980995468641948
 20
20.55482539986972
 10
8.980995468641948
 20
21.09507200008601
 10
8.980995468641948
 20
21.76075620463313
 10
8.980995468641948
 20
22.51599080573783
 10
8.980995468641948
 20
23.32006091056952
 10
8.980995468641948
 20
24.12961889165084
 10
8.980995468641948
 20
24.90102126867542
 10
8.980995468641948
 20
25.59268153982782
 10
8.980995468641948
 20
26.16731212086062
 10
8.980995468641948
 20
26.59393452841283
  0
ENDBLK
  5
BF41
330
BF23
100
AcDbEntity
  8
0
100
AcDbBlockEnd
  0
BLOCK
  5
BF50
330
BF4F
100
AcDbEntity
  8
0
100
AcDbBlockBegin
  2
*D4
 70
     1
 10
0.0
 20
0.0
 30
0.0
  3
*D4
  1

  0
LINE
  5
BF66
330
BF4F
100
AcDbEntity
  8
0
 62
     0
440
 16777216
370
    -2
100
AcDbLine
 10
1202.732570343954
 20
216.7731257373408
 30
0.0
 11
1946.630466542498
 21
216.7731257373409
 31
0.0
  0
LINE
  5
BF67
330
BF4F
100
AcDbEntity
  8
0
 62
     0
440
 16777216
370
    -2
100
AcDbLine
 10
1001.189283478727
 20
126.9631734280512
 30
0.0
 11
1946.630466542498
 21
126.9631734280513
 31
0.0
  0
LINE
  5
BF68
330
BF4F
100
AcDbEntity
  8
0
 62
     0
440
 16777216
370
    -2
100
AcDbLine
 10
1945.380466542498
 20
214.2731257373409
 30
0.0
 11
1945.380466542498
 21
129.4631734280513
 31
0.0
  0
SOLID
  5
BF69
330
BF4F
100
AcDbEntity
  8
0
 62
     0
440
 16777216
100
AcDbTrace
 10
1944.963799875832
 20
214.2731257373409
 30
0.0
 11
1945.797133209165
 21
214.2731257373409
 31
0.0
 12
1945.380466542498
 22
216.7731257373409
 32
0.0
 13
1945.380466542498
 23
216.7731257373409
 33
0.0
  0
SOLID
  5
BF6A
330
BF4F
100
AcDbEntity
  8
0
 62
     0
440
 16777216
100
AcDbTrace
 10
1944.963799875832
 20
129.4631734280513
 30
0.0
 11
1945.797133209165
 21
129.4631734280513
 31
0.0
 12
1945.380466542498
 22
126.9631734280513
 32
0.0
 13
1945.380466542498
 23
126.9631734280513
 33
0.0
  0
MTEXT
  5
BF6B
330
BF4F
100
AcDbEntity
  8
0
 62
     0
440
 16777216
100
AcDbMText
 10
1943.297133209165
 20
171.8681495826955
 30
0.0
 40
2.5
 41
0.0
 46
0.0
 71
     5
 72
     1
  1
89,81
 11
0.0000000000000001
 21
1.0
 31
0.0
 73
     1
 44
1.0
  0
POINT
  5
BF6C
330
BF4F
100
AcDbEntity
  8
Defpoints
 62
     0
440
 16777216
100
AcDbPoint
 10
1202.107570343954
 20
216.7731257373408
 30
0.0
  0
POINT
  5
BF6D
330
BF4F
100
AcDbEntity
  8
Defpoints
 62
     0
440
 16777216
100
AcDbPoint
 10
1000.564283478727
 20
126.9631734280512
 30
0.0
  0
POINT
  5
BF6E
330
BF4F
100
AcDbEntity
  8
Defpoints
 62
     0
440
 16777216
100
AcDbPoint
 10
1945.380466542498
 20
126.9631734280513
 30
0.0
  0
ENDBLK
  5
BF51
330
BF4F
100
AcDbEntity
  8
0
100
AcDbBlockEnd
  0
BLOCK
  5
BF73
330
BF72
100
AcDbEntity
  8
0
100
AcDbBlockBegin
  2
*D5
 70
     1
 10
0.0
 20
0.0
 30
0.0
  3
*D5
  1

  0
LINE
  5
BF7F
330
BF72
100
AcDbEntity
  8
0
 62
     0
440
 16777216
370
    -2
100
AcDbLine
 10
564.2076768938203
 20
336.5163346893814
 30
0.0
 11
564.2076768938203
 21
1114.951625150665
 31
0.0
  0
LINE
  5
BF80
330
BF72
100
AcDbEntity
  8
0
 62
     0
440
 16777216
370
    -2
100
AcDbLine
 10
1186.269098540845
 20
336.5163346893814
 30
0.0
 11
1186.269098540845
 21
1114.951625150665
 31
0.0
  0
LINE
  5
BF81
330
BF72
100
AcDbEntity
  8
0
 62
     0
440
 16777216
370
    -2
100
AcDbLine
 10
566.7076768938203
 20
1113.701625150665
 30
0.0
 11
1183.769098540845
 21
1113.701625150665
 31
0.0
  0
SOLID
  5
BF82
330
BF72
100
AcDbEntity
  8
0
 62
     0
440
 16777216
100
AcDbTrace
 10
566.7076768938203
 20
1114.118291817331
 30
0.0
 11
566.7076768938203
 21
1113.284958483998
 31
0.0
 12
564.2076768938203
 22
1113.701625150665
 32
0.0
 13
564.2076768938203
 23
1113.701625150665
 33
0.0
  0
SOLID
  5
BF83
330
BF72
100
AcDbEntity
  8
0
 62
     0
440
 16777216
100
AcDbTrace
 10
1183.769098540845
 20
1114.118291817331
 30
0.0
 11
1183.769098540845
 21
1113.284958483998
 31
0.0
 12
1186.269098540845
 22
1113.701625150665
 32
0.0
 13
1186.269098540845
 23
1113.701625150665
 33
0.0
  0
MTEXT
  5
BF84
330
BF72
100
AcDbEntity
  8
0
 62
     0
440
 16777216
100
AcDbMText
 10
875.2383877173329
 20
1115.784958483998
 30
0.0
 40
2.5
 41
0.0
 46
0.0
 71
     5
 72
     1
  1
622,06
 73
     1
 44
1.0
  0
POINT
  5
BF85
330
BF72
100
AcDbEntity
  8
Defpoints
 62
     0
440
 16777216
100
AcDbPoint
 10
564.2076768938203
 20
335.8913346893814
 30
0.0
  0
POINT
  5
BF86
330
BF72
100
AcDbEntity
  8
Defpoints
 62
     0
440
 16777216
100
AcDbPoint
 10
1186.269098540845
 20
335.8913346893814
 30
0.0
  0
POINT
  5
BF87
330
BF72
100
AcDbEntity
  8
Defpoints
 62
     0
440
 16777216
100
AcDbPoint
 10
1186.269098540845
 20
1113.701625150665
 30
0.0
  0
ENDBLK
  5
BF74
330
BF72
100
AcDbEntity
  8
0
100
AcDbBlockEnd
  0
BLOCK
  5
BF8B
330
BF8A
100
AcDbEntity
  8
0
100
AcDbBlockBegin
  2
*D6
 70
     1
 10
0.0
 20
0.0
 30
0.0
  3
*D6
  1

  0
LINE
  5
BF97
330
BF8A
100
AcDbEntity
  8
0
 62
     0
440
 16777216
370
    -2
100
AcDbLine
 10
1394.766046127286
 20
518.4363635562539
 30
0.0
 11
1394.766046127286
 21
572.4838277078523
 31
0.0
  0
LINE
  5
BF98
330
BF8A
100
AcDbEntity
  8
0
 62
     0
440
 16777216
370
    -2
100
AcDbLine
 10
1484.576000813706
 20
473.2796002141157
 30
0.0
 11
1484.576000813706
 21
572.4838277078523
 31
0.0
  0
LINE
  5
BF99
330
BF8A
100
AcDbEntity
  8
0
 62
     0
440
 16777216
370
    -2
100
AcDbLine
 10
1397.266046127286
 20
571.2338277078523
 30
0.0
 11
1482.076000813706
 21
571.2338277078523
 31
0.0
  0
SOLID
  5
BF9A
330
BF8A
100
AcDbEntity
  8
0
 62
     0
440
 16777216
100
AcDbTrace
 10
1397.266046127286
 20
571.650494374519
 30
0.0
 11
1397.266046127286
 21
570.8171610411857
 31
0.0
 12
1394.766046127286
 22
571.2338277078523
 32
0.0
 13
1394.766046127286
 23
571.2338277078523
 33
0.0
  0
SOLID
  5
BF9B
330
BF8A
100
AcDbEntity
  8
0
 62
     0
440
 16777216
100
AcDbTrace
 10
1482.076000813706
 20
571.650494374519
 30
0.0
 11
1482.076000813706
 21
570.8171610411857
 31
0.0
 12
1484.576000813706
 22
571.2338277078523
 32
0.0
 13
1484.576000813706
 23
571.2338277078523
 33
0.0
  0
MTEXT
  5
BF9C
330
BF8A
100
AcDbEntity
  8
0
 62
     0
440
 16777216
100
AcDbMText
 10
1439.671023470496
 20
573.3171610411857
 30
0.0
 40
2.5
 41
0.0
 46
0.0
 71
     5
 72
     1
  1
89,81
 73
     1
 44
1.0
  0
POINT
  5
BF9D
330
BF8A
100
AcDbEntity
  8
Defpoints
 62
     0
440
 16777216
100
AcDbPoint
 10
1394.766046127286
 20
517.8113635562539
 30
0.0
  0
POINT
  5
BF9E
330
BF8A
100
AcDbEntity
  8
Defpoints
 62
     0
440
 16777216
100
AcDbPoint
 10
1484.576000813706
 20
472.6546002141157
 30
0.0
  0
POINT
  5
BF9F
330
BF8A
100
AcDbEntity
  8
Defpoints
 62
     0
440
 16777216
100
AcDbPoint
 10
1484.576000813706
 20
571.2338277078523
 30
0.0
  0
ENDBLK
  5
BF8C
330
BF8A
100
AcDbEntity
  8
0
100
AcDbBlockEnd
  0
BLOCK
  5
C304
330
C303
100
AcDbEntity
  8
0
100
AcDbBlockBegin
  2
*D9
 70
     1
 10
0.0
 20
0.0
 30
0.0
  3
*D9
  1

  0
LINE
  5
C310
330
C303
100
AcDbEntity
  8
0
 62
     0
440
 16777216
370
    -2
100
AcDbLine
 10
1077.689929206885
 20
653.2590882454651
 30
0.0
 11
1077.689929206885
 21
565.1612424278828
 31
0.0
  0
LINE
  5
C311
330
C303
100
AcDbEntity
  8
0
 62
     0
440
 16777216
370
    -2
100
AcDbLine
 10
1167.379582871373
 20
687.9318829888136
 30
0.0
 11
1167.379582871373
 21
565.1612424278828
 31
0.0
  0
LINE
  5
C312
330
C303
100
AcDbEntity
  8
0
 62
     0
440
 16777216
370
    -2
100
AcDbLine
 10
1080.189929206885
 20
566.4112424278828
 30
0.0
 11
1164.879582871374
 21
566.4112424278828
 31
0.0
  0
SOLID
  5
C313
330
C303
100
AcDbEntity
  8
0
 62
     0
440
 16777216
100
AcDbTrace
 10
1080.189929206885
 20
566.8279090945494
 30
0.0
 11
1080.189929206885
 21
565.9945757612161
 31
0.0
 12
1077.689929206885
 22
566.4112424278828
 32
0.0
 13
1077.689929206885
 23
566.4112424278828
 33
0.0
  0
SOLID
  5
C314
330
C303
100
AcDbEntity
  8
0
 62
     0
440
 16777216
100
AcDbTrace
 10
1164.879582871374
 20
566.8279090945494
 30
0.0
 11
1164.879582871374
 21
565.9945757612161
 31
0.0
 12
1167.379582871373
 22
566.4112424278828
 32
0.0
 13
1167.379582871373
 23
566.4112424278828
 33
0.0
  0
MTEXT
  5
C315
330
C303
100
AcDbEntity
  8
0
 62
     0
440
 16777216
100
AcDbMText
 10
1122.534756039129
 20
568.4945757612162
 30
0.0
 40
2.5
 41
0.0
 46
0.0
 71
     5
 72
     1
  1
89,69
 73
     1
 44
1.0
  0
POINT
  5
C316
330
C303
100
AcDbEntity
  8
Defpoints
 62
     0
440
 16777216
100
AcDbPoint
 10
1077.689929206885
 20
653.8840882454651
 30
0.0
  0
POINT
  5
C317
330
C303
100
AcDbEntity
  8
Defpoints
 62
     0
440
 16777216
100
AcDbPoint
 10
1167.379582871373
 20
688.5568829888136
 30
0.0
  0
POINT
  5
C318
330
C303
100
AcDbEntity
  8
Defpoints
 62
     0
440
 16777216
100
AcDbPoint
 10
1167.379582871373
 20
566.4112424278828
 30
0.0
  0
ENDBLK
  5
C305
330
C303
100
AcDbEntity
  8
0
100
AcDbBlockEnd
  0
BLOCK
  5
C31C
330
C31B
100
AcDbEntity
  8
0
100
AcDbBlockBegin
  2
*D10
 70
     1
 10
0.0
 20
0.0
 30
0.0
  3
*D10
  1

  0
LINE
  5
C328
330
C31B
100
AcDbEntity
  8
0
 62
     0
440
 16777216
370
    -2
100
AcDbLine
 10
358.5885777858493
 20
685.8445892456605
 30
0.0
 11
358.5885777858493
 21
786.9288123100968
 31
0.0
  0
LINE
  5
C329
330
C31B
100
AcDbEntity
  8
0
 62
     0
440
 16777216
370
    -2
100
AcDbLine
 10
869.4710904325292
 20
669.2271932975557
 30
0.0
 11
869.4710904325292
 21
786.9288123100968
 31
0.0
  0
LINE
  5
C32A
330
C31B
100
AcDbEntity
  8
0
 62
     0
440
 16777216
370
    -2
100
AcDbLine
 10
361.0885777858493
 20
785.6788123100969
 30
0.0
 11
866.9710904325294
 21
785.6788123100969
 31
0.0
  0
SOLID
  5
C32B
330
C31B
100
AcDbEntity
  8
0
 62
     0
440
 16777216
100
AcDbTrace
 10
361.0885777858493
 20
786.0954789767634
 30
0.0
 11
361.0885777858493
 21
785.2621456434302
 31
0.0
 12
358.5885777858493
 22
785.6788123100969
 32
0.0
 13
358.5885777858493
 23
785.6788123100969
 33
0.0
  0
SOLID
  5
C32C
330
C31B
100
AcDbEntity
  8
0
 62
     0
440
 16777216
100
AcDbTrace
 10
866.9710904325294
 20
786.0954789767634
 30
0.0
 11
866.9710904325294
 21
785.2621456434302
 31
0.0
 12
869.4710904325292
 22
785.6788123100969
 32
0.0
 13
869.4710904325292
 23
785.6788123100969
 33
0.0
  0
MTEXT
  5
C32D
330
C31B
100
AcDbEntity
  8
0
 62
     0
440
 16777216
100
AcDbMText
 10
614.0298341091892
 20
787.7621456434302
 30
0.0
 40
2.5
 41
0.0
 46
0.0
 71
     5
 72
     1
  1
510,88
 73
     1
 44
1.0
  0
POINT
  5
C32E
330
C31B
100
AcDbEntity
  8
Defpoints
 62
     0
440
 16777216
100
AcDbPoint
 10
358.5885777858493
 20
685.2195892456604
 30
0.0
  0
POINT
  5
C32F
330
C31B
100
AcDbEntity
  8
Defpoints
 62
     0
440
 16777216
100
AcDbPoint
 10
869.4710904325292
 20
668.6021932975556
 30
0.0
  0
POINT
  5
C330
330
C31B
100
AcDbEntity
  8
Defpoints
 62
     0
440
 16777216
100
AcDbPoint
 10
869.4710904325292
 20
785.6788123100969
 30
0.0
  0
ENDBLK
  5
C31D
330
C31B
100
AcDbEntity
  8
0
100
AcDbBlockEnd
  0
BLOCK
  5
C334
330
C333
100
AcDbEntity
  8
0
100
AcDbBlockBegin
  2
*D11
 70
     1
 10
0.0
 20
0.0
 30
0.0
  3
*D11
  1

  0
LINE
  5
C336
330
C333
100
AcDbEntity
  8
0
 62
     0
440
 16777216
370
    -2
100
AcDbLine
 10
555.4349597098025
 20
910.1118801636667
 30
0.0
 11
555.4349597098025
 21
948.0082234726888
 31
0.0
  0
LINE
  5
C337
330
C333
100
AcDbEntity
  8
0
 62
     0
440
 16777216
370
    -2
100
AcDbLine
 10
870.58819075668
 20
910.1118801636667
 30
0.0
 11
870.58819075668
 21
948.0082234726888
 31
0.0
  0
LINE
  5
C338
330
C333
100
AcDbEntity
  8
0
 62
     0
440
 16777216
370
    -2
100
AcDbLine
 10
557.9349597098025
 20
946.7582234726888
 30
0.0
 11
868.0881907566799
 21
946.7582234726888
 31
0.0
  0
SOLID
  5
C339
330
C333
100
AcDbEntity
  8
0
 62
     0
440
 16777216
100
AcDbTrace
 10
557.9349597098025
 20
947.1748901393553
 30
0.0
 11
557.9349597098025
 21
946.3415568060222
 31
0.0
 12
555.4349597098025
 22
946.7582234726888
 32
0.0
 13
555.4349597098025
 23
946.7582234726888
 33
0.0
  0
SOLID
  5
C33A
330
C333
100
AcDbEntity
  8
0
 62
     0
440
 16777216
100
AcDbTrace
 10
868.0881907566799
 20
947.1748901393553
 30
0.0
 11
868.0881907566799
 21
946.3415568060222
 31
0.0
 12
870.58819075668
 22
946.7582234726888
 32
0.0
 13
870.58819075668
 23
946.7582234726888
 33
0.0
  0
MTEXT
  5
C33B
330
C333
100
AcDbEntity
  8
0
 62
     0
440
 16777216
100
AcDbMText
 10
713.0115752332413
 20
948.841556806022
 30
0.0
 40
2.5
 41
0.0
 46
0.0
 71
     5
 72
     1
  1
315,15
 73
     1
 44
1.0
  0
POINT
  5
C33C
330
C333
100
AcDbEntity
  8
Defpoints
 62
     0
440
 16777216
100
AcDbPoint
 10
555.4349597098025
 20
909.4868801636666
 30
0.0
  0
POINT
  5
C33D
330
C333
100
AcDbEntity
  8
Defpoints
 62
     0
440
 16777216
100
AcDbPoint
 10
870.58819075668
 20
909.4868801636666
 30
0.0
  0
POINT
  5
C33E
330
C333
100
AcDbEntity
  8
Defpoints
 62
     0
440
 16777216
100
AcDbPoint
 10
870.58819075668
 20
946.7582234726888
 30
0.0
  0
ENDBLK
  5
C335
330
C333
100
AcDbEntity
  8
0
100
AcDbBlockEnd
  0
BLOCK
  5
C341
330
C340
100
AcDbEntity
  8
0
100
AcDbBlockBegin
  2
*D12
 70
     1
 10
0.0
 20
0.0
 30
0.0
  3
*D12
  1

  0
LINE
  5
C34D
330
C340
100
AcDbEntity
  8
0
 62
     0
440
 16777216
370
    -2
100
AcDbLine
 10
1077.064929206885
 20
913.6878269730669
 30
0.0
 11
989.2572885370544
 21
913.6878269730669
 31
0.0
  0
LINE
  5
C34E
330
C340
100
AcDbEntity
  8
0
 62
     0
440
 16777216
370
    -2
100
AcDbLine
 10
1077.324883297388
 20
655.9191573015511
 30
0.0
 11
989.2572885370546
 21
655.9191573015511
 31
0.0
  0
LINE
  5
C34F
330
C340
100
AcDbEntity
  8
0
 62
     0
440
 16777216
370
    -2
100
AcDbLine
 10
990.5072885370545
 20
911.1878269730668
 30
0.0
 11
990.5072885370545
 21
658.4191573015512
 31
0.0
  0
SOLID
  5
C350
330
C340
100
AcDbEntity
  8
0
 62
     0
440
 16777216
100
AcDbTrace
 10
990.0906218703878
 20
911.1878269730668
 30
0.0
 11
990.9239552037211
 21
911.1878269730668
 31
0.0
 12
990.5072885370545
 22
913.6878269730669
 32
0.0
 13
990.5072885370545
 23
913.6878269730669
 33
0.0
  0
SOLID
  5
C351
330
C340
100
AcDbEntity
  8
0
 62
     0
440
 16777216
100
AcDbTrace
 10
990.0906218703878
 20
658.4191573015512
 30
0.0
 11
990.9239552037211
 21
658.4191573015512
 31
0.0
 12
990.5072885370545
 22
655.9191573015511
 32
0.0
 13
990.5072885370545
 23
655.9191573015511
 33
0.0
  0
MTEXT
  5
C352
330
C340
100
AcDbEntity
  8
0
 62
     0
440
 16777216
100
AcDbMText
 10
988.4239552037211
 20
784.8034921373085
 30
0.0
 40
2.5
 41
0.0
 46
0.0
 71
     5
 72
     1
  1
257,77
 11
0.0000000000000001
 21
1.0
 31
0.0
 73
     1
 44
1.0
  0
POINT
  5
C353
330
C340
100
AcDbEntity
  8
Defpoints
 62
     0
440
 16777216
100
AcDbPoint
 10
1077.689929206885
 20
913.6878269730669
 30
0.0
  0
POINT
  5
C354
330
C340
100
AcDbEntity
  8
Defpoints
 62
     0
440
 16777216
100
AcDbPoint
 10
1077.949883297388
 20
655.9191573015511
 30
0.0
  0
POINT
  5
C355
330
C340
100
AcDbEntity
  8
Defpoints
 62
     0
440
 16777216
100
AcDbPoint
 10
990.5072885370545
 20
655.9191573015511
 30
0.0
  0
ENDBLK
  5
C342
330
C340
100
AcDbEntity
  8
0
100
AcDbBlockEnd
  0
BLOCK
  5
C359
330
C358
100
AcDbEntity
  8
0
100
AcDbBlockBegin
  2
*D13
 70
     1
 10
0.0
 20
0.0
 30
0.0
  3
*D13
  1

  0
LINE
  5
C365
330
C358
100
AcDbEntity
  8
0
 62
     0
440
 16777216
370
    -2
100
AcDbLine
 10
504.3058656306329
 20
667.7911258541826
 30
0.0
 11
504.3058656306329
 21
528.946144688728
 31
0.0
  0
LINE
  5
C366
330
C358
100
AcDbEntity
  8
0
 62
     0
440
 16777216
370
    -2
100
AcDbLine
 10
872.4513175024403
 20
667.9771932975556
 30
0.0
 11
872.4513175024403
 21
528.946144688728
 31
0.0
  0
LINE
  5
C367
330
C358
100
AcDbEntity
  8
0
 62
     0
440
 16777216
370
    -2
100
AcDbLine
 10
506.8058656306329
 20
530.196144688728
 30
0.0
 11
869.9513175024403
 21
530.196144688728
 31
0.0
  0
SOLID
  5
C368
330
C358
100
AcDbEntity
  8
0
 62
     0
440
 16777216
100
AcDbTrace
 10
506.8058656306329
 20
530.6128113553946
 30
0.0
 11
506.8058656306329
 21
529.7794780220614
 31
0.0
 12
504.3058656306329
 22
530.196144688728
 32
0.0
 13
504.3058656306329
 23
530.196144688728
 33
0.0
  0
SOLID
  5
C369
330
C358
100
AcDbEntity
  8
0
 62
     0
440
 16777216
100
AcDbTrace
 10
869.9513175024403
 20
530.6128113553946
 30
0.0
 11
869.9513175024403
 21
529.7794780220614
 31
0.0
 12
872.4513175024403
 22
530.196144688728
 32
0.0
 13
872.4513175024403
 23
530.196144688728
 33
0.0
  0
MTEXT
  5
C36A
330
C358
100
AcDbEntity
  8
0
 62
     0
440
 16777216
100
AcDbMText
 10
688.3785915665367
 20
532.2794780220614
 30
0.0
 40
2.5
 41
0.0
 46
0.0
 71
     5
 72
     1
  1
368,15
 73
     1
 44
1.0
  0
POINT
  5
C36B
330
C358
100
AcDbEntity
  8
Defpoints
 62
     0
440
 16777216
100
AcDbPoint
 10
504.3058656306329
 20
668.4161258541826
 30
0.0
  0
POINT
  5
C36C
330
C358
100
AcDbEntity
  8
Defpoints
 62
     0
440
 16777216
100
AcDbPoint
 10
872.4513175024403
 20
668.6021932975556
 30
0.0
  0
POINT
  5
C36D
330
C358
100
AcDbEntity
  8
Defpoints
 62
     0
440
 16777216
100
AcDbPoint
 10
872.4513175024403
 20
530.196144688728
 30
0.0
  0
ENDBLK
  5
C35A
330
C358
100
AcDbEntity
  8
0
100
AcDbBlockEnd
  0
BLOCK
  5
C371
330
C370
100
AcDbEntity
  8
0
100
AcDbBlockBegin
  2
*D14
 70
     1
 10
0.0
 20
0.0
 30
0.0
  3
*D14
  1

  0
LINE
  5
C37D
330
C370
100
AcDbEntity
  8
0
 62
     0
440
 16777216
370
    -2
100
AcDbLine
 10
1077.689929206885
 20
913.0628269730664
 30
0.0
 11
1077.689929206885
 21
827.8477061517923
 31
0.0
  0
LINE
  5
C37E
330
C370
100
AcDbEntity
  8
0
 62
     0
440
 16777216
370
    -2
100
AcDbLine
 10
1134.620188871748
 20
849.6662172611031
 30
0.0
 11
1134.620188871748
 21
827.8477061517923
 31
0.0
  0
LINE
  5
C37F
330
C370
100
AcDbEntity
  8
0
 62
     0
440
 16777216
370
    -2
100
AcDbLine
 10
1080.189929206885
 20
829.0977061517924
 30
0.0
 11
1132.120188871748
 21
829.0977061517924
 31
0.0
  0
SOLID
  5
C380
330
C370
100
AcDbEntity
  8
0
 62
     0
440
 16777216
100
AcDbTrace
 10
1080.189929206885
 20
829.5143728184591
 30
0.0
 11
1080.189929206885
 21
828.6810394851258
 31
0.0
 12
1077.689929206885
 22
829.0977061517924
 32
0.0
 13
1077.689929206885
 23
829.0977061517924
 33
0.0
  0
SOLID
  5
C381
330
C370
100
AcDbEntity
  8
0
 62
     0
440
 16777216
100
AcDbTrace
 10
1132.120188871748
 20
829.5143728184591
 30
0.0
 11
1132.120188871748
 21
828.6810394851258
 31
0.0
 12
1134.620188871748
 22
829.0977061517924
 32
0.0
 13
1134.620188871748
 23
829.0977061517924
 33
0.0
  0
MTEXT
  5
C382
330
C370
100
AcDbEntity
  8
0
 62
     0
440
 16777216
100
AcDbMText
 10
1106.155059039316
 20
831.1810394851258
 30
0.0
 40
2.5
 41
0.0
 46
0.0
 71
     5
 72
     1
  1
56,93
 73
     1
 44
1.0
  0
POINT
  5
C383
330
C370
100
AcDbEntity
  8
Defpoints
 62
     0
440
 16777216
100
AcDbPoint
 10
1077.689929206885
 20
913.6878269730663
 30
0.0
  0
POINT
  5
C384
330
C370
100
AcDbEntity
  8
Defpoints
 62
     0
440
 16777216
100
AcDbPoint
 10
1134.620188871748
 20
850.2912172611031
 30
0.0
  0
POINT
  5
C385
330
C370
100
AcDbEntity
  8
Defpoints
 62
     0
440
 16777216
100
AcDbPoint
 10
1134.620188871748
 20
829.0977061517924
 30
0.0
  0
ENDBLK
  5
C372
330
C370
100
AcDbEntity
  8
0
100
AcDbBlockEnd
  0
ENDSEC
  0
SECTION
  2
ENTITIES
  0
LWPOLYLINE
  5
C213
330
1F
100
AcDbEntity
  8
HEWI
  6
CUSTOM
 62
    18
420
        0
370
     9
100
AcDbPolyline
 90
       42
 70
     1
 43
0.0
 10
833.5955115650723
 20
169.7562147260746
 10
826.8059164213664
 20
169.7562147260746
 10
819.1695004647117
 20
169.7562147260746
 10
811.0979448559483
 20
169.7562147260746
 10
803.0263892471811
 20
169.7562147260746
 10
795.3899732905265
 20
169.7562147260746
 10
788.6003781468243
 20
169.7562147260746
 10
783.0236326476843
 20
169.7562147260746
 10
778.9603805864608
 20
169.7562147260746
 10
776.6296729335008
 20
169.7562147260746
 10
776.157158741662
 20
169.7562147260746
 10
776.157158741662
 20
159.7562149323089
 10
776.2123254103316
 20
159.2893242142263
 10
776.3747768974426
 20
158.8482339515558
 10
776.6355361079586
 20
158.4573188624363
 10
776.980193446394
 20
158.1381809769282
 10
777.3897030933476
 20
157.908455905394
 10
777.764254564503
 20
157.7946444119566
 10
778.3385514718029
 20
157.7562149735558
 10
780.2424083397418
 20
157.7562149735558
 10
783.9394768346864
 20
157.7562149735558
 10
789.2148967740141
 20
157.7562149735558
 10
795.7620799262222
 20
157.7562149735558
 10
803.2005278045435
 20
157.7562149735558
 10
811.0979448559483
 20
157.7562149735558
 10
818.9953619073531
 20
157.7562149735558
 10
826.4338097856743
 20
157.7562149735558
 10
832.9809929378789
 20
157.7562149735558
 10
838.2564128772065
 20
157.7562149735558
 10
841.9534813721547
 20
157.7562149735558
 10
843.8573382400864
 20
157.7562149735558
 10
844.4316351473899
 20
157.7946444119566
 10
844.8061866185453
 20
157.908455905394
 10
845.2156962655026
 20
158.1381809769282
 10
845.5603536039344
 20
158.4573188624363
 10
845.8211128144503
 20
158.8482339515558
 10
845.9835643015649
 20
159.2893242142263
 10
846.0387309702346
 20
159.7562149323089
 10
846.0387309702346
 20
169.7562147260746
 10
845.5662167783922
 20
169.7562147260746
 10
843.235509125432
 20
169.7562147260746
 10
839.1722570642086
 20
169.7562147260746
  0
LWPOLYLINE
  5
C214
330
1F
100
AcDbEntity
  8
HEWI
  6
CUSTOM
 62
    18
420
        0
370
     9
100
AcDbPolyline
 90
        7
 70
     0
 43
0.0
 10
457.9415791314313
 20
114.7652991851028
 10
457.9544837255089
 20
114.7685511427762
 10
457.995001446754
 20
114.7902253815614
 10
458.0284982753873
 20
114.8195154644763
 10
458.054609629722
 20
114.8553383133585
 10
458.0718551415593
 20
114.8948385919002
 10
458.0770983527981
 20
114.9508343244047
  0
LINE
  5
C215
330
1F
100
AcDbEntity
  8
HEWI
  6
CUSTOM
 62
    18
420
        0
370
     9
100
AcDbLine
 10
458.0770983527981
 20
114.9508343244047
 30
0.0
 11
457.8638082597754
 21
114.7451354390409
 31
0.0
  0
LINE
  5
C216
330
1F
100
AcDbEntity
  8
HEWI
  6
CUSTOM
 62
    18
420
        0
370
     9
100
AcDbLine
 10
458.0770983527981
 20
114.9508343244047
 30
0.0
 11
457.9828706100475
 21
157.4962608975779
 31
0.0
  0
LWPOLYLINE
  5
C217
330
1F
100
AcDbEntity
  8
HEWI
  6
CUSTOM
 62
    18
420
        0
370
     9
100
AcDbPolyline
 90
       11
 70
     0
 43
0.0
 10
425.1822859531575
 20
157.4962608975779
 10
425.087259933989
 20
114.9517773649026
 10
425.0878983979564
 20
114.948661330161
 10
425.0888739032852
 20
114.9314677161405
 10
425.0970710710935
 20
114.8913515229146
 10
425.1142888063005
 20
114.8518657470399
 10
425.1403858394732
 20
114.8160508924925
 10
425.1738826711443
 20
114.7867630930754
 10
425.2144138907096
 20
114.7650862996852
 10
425.2638552353054
 20
114.7526259859019
 10
425.3201832454287
 20
114.7025722704174
  0
LWPOLYLINE
  5
C218
330
1F
100
AcDbEntity
  8
HEWI
  6
CUSTOM
 62
    18
420
        0
370
     9
100
AcDbPolyline
 90
       34
 70
     0
 43
0.0
 10
460.7233862677421
 20
169.4962606500967
 10
455.4277971687915
 20
169.4962606500967
 10
447.6436402976178
 20
169.4962606500967
 10
439.5329153824386
 20
169.4962606500967
 10
431.5326319156484
 20
169.4962606500967
 10
424.0738487549387
 20
169.4962606500967
 10
417.5584484788705
 20
169.4962606500967
 10
412.3374837735136
 20
169.4962606500967
 10
408.692262556422
 20
169.4962606500967
 10
406.8191909799971
 20
169.4962606500967
 10
406.8191909799971
 20
159.4962608563314
 10
406.6328089833878
 20
159.051218997597
 10
406.7807270743797
 20
158.6284933959923
 10
407.0190018491703
 20
158.2492812783307
 10
407.3356852155994
 20
157.9325979236427
 10
407.7148973473194
 20
157.6943231576888
 10
408.1376229645939
 20
157.5464050721807
 10
408.5826648398287
 20
157.4962608975779
 10
409.5410548145446
 20
157.4962608975779
 10
412.3605573854438
 20
157.4962608975779
 10
416.8774038886986
 20
157.4962608975779
 10
422.8292367282628
 20
157.4962608975779
 10
429.8703482174168
 20
157.4962608975779
 10
437.5917607470073
 20
157.4962608975779
 10
445.5449819390196
 20
157.4962608975779
 10
453.268054985474
 20
157.4962608975779
 10
460.3123910584908
 20
157.4962608975779
 10
466.2688252514126
 20
157.4962608975779
 10
470.7913826114126
 20
157.4962608975779
 10
473.617373831672
 20
157.4962608975779
 10
474.582653360092
 20
157.4962608975779
 10
475.0276950658626
 20
157.5464050721807
 10
475.4504205221783
 20
157.6943231576888
 10
475.5489207487299
 20
157.7562149733812
  0
LINE
  5
C219
330
1F
100
AcDbEntity
  8
HEWI
  6
CUSTOM
 62
    18
420
        0
370
     9
100
AcDbLine
 10
425.2937912731104
 20
114.7525316618562
 30
0.0
 11
425.3553985630242
 21
114.6359104737689
 31
0.0
  0
LINE
  5
C21A
330
1F
100
AcDbEntity
  8
HEWI
  6
CUSTOM
 62
    18
420
        0
370
     9
100
AcDbLine
 10
425.2281395772516
 20
114.7562140454797
 30
0.0
 11
425.2255652310741
 21
114.762275915416
 31
0.0
  0
LINE
  5
C21B
330
1F
100
AcDbEntity
  8
HEWI
  6
CUSTOM
 62
    18
420
        0
370
     9
100
AcDbLine
 10
457.9268510585461
 20
114.7451354401532
 30
0.0
 11
458.0770983527981
 21
114.9508343244047
 31
0.0
  0
LINE
  5
C21C
330
1F
100
AcDbEntity
  8
HEWI
  6
CUSTOM
 62
    18
420
        0
370
     9
100
AcDbLine
 10
458.0770983527981
 20
114.9508343244047
 30
0.0
 11
457.914932936932
 21
114.7451354394038
 31
0.0
  0
LWPOLYLINE
  5
C21D
330
1F
100
AcDbEntity
  8
HEWI
  6
CUSTOM
 62
    18
420
        0
370
     9
100
AcDbPolyline
 90
       29
 70
     0
 43
0.0
 10
463.7056226842832
 20
115.2962566069204
 10
459.8806655056359
 20
114.745135437096
 10
445.7385296492612
 20
114.745135437096
 10
442.9910434138219
 20
113.7874377753974
 10
440.4854573952762
 20
111.9277003590082
 10
438.3673871455794
 20
109.274004366699
 10
436.7599272087755
 20
105.9805729637501
 10
435.7564973135122
 20
102.2388084121653
 10
435.4154131579816
 20
98.2661684669215
 10
435.7564973135122
 20
94.29352852167767
 10
436.7599272087755
 20
90.55176397009246
 10
438.3673871455794
 20
87.25833256714395
 10
440.4854573952762
 20
84.60463657483478
 10
442.9910434138219
 20
82.74489915844606
 10
445.7385296492612
 20
81.78720149674745
 10
459.8806655056359
 20
81.78720149674745
 10
462.7103780446632
 20
81.78720149674745
 10
471.9767229769677
 20
83.12234817174658
 10
474.5876364501018
 20
84.06036766791022
 10
483.3422230573814
 20
87.95271436725625
 10
491.3619156736713
 20
94.26204250394675
 10
493.1150215417037
 20
95.78722137478417
 10
499.8681548198474
 20
104.0082941262153
 10
505.3101574831962
 20
113.9865540674941
 10
505.8338846438491
 20
115.3859264358839
 10
509.5742833723452
 20
126.2277640531269
 10
511.5084647889089
 20
136.3354795357577
 10
512.1599156995471
 20
146.7661674666847
 10
512.1599156995471
 20
157.7562149735558
  0
LWPOLYLINE
  5
C21E
330
1F
100
AcDbEntity
  8
HEWI
  6
CUSTOM
 62
    18
420
        0
370
     9
100
AcDbPolyline
 90
        3
 70
     0
 43
0.0
 10
461.8361209096547
 20
114.4650638446305
 10
466.3457964114022
 20
116.4700951889717
 10
469.0627394570474
 20
118.6075942208986
  0
LWPOLYLINE
  5
C21F
330
1F
100
AcDbEntity
  8
HEWI
  6
CUSTOM
 62
    18
420
        0
370
     9
100
AcDbPolyline
 90
       13
 70
     0
 43
0.0
 10
324.8209913867468
 20
81.87651830097639
 10
322.0900562732095
 20
82.82844669965243
 10
319.5995641463378
 20
84.67698087859345
 10
317.4942533559806
 20
87.31469075046698
 10
315.8964769127706
 20
90.5882822052049
 10
314.8990917759111
 20
94.30750600647934
 10
314.5600623442078
 20
98.2562143857881
 10
314.8990917759111
 20
102.2049227650964
 10
315.8964769127706
 20
105.9241465663713
 10
317.4942533559806
 20
109.1977380211097
 10
319.5995641463378
 20
111.8354478929827
 10
322.0900562732095
 20
113.6839820719237
 10
324.8209913867468
 20
114.6359104706002
  0
LINE
  5
C220
330
1F
100
AcDbEntity
  8
HEWI
  6
CUSTOM
 62
    18
420
        0
370
     9
100
AcDbLine
 10
742.5979436075213
 20
110.756214127995
 30
0.0
 11
742.5351134563607
 21
110.756214127995
 31
0.0
  0
LWPOLYLINE
  5
C221
330
1F
100
AcDbEntity
  8
HEWI
  6
CUSTOM
 62
    18
420
        0
370
     9
100
AcDbPolyline
 90
        3
 70
     0
 43
0.0
 10
468.7238063739169
 20
118.1949866877457
 10
472.5086039522393
 20
122.8024918204432
 10
475.4471314618058
 20
128.1904699507263
  0
LWPOLYLINE
  5
C222
330
1F
100
AcDbEntity
  8
HEWI
  6
CUSTOM
 62
    18
420
        0
370
     9
100
AcDbPolyline
 90
       23
 70
     0
 43
0.0
 10
324.8209913867468
 20
114.6359104706002
 10
319.0291121776754
 20
114.6359104706002
 10
314.5137992845775
 20
114.6359104706002
 10
311.41047444789
 20
114.6359104706002
 10
309.8123118982548
 20
114.6359104706002
 10
309.7672495163206
 20
114.6359104706002
 10
305.9180085894987
 20
113.6839820719237
 10
302.4076709856672
 20
111.8354478929827
 10
299.4402447667999
 20
109.1977380211097
 10
297.188185958581
 20
105.9241465663713
 10
295.7823760330466
 20
102.2049227650964
 10
295.3045168565732
 20
98.2562143857881
 10
295.7823760330466
 20
94.30750600647934
 10
297.188185958581
 20
90.5882822052049
 10
299.4402447667999
 20
87.31469075046698
 10
302.4076709856672
 20
84.67698087859345
 10
305.9180085894987
 20
82.82844669965243
 10
309.7672495163206
 20
81.87651830097639
 10
309.8123118982548
 20
81.87651830097639
 10
311.41047444789
 20
81.87651830097639
 10
314.5137992845775
 20
81.87651830097639
 10
319.0291121776754
 20
81.87651830097639
 10
324.8209913867468
 20
81.87651830097639
  0
LWPOLYLINE
  5
C223
330
1F
100
AcDbEntity
  8
HEWI
  6
CUSTOM
 62
    18
420
        0
370
     9
100
AcDbPolyline
 90
        5
 70
     0
 43
0.0
 10
479.0204867541724
 20
157.7562149735558
 10
479.0204867541724
 20
146.7661674666847
 10
478.6100482995643
 20
140.1944436959988
 10
477.3914416193329
 20
133.8262046551599
 10
475.0348504339126
 20
126.9954411945928
  0
LINE
  5
C224
330
1F
100
AcDbEntity
  8
HEWI
  6
CUSTOM
 62
    18
420
        0
370
     9
100
AcDbLine
 10
742.5351134563607
 20
85.75621464358073
 30
0.0
 11
742.5979439055445
 21
85.75621464358073
 31
0.0
  0
LWPOLYLINE
  5
C225
330
1F
100
AcDbEntity
  8
HEWI
  6
CUSTOM
 62
    18
420
        0
370
     9
100
AcDbPolyline
 90
       42
 70
     1
 43
0.0
 10
470.8414634782021
 20
169.7562147260746
 10
465.8011172015176
 20
169.7562147260746
 10
462.366708155263
 20
169.7562147260746
 10
460.7233862200737
 20
169.7562147260746
 10
460.7233862200737
 20
159.7562149323089
 10
460.7784360985934
 20
159.2893242142263
 10
460.9405436691049
 20
158.8482339515558
 10
461.2007508414535
 20
158.4573188624363
 10
461.5446785258682
 20
158.1381809769282
 10
461.9533212237511
 20
157.908455905394
 10
462.3270797537552
 20
157.7946444119566
 10
462.6504073956166
 20
157.7562149735558
 10
464.0844121137924
 20
157.7562149735558
 10
467.3494187763354
 20
157.7562149735558
 10
472.2556770638402
 20
157.7562149735558
 10
478.5180530781508
 20
157.7562149735558
 10
485.7726002881317
 20
157.7562149735558
 10
493.5977107791477
 20
157.7562149735558
 10
501.5386175725725
 20
157.7562149735558
 10
509.1338240295954
 20
157.7562149735558
 10
515.9419243583979
 20
157.7562149735558
 10
521.5672565142922
 20
157.7562149735558
 10
525.6828966396351
 20
157.7562149735558
 10
528.0496586900881
 20
157.7562149735558
 10
528.5299950581029
 20
157.7562149735558
 10
528.966256706768
 20
157.7946444119566
 10
529.3412842111356
 20
157.908455905394
 10
529.7513143211181
 20
158.1381809769282
 10
530.0964096990501
 20
158.4573188624363
 10
530.3575003194128
 20
158.8482339515558
 10
530.5201582729496
 20
159.2893242142263
 10
530.5753950552607
 20
159.7562149323089
 10
530.5753950552607
 20
169.7562147260746
 10
529.3976057031214
 20
169.7562147260746
 10
526.3972504249505
 20
169.7562147260746
 10
521.7360791504034
 20
169.7562147260746
 10
515.6653768293908
 20
169.7562147260746
 10
508.5124165953784
 20
169.7562147260746
 10
500.6628163860587
 20
169.7562147260746
 10
492.5397501805091
 20
169.7562147260746
 10
484.5811345804468
 20
169.7562147260746
 10
477.2160206128865
 20
169.7562147260746
  0
LWPOLYLINE
  5
C226
330
1F
100
AcDbEntity
  8
HEWI
  6
CUSTOM
 62
    18
420
        0
370
     9
100
AcDbPolyline
 90
       34
 70
     0
 43
0.0
 10
361.8062409749545
 20
81.87651830325421
 10
361.82048696528
 20
81.86221002529283
 10
361.9269450495085
 20
81.7985588576821
 10
362.0254305969283
 20
81.76691441708863
 10
362.1283183261694
 20
81.75621472607463
 10
742.0370160747697
 20
81.75621472607463
 10
742.1600918621006
 20
81.77159839314709
 10
742.2755958423331
 20
81.81680652184468
 10
742.3764168122797
 20
81.88905390575701
 10
742.456350743887
 20
81.98389452895208
 10
742.5104812685385
 20
82.09549506888789
 10
742.5334217126146
 20
82.19636384015121
 10
742.5351134320081
 20
82.2997925862378
 10
742.5351134320081
 20
82.76345720411654
 10
742.5351134320081
 20
84.12750455551259
 10
742.5351134320081
 20
86.31266116647294
 10
742.5351134320081
 20
89.19193367749086
 10
742.5351134320081
 20
92.59798923595553
 10
742.5351134320081
 20
96.33288027331673
 10
742.5351134320081
 20
100.1795484982594
 10
742.5351134320081
 20
103.9144395356202
 10
742.5351134320081
 20
107.3204950940849
 10
742.5351134320081
 20
110.1997676051023
 10
742.5351134320081
 20
112.3849242160636
 10
742.5351134320081
 20
113.7489715674592
 10
742.5351134310877
 20
114.2126361854184
 10
742.5334209164393
 20
114.3160658822307
 10
742.5104811473065
 20
114.4169337851494
 10
742.4563513656394
 20
114.528533567704
 10
742.3764164531166
 20
114.6233753029582
 10
742.275595458821
 20
114.6956226030815
 10
742.1600927233084
 20
114.7408295006712
 10
742.0370160747697
 20
114.7562140455011
 10
505.5978899596412
 20
114.7553624117022
  0
LINE
  5
C227
330
1F
100
AcDbEntity
  8
HEWI
  6
CUSTOM
 62
    18
420
        0
370
     9
100
AcDbLine
 10
324.8209913867468
 20
114.6359104706002
 30
0.0
 11
325.2068272208162
 21
114.6359104706002
 31
0.0
  0
LINE
  5
C228
330
1F
100
AcDbEntity
  8
HEWI
  6
CUSTOM
 62
    18
420
        0
370
     9
100
AcDbLine
 10
325.2068271369935
 20
81.87651830097639
 30
0.0
 11
324.8209913867468
 21
81.87651830097639
 31
0.0
  0
LWPOLYLINE
  5
C229
330
1F
100
AcDbEntity
  8
HEWI
  6
CUSTOM
 62
    18
420
        0
370
     9
100
AcDbPolyline
 90
       19
 70
     0
 43
0.0
 10
325.2068272138276
 20
114.6359104706002
 10
325.134986016099
 20
114.6252879227527
 10
322.4058219664948
 20
113.6739768679458
 10
322.3441171893028
 20
113.644389501444
 10
319.8600164592353
 20
111.8005992505459
 10
319.8103069467797
 20
111.7482160300196
 10
317.7185204972666
 20
109.1274505862657
 10
316.1310080366056
 20
105.8748884098754
 10
315.1400300186397
 20
102.1795565919592
 10
314.8031785261774
 20
98.2562143857881
 10
315.1400300186397
 20
94.33287217961742
 10
316.1310080366056
 20
90.63754036170029
 10
317.7185204972666
 20
87.38497818531095
 10
319.8103069467797
 20
84.76421274155654
 10
319.8600164592353
 20
84.71182952103026
 10
322.3441171893028
 20
82.86803927013215
 10
322.4058219664948
 20
82.83845190363036
 10
325.134986016099
 20
81.88714084882349
 10
325.2068272138276
 20
81.87651830097639
  0
LWPOLYLINE
  5
C22A
330
1F
100
AcDbEntity
  8
HEWI
  6
CUSTOM
 62
    18
420
        0
370
     9
100
AcDbPolyline
 90
        3
 70
     0
 43
0.0
 10
445.4251800758211
 20
114.6359104706002
 10
445.3504171316708
 20
114.6359104706002
 10
325.2068272138276
 20
114.6359104706002
  0
LWPOLYLINE
  5
C22B
330
1F
100
AcDbEntity
  8
HEWI
  6
CUSTOM
 62
    18
420
        0
370
     9
100
AcDbPolyline
 90
        6
 70
     0
 43
0.0
 10
425.2496168092547
 20
114.7562140455011
 10
362.1283183261694
 20
114.7562140455011
 10
362.0254297191313
 20
114.7455134784718
 10
361.9269449779277
 20
114.7138697859341
 10
361.8204875834417
 20
114.6502194244908
 10
361.8062409272388
 20
114.63591047004
  0
LWPOLYLINE
  5
C22C
330
1F
100
AcDbEntity
  8
HEWI
  6
CUSTOM
 62
    18
420
        0
370
     9
100
AcDbPolyline
 90
        3
 70
     0
 43
0.0
 10
445.4822935768606
 20
81.87651830097639
 10
445.3504171316708
 20
81.87651830097639
 10
325.2068272138276
 20
81.87651830097639
  0
LWPOLYLINE
  5
C22D
330
1F
100
AcDbEntity
  8
HEWI
  6
CUSTOM
 62
    18
420
        0
370
     9
100
AcDbPolyline
 90
       33
 70
     0
 43
0.0
 10
827.5769124370599
 20
157.7562149735558
 10
827.5769124370599
 20
146.7661674666847
 10
826.5709185542
 20
135.3764854651313
 10
823.5840861749165
 20
124.3394698941815
 10
817.8080281805414
 20
112.5008372372936
 10
809.7630505241868
 20
102.0703184926446
 10
799.77981279097
 20
93.47663042082013
 10
788.2685957382236
 20
87.07292069871209
 10
775.7025347349954
 20
83.12234817174658
 10
762.5979440580995
 20
81.78720149674745
 10
742.5979437290879
 20
81.78720149674745
 10
742.5979437290879
 20
82.74489915844606
 10
742.5979437290879
 20
84.60463657483478
 10
742.5979437290879
 20
87.25833256714395
 10
742.5979437290879
 20
90.55176397009246
 10
742.5979437290879
 20
94.29352852167767
 10
742.5979437290879
 20
98.2661684669215
 10
742.5979437290879
 20
102.2388084121653
 10
742.5979437290879
 20
105.9805729637501
 10
742.5979437290879
 20
109.274004366699
 10
742.5979437290879
 20
111.9277003590082
 10
742.5979437290879
 20
113.7874377753974
 10
742.5979437290879
 20
114.745135437096
 10
762.5979440580995
 20
114.745135437096
 10
769.0557648549656
 20
115.4030833407937
 10
775.2482032211956
 20
117.3498888575159
 10
780.9208242677668
 20
120.5055776417093
 10
785.840471271109
 20
124.7404674540135
 10
789.8049616776006
 20
129.880530393184
 10
792.6513495091349
 20
135.7144988141053
 10
794.1232328156257
 20
141.1534377666257
 10
794.618977274833
 20
146.7661674666847
 10
794.618977274833
 20
157.7562149735558
  0
LINE
  5
C22E
330
1F
100
AcDbEntity
  8
HEWI
  6
CUSTOM
 62
    18
420
        0
370
     9
100
AcDbLine
 10
457.9341954477786
 20
114.7551907310935
 30
0.0
 11
459.9505028528328
 21
114.7551979936629
 31
0.0
  0
LWPOLYLINE
  5
C22F
330
1F
100
AcDbEntity
  8
HEWI
  6
CUSTOM
 62
    18
420
        0
370
     9
100
AcDbPolyline
 90
       42
 70
     1
 43
0.0
 10
119.4591897049358
 20
545.4081284180836
 10
119.4591897049358
 20
551.3191333460893
 10
119.4591897049358
 20
555.7847203452759
 10
119.4591897049358
 20
558.5641484646433
 10
119.4591897049358
 20
559.5075780148488
 10
109.4591893525503
 20
559.5075780148488
 10
108.9923010724596
 20
559.4523201642375
 10
108.5512072307974
 20
559.2895901301719
 10
108.1602921693265
 20
559.0283887825705
 10
107.8411570931275
 20
558.6831502789052
 10
107.611429883691
 20
558.272944637905
 10
107.4976164180007
 20
557.8977561156627
 10
107.4591892820717
 20
557.5075779713918
 10
107.4591892820717
 20
556.5486579256155
 10
107.4591892820717
 20
553.7276267358144
 10
107.4591892820717
 20
549.208432480708
 10
107.4591892820717
 20
543.2537143038023
 10
107.4591892820717
 20
536.2095387810166
 10
107.4591892820717
 20
528.485287789201
 10
107.4591892820717
 20
520.5298667194881
 10
107.4591892820717
 20
512.8056157276725
 10
107.4591892820717
 20
505.7614402048877
 10
107.4591892820717
 20
499.8067220279811
 10
107.4591892820717
 20
495.2875277728756
 10
107.4591892820717
 20
492.4664965830745
 10
107.4591892820717
 20
491.5075765372982
 10
107.4976187226202
 20
491.1173958847873
 10
107.6114302224123
 20
490.7422096559373
 10
107.8411553067817
 20
490.3320060071689
 10
108.1602932101195
 20
489.9867645730526
 10
108.5512083210742
 20
489.7255634502
 10
108.9922986083838
 20
489.5628366542458
 10
109.4591893525503
 20
489.7442339780147
 10
119.4591897049358
 20
489.7442339780147
 10
119.4591897049358
 20
491.6183348121982
 10
119.4591897049358
 20
495.2655032195
 10
119.4591897049358
 20
500.4891194070494
 10
119.4591897049358
 20
507.0075768740923
 10
119.4591897049358
 20
514.4694638913417
 10
119.4591897049358
 20
522.4725081982589
 10
119.4591897049358
 20
530.5852636047473
 10
119.4591897049358
 20
538.3703693669356
  0
LWPOLYLINE
  5
C230
330
1F
100
AcDbEntity
  8
HEWI
  6
CUSTOM
 62
    18
420
        0
370
     9
100
AcDbPolyline
 90
       12
 70
     0
 43
0.0
 10
107.1992351915723
 20
541.1075776525774
 10
107.1992351915723
 20
546.4072017220844
 10
107.1992351915723
 20
551.6773659861566
 10
107.1992351915723
 20
555.3693937225127
 10
107.1992351915723
 20
557.2688363062618
 10
107.2493793689755
 20
557.8952160932051
 10
107.3972974627468
 20
558.3172161630844
 10
107.6355722420121
 20
558.6957774320146
 10
107.9522556143893
 20
559.0119172572356
 10
108.3314677532325
 20
559.2497830678273
 10
108.7541933784523
 20
559.3974472788047
 10
108.8827621136406
 20
559.4119086324083
  0
LWPOLYLINE
  5
C231
330
1F
100
AcDbEntity
  8
HEWI
  6
CUSTOM
 62
    18
420
        0
370
     9
100
AcDbPolyline
 90
       12
 70
     0
 43
0.0
 10
107.1992351915723
 20
507.9075768561117
 10
107.1992351915723
 20
502.6079527866047
 10
107.1992351915723
 20
497.3377885225325
 10
107.1992351915723
 20
493.6457607861773
 10
107.1992351915723
 20
491.7463182024282
 10
107.2493793689755
 20
491.119938415484
 10
107.3972974627468
 20
490.6979383456048
 10
107.6355722420121
 20
490.3193770766754
 10
107.9522556143893
 20
490.003237251454
 10
108.3314677532325
 20
489.7653714408622
 10
108.7541933784523
 20
489.6177072298849
 10
108.8827657212532
 20
489.6032454704984
  0
LWPOLYLINE
  5
C232
330
1F
100
AcDbEntity
  8
HEWI
  6
CUSTOM
 62
    18
420
        0
370
     9
100
AcDbPolyline
 90
        4
 70
     0
 43
0.0
 10
119.1992356144328
 20
489.744233978661
 10
119.1992356144328
 20
489.5676491186516
 10
109.1992352620473
 20
489.5676491186516
 10
109.0483635229029
 20
489.5846191041262
  0
LWPOLYLINE
  5
C233
330
1F
100
AcDbEntity
  8
HEWI
  6
CUSTOM
 62
    18
420
        0
370
     9
100
AcDbPolyline
 90
       15
 70
     0
 43
0.0
 10
31.45918970493585
 20
526.8708587252874
 10
31.45918970493585
 20
526.9500207474536
 10
31.45918970493585
 20
528.3022148196935
 10
31.45918970493585
 20
531.2460062058973
 10
31.45918970493585
 20
535.4876375095179
 10
31.45918970493585
 20
540.8998679591639
 10
31.45918970493585
 20
547.3203280696086
 10
31.45918970493585
 20
554.5564012252659
 10
31.45918970493585
 20
562.3910088505351
 10
31.45918970493585
 20
570.58911338869
 10
31.45918970493585
 20
578.9047633749216
 10
31.45918970493585
 20
587.0884888497609
 10
31.45918970493585
 20
594.8948045706154
 10
31.45918970493585
 20
602.0894092688397
 10
31.45918970493585
 20
608.4565851219356
  0
LWPOLYLINE
  5
C234
330
1F
100
AcDbEntity
  8
HEWI
  6
CUSTOM
 62
    18
420
        0
370
     9
100
AcDbPolyline
 90
       10
 70
     0
 43
0.0
 10
64.21858370456539
 20
608.4565851219356
 10
64.21858370456539
 20
602.0894092688397
 10
64.21858370456539
 20
594.8948045706154
 10
64.21858370456539
 20
587.0884888497609
 10
64.21858370456539
 20
578.9047633749216
 10
64.21858370456539
 20
570.58911338869
 10
64.21858370456539
 20
562.3910088505351
 10
64.21858370456539
 20
554.5564012252659
 10
64.21858370456539
 20
547.3203280696086
 10
64.21858370456539
 20
541.107577521401
  0
LINE
  5
C235
330
1F
100
AcDbEntity
  8
HEWI
  6
CUSTOM
 62
    18
420
        0
370
     9
100
AcDbLine
 10
64.21858370456539
 20
608.8424208742192
 30
0.0
 11
64.21858370456539
 21
608.4565851219356
 31
0.0
  0
LWPOLYLINE
  5
C236
330
1F
100
AcDbEntity
  8
HEWI
  6
CUSTOM
 62
    18
420
        0
370
     9
100
AcDbPolyline
 90
        3
 70
     0
 43
0.0
 10
31.90865472976657
 20
528.6944099451873
 10
31.81834615268235
 20
528.4562858008896
 10
31.7876486279747
 20
528.2034689428885
  0
LWPOLYLINE
  5
C237
330
1F
100
AcDbEntity
  8
HEWI
  6
CUSTOM
 62
    18
420
        0
370
     9
100
AcDbPolyline
 90
        3
 70
     0
 43
0.0
 10
41.80747135615092
 20
509.1745082477116
 10
41.98790586236646
 20
509.0798089148099
 10
42.18576028944153
 20
509.0310421790925
  0
LWPOLYLINE
  5
C238
330
1F
100
AcDbEntity
  8
HEWI
  6
CUSTOM
 62
    18
420
        0
370
     9
100
AcDbPolyline
 90
        3
 70
     0
 43
0.0
 10
33.36952267344532
 20
532.3792922615345
 10
33.22886176663451
 20
532.1755097596812
 10
33.14105656610627
 20
531.9439864767839
  0
LWPOLYLINE
  5
C239
330
1F
100
AcDbEntity
  8
HEWI
  6
CUSTOM
 62
    18
420
        0
370
     9
100
AcDbPolyline
 90
        3
 70
     0
 43
0.0
 10
38.30009502199028
 20
511.0751609644355
 10
38.46581805339156
 20
510.9283431720407
 10
38.6618611939557
 20
510.8254517959919
  0
LWPOLYLINE
  5
C23A
330
1F
100
AcDbEntity
  8
HEWI
  6
CUSTOM
 62
    18
420
        0
370
     9
100
AcDbPolyline
 90
        3
 70
     0
 43
0.0
 10
35.66533577321024
 20
535.6058005650082
 10
35.48845892471581
 20
535.449101353063
 10
35.35422234722864
 20
535.2546260989199
  0
LWPOLYLINE
  5
C23B
330
1F
100
AcDbEntity
  8
HEWI
  6
CUSTOM
 62
    18
420
        0
370
     9
100
AcDbPolyline
 90
        3
 70
     0
 43
0.0
 10
35.35422237248349
 20
513.7605283731843
 10
35.48845892471581
 20
513.5660531556266
 10
35.66533580648684
 20
513.4093539142029
  0
LWPOLYLINE
  5
C23C
330
1F
100
AcDbEntity
  8
HEWI
  6
CUSTOM
 62
    18
420
        0
370
     9
100
AcDbPolyline
 90
       13
 70
     0
 43
0.0
 10
64.21858370456539
 20
608.4565851219356
 10
63.26665525271164
 20
605.7256499939856
 10
61.41812097050934
 20
603.2351578539707
 10
58.78041095128719
 20
601.1298470524978
 10
55.50681931367944
 20
599.5320706008558
 10
51.78759530464231
 20
598.5346854587321
 10
47.83888670474698
 20
598.1956560252399
 10
43.89017810485893
 20
598.5346854587321
 10
40.1709540958218
 20
599.5320706008558
 10
36.89736245821405
 20
601.1298470524978
 10
34.25965243899191
 20
603.2351578539707
 10
32.41111815678596
 20
605.7256499939856
 10
31.45918970493585
 20
608.4565851219356
  0
LWPOLYLINE
  5
C23D
330
1F
100
AcDbEntity
  8
HEWI
  6
CUSTOM
 62
    18
420
        0
370
     9
100
AcDbPolyline
 90
        3
 70
     0
 43
0.0
 10
38.66186127268156
 20
538.189702754016
 10
38.46581805339156
 20
538.0868113366493
 10
38.30009508853982
 20
537.9399936032116
  0
LWPOLYLINE
  5
C23E
330
1F
100
AcDbEntity
  8
HEWI
  6
CUSTOM
 62
    18
420
        0
370
     9
100
AcDbPolyline
 90
        3
 70
     0
 43
0.0
 10
45.67094499545055
 20
508.1720213120891
 10
45.85003141045308
 20
508.1278804758178
 10
46.03447752304418
 20
508.1278804758178
  0
LINE
  5
C23F
330
1F
100
AcDbEntity
  8
HEWI
  6
CUSTOM
 62
    18
420
        0
370
     9
100
AcDbLine
 10
31.45918970493585
 20
608.4565851219356
 30
0.0
 11
31.45918970493585
 21
608.8424209580432
 31
0.0
  0
LWPOLYLINE
  5
C240
330
1F
100
AcDbEntity
  8
HEWI
  6
CUSTOM
 62
    18
420
        0
370
     9
100
AcDbPolyline
 90
        3
 70
     0
 43
0.0
 10
31.36987289712852
 20
524.7627762930348
 10
31.3388861233143
 20
524.5075772543448
 10
31.36987289712852
 20
524.2523782156543
  0
LWPOLYLINE
  5
C241
330
1F
100
AcDbEntity
  8
HEWI
  6
CUSTOM
 62
    18
420
        0
370
     9
100
AcDbPolyline
 90
       43
 70
     1
 43
0.0
 10
108.9922986083838
 20
814.1067816791039
 10
109.4591893525503
 20
814.0926110542316
 10
119.4591897049358
 20
814.0926110542316
 10
119.4591897049358
 20
813.8562539662173
 10
119.4591897049358
 20
811.7529599181214
 10
119.4591897049358
 20
807.8961180364929
 10
119.4591897049358
 20
802.4936516654777
 10
119.4591897049358
 20
795.8368091655127
 10
119.4591897049358
 20
788.2844626388307
 10
119.4591897049358
 20
780.2437610415379
 10
119.4591897049358
 20
772.1481806780009
 10
119.4591897049358
 20
764.4341563810824
 10
119.4591897049358
 20
757.5175531973289
 10
119.4591897049358
 20
751.7712469946734
 10
119.4591897049358
 20
747.505022627876
 10
119.4591897049358
 20
744.9488733568225
 10
119.4591897049358
 20
744.24060185035
 10
109.4591893525503
 20
744.24060185035
 10
108.9922986083838
 20
744.2958386329494
 10
108.5512083210742
 20
744.4584965873461
 10
108.1602932101195
 20
744.7195872090849
 10
107.8411553067817
 20
745.0646825888409
 10
107.6114302224123
 20
745.4747127009893
 10
107.4976187226202
 20
745.849740207336
 10
107.4591892820717
 20
746.2860018583012
 10
107.4591892820717
 20
747.7200065840477
 10
107.4591892820717
 20
750.9850132638264
 10
107.4591892820717
 20
755.8912715772251
 10
107.4591892820717
 20
762.1536476245917
 10
107.4591892820717
 20
769.4081948728646
 10
107.4591892820717
 20
777.2333054051799
 10
107.4591892820717
 20
785.1742122405201
 10
107.4591892820717
 20
792.7694187376362
 10
107.4591892820717
 20
799.5775191023678
 10
107.4591892820717
 20
805.2028512879557
 10
107.4591892820717
 20
809.3184914350239
 10
107.4591892820717
 20
811.6852534979672
 10
107.4591892820717
 20
812.1655898685183
 10
107.4976187226202
 20
812.5550586575844
 10
107.6114302224123
 20
812.9295603795041
 10
107.8411553067817
 20
813.3390156339576
 10
108.1602932101195
 20
813.683627193798
 10
108.5512083210742
 20
813.9443517693646
  0
LWPOLYLINE
  5
C242
330
1F
100
AcDbEntity
  8
HEWI
  6
CUSTOM
 62
    18
420
        0
370
     9
100
AcDbPolyline
 90
       32
 70
     0
 43
0.0
 10
107.4591892820717
 20
541.1075776150417
 10
96.34884249550669
 20
541.1075776150417
 10
87.84763616980853
 20
541.1075776150417
 10
79.6096584478837
 20
541.1075776150417
 10
70.77335741536444
 20
541.1075776150417
 10
62.98806613855049
 20
541.1075776150417
 10
56.57377683817322
 20
541.1075776150417
 10
51.79407731801984
 20
541.1075776150417
 10
48.84538813145628
 20
541.1075776150417
 10
47.84884078643881
 20
541.1075776150417
 10
43.87620061927736
 20
540.6252117738329
 10
40.13443585866844
 20
539.2061475995685
 10
36.84100427174417
 20
536.9328559439698
 10
34.18730813119328
 20
533.9374522549812
 10
32.32757061091616
 20
530.3940185071557
 10
31.36987289571698
 20
526.5084861900602
 10
31.36987289571698
 20
522.5066683186294
 10
32.32757061091616
 20
518.6211360015342
 10
34.18730813119328
 20
515.0777022537092
 10
36.84100427174417
 20
512.0822985647193
 10
40.13443585866844
 20
509.8090069091206
 10
43.87620061927736
 20
508.3899427348572
 10
47.84884078643881
 20
507.9075768936479
 10
48.84539058421069
 20
507.9075768936479
 10
51.79407557605372
 20
507.9075768936479
 10
56.57377666338653
 20
507.9075768936479
 10
62.98806791801689
 20
507.9075768936479
 10
70.77335620519079
 20
507.9075768936479
 10
79.60965771988049
 20
507.9075768936479
 10
87.84763870192547
 20
507.9075768936479
 10
96.34884249550669
 20
507.9075768936479
 10
107.4591892820718
 20
507.9075768936479
  0
LWPOLYLINE
  5
C243
330
1F
100
AcDbEntity
  8
HEWI
  6
CUSTOM
 62
    18
420
        0
370
     9
100
AcDbPolyline
 90
        3
 70
     0
 43
0.0
 10
33.14105655559615
 20
517.0711680596166
 10
33.22886176663451
 20
516.8396447490083
 10
33.36952265661239
 20
516.6358622715449
  0
LWPOLYLINE
  5
C244
330
1F
100
AcDbEntity
  8
HEWI
  6
CUSTOM
 62
    18
420
        0
370
     9
100
AcDbPolyline
 90
        3
 70
     0
 43
0.0
 10
42.18576030382609
 20
539.9841123331432
 10
41.98790586236646
 20
539.9353455938792
 10
41.80747136926948
 20
539.8406462678642
  0
LWPOLYLINE
  5
C245
330
1F
100
AcDbEntity
  8
HEWI
  6
CUSTOM
 62
    18
420
        0
370
     9
100
AcDbPolyline
 90
        3
 70
     0
 43
0.0
 10
31.78764861725722
 20
520.8116856540621
 10
31.81834615268235
 20
520.5588687077995
 10
31.90865469823985
 20
520.3207446466333
  0
LWPOLYLINE
  5
C246
330
1F
100
AcDbEntity
  8
HEWI
  6
CUSTOM
 62
    18
420
        0
370
     9
100
AcDbPolyline
 90
        3
 70
     0
 43
0.0
 10
46.03447749340921
 20
540.8872740328722
 10
45.85003141045308
 20
540.8872740328722
 10
45.67094496667778
 20
540.8431331895083
  0
LWPOLYLINE
  5
C247
330
1F
100
AcDbEntity
  8
HEWI
  6
CUSTOM
 62
    18
420
        0
370
     9
100
AcDbPolyline
 90
       19
 70
     0
 43
0.0
 10
31.45918970493585
 20
608.8424209510556
 10
31.46981225337731
 20
608.7705797529481
 10
32.42112336132414
 20
606.0414156889375
 10
32.45071072948122
 20
605.9797109114185
 10
34.29450108337551
 20
603.4956101682407
 10
34.34688430682945
 20
603.4459006555241
 10
36.96764989698568
 20
601.3541141949674
 10
40.22021225506978
 20
599.7666017259282
 10
43.91554427941446
 20
598.7756237027331
 10
47.83888670474698
 20
598.438772166032
 10
51.76222913008678
 20
598.7756237027331
 10
55.45756115443146
 20
599.7666017259278
 10
58.71012351251557
 20
601.3541141949674
 10
61.33088910267179
 20
603.4459006555241
 10
61.38327232612573
 20
603.4956101682407
 10
63.22706268002002
 20
605.9797109114185
 10
63.25665004817347
 20
606.0414156889375
 10
64.20796115612393
 20
608.7705797529481
 10
64.21858370456539
 20
608.8424209510556
  0
LWPOLYLINE
  5
C248
330
1F
100
AcDbEntity
  8
HEWI
  6
CUSTOM
 62
    18
420
        0
370
     9
100
AcDbPolyline
 90
        5
 70
     0
 43
0.0
 10
76.57811511898398
 20
758.6704449619672
 10
83.40887896113054
 20
761.0270361598265
 10
89.77711835771334
 20
762.2456428464905
 10
96.34884249550669
 20
762.6560813032645
 10
107.4591892820717
 20
762.6560813032645
  0
LWPOLYLINE
  5
C249
330
1F
100
AcDbEntity
  8
HEWI
  6
CUSTOM
 62
    18
420
        0
370
     9
100
AcDbPolyline
 90
       29
 70
     0
 43
0.0
 10
64.87892986796942
 20
747.3412170844956
 10
64.32780867716065
 20
743.5162599537022
 10
64.32780867716065
 20
729.3741240226816
 10
63.37011096196511
 20
726.626637772744
 10
61.51037344168435
 20
724.1210517409715
 10
58.85667730113709
 20
722.0029814800957
 10
55.56324571420919
 20
720.3955215348075
 10
51.82148095360389
 20
719.3920916342465
 10
47.84884078643881
 20
719.0510074769151
 10
43.87620061927736
 20
719.3920916342469
 10
40.13443585866844
 20
720.3955215348075
 10
36.84100427174417
 20
722.0029814800957
 10
34.18730813119328
 20
724.1210517409715
 10
32.32757061091616
 20
726.626637772744
 10
31.36987289571698
 20
729.3741240226816
 10
31.36987289571698
 20
743.5162599537022
 10
31.36987289571698
 20
746.3459725076643
 10
32.70501964530195
 20
755.6123174888823
 10
33.64303919386293
 20
758.2232309757944
 10
37.53538611064505
 20
766.9778176292841
 10
43.84471459978522
 20
774.9975102879054
 10
45.36989355582409
 20
776.7506161651924
 10
53.59096676650006
 20
783.5037494789778
 10
63.56922726518314
 20
788.9457521710507
 10
64.9685997117449
 20
789.4694793344708
 10
75.81043793463686
 20
793.2098780827089
 10
85.91815398190011
 20
795.1440595094802
 10
96.34884249550669
 20
795.795510423555
 10
107.4591892820718
 20
795.795510423555
  0
LWPOLYLINE
  5
C24A
330
1F
100
AcDbEntity
  8
HEWI
  6
CUSTOM
 62
    18
420
        0
370
     9
100
AcDbPolyline
 90
        3
 70
     0
 43
0.0
 10
67.77766012052598
 20
752.3594008686607
 10
72.3851655106082
 20
756.1441984669593
 10
77.77314394187488
 20
759.0827259920376
  0
LWPOLYLINE
  5
C24B
330
1F
100
AcDbEntity
  8
HEWI
  6
CUSTOM
 62
    18
420
        0
370
     9
100
AcDbPolyline
 90
        3
 70
     0
 43
0.0
 10
64.04773706905325
 20
745.4717153680442
 10
66.05276852539464
 20
749.9813908935946
 10
68.19026767673131
 20
752.6983339535807
  0
LWPOLYLINE
  5
C24C
330
1F
100
AcDbEntity
  8
HEWI
  6
CUSTOM
 62
    18
420
        0
370
     9
100
AcDbPolyline
 90
        3
 70
     0
 43
0.0
 10
64.21858370456539
 20
729.0607745104582
 10
64.21858370456539
 20
728.9860115030462
 10
64.21858370456539
 20
608.8424209510556
  0
LWPOLYLINE
  5
C24D
330
1F
100
AcDbEntity
  8
HEWI
  6
CUSTOM
 62
    18
420
        0
370
     9
100
AcDbPolyline
 90
        3
 70
     0
 43
0.0
 10
31.45918970493585
 20
729.1178879174988
 10
31.45918970493585
 20
728.9860115030462
 10
31.45918970493585
 20
608.8424209510556
  0
LINE
  5
C24E
330
1F
100
AcDbEntity
  8
HEWI
  6
CUSTOM
 62
    18
420
        0
370
     9
100
AcDbLine
 10
1074.725351647681
 20
522.2460026573342
 30
0.0
 11
1074.716182510066
 21
522.3906928220792
 31
0.0
  0
LINE
  5
C24F
330
1F
100
AcDbEntity
  8
HEWI
  6
CUSTOM
 62
    18
420
        0
370
     9
100
AcDbLine
 10
1074.719330246604
 20
522.3779219623818
 30
0.0
 11
1074.73352793885
 21
522.2056441187248
 31
0.0
  0
LWPOLYLINE
  5
C250
330
1F
100
AcDbEntity
  8
HEWI
  6
CUSTOM
 62
    18
420
        0
370
     9
100
AcDbPolyline
 90
       43
 70
     1
 43
0.0
 10
1031.710732009313
 20
497.3267280215216
 10
1031.710732009313
 20
502.6020882476484
 10
1031.710732009313
 20
509.1482197380871
 10
1031.710732009313
 20
516.5848954206901
 10
1031.710732009313
 20
524.4801616407819
 10
1031.710732009313
 20
532.3754278608737
 10
1031.710732009313
 20
539.8121035434772
 10
1031.710732009313
 20
546.358235033915
 10
1031.710732009313
 20
551.6335952600427
 10
1031.710732009313
 20
555.3317689327352
 10
1031.710732009313
 20
557.2379504450621
 10
1031.710732009313
 20
557.2414206926989
 10
1031.660587831909
 20
557.8678004796422
 10
1031.512669738138
 20
558.2898005495215
 10
1031.274394958873
 20
558.6683618184517
 10
1030.957711586496
 20
558.9845016436727
 10
1030.578499447652
 20
559.2223674542644
 10
1030.155773822429
 20
559.3700316652419
 10
1029.710731938838
 20
559.4200897764746
 10
1019.710731586452
 20
559.4200897764746
 10
1019.710731586452
 20
558.0062243305812
 10
1019.710731586452
 20
554.7859596057703
 10
1019.710731586452
 20
549.9328049082394
 10
1019.710731586452
 20
543.7082503875237
 10
1019.710731586452
 20
536.4476778300806
 10
1019.710731586452
 20
528.5422901383705
 10
1019.710731586452
 20
520.4180331431932
 10
1019.710731586452
 20
512.5126454514827
 10
1019.710731586452
 20
505.2520728940406
 10
1019.710731586452
 20
499.0275183733245
 10
1019.710731586452
 20
494.1743636757935
 10
1019.710731586452
 20
490.9540989509821
 10
1019.710731586452
 20
489.5402335050887
 10
1029.710731938838
 20
489.5402335050887
 10
1030.155773822429
 20
489.590291616322
 10
1030.578499447652
 20
489.7379558272993
 10
1030.957711586496
 20
489.9758216378911
 10
1031.274394958873
 20
490.2919614631125
 10
1031.512669738138
 20
490.6705227320419
 10
1031.660587831909
 20
491.0925228019212
 10
1031.710732009313
 20
491.7189025888653
 10
1031.710732009313
 20
491.7223728365013
 10
1031.710732009313
 20
493.6285543488281
  0
LWPOLYLINE
  5
C251
330
1F
100
AcDbEntity
  8
HEWI
  6
CUSTOM
 62
    18
420
        0
370
     9
100
AcDbPolyline
 90
        3
 70
     0
 43
0.0
 10
1078.423718124515
 20
513.9433427295741
 10
1077.99840285828
 20
514.4131952901759
 10
1077.996966603205
 20
514.4131074146278
  0
LINE
  5
C252
330
1F
100
AcDbEntity
  8
HEWI
  6
CUSTOM
 62
    18
420
        0
370
     9
100
AcDbLine
 10
1075.79116590372
 20
518.2545753934375
 30
0.0
 11
1075.704725948857
 21
518.5121662779945
 31
0.0
  0
LWPOLYLINE
  5
C253
330
1F
100
AcDbEntity
  8
HEWI
  6
CUSTOM
 62
    18
420
        0
370
     9
100
AcDbPolyline
 90
        3
 70
     0
 43
0.0
 10
1077.839714602087
 20
514.7144309127987
 10
1078.068598875623
 20
514.358809398878
 10
1077.73484106181
 20
514.8124380194619
  0
LINE
  5
C254
330
1F
100
AcDbEntity
  8
HEWI
  6
CUSTOM
 62
    18
420
        0
370
     9
100
AcDbLine
 10
1081.079614019112
 20
511.4487802165852
 30
0.0
 11
1080.771261824055
 21
511.6867966616721
 31
0.0
  0
LINE
  5
C255
330
1F
100
AcDbEntity
  8
HEWI
  6
CUSTOM
 62
    18
420
        0
370
     9
100
AcDbLine
 10
1082.518775848501
 20
510.47015737787
 30
0.0
 11
1082.677722408607
 21
510.3708619449442
 31
0.0
  0
LINE
  5
C256
330
1F
100
AcDbEntity
  8
HEWI
  6
CUSTOM
 62
    18
420
        0
370
     9
100
AcDbLine
 10
1079.982740600069
 20
512.2954546236321
 30
0.0
 11
1079.759228322789
 21
512.4679833051994
 31
0.0
  0
LINE
  5
C257
330
1F
100
AcDbEntity
  8
HEWI
  6
CUSTOM
 62
    18
420
        0
370
     9
100
AcDbLine
 10
1077.88519512747
 20
514.5833837305942
 30
0.0
 11
1078.261984577901
 21
514.1220123570162
 31
0.0
  0
LWPOLYLINE
  5
C258
330
1F
100
AcDbEntity
  8
HEWI
  6
CUSTOM
 62
    18
420
        0
370
     9
100
AcDbPolyline
 90
        3
 70
     0
 43
0.0
 10
1075.183886160335
 20
520.0642677575858
 10
1075.142163589367
 20
520.1886009317311
 10
1075.12691463342
 20
520.263870436144
  0
LINE
  5
C259
330
1F
100
AcDbEntity
  8
HEWI
  6
CUSTOM
 62
    18
420
        0
370
     9
100
AcDbLine
 10
1079.661135703278
 20
512.5763477883062
 30
0.0
 11
1079.800817537212
 21
512.4358806698563
 31
0.0
  0
LINE
  5
C25A
330
1F
100
AcDbEntity
  8
HEWI
  6
CUSTOM
 62
    18
420
        0
370
     9
100
AcDbLine
 10
1074.576953004794
 20
524.5877522297271
 30
0.0
 11
1074.572146392191
 21
524.663601191635
 31
0.0
  0
LINE
  5
C25B
330
1F
100
AcDbEntity
  8
HEWI
  6
CUSTOM
 62
    18
420
        0
370
     9
100
AcDbLine
 10
1075.13572528995
 20
520.2203806564723
 30
0.0
 11
1075.170745049418
 21
520.1103083172918
 31
0.0
  0
LINE
  5
C25C
330
1F
100
AcDbEntity
  8
HEWI
  6
CUSTOM
 62
    18
420
        0
370
     9
100
AcDbLine
 10
1074.746751549333
 20
522.266669369055
 30
0.0
 11
1074.775073784047
 21
522.0005720414222
 31
0.0
  0
LWPOLYLINE
  5
C25D
330
1F
100
AcDbEntity
  8
HEWI
  6
CUSTOM
 62
    18
420
        0
370
     9
100
AcDbPolyline
 90
        5
 70
     0
 43
0.0
 10
1087.505248260753
 20
508.0089993987551
 10
1087.441488919852
 20
507.987975710346
 10
1087.416436298012
 20
507.9858514993163
 10
1087.41320609206
 20
507.9857682869876
 10
1031.710732009313
 20
507.9809516030633
  0
LINE
  5
C25E
330
1F
100
AcDbEntity
  8
HEWI
  6
CUSTOM
 62
    18
420
        0
370
     9
100
AcDbLine
 10
1031.710732009313
 20
540.9801619993052
 30
0.0
 11
1074.691383645542
 21
540.9801619993052
 31
0.0
  0
LINE
  5
C25F
330
1F
100
AcDbEntity
  8
HEWI
  6
CUSTOM
 62
    18
420
        0
370
     9
100
AcDbLine
 10
1079.759228322789
 20
512.4679833051994
 30
0.0
 11
1079.071105918963
 21
513.2281631038384
 31
0.0
  0
LWPOLYLINE
  5
C260
330
1F
100
AcDbEntity
  8
HEWI
  6
CUSTOM
 62
    18
420
        0
370
     9
100
AcDbPolyline
 90
        3
 70
     0
 43
0.0
 10
1074.500351547791
 20
522.4031196558333
 10
1074.501473468972
 20
522.4023362211235
 10
1074.725351647681
 20
522.2460026573342
  0
LINE
  5
C261
330
1F
100
AcDbEntity
  8
HEWI
  6
CUSTOM
 62
    18
420
        0
370
     9
100
AcDbLine
 10
1077.996966603205
 20
514.4131074146278
 30
0.0
 11
1077.683226171935
 21
514.8910698254055
 31
0.0
  0
LINE
  5
C262
330
1F
100
AcDbEntity
  8
HEWI
  6
CUSTOM
 62
    18
420
        0
370
     9
100
AcDbLine
 10
1075.156554083263
 20
520.1549126467154
 30
0.0
 11
1075.151957143214
 21
520.1761327137726
 31
0.0
  0
LWPOLYLINE
  5
C263
330
1F
100
AcDbEntity
  8
HEWI
  6
CUSTOM
 62
    18
420
        0
370
     9
100
AcDbPolyline
 90
       42
 70
     1
 43
0.0
 10
1031.450777918813
 20
765.6547573756208
 10
1031.450777918813
 20
758.8466570108883
 10
1031.450777918813
 20
753.2213248253007
 10
1031.450777918813
 20
749.1056846782328
 10
1031.450777918813
 20
746.7389226152893
 10
1031.450777918813
 20
746.2585862447383
 10
1031.412348478265
 20
745.8223245937731
 10
1031.298536978473
 20
745.4472970874264
 10
1031.068811894103
 20
745.0372669752781
 10
1030.749673990765
 20
744.692171595522
 10
1030.358758879811
 20
744.4310809737832
 10
1029.917668592498
 20
744.2684230193865
 10
1029.450777848338
 20
744.2131862367871
 10
1019.450777495949
 20
744.2131862367871
 10
1019.450777495949
 20
745.3909755951388
 10
1019.450777495949
 20
748.3913308891462
 10
1019.450777495949
 20
753.0525021882961
 10
1019.450777495949
 20
759.1232045413533
 10
1019.450777495949
 20
766.2761648131197
 10
1019.450777495949
 20
774.1257650638715
 10
1019.450777495949
 20
782.2488313122974
 10
1019.450777495949
 20
790.2074469543661
 10
1019.450777495949
 20
797.5725609608032
 10
1019.450777495949
 20
803.9471181291334
 10
1019.450777495949
 20
808.9874644324197
 10
1019.450777495949
 20
812.421873496806
 10
1019.450777495949
 20
814.0651954406687
 10
1029.450777848338
 20
814.0651954406687
 10
1029.917668592498
 20
814.0793660655411
 10
1030.358758879811
 20
813.9169361558018
 10
1030.749673990765
 20
813.656211580235
 10
1031.068811894103
 20
813.3116000203948
 10
1031.298536978473
 20
812.9021447659413
 10
1031.412348478265
 20
812.5276430440214
 10
1031.450777918813
 20
812.1381742549553
 10
1031.450777918813
 20
810.7041695292084
 10
1031.450777918813
 20
807.4391628494302
 10
1031.450777918813
 20
802.5329045360315
 10
1031.450777918813
 20
796.2705284886649
 10
1031.450777918813
 20
789.0159812403924
 10
1031.450777918813
 20
781.1908707080763
 10
1031.450777918813
 20
773.2499638727365
  0
LWPOLYLINE
  5
C264
330
1F
100
AcDbEntity
  8
HEWI
  6
CUSTOM
 62
    18
420
        0
370
     9
100
AcDbPolyline
 90
       18
 70
     0
 43
0.0
 10
1030.027205083847
 20
559.3844930185611
 10
1029.917666128425
 20
559.4249045506747
 10
1029.450777848338
 20
559.4801624012859
 10
1019.450777495949
 20
559.4801624012859
 10
1019.450777495949
 20
558.5367328510804
 10
1019.450777495949
 20
555.757304731713
 10
1019.450777495949
 20
551.2917177325264
 10
1019.450777495949
 20
545.3807128045216
 10
1019.450777495949
 20
538.3429537533736
 10
1019.450777495949
 20
530.5578479911853
 10
1019.450777495949
 20
522.445092584696
 10
1019.450777495949
 20
514.4420482777788
 10
1019.450777495949
 20
506.9801612605304
 10
1019.450777495949
 20
500.461703793487
 10
1019.450777495949
 20
495.2380876059375
 10
1019.450777495949
 20
491.5909191986354
 10
1019.450777495949
 20
489.7168183644523
 10
1019.710731838419
 20
489.7168183644523
  0
LWPOLYLINE
  5
C265
330
1F
100
AcDbEntity
  8
HEWI
  6
CUSTOM
 62
    18
420
        0
370
     9
100
AcDbPolyline
 90
        3
 70
     0
 43
0.0
 10
1030.027201492492
 20
489.5758298603293
 10
1029.917668592498
 20
489.5354210406829
 10
1029.861603686757
 20
489.5572034897602
  0
LINE
  5
C266
330
1F
100
AcDbEntity
  8
HEWI
  6
CUSTOM
 62
    18
420
        0
370
     9
100
AcDbLine
 10
1074.744917087133
 20
522.1706864472678
 30
0.0
 11
1074.773838603021
 21
522.0066689564494
 31
0.0
  0
LINE
  5
C267
330
1F
100
AcDbEntity
  8
HEWI
  6
CUSTOM
 62
    18
420
        0
370
     9
100
AcDbLine
 10
1079.35620423386
 20
512.9132104461166
 30
0.0
 11
1079.944197454453
 21
512.3252060110037
 31
0.0
  0
LINE
  5
C268
330
1F
100
AcDbEntity
  8
HEWI
  6
CUSTOM
 62
    18
420
        0
370
     9
100
AcDbLine
 10
1074.748338288744
 20
522.1325396050981
 30
0.0
 11
1074.73033565986
 21
522.3332712389467
 31
0.0
  0
LWPOLYLINE
  5
C269
330
1F
100
AcDbEntity
  8
HEWI
  6
CUSTOM
 62
    18
420
        0
370
     9
100
AcDbPolyline
 90
        3
 70
     0
 43
0.0
 10
1092.061869522644
 20
508.1004648622549
 10
1093.059935790432
 20
508.1004648622549
 10
1094.028999951289
 20
508.3393177225368
  0
LWPOLYLINE
  5
C26A
330
1F
100
AcDbEntity
  8
HEWI
  6
CUSTOM
 62
    18
420
        0
370
     9
100
AcDbPolyline
 90
       41
 70
     0
 43
0.0
 10
1107.450777495949
 20
611.2418356011665
 10
1107.450777495949
 20
604.3471409389256
 10
1107.450777495949
 20
596.5564651739921
 10
1107.450777495949
 20
588.1033982925153
 10
1107.450777495949
 20
579.2416533603121
 10
1107.450777495949
 20
570.2370540063837
 10
1107.450777495949
 20
561.3597387093311
 10
1107.450777495949
 20
552.8760359467581
 10
1107.450777495949
 20
545.0404560738323
 10
1107.450777495949
 20
538.0880625678335
 10
1107.450777495949
 20
532.2274302792104
 10
1107.450777495949
 20
527.6343809614279
 10
1107.450777495949
 20
524.4466972496068
 10
1107.450777495949
 20
522.9824742616945
 10
1107.450777495949
 20
522.4913063733541
 10
1106.498849044095
 20
518.6291808774456
 10
1104.650314761893
 20
515.1070931160531
 10
1102.012604742671
 20
512.1297340276003
 10
1098.739013105063
 20
509.8701369000471
 10
1095.019789096026
 20
508.4596213051465
 10
1091.071080496134
 20
507.9801612822591
 10
1087.122371896243
 20
508.4596213051465
 10
1083.403147887206
 20
509.8701369000471
 10
1080.129556249598
 20
512.1297340276003
 10
1077.491846230375
 20
515.1070931160531
 10
1075.643311948173
 20
518.6291808774456
 10
1074.691383496323
 20
522.4913063733541
 10
1074.691383496323
 20
522.9824742616945
 10
1074.691383496323
 20
524.4466972496068
 10
1074.691383496323
 20
527.6343809614279
 10
1074.691383496323
 20
532.2274302792104
 10
1074.691383496323
 20
538.0880625678335
 10
1074.691383496323
 20
545.0404560738323
 10
1074.691383496323
 20
552.8760359467581
 10
1074.691383496323
 20
561.3597387093311
 10
1074.691383496323
 20
570.2370540063837
 10
1074.691383496323
 20
579.2416533603121
 10
1074.691383496323
 20
588.1033982925153
 10
1074.691383496323
 20
596.5564651739921
 10
1074.691383496323
 20
604.3471409389256
 10
1074.691383496323
 20
611.2418356011665
  0
LWPOLYLINE
  5
C26B
330
1F
100
AcDbEntity
  8
HEWI
  6
CUSTOM
 62
    18
420
        0
370
     9
100
AcDbPolyline
 90
       13
 70
     0
 43
0.0
 10
1107.450777495949
 20
611.2418356011665
 10
1106.498849044095
 20
613.9727707291164
 10
1104.650314761893
 20
616.4632628691313
 10
1102.012604742671
 20
618.5685736706034
 10
1098.739013105063
 20
620.1663501222462
 10
1095.019789096026
 20
621.1637352643699
 10
1091.071080496134
 20
621.5027646978617
 10
1087.122371896243
 20
621.1637352643699
 10
1083.403147887206
 20
620.1663501222462
 10
1080.129556249598
 20
618.5685736706034
 10
1077.491846230375
 20
616.4632628691313
 10
1075.643311948173
 20
613.9727707291164
 10
1074.691383496323
 20
611.2418356011665
  0
LWPOLYLINE
  5
C26C
330
1F
100
AcDbEntity
  8
HEWI
  6
CUSTOM
 62
    18
420
        0
370
     9
100
AcDbPolyline
 90
        3
 70
     0
 43
0.0
 10
1080.95094851595
 20
511.5627679061324
 10
1081.698011844779
 20
510.9009275584778
 10
1082.581755530624
 20
510.4371030979584
  0
LWPOLYLINE
  5
C26D
330
1F
100
AcDbEntity
  8
HEWI
  6
CUSTOM
 62
    18
420
        0
370
     9
100
AcDbPolyline
 90
        3
 70
     0
 43
0.0
 10
1074.966894180896
 20
520.9349059928761
 10
1075.050539944066
 20
520.5314530942366
 10
1075.342163659818
 20
519.5097343884319
  0
LWPOLYLINE
  5
C26E
330
1F
100
AcDbEntity
  8
HEWI
  6
CUSTOM
 62
    18
420
        0
370
     9
100
AcDbPolyline
 90
        3
 70
     0
 43
0.0
 10
1088.113160925881
 20
508.3393177509062
 10
1089.082225201837
 20
508.1004648622549
 10
1090.080291351081
 20
508.1004648622549
  0
LWPOLYLINE
  5
C26F
330
1F
100
AcDbEntity
  8
HEWI
  6
CUSTOM
 62
    18
420
        0
370
     9
100
AcDbPolyline
 90
        3
 70
     0
 43
0.0
 10
1107.450777482976
 20
523.4893724131963
 10
1107.571081077571
 20
524.4801616407819
 10
1107.450777497266
 20
525.4709507506865
  0
LWPOLYLINE
  5
C270
330
1F
100
AcDbEntity
  8
HEWI
  6
CUSTOM
 62
    18
420
        0
370
     9
100
AcDbPolyline
 90
        3
 70
     0
 43
0.0
 10
1084.336355862939
 20
509.5162178168573
 10
1085.220099653754
 20
509.052393301247
 10
1086.189163814611
 20
508.8135404409651
  0
LWPOLYLINE
  5
C271
330
1F
100
AcDbEntity
  8
HEWI
  6
CUSTOM
 62
    18
420
        0
370
     9
100
AcDbPolyline
 90
        3
 70
     0
 43
0.0
 10
1074.659470780832
 20
526.0994170567803
 10
1074.571079914702
 20
524.4801616407819
 10
1074.60396248295
 20
523.4815395963035
  0
LWPOLYLINE
  5
C272
330
1F
100
AcDbEntity
  8
HEWI
  6
CUSTOM
 62
    18
420
        0
370
     9
100
AcDbPolyline
 90
        6
 70
     0
 43
0.0
 10
1031.710732009313
 20
541.0801620014788
 10
1042.561124705378
 20
541.0801620014788
 10
1051.062331031076
 20
541.0801620014788
 10
1059.300308753001
 20
541.0801620014788
 10
1068.13660978552
 20
541.0801620014788
 10
1074.691383450379
 20
541.0801620014788
  0
LWPOLYLINE
  5
C273
330
1F
100
AcDbEntity
  8
HEWI
  6
CUSTOM
 62
    18
420
        0
370
     9
100
AcDbPolyline
 90
       10
 70
     0
 43
0.0
 10
1031.710732009313
 20
507.880161280086
 10
1042.561124705378
 20
507.880161280086
 10
1051.062328498959
 20
507.880161280086
 10
1059.300309481001
 20
507.880161280086
 10
1068.136610995694
 20
507.880161280086
 10
1075.921899282864
 20
507.880161280086
 10
1082.336190537498
 20
507.880161280086
 10
1087.115891624831
 20
507.880161280086
 10
1090.064576616674
 20
507.880161280086
 10
1091.061126414442
 20
507.880161280086
  0
LWPOLYLINE
  5
C274
330
1F
100
AcDbEntity
  8
HEWI
  6
CUSTOM
 62
    18
420
        0
370
     9
100
AcDbPolyline
 90
        3
 70
     0
 43
0.0
 10
1077.945941169979
 20
514.5945258830722
 10
1078.720652716099
 20
513.5386375420637
 10
1079.467715956194
 20
512.876797273019
  0
LWPOLYLINE
  5
C275
330
1F
100
AcDbEntity
  8
HEWI
  6
CUSTOM
 62
    18
420
        0
370
     9
100
AcDbPolyline
 90
        3
 70
     0
 43
0.0
 10
1102.674444947344
 20
512.8767971944096
 10
1103.421508276169
 20
513.5386375420637
 10
1103.988474470461
 20
514.3600298688877
  0
LWPOLYLINE
  5
C276
330
1F
100
AcDbEntity
  8
HEWI
  6
CUSTOM
 62
    18
420
        0
370
     9
100
AcDbPolyline
 90
        3
 70
     0
 43
0.0
 10
1105.114139172616
 20
515.9908367110603
 10
1105.681105434247
 20
516.8122291354454
 10
1106.035024568362
 20
517.7454371836545
  0
LWPOLYLINE
  5
C277
330
1F
100
AcDbEntity
  8
HEWI
  6
CUSTOM
 62
    18
420
        0
370
     9
100
AcDbPolyline
 90
        3
 70
     0
 43
0.0
 10
1095.952997062559
 20
508.8135404125957
 10
1096.922061338515
 20
509.052393301247
 10
1097.805805024367
 20
509.5162177617664
  0
LWPOLYLINE
  5
C278
330
1F
100
AcDbEntity
  8
HEWI
  6
CUSTOM
 62
    18
420
        0
370
     9
100
AcDbPolyline
 90
        3
 70
     0
 43
0.0
 10
1093.239022277124
 20
508.1446057114114
 10
1095.033766581607
 20
508.3625271212943
 10
1096.724206870745
 20
509.003626550714
  0
LWPOLYLINE
  5
C279
330
1F
100
AcDbEntity
  8
HEWI
  6
CUSTOM
 62
    18
420
        0
370
     9
100
AcDbPolyline
 90
        3
 70
     0
 43
0.0
 10
1097.102495822746
 20
509.1470926245181
 10
1098.775531342217
 20
509.7815912955582
 10
1100.248106017108
 20
510.7980361896814
  0
LWPOLYLINE
  5
C27A
330
1F
100
AcDbEntity
  8
HEWI
  6
CUSTOM
 62
    18
420
        0
370
     9
100
AcDbPolyline
 90
        3
 70
     0
 43
0.0
 10
1100.609872167333
 20
511.0477453300952
 10
1102.068962929141
 20
512.0548829511565
 10
1103.244631432222
 20
513.3819383428196
  0
LWPOLYLINE
  5
C27B
330
1F
100
AcDbEntity
  8
HEWI
  6
CUSTOM
 62
    18
420
        0
370
     9
100
AcDbPolyline
 90
        3
 70
     0
 43
0.0
 10
1103.555744867295
 20
513.7331128110901
 10
1104.722659069692
 20
515.0502866401463
 10
1105.540444532009
 20
516.608446635337
  0
LWPOLYLINE
  5
C27C
330
1F
100
AcDbEntity
  8
HEWI
  6
CUSTOM
 62
    18
420
        0
370
     9
100
AcDbPolyline
 90
        3
 70
     0
 43
0.0
 10
1105.768910627594
 20
517.0437524053757
 10
1106.582396589969
 20
518.5937203879714
 10
1107.001312506338
 20
520.2933290487892
  0
LINE
  5
C27D
330
1F
100
AcDbEntity
  8
HEWI
  6
CUSTOM
 62
    18
420
        0
370
     9
100
AcDbLine
 10
1091.061126414442
 20
507.880161280086
 30
0.0
 11
1092.875489654198
 21
508.1004648599662
 31
0.0
  0
LWPOLYLINE
  5
C27E
330
1F
100
AcDbEntity
  8
HEWI
  6
CUSTOM
 62
    18
420
        0
370
     9
100
AcDbPolyline
 90
        3
 70
     0
 43
0.0
 10
1107.122318569276
 20
520.7842699382288
 10
1107.540094305168
 20
522.4792527050665
 10
1107.540094305168
 20
524.2249626296127
  0
LINE
  5
C27F
330
1F
100
AcDbEntity
  8
HEWI
  6
CUSTOM
 62
    18
420
        0
370
     9
100
AcDbLine
 10
1089.246763056297
 20
508.1004648743417
 30
0.0
 11
1091.061126414442
 21
507.880161280086
 31
0.0
  0
LWPOLYLINE
  5
C280
330
1F
100
AcDbEntity
  8
HEWI
  6
CUSTOM
 62
    18
420
        0
370
     9
100
AcDbPolyline
 90
       23
 70
     0
 43
0.0
 10
1074.691383496323
 20
611.2418355941797
 10
1074.691383496323
 20
611.6276714302864
 10
1074.691383496323
 20
731.7712619822775
 10
1074.706655871348
 20
731.8569790552672
 10
1075.65769674828
 20
734.5853678683827
 10
1075.699965934171
 20
734.65570529922
 10
1077.541712012684
 20
737.137051832313
 10
1080.169735810206
 20
739.2346314931294
 10
1080.217644634591
 20
739.267683864505
 10
1083.464881132458
 20
740.8525968846881
 10
1087.154162289935
 20
741.8419522455486
 10
1091.071080496134
 20
742.1782521545345
 10
1094.987998702334
 20
741.8419522455486
 10
1098.67727985981
 20
740.8525968846881
 10
1101.924516357678
 20
739.267683864505
 10
1101.972425182062
 20
739.2346314931294
 10
1104.600448979585
 20
737.137051832313
 10
1106.442195058102
 20
734.65570529922
 10
1106.484464243989
 20
734.5853678683827
 10
1107.43550512092
 20
731.8569790552672
 10
1107.450777495949
 20
731.7712619822775
 10
1107.450777495949
 20
611.6276714302864
 10
1107.450777495949
 20
611.2418356780032
  0
LWPOLYLINE
  5
C281
330
1F
100
AcDbEntity
  8
HEWI
  6
CUSTOM
 62
    18
420
        0
370
     9
100
AcDbPolyline
 90
        3
 70
     0
 43
0.0
 10
1106.737701872054
 20
519.5982449351865
 10
1107.091621048206
 20
520.5314530942366
 10
1107.211924628511
 20
521.5222422041417
  0
LWPOLYLINE
  5
C282
330
1F
100
AcDbEntity
  8
HEWI
  6
CUSTOM
 62
    18
420
        0
370
     9
100
AcDbPolyline
 90
        3
 70
     0
 43
0.0
 10
1107.540094305168
 20
524.7353606519511
 10
1107.540094305168
 20
526.4810705764983
 10
1107.45077749906
 20
526.8434430987283
  0
LINE
  5
C283
330
1F
100
AcDbEntity
  8
HEWI
  6
CUSTOM
 62
    18
420
        0
370
     9
100
AcDbLine
 10
1087.569264115551
 20
508.3041501198283
 30
0.0
 11
1088.922468422308
 21
508.1398413714171
 31
0.0
  0
LINE
  5
C284
330
1F
100
AcDbEntity
  8
HEWI
  6
CUSTOM
 62
    18
420
        0
370
     9
100
AcDbLine
 10
1074.832214763945
 20
521.7185217032563
 30
0.0
 11
1074.760978772661
 21
522.1329996032789
 31
0.0
  0
LWPOLYLINE
  5
C285
330
1F
100
AcDbEntity
  8
HEWI
  6
CUSTOM
 62
    18
420
        0
370
     9
100
AcDbPolyline
 90
        3
 70
     0
 43
0.0
 10
1099.560405356678
 20
510.4371030428672
 10
1100.444149147493
 20
510.9009275584778
 10
1101.191212387584
 20
511.5627678275225
  0
LWPOLYLINE
  5
C286
330
1F
100
AcDbEntity
  8
HEWI
  6
CUSTOM
 62
    18
420
        0
370
     9
100
AcDbPolyline
 90
       14
 70
     0
 43
0.0
 10
1107.540094305168
 20
732.1764209630807
 10
1107.540094305168
 20
746.3185568941014
 10
1106.204947555583
 20
755.5849018753194
 10
1105.266928007022
 20
758.1958153622315
 10
1101.374581090243
 20
766.9504020157212
 10
1095.065252601096
 20
774.9700946743425
 10
1093.540073645061
 20
776.7232005516295
 10
1085.319000434385
 20
783.4763338654149
 10
1075.340739935702
 20
788.9183365574879
 10
1073.94136748914
 20
789.442063720908
 10
1063.099529266252
 20
793.182462469146
 10
1052.991813218981
 20
795.1166438959173
 10
1042.561124705378
 20
795.7680948099921
 10
1031.450777918813
 20
795.7680948099921
  0
LINE
  5
C287
330
1F
100
AcDbEntity
  8
HEWI
  6
CUSTOM
 62
    18
420
        0
370
     9
100
AcDbLine
 10
1074.582158523724
 20
732.1764209630807
 30
0.0
 11
1074.582158523724
 21
746.3185568941014
 31
0.0
  0
LWPOLYLINE
  5
C288
330
1F
100
AcDbEntity
  8
HEWI
  6
CUSTOM
 62
    18
420
        0
370
     9
100
AcDbPolyline
 90
       13
 70
     0
 43
0.0
 10
1107.540094305168
 20
732.1764209630807
 10
1106.582396589969
 20
734.9239072130183
 10
1104.722659069692
 20
737.4294932447908
 10
1102.068962929141
 20
739.5475635056666
 10
1098.775531342217
 20
741.1550234509547
 10
1095.033766581607
 20
742.1584533515158
 10
1091.061126414442
 20
742.4995375088472
 10
1087.088486247281
 20
742.1584533515158
 10
1083.346721486676
 20
741.1550234509547
 10
1080.053289899748
 20
739.5475635056666
 10
1077.399593759197
 20
737.4294932447908
 10
1075.53985623892
 20
734.9239072130183
 10
1074.582158523724
 20
732.1764209630807
  0
LWPOLYLINE
  5
C289
330
1F
100
AcDbEntity
  8
HEWI
  6
CUSTOM
 62
    18
420
        0
370
     9
100
AcDbPolyline
 90
        5
 70
     0
 43
0.0
 10
1031.450777918813
 20
762.6286656897016
 10
1042.561124705378
 20
762.6286656897016
 10
1049.132848843171
 20
762.2182272329276
 10
1055.501088239754
 20
760.9996205462636
 10
1061.136823256969
 20
759.0553103868212
  0
LWPOLYLINE
  5
C28A
330
1F
100
AcDbEntity
  8
HEWI
  6
CUSTOM
 62
    18
420
        0
370
     9
100
AcDbPolyline
 90
        3
 70
     0
 43
0.0
 10
1074.582158523724
 20
732.1764209630807
 10
1074.582158523724
 20
729.3467084091187
 10
1074.691383499477
 20
729.033358889457
  0
LWPOLYLINE
  5
C28B
330
1F
100
AcDbEntity
  8
HEWI
  6
CUSTOM
 62
    18
420
        0
370
     9
100
AcDbPolyline
 90
        3
 70
     0
 43
0.0
 10
1070.71969949872
 20
752.6709183765603
 10
1066.524801690277
 20
756.1167828533964
 10
1060.932479635339
 20
759.1667565118243
  0
LWPOLYLINE
  5
C28C
330
1F
100
AcDbEntity
  8
HEWI
  6
CUSTOM
 62
    18
420
        0
370
     9
100
AcDbPolyline
 90
        3
 70
     0
 43
0.0
 10
1107.450777484788
 20
729.0904723003925
 10
1107.540094305168
 20
729.3467084091187
 10
1107.540094305168
 20
732.1764209630807
  0
LINE
  5
C28D
330
1F
100
AcDbEntity
  8
HEWI
  6
CUSTOM
 62
    18
420
        0
370
     9
100
AcDbLine
 10
1074.582158523724
 20
743.4888443401393
 30
0.0
 11
1073.924210583271
 21
748.0552132413938
 31
0.0
  0
LWPOLYLINE
  5
C28E
330
1F
100
AcDbEntity
  8
HEWI
  6
CUSTOM
 62
    18
420
        0
370
     9
100
AcDbPolyline
 90
        3
 70
     0
 43
0.0
 10
1074.031037337507
 20
747.3138014970734
 10
1072.857198675487
 20
749.9539752800317
 10
1069.60712812432
 20
754.0850911323839
  0
LINE
  5
C28F
330
1F
100
AcDbEntity
  8
HEWI
  6
CUSTOM
 62
    18
420
        0
370
     9
100
AcDbLine
 10
1074.499818286087
 20
522.4034920311281
 30
0.0
 11
1075.098170276051
 21
519.555094711062
 31
0.0
  0
LWPOLYLINE
  5
C290
330
1F
100
AcDbEntity
  8
HEWI
  6
CUSTOM
 62
    18
420
        0
370
     9
100
AcDbPolyline
 90
        3
 70
     0
 43
0.0
 10
1079.852912321079
 20
511.9574245750179
 10
1083.393702483663
 20
509.467651742427
 10
1082.321612717012
 20
510.4900838958953
  0
LWPOLYLINE
  5
C291
330
1F
100
AcDbEntity
  8
HEWI
  6
CUSTOM
 62
    18
420
        0
370
     9
100
AcDbPolyline
 90
        7
 70
     0
 43
0.0
 10
1087.505248260753
 20
508.0089993987551
 10
1087.568013084554
 20
508.0612853234494
 10
1087.60730626318
 20
508.1451313785544
 10
1087.604352340451
 20
508.2397266441378
 10
1087.560808742575
 20
508.3196745480952
 10
1087.481411087537
 20
508.3753708716842
 10
1087.388378608273
 20
508.3966080121415
  0
LINE
  5
C292
330
1F
100
AcDbEntity
  8
HEWI
  6
CUSTOM
 62
    18
420
        0
370
     9
100
AcDbLine
 10
1087.505248260753
 20
508.0089993987551
 30
0.0
 11
1087.417762142788
 21
508.3896943009178
 31
0.0
  0
LWPOLYLINE
  5
C293
330
1F
100
AcDbEntity
  8
HEWI
  6
CUSTOM
 62
    18
420
        0
370
     9
100
AcDbPolyline
 90
        3
 70
     0
 43
0.0
 10
1086.653133559692
 20
508.583311157288
 10
1085.26607525612
 20
508.6300685902986
 10
1086.683420236612
 20
508.1703903151358
  0
LWPOLYLINE
  5
C294
330
1F
100
AcDbEntity
  8
HEWI
  6
CUSTOM
 62
    18
420
        0
370
     9
100
AcDbPolyline
 90
        3
 70
     0
 43
0.0
 10
1087.417762142788
 20
508.3896943009178
 10
1087.242657440885
 20
508.4308950401084
 10
1087.139674264741
 20
508.4575204175418
  0
LINE
  5
C295
330
1F
100
AcDbEntity
  8
HEWI
  6
CUSTOM
 62
    18
420
        0
370
     9
100
AcDbLine
 10
1087.417762142788
 20
508.3896943009178
 30
0.0
 11
1087.375069089932
 21
508.1992025759793
 31
0.0
  0
LINE
  5
C296
330
1F
100
AcDbEntity
  8
HEWI
  6
CUSTOM
 62
    18
420
        0
370
     9
100
AcDbLine
 10
1086.653133559692
 20
508.583311157288
 30
0.0
 11
1085.299926382835
 21
509.022948682458
 31
0.0
  0
LWPOLYLINE
  5
C297
330
1F
100
AcDbEntity
  8
HEWI
  6
CUSTOM
 62
    18
420
        0
370
     9
100
AcDbPolyline
 90
        4
 70
     0
 43
0.0
 10
1087.505248260753
 20
508.0089993987551
 10
1087.278189234228
 20
508.0630911797122
 10
1087.337480394632
 20
508.1160099883848
 10
1087.375069089932
 20
508.1992025759793
  0
LINE
  5
C298
330
1F
100
AcDbEntity
  8
HEWI
  6
CUSTOM
 62
    18
420
        0
370
     9
100
AcDbLine
 10
1087.177853615045
 20
508.0418146180289
 30
0.0
 11
1087.375069089932
 21
508.1992025759793
 31
0.0
  0
LWPOLYLINE
  5
C299
330
1F
100
AcDbEntity
  8
HEWI
  6
CUSTOM
 62
    18
420
        0
370
     9
100
AcDbPolyline
 90
        6
 70
     0
 43
0.0
 10
1086.683420236612
 20
508.1703903151358
 10
1086.703793500124
 20
508.1746431021099
 10
1086.758946139249
 20
508.1992585145938
 10
1086.813101990345
 20
508.2529964016191
 10
1086.848348895906
 20
508.3344985452347
 10
1087.375069089932
 20
508.1992025759793
  0
LINE
  5
C29A
330
1F
100
AcDbEntity
  8
HEWI
  6
CUSTOM
 62
    18
420
        0
370
     9
100
AcDbLine
 10
1086.683420236612
 20
508.1703903151358
 30
0.0
 11
1086.653133559692
 21
508.583311157288
 31
0.0
  0
LWPOLYLINE
  5
C29B
330
1F
100
AcDbEntity
  8
HEWI
  6
CUSTOM
 62
    18
420
        0
370
     9
100
AcDbPolyline
 90
        4
 70
     0
 43
0.0
 10
1085.4229783339
 20
508.8776898165058
 10
1085.416394791398
 20
508.795330821227
 10
1085.383285890326
 20
508.7190640396263
 10
1085.335370764544
 20
508.6652197628644
  0
LINE
  5
C29C
330
1F
100
AcDbEntity
  8
HEWI
  6
CUSTOM
 62
    18
420
        0
370
     9
100
AcDbLine
 10
1085.335370764544
 20
508.6652197628644
 30
0.0
 11
1083.460326160664
 21
509.5074008006438
 31
0.0
  0
LINE
  5
C29D
330
1F
100
AcDbEntity
  8
HEWI
  6
CUSTOM
 62
    18
420
        0
370
     9
100
AcDbLine
 10
1079.852912321079
 20
511.9574245750179
 30
0.0
 11
1079.759228322789
 21
512.4679833051994
 31
0.0
  0
LINE
  5
C29E
330
1F
100
AcDbEntity
  8
HEWI
  6
CUSTOM
 62
    18
420
        0
370
     9
100
AcDbLine
 10
1082.321612717012
 20
510.4900838958953
 30
0.0
 11
1079.852912321079
 21
511.9574245750179
 31
0.0
  0
LINE
  5
C29F
330
1F
100
AcDbEntity
  8
HEWI
  6
CUSTOM
 62
    18
420
        0
370
     9
100
AcDbLine
 10
1085.335370764544
 20
508.6652197628644
 30
0.0
 11
1085.299926382835
 21
509.022948682458
 31
0.0
  0
LINE
  5
C2A0
330
1F
100
AcDbEntity
  8
HEWI
  6
CUSTOM
 62
    18
420
        0
370
     9
100
AcDbLine
 10
1077.682388894871
 20
514.3768232843592
 30
0.0
 11
1077.996966603205
 21
514.4131074146278
 31
0.0
  0
LINE
  5
C2A1
330
1F
100
AcDbEntity
  8
HEWI
  6
CUSTOM
 62
    18
420
        0
370
     9
100
AcDbLine
 10
1077.900146622964
 20
514.2055255557758
 30
0.0
 11
1079.852912321079
 21
511.9574245750179
 31
0.0
  0
LWPOLYLINE
  5
C2A2
330
1F
100
AcDbEntity
  8
HEWI
  6
CUSTOM
 62
    18
420
        0
370
     9
100
AcDbPolyline
 90
        3
 70
     0
 43
0.0
 10
1077.682388894871
 20
514.3768232843592
 10
1076.638740797392
 20
516.4839269274282
 10
1075.905801214237
 20
517.4011983785264
  0
LINE
  5
C2A3
330
1F
100
AcDbEntity
  8
HEWI
  6
CUSTOM
 62
    18
420
        0
370
     9
100
AcDbLine
 10
1075.905801214237
 20
517.4011983785264
 30
0.0
 11
1076.637474251718
 21
516.484202424998
 31
0.0
  0
LWPOLYLINE
  5
C2A4
330
1F
100
AcDbEntity
  8
HEWI
  6
CUSTOM
 62
    18
420
        0
370
     9
100
AcDbPolyline
 90
        3
 70
     0
 43
0.0
 10
1075.905801214237
 20
517.4011983785264
 10
1076.523269432786
 20
516.3219462561257
 10
1077.682388894871
 20
514.3768232843592
  0
LWPOLYLINE
  5
C2A5
330
1F
100
AcDbEntity
  8
HEWI
  6
CUSTOM
 62
    18
420
        0
370
     9
100
AcDbPolyline
 90
        3
 70
     0
 43
0.0
 10
1075.791142125039
 20
518.2534201450915
 10
1075.792751890938
 20
518.2451147008808
 10
1075.905801214237
 20
517.4011983785264
  0
LWPOLYLINE
  5
C2A6
330
1F
100
AcDbEntity
  8
HEWI
  6
CUSTOM
 62
    18
420
        0
370
     9
100
AcDbPolyline
 90
        3
 70
     0
 43
0.0
 10
1074.572146392191
 20
524.663601191635
 10
1074.375516584372
 20
524.8658498618831
 10
1074.378632619289
 20
524.8651351109312
  0
LINE
  5
C2A7
330
1F
100
AcDbEntity
  8
HEWI
  6
CUSTOM
 62
    18
420
        0
370
     9
100
AcDbLine
 10
1082.962070969079
 20
510.1745903113457
 30
0.0
 11
1082.321612717012
 21
510.4900838958953
 31
0.0
  0
LWPOLYLINE
  5
C2A8
330
1F
100
AcDbEntity
  8
HEWI
  6
CUSTOM
 62
    18
420
        0
370
     9
100
AcDbPolyline
 90
        3
 70
     0
 43
0.0
 10
1075.098170276051
 20
519.555094711062
 10
1075.140089128443
 20
520.1808572600382
 10
1075.140043390107
 20
520.1867652190892
  0
LINE
  5
C2A9
330
1F
100
AcDbEntity
  8
HEWI
  6
CUSTOM
 62
    18
420
        0
370
     9
100
AcDbLine
 10
1074.725351647681
 20
522.2460026573342
 30
0.0
 11
1074.500321944957
 21
522.4021876022013
 31
0.0
  0
LINE
  5
C2AA
330
1F
100
AcDbEntity
  8
HEWI
  6
CUSTOM
 62
    18
420
        0
370
     9
100
AcDbLine
 10
1074.499818286087
 20
522.4034920311281
 30
0.0
 11
1074.500321944957
 21
522.4021876022013
 31
0.0
  0
LWPOLYLINE
  5
C2AB
330
1F
100
AcDbEntity
  8
HEWI
  6
CUSTOM
 62
    18
420
        0
370
     9
100
AcDbPolyline
 90
        3
 70
     0
 43
0.0
 10
1075.098170276051
 20
519.555094711062
 10
1075.665825972955
 20
518.1267924765436
 10
1075.905801214237
 20
517.4011983785264
  0
LINE
  5
C2AC
330
1F
100
AcDbEntity
  8
HEWI
  6
CUSTOM
 62
    18
420
        0
370
     9
100
AcDbLine
 10
1087.189626398838
 20
508.4446057408237
 30
0.0
 11
1087.33991311015
 21
508.4080115571198
 31
0.0
  0
LINE
  5
C2AD
330
1F
100
AcDbEntity
  8
HEWI
  6
CUSTOM
 62
    18
420
        0
370
     9
100
AcDbLine
 10
1082.321612717012
 20
510.4900838958953
 30
0.0
 11
1081.983421506862
 21
510.7511330172908
 31
0.0
  0
LINE
  5
C2AE
330
1F
100
AcDbEntity
  8
HEWI
  6
CUSTOM
 62
    18
420
        0
370
     9
100
AcDbLine
 10
1074.499818286087
 20
522.4034920311281
 30
0.0
 11
1074.572146392191
 21
524.663601191635
 31
0.0
  0
LWPOLYLINE
  5
C2AF
330
1F
100
AcDbEntity
  8
HEWI
  6
CUSTOM
 62
    18
420
        0
370
     9
100
AcDbPolyline
 90
        3
 70
     0
 43
0.0
 10
1074.499818286087
 20
522.4034920311281
 10
1075.006838995479
 20
520.0998587620249
 10
1075.098170276051
 20
519.555094711062
  0
LINE
  5
C2B0
330
1F
100
AcDbEntity
  8
HEWI
  6
CUSTOM
 62
    18
420
        0
370
     9
100
AcDbLine
 10
1074.572146392191
 20
524.663601191635
 30
0.0
 11
1074.593202805543
 21
524.8854366627467
 31
0.0
  0
LINE
  5
C2B1
330
1F
100
AcDbEntity
  8
HEWI
  6
CUSTOM
 62
    18
420
        0
370
     9
100
AcDbLine
 10
1084.700254714888
 20
509.3183505493036
 30
0.0
 11
1084.750582135122
 21
509.2988150994371
 31
0.0
  0
LINE
  5
C2B2
330
1F
100
AcDbEntity
  8
HEWI
  6
CUSTOM
 62
    18
420
        0
370
     9
100
AcDbLine
 10
1074.517496211247
 20
522.4044041612025
 30
0.0
 11
1074.500321944957
 21
522.4021876022013
 31
0.0
  0
LINE
  5
C2B3
330
1F
100
AcDbEntity
  8
HEWI
  6
CUSTOM
 62
    18
420
        0
370
     9
100
AcDbLine
 10
1086.601363212055
 20
508.6001305980023
 30
0.0
 11
1086.876027753685
 21
508.5256838605621
 31
0.0
  0
LINE
  5
C2B4
330
1F
100
AcDbEntity
  8
HEWI
  6
CUSTOM
 62
    18
420
        0
370
     9
100
AcDbLine
 10
1085.299926382835
 20
509.022948682458
 30
0.0
 11
1085.260235282239
 21
509.04250075718
 31
0.0
  0
LINE
  5
C2B5
330
1F
100
AcDbEntity
  8
HEWI
  6
CUSTOM
 62
    18
420
        0
370
     9
100
AcDbLine
 10
1087.102717308531
 20
508.4670753074249
 30
0.0
 11
1086.653133559692
 21
508.583311157288
 31
0.0
  0
LINE
  5
C2B6
330
1F
100
AcDbEntity
  8
HEWI
  6
CUSTOM
 62
    18
420
        0
370
     9
100
AcDbLine
 10
1084.913641748142
 20
509.2132348153361
 30
0.0
 11
1084.172196228083
 21
509.5784753350987
 31
0.0
  0
LINE
  5
C2B7
330
1F
100
AcDbEntity
  8
HEWI
  6
CUSTOM
 62
    18
420
        0
370
     9
100
AcDbLine
 10
1085.672995857985
 20
508.9407644194009
 30
0.0
 11
1086.289615579011
 21
508.7014129169635
 31
0.0
  0
LINE
  5
C2B8
330
1F
100
AcDbEntity
  8
HEWI
  6
CUSTOM
 62
    18
420
        0
370
     9
100
AcDbLine
 10
1074.500321944957
 20
522.4021876022013
 30
0.0
 11
1074.572146392191
 21
524.663601191635
 31
0.0
  0
LWPOLYLINE
  5
C2B9
330
1F
100
AcDbEntity
  8
HEWI
  6
CUSTOM
 62
    18
420
        0
370
     9
100
AcDbPolyline
 90
       41
 70
     0
 43
0.0
 10
781.7953077460188
 20
503.9631970340965
 10
782.2116219264499
 20
503.0631968958382
 10
783.7635540267692
 20
500.7123220575086
 10
787.0644337748562
 20
496.5447394287948
 10
789.3498625356878
 20
494.4066833448646
 10
793.2896972168018
 20
491.3211232412455
 10
796.2828812096995
 20
489.6211661468437
 10
800.5518066887889
 20
487.6739548339433
 10
804.1596882039703
 20
486.633887328348
 10
808.4592599894495
 20
485.7998539997602
 10
812.5225121270158
 20
485.6184566759907
 10
816.5857642645823
 20
485.7998539997602
 10
820.8853360500652
 20
486.633887328348
 10
824.4932175652465
 20
487.6739548339433
 10
828.762143044336
 20
489.6211661468437
 10
831.7553270372336
 20
491.3211232412455
 10
835.6951617183476
 20
494.4066833448646
 10
837.9805904791792
 20
496.5447394287948
 10
841.2814702272662
 20
500.7123220575086
 10
842.8334023275857
 20
503.0631968958382
 10
845.1964126259591
 20
508.1716214828611
 10
846.0521462395954
 20
510.5250839130867
 10
847.2124666924464
 20
516.3510742517705
 10
847.4632988977718
 20
518.528128220004
 10
847.2124666924464
 20
524.775320300409
 10
846.9907846970563
 20
526.6408836264932
 10
845.1964126259591
 20
532.9547730693189
 10
844.660077000306
 20
534.4259893886815
 10
841.2814702272662
 20
540.4140724946715
 10
840.5968248627395
 20
541.4637484398285
 10
835.6951617183476
 20
546.7197112073149
 10
835.0200792588257
 20
547.3747533678342
 10
828.762143044336
 20
551.5052284053358
 10
828.2304839875578
 20
551.8403403670208
 10
820.5940678874357
 20
554.6197684863882
 10
812.5225121270158
 20
555.5631980365937
 10
804.4509563666034
 20
554.6197684863882
 10
796.814540266474
 20
551.8403403670208
 10
790.0249449952098
 20
547.3747533678342
 10
784.4481993912959
 20
541.4637484398294
 10
781.9652752655565
 20
537.1631977608108
  0
LWPOLYLINE
  5
C2BA
330
1F
100
AcDbEntity
  8
HEWI
  6
CUSTOM
 62
    18
420
        0
370
     9
100
AcDbPolyline
 90
       16
 70
     0
 43
0.0
 10
810.875363781397
 20
503.9631969271327
 10
812.5225121270158
 20
503.7631969110484
 10
816.5430154287278
 20
504.2513743888975
 10
820.329861692473
 20
505.6875357218878
 10
823.6629731780377
 20
507.9882164335772
 10
826.3486415612424
 20
511.0197093236397
 10
828.2307855576691
 20
514.6058350443295
 10
829.2000217995555
 20
518.5381810037998
 10
829.2000217995555
 20
522.5882135483807
 10
828.2307855576691
 20
526.5205595078505
 10
826.3486415612424
 20
530.1066852285408
 10
823.6629731780377
 20
533.1381781186023
 10
820.329861692473
 20
535.4388588302927
 10
816.5430154287278
 20
536.8750201632824
 10
812.5225121270158
 20
537.3631976411315
 10
810.8753639012212
 20
537.1631976395965
  0
LWPOLYLINE
  5
C2BB
330
1F
100
AcDbEntity
  8
HEWI
  6
CUSTOM
 62
    18
420
        0
370
     9
100
AcDbPolyline
 90
        4
 70
     0
 43
0.0
 10
446.2391633794104
 20
536.9428940624771
 10
445.024405086955
 20
537.2416564297932
 10
440.9754924040389
 20
537.2398897582684
 10
439.7724451809263
 20
536.9428940566044
  0
LWPOLYLINE
  5
C2BC
330
1F
100
AcDbEntity
  8
HEWI
  6
CUSTOM
 62
    18
420
        0
370
     9
100
AcDbPolyline
 90
        4
 70
     0
 43
0.0
 10
439.7724450637724
 20
504.1835005244961
 10
440.9754924040389
 20
503.8865047939107
 10
445.024405086955
 20
503.8847381223868
 10
446.2391633794104
 20
504.1835004897024
  0
LWPOLYLINE
  5
C2BD
330
1F
100
AcDbEntity
  8
HEWI
  6
CUSTOM
 62
    18
420
        0
370
     9
100
AcDbPolyline
 90
       15
 70
     0
 43
0.0
 10
473.8455115744691
 20
536.942894057273
 10
469.803506010885
 20
543.078956973285
 10
463.8905328570363
 20
548.6503393107514
 10
456.852357757507
 20
552.7083738510814
 10
449.0682007400828
 20
555.0344118750586
 10
440.9574756725196
 20
555.5031254117825
 10
438.7805122492681
 20
555.2565304831973
 10
432.9571920554226
 20
554.0892599658896
 10
430.6028680147282
 20
553.2377193004431
 10
425.4984087545745
 20
550.8689952410791
 10
423.1457214688889
 20
549.3210333406227
 10
418.9830083560955
 20
546.0158405435477
 10
416.8422153009633
 20
543.733970330782
 10
413.7620435526478
 20
539.7912860228315
 10
412.1392932198541
 20
536.9428941369587
  0
LWPOLYLINE
  5
C2BE
330
1F
100
AcDbEntity
  8
HEWI
  6
CUSTOM
 62
    18
420
        0
370
     9
100
AcDbPolyline
 90
       19
 70
     0
 43
0.0
 10
473.8657570950526
 20
504.1835006706442
 10
469.803506010885
 20
498.047437578894
 10
469.1520058470087
 20
497.3695997683558
 10
463.8905328570363
 20
492.4760552414286
 10
462.8436264475785
 20
491.7880397319909
 10
456.852357757507
 20
488.4180207010985
 10
455.3830647883114
 20
487.877862850622
 10
449.0682007400828
 20
486.0919826771209
 10
447.2036619226819
 20
485.8661887764192
 10
440.9574756725196
 20
485.6232691403966
 10
438.7805122492681
 20
485.8698640689822
 10
432.9571920554226
 20
487.0371345862899
 10
430.6028680147282
 20
487.8886752517368
 10
425.4984087545745
 20
490.2573993111014
 10
423.1457214688889
 20
491.8053612115577
 10
418.9830083560955
 20
495.1105540086323
 10
416.8422153009633
 20
497.3924242213975
 10
413.7620435526478
 20
501.3351085293484
 10
412.1392931754307
 20
504.1835004931972
  0
LWPOLYLINE
  5
C2BF
330
1F
100
AcDbEntity
  8
HEWI
  6
CUSTOM
 62
    18
420
        0
370
     9
100
AcDbPolyline
 90
        4
 70
     0
 43
0.0
 10
444.8729707357196
 20
536.9579648013491
 10
443.9664759472289
 20
537.0356579506042
 10
443.0072257112879
 20
537.063197634613
 10
442.3425029495446
 20
537.0502109188723
  0
LINE
  5
C2C0
330
1F
100
AcDbEntity
  8
HEWI
  6
CUSTOM
 62
    18
420
        0
370
     9
100
AcDbLine
 10
442.3425029495446
 20
537.0502109188723
 30
0.0
 11
441.7055176721187
 21
537.0127450811119
 31
0.0
  0
LWPOLYLINE
  5
C2C1
330
1F
100
AcDbEntity
  8
HEWI
  6
CUSTOM
 62
    18
420
        0
370
     9
100
AcDbPolyline
 90
        3
 70
     0
 43
0.0
 10
442.5749074424275
 20
504.0688039222954
 10
443.0072257112879
 20
504.0631969175669
 10
443.4695877820231
 20
504.0698043711326
  0
LWPOLYLINE
  5
C2C2
330
1F
100
AcDbEntity
  8
HEWI
  6
CUSTOM
 62
    18
420
        0
370
     9
100
AcDbPolyline
 90
        3
 70
     0
 43
0.0
 10
441.7055176721187
 20
537.0127450811119
 10
441.6985081047933
 20
537.0091396445604
 10
441.6180630136696
 20
536.9428940551365
  0
LWPOLYLINE
  5
C2C3
330
1F
100
AcDbEntity
  8
HEWI
  6
CUSTOM
 62
    18
420
        0
370
     9
100
AcDbPolyline
 90
        3
 70
     0
 43
0.0
 10
444.4383345028836
 20
504.1254951459495
 10
444.446711345543
 20
504.1282591480739
 10
444.4993900875306
 20
504.1835005039856
  0
LINE
  5
C2C4
330
1F
100
AcDbEntity
  8
HEWI
  6
CUSTOM
 62
    18
420
        0
370
     9
100
AcDbLine
 10
444.4666318104828
 20
504.1506704789139
 30
0.0
 11
443.4833333459428
 21
504.0929918968145
 31
0.0
  0
LINE
  5
C2C5
330
1F
100
AcDbEntity
  8
HEWI
  6
CUSTOM
 62
    18
420
        0
370
     9
100
AcDbLine
 10
441.7055176721187
 20
537.0127450811119
 30
0.0
 11
441.1047976289373
 21
536.9428940582597
 31
0.0
  0
LINE
  5
C2C6
330
1F
100
AcDbEntity
  8
HEWI
  6
CUSTOM
 62
    18
420
        0
370
     9
100
AcDbLine
 10
444.9738154667938
 20
536.9428940551165
 30
0.0
 11
444.8729707357196
 21
536.9579648013491
 31
0.0
  0
LINE
  5
C2C7
330
1F
100
AcDbEntity
  8
HEWI
  6
CUSTOM
 62
    18
420
        0
370
     9
100
AcDbLine
 10
442.5665417563468
 20
504.092035034063
 30
0.0
 11
441.5994221369764
 21
504.1461268150201
 31
0.0
  0
LWPOLYLINE
  5
C2C8
330
1F
100
AcDbEntity
  8
HEWI
  6
CUSTOM
 62
    18
420
        0
370
     9
100
AcDbPolyline
 90
        3
 70
     0
 43
0.0
 10
443.4833333459428
 20
504.0929918968145
 10
443.489732089074
 20
504.145290288678
 10
443.4909012979623
 20
504.1835004957934
  0
LINE
  5
C2C9
330
1F
100
AcDbEntity
  8
HEWI
  6
CUSTOM
 62
    18
420
        0
370
     9
100
AcDbLine
 10
441.5755228902635
 20
504.1248502533367
 30
0.0
 11
442.5749074424275
 21
504.0688039222954
 31
0.0
  0
LWPOLYLINE
  5
C2CA
330
1F
100
AcDbEntity
  8
HEWI
  6
CUSTOM
 62
    18
420
        0
370
     9
100
AcDbPolyline
 90
        3
 70
     0
 43
0.0
 10
443.9848979636735
 20
537.0113663305228
 10
443.9972313723701
 20
536.958779466277
 10
443.9981501542206
 20
536.9428940551183
  0
LWPOLYLINE
  5
C2CB
330
1F
100
AcDbEntity
  8
HEWI
  6
CUSTOM
 62
    18
420
        0
370
     9
100
AcDbPolyline
 90
        3
 70
     0
 43
0.0
 10
442.5749074424275
 20
504.0688039222954
 10
443.4728448771529
 20
504.0698080132783
 10
444.4383345028836
 20
504.1254951459495
  0
LWPOLYLINE
  5
C2CC
330
1F
100
AcDbEntity
  8
HEWI
  6
CUSTOM
 62
    18
420
        0
370
     9
100
AcDbPolyline
 90
        3
 70
     0
 43
0.0
 10
444.8729707357196
 20
536.9579648013491
 10
444.8862833745188
 20
536.9538996158872
 10
444.8987134552735
 20
536.9428940546267
  0
LWPOLYLINE
  5
C2CD
330
1F
100
AcDbEntity
  8
HEWI
  6
CUSTOM
 62
    18
420
        0
370
     9
100
AcDbPolyline
 90
        3
 70
     0
 43
0.0
 10
442.5665417563468
 20
504.092035034063
 10
442.5606092733287
 20
504.1443209587574
 10
442.5594972480539
 20
504.1835004984464
  0
LWPOLYLINE
  5
C2CE
330
1F
100
AcDbEntity
  8
HEWI
  6
CUSTOM
 62
    18
420
        0
370
     9
100
AcDbPolyline
 90
        3
 70
     0
 43
0.0
 10
443.1665790001679
 20
536.9428940589318
 10
443.0072275338861
 20
537.0401978085255
 10
443.9848979636735
 20
537.0113663305228
  0
LINE
  5
C2CF
330
1F
100
AcDbEntity
  8
HEWI
  6
CUSTOM
 62
    18
420
        0
370
     9
100
AcDbLine
 10
441.0875108553409
 20
504.183500493802
 30
0.0
 11
441.5755228902635
 21
504.1248502533367
 31
0.0
  0
LINE
  5
C2D0
330
1F
100
AcDbEntity
  8
HEWI
  6
CUSTOM
 62
    18
420
        0
370
     9
100
AcDbLine
 10
444.4363130355268
 20
504.1254336223132
 30
0.0
 11
444.4392173187662
 21
504.1257864376547
 31
0.0
  0
LINE
  5
C2D1
330
1F
100
AcDbEntity
  8
HEWI
  6
CUSTOM
 62
    18
420
        0
370
     9
100
AcDbLine
 10
444.4392173187662
 20
504.1257864376547
 30
0.0
 11
444.914304316364
 21
504.1835004990225
 31
0.0
  0
LINE
  5
C2D2
330
1F
100
AcDbEntity
  8
HEWI
  6
CUSTOM
 62
    18
420
        0
370
     9
100
AcDbLine
 10
442.6765595045107
 20
504.1835005026618
 30
0.0
 11
442.5665417563468
 21
504.092035034063
 31
0.0
  0
LINE
  5
C2D3
330
1F
100
AcDbEntity
  8
HEWI
  6
CUSTOM
 62
    18
420
        0
370
     9
100
AcDbLine
 10
442.5665417563468
 20
504.092035034063
 30
0.0
 11
442.5049098397466
 21
504.183500498174
 31
0.0
  0
LINE
  5
C2D4
330
1F
100
AcDbEntity
  8
HEWI
  6
CUSTOM
 62
    18
420
        0
370
     9
100
AcDbLine
 10
443.3654074840851
 20
504.1835004913077
 30
0.0
 11
443.4833333459428
 21
504.0929918968145
 31
0.0
  0
LINE
  5
C2D5
330
1F
100
AcDbEntity
  8
HEWI
  6
CUSTOM
 62
    18
420
        0
370
     9
100
AcDbLine
 10
441.5755228902635
 20
504.1248502533367
 30
0.0
 11
441.5760064249298
 21
504.1835004955364
 31
0.0
  0
LINE
  5
C2D6
330
1F
100
AcDbEntity
  8
HEWI
  6
CUSTOM
 62
    18
420
        0
370
     9
100
AcDbLine
 10
441.5994221369764
 20
504.1461268150201
 30
0.0
 11
441.6807368175686
 21
504.1835004977924
 31
0.0
  0
LINE
  5
C2D7
330
1F
100
AcDbEntity
  8
HEWI
  6
CUSTOM
 62
    18
420
        0
370
     9
100
AcDbLine
 10
441.5994221369764
 20
504.1461268150201
 30
0.0
 11
441.5878531241141
 21
504.1835004971731
 31
0.0
  0
LINE
  5
C2D8
330
1F
100
AcDbEntity
  8
HEWI
  6
CUSTOM
 62
    18
420
        0
370
     9
100
AcDbLine
 10
443.4833333459428
 20
504.0929918968145
 30
0.0
 11
442.5665417563468
 21
504.092035034063
 31
0.0
  0
LWPOLYLINE
  5
C2D9
330
1F
100
AcDbEntity
  8
HEWI
  6
CUSTOM
 62
    18
420
        0
370
     9
100
AcDbPolyline
 90
       54
 70
     1
 43
0.0
 10
344.9406470904869
 20
506.5643824536087
 10
334.1684105395252
 20
510.6418048503687
 10
324.2613257800404
 20
516.5168660326903
 10
315.516596810452
 20
524.0133256962231
 10
308.1965816025513
 20
532.9062769000452
 10
302.5208851468124
 20
542.9289226410237
 10
298.6597724104249
 20
553.7805935848914
 10
296.7290744368838
 20
565.1357480783831
 10
296.7867121686395
 20
576.6537200659509
 10
298.8309536452689
 20
587.9889607599007
 10
302.8004822621078
 20
598.8014432174154
 10
308.5761124638375
 20
608.7666490597348
 10
315.9846202862937
 20
617.5858003331695
 10
316.323649724367
 20
617.2467708996777
 10
317.3210348799657
 20
616.2493857575541
 10
318.9188113531927
 20
614.6516093059112
 10
321.0241221831093
 20
612.5462985044391
 10
323.514614356769
 20
610.0558063644244
 10
326.2455495216127
 20
607.3248712364743
 10
329.0582156524069
 20
604.5122051436806
 10
331.7891508172506
 20
601.7812700157305
 10
334.2796429909104
 20
599.2907778757158
 10
336.3849538208269
 20
597.1854670742427
 10
337.9827302940539
 20
595.5876906226007
 10
338.9801154496526
 20
594.5903054804771
 10
339.3191448877224
 20
594.2512760469849
 10
335.5870381446075
 20
589.8085494243469
 10
332.6775110140661
 20
584.7884804691894
 10
330.6778250518728
 20
579.3415872974082
 10
329.6480188330643
 20
573.631354711049
 10
329.6189820362997
 20
567.829071182095
 10
330.59158902337
 20
562.1088055373006
 10
332.5366619103879
 20
556.6421715573738
 10
335.3958482514354
 20
551.5931677927978
 10
339.0833741024362
 20
547.1132618312899
 10
343.4886121031523
 20
543.3368528139699
 10
348.4793992897248
 20
540.3772348058001
 10
353.9060167318639
 20
538.3231906479614
 10
358.4132176677413
 20
537.3796909328107
 10
363.0072228922072
 20
537.063197634613
 10
363.0072228922072
 20
536.5837376117256
 10
363.0072228922072
 20
535.1732220168246
 10
363.0072228922072
 20
532.9136248892718
 10
363.0072228922072
 20
529.936265800819
 10
363.0072228922072
 20
526.4141780394261
 10
363.0072228922072
 20
522.5520525435181
 10
363.0072228922072
 20
518.5743420086619
 10
363.0072228922072
 20
514.7122165127534
 10
363.0072228922072
 20
511.190128751361
 10
363.0072228922072
 20
508.2127696629081
 10
363.0072228922072
 20
505.9531725353549
 10
363.0072228922072
 20
504.5426569404544
 10
363.0072228922072
 20
504.0631969175669
 10
353.8877766597834
 20
504.6914658891369
  0
LINE
  5
C2DA
330
1F
100
AcDbEntity
  8
HEWI
  6
CUSTOM
 62
    18
420
        0
370
     9
100
AcDbLine
 10
443.91779524706
 20
536.9428940604498
 30
0.0
 11
443.9848979636735
 21
537.0113663305228
 31
0.0
  0
LINE
  5
C2DB
330
1F
100
AcDbEntity
  8
HEWI
  6
CUSTOM
 62
    18
420
        0
370
     9
100
AcDbLine
 10
444.4666318104828
 20
504.1506704789139
 30
0.0
 11
444.4169960911749
 21
504.1835004967261
 31
0.0
  0
LINE
  5
C2DC
330
1F
100
AcDbEntity
  8
HEWI
  6
CUSTOM
 62
    18
420
        0
370
     9
100
AcDbLine
 10
443.9848979636735
 20
537.0113663305228
 30
0.0
 11
444.7692225467435
 21
536.9428940563043
 31
0.0
  0
LINE
  5
C2DD
330
1F
100
AcDbEntity
  8
HEWI
  6
CUSTOM
 62
    18
420
        0
370
     9
100
AcDbLine
 10
443.9848979636735
 20
537.0113663305228
 30
0.0
 11
444.0308326002886
 21
536.9428940533834
 31
0.0
  0
LINE
  5
C2DE
330
1F
100
AcDbEntity
  8
HEWI
  6
CUSTOM
 62
    18
420
        0
370
     9
100
AcDbLine
 10
443.4833333459428
 20
504.0929918968145
 30
0.0
 11
443.5932735013412
 21
504.183500497074
 31
0.0
  0
LINE
  5
C2DF
330
1F
100
AcDbEntity
  8
HEWI
  6
CUSTOM
 62
    18
420
        0
370
     9
100
AcDbLine
 10
441.7157201998561
 20
536.9428940546235
 30
0.0
 11
442.3425029495446
 21
537.0502109188723
 31
0.0
  0
LINE
  5
C2E0
330
1F
100
AcDbEntity
  8
HEWI
  6
CUSTOM
 62
    18
420
        0
370
     9
100
AcDbLine
 10
444.4771078633275
 20
504.1835004971199
 30
0.0
 11
444.4666318104828
 21
504.1506704789139
 31
0.0
  0
LWPOLYLINE
  5
C2E1
330
1F
100
AcDbEntity
  8
HEWI
  6
CUSTOM
 62
    18
420
        0
370
     9
100
AcDbPolyline
 90
       16
 70
     0
 43
0.0
 10
507.5880257783683
 20
762.378733321636
 10
508.8941569126945
 20
763.402021703097
 10
511.3918884514423
 20
766.5901404181199
 10
513.0540736926959
 20
770.2833644717862
 10
513.7841124720289
 20
774.2670571064195
 10
513.5395775891701
 20
778.3097005862287
 10
512.3346805226683
 20
782.176351166579
 10
510.2394455104003
 20
785.6422931704424
 10
507.3756399954109
 20
788.5060986467419
 10
503.909697944724
 20
790.6013336307037
 10
500.0430473121341
 20
791.8062306809292
 10
496.0004037777107
 20
792.0507655604828
 10
492.016711089258
 20
791.3207267910116
 10
488.3234869856969
 20
789.6585415722157
 10
485.1353682276058
 20
787.1608100672124
 10
484.1120799067539
 20
785.8546790455434
  0
LWPOLYLINE
  5
C2E2
330
1F
100
AcDbEntity
  8
HEWI
  6
CUSTOM
 62
    18
420
        0
370
     9
100
AcDbPolyline
 90
       41
 70
     0
 43
0.0
 10
487.0253208828289
 20
741.816028855168
 10
487.9560956723471
 20
741.4740112304466
 10
490.7157969467844
 20
740.9090733877933
 10
495.9967973782695
 20
740.296221872095
 10
499.1246735288987
 20
740.400430069461
 10
504.0923778511751
 20
741.0044933785679
 10
507.4109297553077
 20
741.9189428595123
 10
511.8064022523103
 20
743.560642649621
 10
515.0929985334442
 20
745.3763613141582
 10
518.723005529504
 20
747.8268670164184
 10
521.7244259491089
 20
750.5717528400196
 10
524.4693118097893
 20
753.5731732190738
 10
526.9198175451565
 20
757.2031801660946
 10
528.7355362342241
 20
760.4897764028273
 10
530.3772360465118
 20
764.8852488404477
 10
531.2916855398143
 20
768.2038006997458
 10
531.8957488570776
 20
773.1715049549093
 10
531.9999570558539
 20
776.2993810632829
 10
531.3871055318741
 20
781.5803814234227
 10
530.8221676815882
 20
784.3400826605757
 10
528.8808665721189
 20
789.6231849106603
 10
527.8218123470469
 20
791.8924291872577
 10
524.5226854763423
 20
796.832496912345
 10
523.1606409849264
 20
798.5492716872227
 10
518.5658438884892
 20
802.7893384197209
 10
517.0899385498524
 20
803.9517380582388
 10
511.3565317894098
 20
807.1475194566186
 10
509.9369781814529
 20
807.8085799398664
 10
503.313728193516
 20
809.6537583825162
 10
502.0873778246532
 20
809.9118739879623
 10
494.904851611398
 20
810.1624017008489
 10
493.9643114664868
 20
810.1482310759765
 10
486.618595384989
 20
808.6438889107981
 10
486.0056957168999
 20
808.5049091321138
 10
478.6405816109618
 20
805.0705000677275
 10
472.2660243565115
 20
800.0301537644414
 10
467.2256779851304
 20
793.6555965961111
 10
463.7912688743454
 20
786.2904825896739
 10
462.1479469082841
 20
778.3318669476052
 10
462.3843039994899
 20
770.2088006991803
 10
463.6695601020619
 20
765.4121596884479
  0
LINE
  5
C2E3
330
1F
100
AcDbEntity
  8
HEWI
  6
CUSTOM
 62
    18
420
        0
370
     9
100
AcDbLine
 10
439.6946835629823
 20
735.6390075661506
 30
0.0
 11
439.7391114005004
 21
735.6834354030679
 31
0.0
  0
LINE
  5
C2E4
330
1F
100
AcDbEntity
  8
HEWI
  6
CUSTOM
 62
    18
420
        0
370
     9
100
AcDbLine
 10
363.0547797114159
 20
508.1543360802356
 30
0.0
 11
363.0072232498351
 21
508.1543360802356
 31
0.0
  0
LINE
  5
C2E5
330
1F
100
AcDbEntity
  8
HEWI
  6
CUSTOM
 62
    18
420
        0
370
     9
100
AcDbLine
 10
743.9596794392673
 20
508.1543360802356
 30
0.0
 11
744.0225098896335
 21
508.1543360802356
 31
0.0
  0
LINE
  5
C2E6
330
1F
100
AcDbEntity
  8
HEWI
  6
CUSTOM
 62
    18
420
        0
370
     9
100
AcDbLine
 10
363.0547797114159
 20
532.9720584719439
 30
0.0
 11
363.0072232498351
 21
532.9720584719439
 31
0.0
  0
LINE
  5
C2E7
330
1F
100
AcDbEntity
  8
HEWI
  6
CUSTOM
 62
    18
420
        0
370
     9
100
AcDbLine
 10
744.0225095916103
 20
532.9720584719439
 30
0.0
 11
743.9596794392673
 21
532.9720584719439
 31
0.0
  0
LINE
  5
C2E8
330
1F
100
AcDbEntity
  8
HEWI
  6
CUSTOM
 62
    18
420
        0
370
     9
100
AcDbLine
 10
457.4167813423664
 20
718.0057652785576
 30
0.0
 11
457.3723537155856
 21
717.9613376523743
 31
0.0
  0
LINE
  5
C2E9
330
1F
100
AcDbEntity
  8
HEWI
  6
CUSTOM
 62
    18
420
        0
370
     9
100
AcDbLine
 10
318.9111203194334
 20
614.7265558373669
 30
0.0
 11
318.8774928229577
 21
614.6929283413497
 31
0.0
  0
LINE
  5
C2EA
330
1F
100
AcDbEntity
  8
HEWI
  6
CUSTOM
 62
    18
420
        0
370
     9
100
AcDbLine
 10
336.4599003532967
 20
597.1777760405853
 30
0.0
 11
336.426272856821
 21
597.144148544567
 31
0.0
  0
LWPOLYLINE
  5
C2EB
330
1F
100
AcDbEntity
  8
HEWI
  6
CUSTOM
 62
    18
420
        0
370
     9
100
AcDbPolyline
 90
       54
 70
     1
 43
0.0
 10
363.0547797953732
 20
509.9821319882303
 10
363.0547797953732
 20
507.4313190215029
 10
363.0547797953732
 20
505.6436830864977
 10
363.0547797953732
 20
504.7231150859638
 10
363.0593789613012
 20
504.6000696580031
 10
363.0943471086175
 20
504.4819340714657
 10
363.1575323611651
 20
504.375978175411
 10
363.24504641346
 20
504.2887223029029
 10
363.3515038099431
 20
504.2255360215817
 10
363.4499885529986
 20
504.1941230458592
 10
363.552877161972
 20
504.1835004975628
 10
743.4615820483195
 20
504.1835004975628
 10
743.5846586991683
 20
504.1987728723857
 10
743.7001614368564
 20
504.2436501626939
 10
743.8009824330438
 20
504.3153707016931
 10
743.8809173470653
 20
504.4095209379024
 10
743.9350471297512
 20
504.5203070370839
 10
743.9579868993132
 20
504.6204395036643
 10
743.9596794149147
 20
504.7231150859638
 10
743.9596794149147
 20
505.6436830864977
 10
743.9596794149147
 20
507.4313190215029
 10
743.9596794149147
 20
509.9821319882303
 10
743.9596794149147
 20
513.1478780088801
 10
743.9596794149147
 20
516.7445754317509
 10
743.9596794149147
 20
520.5631972760897
 10
743.9596794149147
 20
524.3818191204281
 10
743.9596794149147
 20
527.978516543299
 10
743.9596794149147
 20
531.1442625639488
 10
743.9596794149147
 20
533.6950755306761
 10
743.9596794149147
 20
535.4827114656822
 10
743.9596794149147
 20
536.4032794662157
 10
743.9579868993132
 20
536.5059550485153
 10
743.9350471297512
 20
536.606087515096
 10
743.8809173470653
 20
536.7168736142771
 10
743.8009824330438
 20
536.811023850486
 10
743.7001614368564
 20
536.8827443894856
 10
743.5846586991683
 20
536.9276216797943
 10
743.4615820483195
 20
536.9428940546172
 10
363.552877161972
 20
536.9428940546172
 10
363.4499885529986
 20
536.9322715063199
 10
363.3515038099431
 20
536.9008585305977
 10
363.24504641346
 20
536.8376722492762
 10
363.1575323611651
 20
536.7504163767689
 10
363.0943471086175
 20
536.6444604807134
 10
363.0593789613012
 20
536.5263248941769
 10
363.0547797953732
 20
536.4032794662157
 10
363.0547797953732
 20
535.4827114656822
 10
363.0547797953732
 20
533.6950755306761
 10
363.0547797953732
 20
531.1442625639488
 10
363.0547797953732
 20
527.978516543299
 10
363.0547797953732
 20
524.3818191204281
 10
363.0547797953732
 20
520.5631972760897
 10
363.0547797953732
 20
516.7445754317509
 10
363.0547797953732
 20
513.1478780088801
  0
LWPOLYLINE
  5
C2EC
330
1F
100
AcDbEntity
  8
HEWI
  6
CUSTOM
 62
    18
420
        0
370
     9
100
AcDbPolyline
 90
       56
 70
     1
 43
0.0
 10
336.1308783403438
 20
597.5067981678239
 10
337.6760174842238
 20
595.961659044819
 10
338.6405446701356
 20
594.9971318719376
 10
338.9684050839496
 20
594.6692714625537
 10
339.0593024758928
 20
594.5848782745811
 10
339.168176699186
 20
594.5254564802817
 10
339.2883278322151
 20
594.4946627887634
 10
339.4123619928541
 20
594.494392187777
 10
339.5326463445345
 20
594.524661329614
 10
339.6246610450144
 20
594.5719250878068
 10
339.7049807220574
 20
594.6371118761049
 10
459.8485728971682
 20
714.7807024280959
 10
459.9247227150081
 20
714.8786092777777
 10
459.9744293784424
 20
714.9922481509333
 10
459.994634029841
 20
715.114625918065
 10
459.9840933117157
 20
715.2382116740386
 10
459.9434558806824
 20
715.3554001762858
 10
459.8883523651602
 20
715.4429454238639
 10
459.816413309687
 20
715.5172780555449
 10
459.4885528964696
 20
715.8451384656368
 10
458.5240257105579
 20
716.8096656385182
 10
456.9788865666778
 20
718.3548047615236
 10
454.9429333355219
 20
720.3907579651755
 10
452.5344882184945
 20
722.7992030496661
 10
449.8935212914548
 20
725.4401699410273
 10
447.1735159526761
 20
728.1601752430579
 10
444.5325490256363
 20
730.8011421344185
 10
442.1241039086053
 20
733.2095872189097
 10
440.0881506774494
 20
735.2455404225615
 10
438.5430115335693
 20
736.7906795455669
 10
437.5784843476576
 20
737.7552067184478
 10
437.2506239338435
 20
738.0830671278317
 10
437.1762925357542
 20
738.1550060723961
 10
437.0887461957245
 20
738.210109723931
 10
436.9715566309751
 20
738.2507471645949
 10
436.8479723532873
 20
738.2612877898423
 10
436.7255945424731
 20
738.2410832151817
 10
436.6119539171086
 20
738.1913765427948
 10
436.5140482957358
 20
738.1152267142802
 10
316.3704561206287
 20
617.97163616229
 10
316.3052693327081
 20
617.8913177264653
 10
316.2580055327526
 20
617.7993019281916
 10
316.2277364728288
 20
617.6790165203692
 10
316.2280070372144
 20
617.5549838438087
 10
316.2588006566402
 20
617.4348326638683
 10
316.3182226139106
 20
617.325956698874
 10
316.4026157075095
 20
617.2350605341326
 10
316.7304761213236
 20
616.9072001247486
 10
317.6950033072389
 20
615.9426729518677
 10
319.2401424511154
 20
614.3975338288632
 10
321.2760956822749
 20
612.361580625211
 10
323.6845407993024
 20
609.9531355407198
 10
326.3255077263421
 20
607.3121686493586
 10
329.0455130651171
 20
604.5921633473285
 10
331.6864799921568
 20
601.9511964559665
 10
334.0949251091879
 20
599.5427513714762
  0
LWPOLYLINE
  5
C2ED
330
1F
100
AcDbEntity
  8
HEWI
  6
CUSTOM
 62
    18
420
        0
370
     9
100
AcDbPolyline
 90
       44
 70
     1
 43
0.0
 10
503.8276153807418
 20
790.4189536575427
 10
500.006996303302
 20
791.6095066952652
 10
496.0124794776202
 20
791.8511304453009
 10
492.0762117021259
 20
791.1297826135609
 10
488.4269545521783
 20
789.4873853140361
 10
485.2767895888246
 20
787.0193887079026
 10
484.7458448962242
 20
786.4884440224773
 10
483.1694508182117
 20
784.9120499657601
 10
480.1209558039809
 20
781.8635549927116
 10
475.8749675713661
 20
777.617566817461
 10
470.60600204414
 20
772.3486013614188
 10
464.5305977065763
 20
766.2731971059324
 10
457.8984665274584
 20
759.6410660164115
 10
450.9821094927828
 20
752.7247090751757
 10
436.8399733707047
 20
738.582573144155
 10
437.1810575326454
 20
738.2414889868236
 10
438.1844874467605
 20
737.2380590862626
 10
439.791947413767
 20
735.6305991409745
 10
441.910017703256
 20
733.5125288800987
 10
444.4156037688808
 20
731.0069428483261
 10
447.1630900559357
 20
728.2594565983885
 10
449.9928026481248
 20
725.4297440444266
 10
452.7402889351797
 20
722.682257794489
 10
455.2458750008045
 20
720.1766717627165
 10
457.3639452902934
 20
718.0586015018406
 10
458.9714052572999
 20
716.4511415565526
 10
459.9748351714188
 20
715.4477116559919
 10
460.3159193333558
 20
715.1066274986601
 10
474.4580554554341
 20
729.2487634296812
 10
481.3744108404425
 20
736.1651187212496
 10
488.0065447991764
 20
742.7972525903851
 10
494.0819482264705
 20
748.8726559356023
 10
499.3509122460418
 20
754.1416198839929
 10
503.5969025647573
 20
758.3876101453447
 10
506.6453974057512
 20
761.4361049451522
 10
508.221788945335
 20
763.0124964634419
 10
508.7527355514757
 20
763.5434430624073
 10
511.2207321909518
 20
766.6936079832039
 10
512.8631295126651
 20
770.3428650838504
 10
513.5844773541503
 20
774.2791328061671
 10
513.3428536008505
 20
778.2736495778831
 10
512.1523005470407
 20
782.0942686037051
 10
510.0820088087312
 20
785.5189493932371
 10
507.2522962165385
 20
788.3486619471995
  0
LWPOLYLINE
  5
C2EE
330
1F
100
AcDbEntity
  8
HEWI
  6
CUSTOM
 62
    18
420
        0
370
     9
100
AcDbPolyline
 90
       44
 70
     1
 43
0.0
 10
829.0014800177377
 20
518.5622883403744
 10
829.0014800177377
 20
522.5641062118061
 10
828.0437823025422
 20
526.4496385289008
 10
826.1840447822651
 20
529.9930722767262
 10
823.5303486417143
 20
532.9884759657156
 10
820.23691705479
 20
535.261767621314
 10
816.4951522941811
 20
536.6808317955778
 10
812.5225121270158
 20
537.1631976367866
 10
811.7716429418759
 20
537.1631976367866
 10
809.5422850571049
 20
537.1631976367866
 10
805.231062063147
 20
537.1631976367866
 10
799.2263279189101
 20
537.1631976367866
 10
791.7748854106321
 20
537.1631976367866
 10
783.182966199547
 20
537.1631976367866
 10
773.8037163386033
 20
537.1631976367866
 10
764.0225104179517
 20
537.1631976367866
 10
744.0225097131806
 20
537.1631976367866
 10
744.0225097131806
 20
536.6808317955778
 10
744.0225097131806
 20
535.2617676213135
 10
744.0225097131806
 20
532.9884759657147
 10
744.0225097131806
 20
529.9930722767262
 10
744.0225097131806
 20
526.4496385289008
 10
744.0225097131806
 20
522.5641062118052
 10
744.0225097131806
 20
518.5622883403744
 10
744.0225097131806
 20
514.6767560232793
 10
744.0225097131806
 20
511.1333222754537
 10
744.0225097131806
 20
508.1379185864643
 10
744.0225097131806
 20
505.8646269308655
 10
744.0225097131806
 20
504.4455627566021
 10
744.0225097131806
 20
503.9631969153929
 10
764.0225104179517
 20
503.9631969153929
 10
773.8037140056185
 20
503.9631969153929
 10
783.1829677975365
 20
503.9631969153929
 10
791.7748857213045
 20
503.9631969153929
 10
799.2263260974396
 20
503.9631969153929
 10
805.2310631918736
 20
503.9631969153929
 10
809.5422859408245
 20
503.9631969153929
 10
811.7716402357219
 20
503.9631969153929
 10
812.5225121270158
 20
503.9631969153938
 10
816.4951522941811
 20
504.4455627566021
 10
820.23691705479
 20
505.864626930866
 10
823.5303486417143
 20
508.1379185864643
 10
826.1840447822651
 20
511.1333222754542
 10
828.0437823025422
 20
514.6767560232793
  0
ENDSEC
  0
SECTION
  2
OBJECTS
  0
DICTIONARY
  5
C
330
0
100
AcDbDictionary
281
     1
  3
ACAD_CIP_PREVIOUS_PRODUCT_INFO
350
90
  3
ACAD_COLOR
350
8A
  3
ACAD_DETAILVIEWSTYLE
350
85
  3
ACAD_GROUP
350
D
  3
ACAD_IMAGE_DICT
350
6E
  3
ACAD_LAYOUT
350
1A
  3
ACAD_MATERIAL
350
43
  3
ACAD_MLEADERSTYLE
350
6B
  3
ACAD_MLINESTYLE
350
17
  3
ACAD_PLOTSETTINGS
350
19
  3
ACAD_PLOTSTYLENAME
350
E
  3
ACAD_SCALELIST
350
47
  3
ACAD_SECTIONVIEWSTYLE
350
86
  3
ACAD_TABLESTYLE
350
69
  3
ACAD_VISUALSTYLE
350
2A
  3
ACDB_RECOMPOSE_DATA
350
C38F
  3
AcDbVariableDictionary
350
81
  0
SUN
  5
6D
330
29
100
AcDbSun
 90
        1
290
     1
 63
     7
421
 16777215
 40
1.0
291
     1
 91
  2455826
 92
 54000000
292
     0
 70
     0
 71
   256
280
     1
1001
ACAD
1000
AcDbSavedByObjectVersion
1070
     0
1000
AcDbSavedByObjectVersion
1070
     0
1000
AcDbSavedByObjectVersion
1070
     0
1000
AcDbSavedByObjectVersion
1070
     0
1000
AcDbSavedByObjectVersion
1070
     0
  0
DICTIONARY
  5
B8
330
2
100
AcDbDictionary
280
     1
281
     1
  3
ACAD_LAYERSTATES
360
B9
  0
DICTIONARY
  5
BFA4
330
1F
100
AcDbDictionary
280
     1
281
     1
  3
ACAD_SORTENTS
360
BFA5
  0
XRECORD
  5
90
102
{ACAD_REACTORS
330
C
102
}
330
C
100
AcDbXrecord
280
     1
300
ACDLT
300
2021
300
ACDLT_F_S
  0
DICTIONARY
  5
8A
102
{ACAD_REACTORS
330
C
102
}
330
C
100
AcDbDictionary
281
     1
  0
DICTIONARY
  5
85
102
{ACAD_REACTORS
330
C
102
}
330
C
100
AcDbDictionary
281
     1
  3
Imperial24
350
BFF7
  3
Metric50
350
8C
  0
DICTIONARY
  5
D
102
{ACAD_REACTORS
330
C
102
}
330
C
100
AcDbDictionary
281
     1
  0
DICTIONARY
  5
6E
102
{ACAD_REACTORS
330
C
102
}
330
C
100
AcDbDictionary
281
     1
  0
DICTIONARY
  5
1A
102
{ACAD_REACTORS
330
C
102
}
330
C
100
AcDbDictionary
281
     1
  3
Layout1
350
1E
  3
Layout2
350
26
  3
Model
350
22
  0
DICTIONARY
  5
43
102
{ACAD_REACTORS
330
C
102
}
330
C
100
AcDbDictionary
281
     1
  3
ByBlock
350
45
  3
ByLayer
350
44
  3
Global
350
46
  0
DICTIONARY
  5
6B
102
{ACAD_REACTORS
330
C
102
}
330
C
100
AcDbDictionary
281
     1
  3
Standard
350
6C
  0
DICTIONARY
  5
17
102
{ACAD_REACTORS
330
C
102
}
330
C
100
AcDbDictionary
281
     1
  3
Standard
350
18
  0
DICTIONARY
  5
19
102
{ACAD_REACTORS
330
C
102
}
330
C
100
AcDbDictionary
281
     1
  0
ACDBDICTIONARYWDFLT
  5
E
102
{ACAD_REACTORS
330
C
102
}
330
C
100
AcDbDictionary
281
     1
  3
Normal
350
F
100
AcDbDictionaryWithDefault
340
F
  0
DICTIONARY
  5
47
102
{ACAD_REACTORS
330
C
102
}
330
C
100
AcDbDictionary
281
     1
  3
A0
350
48
  3
A1
350
49
  3
A2
350
4A
  3
A3
350
4B
  3
A4
350
4C
  3
A5
350
4D
  3
A6
350
4E
  3
A7
350
4F
  3
A8
350
50
  3
A9
350
51
  3
B0
350
52
  3
B1
350
53
  3
B2
350
54
  3
B3
350
55
  3
B4
350
56
  3
B5
350
57
  3
B6
350
58
  3
B7
350
59
  3
B8
350
5A
  3
B9
350
5B
  3
C0
350
5C
  3
C1
350
5D
  3
C2
350
5E
  3
C3
350
5F
  3
C4
350
60
  3
C5
350
61
  3
C6
350
62
  3
C7
350
63
  3
C8
350
64
  3
C9
350
65
  3
D0
350
66
  3
D1
350
67
  3
D2
350
68
  0
DICTIONARY
  5
86
102
{ACAD_REACTORS
330
C
102
}
330
C
100
AcDbDictionary
281
     1
  3
Imperial24
350
BFF6
  3
Metric50
350
8B
  0
DICTIONARY
  5
69
102
{ACAD_REACTORS
330
C
102
}
330
C
100
AcDbDictionary
281
     1
  3
Standard
350
6A
  0
DICTIONARY
  5
2A
102
{ACAD_REACTORS
330
C
102
}
330
C
100
AcDbDictionary
281
     1
  3
2dWireframe
350
2F
  3
Basic
350
32
  3
Brighten
350
36
  3
ColorChange
350
3A
  3
Conceptual
350
34
  3
Dim
350
35
  3
EdgeColorOff
350
3D
  3
Facepattern
350
39
  3
Flat
350
2B
  3
FlatWithEdges
350
2C
  3
Gouraud
350
2D
  3
GouraudWithEdges
350
2E
  3
Hidden
350
31
  3
JitterOff
350
3B
  3
Linepattern
350
38
  3
OverhangOff
350
3C
  3
Realistic
350
33
  3
Shaded
350
42
  3
Shaded with edges
350
41
  3
Shades of Gray
350
3E
  3
Sketchy
350
3F
  3
Thicken
350
37
  3
Wireframe
350
30
  3
X-Ray
350
40
  0
XRECORD
  5
C38F
102
{ACAD_REACTORS
330
C
102
}
330
C
100
AcDbXrecord
280
     1
 90
        1
330
6A
  0
DICTIONARY
  5
81
102
{ACAD_REACTORS
330
C
102
}
330
C
100
AcDbDictionary
281
     1
  3
CANNOSCALE
350
82
  3
CENTEREXE
350
87
  3
CENTERLTYPEFILE
350
88
  3
CMLEADERSTYLE
350
84
  3
CTABLESTYLE
350
83
  3
CVIEWDETAILSTYLE
350
D4
  3
CVIEWSECTIONSTYLE
350
D5
  0
DICTIONARY
  5
B9
102
{ACAD_REACTORS
330
B8
102
}
330
B8
100
AcDbDictionary
281
     1
  0
SORTENTSTABLE
  5
BFA5
102
{ACAD_REACTORS
330
BFA4
102
}
330
BFA4
100
AcDbSortentsTable
330
1F
331
C227
  5
C228
331
C228
  5
C229
331
C229
  5
C22A
331
C22A
  5
C22B
331
C22B
  5
C22C
331
C22C
  5
C22D
331
C22D
  5
C22E
331
C22E
  5
C22F
331
C22F
  5
C230
331
C230
  5
C231
331
C231
  5
C232
331
C232
  5
C233
331
C233
  5
C234
331
C234
  5
C235
331
C235
  5
C236
331
C236
  5
C237
331
C237
  5
C238
331
C238
  5
C239
331
C239
  5
C23A
331
C23A
  5
C23B
331
C23B
  5
C23C
331
C23C
  5
C23D
331
C23D
  5
C23E
331
C23E
  5
C23F
331
C23F
  5
C240
331
C240
  5
C241
331
C241
  5
C242
331
C242
  5
C243
331
C243
  5
C244
331
C244
  5
C245
331
C245
  5
C246
331
C246
  5
C247
331
C247
  5
C248
331
C248
  5
C249
331
C249
  5
C24A
331
C24A
  5
C24B
331
C24B
  5
C24C
331
C24C
  5
C24D
331
C24D
  5
C24E
331
C24E
  5
C24F
331
C24F
  5
C250
331
C250
  5
C251
331
C251
  5
C252
331
C252
  5
C253
331
C253
  5
C254
331
C254
  5
C255
331
C255
  5
C256
331
C256
  5
C257
331
C257
  5
C258
331
C258
  5
C259
331
C259
  5
C25A
331
C25A
  5
C25B
331
C25B
  5
C25C
331
C25C
  5
C25D
331
C25D
  5
C25E
331
C25E
  5
C25F
331
C25F
  5
C260
331
C260
  5
C261
331
C261
  5
C262
331
C262
  5
C263
331
C263
  5
C264
331
C264
  5
C265
331
C265
  5
C266
331
C266
  5
C267
331
C267
  5
C268
331
C268
  5
C269
331
C269
  5
C26A
331
C26A
  5
C26B
331
C26B
  5
C26C
331
C26C
  5
C26D
331
C26D
  5
C26E
331
C26E
  5
C26F
331
C26F
  5
C270
331
C270
  5
C271
331
C271
  5
C272
331
C272
  5
C273
331
C273
  5
C274
331
C274
  5
C275
331
C275
  5
C276
331
C276
  5
C277
331
C277
  5
C278
331
C278
  5
C279
331
C279
  5
C27A
331
C27A
  5
C27B
331
C27B
  5
C27C
331
C27C
  5
C27D
331
C27D
  5
C27E
331
C27E
  5
C27F
331
C27F
  5
C280
331
C280
  5
C281
331
C281
  5
C282
331
C282
  5
C283
331
C283
  5
C284
331
C284
  5
C285
331
C285
  5
C286
331
C286
  5
C287
331
C287
  5
C288
331
C288
  5
C289
331
C289
  5
C28A
331
C28A
  5
C28B
331
C28B
  5
C28C
331
C28C
  5
C28D
331
C28D
  5
C28E
331
C28E
  5
C28F
331
C28F
  5
C290
331
C290
  5
C291
331
C291
  5
C292
331
C292
  5
C293
331
C293
  5
C294
331
C294
  5
C295
331
C295
  5
C296
331
C296
  5
C297
331
C297
  5
C298
331
C298
  5
C299
331
C299
  5
C29A
331
C29A
  5
C29B
331
C29B
  5
C29C
331
C29C
  5
C29D
331
C29D
  5
C29E
331
C29E
  5
C29F
331
C29F
  5
C2A0
331
C2A0
  5
C2A1
331
C2A1
  5
C2A2
331
C2A2
  5
C2A3
331
C2A3
  5
C2A4
331
C2A4
  5
C2A5
331
C2A5
  5
C2A6
331
C2A6
  5
C2A7
331
C2A7
  5
C2A8
331
C2A8
  5
C2A9
331
C2A9
  5
C2AA
331
C2AA
  5
C2AB
331
C2AB
  5
C2AC
331
C2AC
  5
C2AD
331
C2AD
  5
C2AE
331
C2AE
  5
C2AF
331
C2AF
  5
C2B0
331
C2B0
  5
C2B1
331
C2B1
  5
C2B2
331
C2B2
  5
C2B3
331
C2B3
  5
C2B4
331
C2B4
  5
C2B5
331
C2B5
  5
C2B6
331
C2B6
  5
C2B7
331
C2B7
  5
C2B8
331
C2B8
  5
C2B9
331
C2B9
  5
C2BA
331
C2BA
  5
C2BB
331
C2BB
  5
C2BC
331
C2BC
  5
C2BD
331
C2BD
  5
C2BE
331
C2BE
  5
C2BF
331
C2BF
  5
C2C0
331
C2C0
  5
C2C1
331
C2C1
  5
C2C2
331
C2C2
  5
C2C3
331
C2C3
  5
C2C4
331
C2C4
  5
C2C5
331
C2C5
  5
C2C6
331
C2C6
  5
C2C7
331
C2C7
  5
C2C8
331
C2C8
  5
C2C9
331
C2C9
  5
C2CA
331
C2CA
  5
C2CB
331
C2CB
  5
C2CC
331
C2CC
  5
C2CD
331
C2CD
  5
C2CE
331
C2CE
  5
C2CF
331
C2CF
  5
C2D0
331
C2D0
  5
C2D1
331
C2D1
  5
C2D2
331
C2D2
  5
C2D3
331
C2D3
  5
C2D4
331
C2D4
  5
C2D5
331
C2D5
  5
C2D6
331
C2D6
  5
C2D7
331
C2D7
  5
C2D8
331
C2D8
  5
C2D9
331
C2D9
  5
C2DA
331
C2DA
  5
C2DB
331
C2DB
  5
C2DC
331
C2DC
  5
C2DD
331
C2DD
  5
C2DE
331
C2DE
  5
C2DF
331
C2DF
  5
C2E0
331
C2E0
  5
C2E1
331
C2E1
  5
C2E2
331
C2E2
  5
C2E3
331
C2E3
  5
C2E4
331
C2E4
  5
C2E5
331
C2E5
  5
C2E6
331
C2E6
  5
C2E7
331
C2E7
  5
C2E8
331
C2E8
  5
C2E9
331
C2E9
  5
C2EA
331
C2EA
  5
C2EB
331
C2EB
  5
C2EC
331
C2EC
  5
C2ED
331
C2ED
  5
C2EE
331
C2EE
  5
C387
  0
ACDBDETAILVIEWSTYLE
  5
BFF7
102
{ACAD_XDICTIONARY
360
C396
102
}
102
{ACAD_REACTORS
330
85
102
}
330
85
100
AcDbModelDocViewStyle
 70
     0
  3
Imperial24
290
     0
100
AcDbDetailViewStyle
 70
     0
 71
     0
 90
        3
 71
     1
340
11
 62
   256
 40
0.24
340
0
 62
   256
 40
0.24
300

 40
0.36
280
     3
 71
     2
340
16
 90
       25
 62
   256
 71
     3
340
11
 62
   256
 40
0.24
 90
        1
 40
0.75
 90
        1
300
%<\AcVar ViewType \f "%tc1">% %<\AcVar ViewDetailId>%\PVARIA %<\AcVar ViewScale \f "%sn">%
 71
     4
340
16
 90
       25
 62
   256
340
16
 90
       25
 62
   256
280
     0
  0
ACDBDETAILVIEWSTYLE
  5
8C
102
{ACAD_XDICTIONARY
360
C392
102
}
102
{ACAD_REACTORS
330
85
102
}
330
85
100
AcDbModelDocViewStyle
 70
     0
  3
Metric50
290
     0
100
AcDbDetailViewStyle
 70
     0
 71
     0
 90
        3
 71
     1
340
11
 62
   256
 40
5.0
340
0
 62
   256
 40
5.0
300

 40
0.0
280
     1
 71
     2
340
16
 90
       25
 62
   256
 71
     3
340
11
 62
   256
 40
5.0
 90
        0
 40
15.0
 90
        1
300
%<\AcVar ViewDetailId>% (%<\AcVar ViewScale \f "%sn">%)
 71
     4
340
16
 90
       25
 62
   256
340
16
 90
       25
 62
   256
280
     0
  0
LAYOUT
  5
1E
102
{ACAD_REACTORS
330
1A
102
}
330
1A
100
AcDbPlotSettings
  1

  2
none_device
  4

  6

 40
0.0
 41
0.0
 42
0.0
 43
0.0
 44
0.0
 45
0.0
 46
0.0
 47
0.0
 48
0.0
 49
0.0
140
0.0
141
0.0
142
1.0
143
1.0
 70
   688
 72
     1
 73
     0
 74
     5
  7

 75
    16
147
1.0
 76
     0
 77
     2
 78
   300
148
0.0
149
0.0
100
AcDbLayout
  1
Layout1
 70
     1
 71
     1
 10
0.0
 20
0.0
 11
420.0
 21
297.0
 12
0.0
 22
0.0
 32
0.0
 14
1.000000000000000E+20
 24
1.000000000000000E+20
 34
1.000000000000000E+20
 15
-1.000000000000000E+20
 25
-1.000000000000000E+20
 35
-1.000000000000000E+20
146
0.0
 13
0.0
 23
0.0
 33
0.0
 16
1.0
 26
0.0
 36
0.0
 17
0.0
 27
1.0
 37
0.0
 76
     0
330
1B
  0
LAYOUT
  5
26
102
{ACAD_REACTORS
330
1A
102
}
330
1A
100
AcDbPlotSettings
  1

  2
none_device
  4

  6

 40
0.0
 41
0.0
 42
0.0
 43
0.0
 44
0.0
 45
0.0
 46
0.0
 47
0.0
 48
0.0
 49
0.0
140
0.0
141
0.0
142
1.0
143
1.0
 70
   688
 72
     1
 73
     0
 74
     5
  7

 75
    16
147
1.0
 76
     0
 77
     2
 78
   300
148
0.0
149
0.0
100
AcDbLayout
  1
Layout2
 70
     1
 71
     2
 10
0.0
 20
0.0
 11
0.0
 21
0.0
 12
0.0
 22
0.0
 32
0.0
 14
0.0
 24
0.0
 34
0.0
 15
0.0
 25
0.0
 35
0.0
146
0.0
 13
0.0
 23
0.0
 33
0.0
 16
1.0
 26
0.0
 36
0.0
 17
0.0
 27
1.0
 37
0.0
 76
     0
330
23
  0
LAYOUT
  5
22
102
{ACAD_REACTORS
330
1A
102
}
330
1A
100
AcDbPlotSettings
  1

  2
none_device
  4
Letter_(8.50_x_11.00_Inches)
  6

 40
6.349999999999997
 41
6.349999999999997
 42
6.350005079999997
 43
6.350005079999997
 44
215.9
 45
279.4
 46
0.0
 47
0.0
 48
0.0
 49
0.0
140
0.0
141
0.0
142
1.0
143
1.0
 70
  1712
 72
     1
 73
     0
 74
     0
  7

 75
     0
147
1.0
 76
     0
 77
     2
 78
   300
148
0.0
149
0.0
100
AcDbLayout
  1
Model
 70
     1
 71
     0
 10
0.0
 20
0.0
 11
420.0
 21
297.0
 12
0.0
 22
0.0
 32
0.0
 14
-8.560040641624928
 24
171.2712858534147
 34
0.0
 15
-5.150040637647561
 25
172.7712858296167
 35
0.0
146
0.0
 13
0.0
 23
0.0
 33
0.0
 16
1.0
 26
0.0
 36
0.0
 17
0.0
 27
1.0
 37
0.0
 76
     0
330
1F
331
29
  0
MATERIAL
  5
45
102
{ACAD_REACTORS
330
43
102
}
330
43
100
AcDbMaterial
  1
ByBlock
 73
     1
 78
     1
172
     1
176
     1
270
     1
274
     1
  0
MATERIAL
  5
44
102
{ACAD_REACTORS
330
43
102
}
330
43
100
AcDbMaterial
  1
ByLayer
 73
     1
 78
     1
172
     1
176
     1
270
     1
274
     1
  0
MATERIAL
  5
46
102
{ACAD_REACTORS
330
43
102
}
330
43
100
AcDbMaterial
  1
Global
 73
     1
 78
     1
172
     1
176
     1
270
     1
274
     1
  0
MLEADERSTYLE
  5
6C
102
{ACAD_REACTORS
330
6B
102
}
330
6B
100
AcDbMLeaderStyle
179
     2
170
     2
171
     1
172
     0
 90
        2
 40
0.0
 41
0.0
173
     1
 91
-1056964608
340
14
 92
       -2
290
     1
 42
2.0
291
     1
 43
8.0
  3
Standard
 44
4.0
300

342
11
174
     1
178
     6
175
     1
176
     0
 93
-1056964608
 45
4.0
292
     0
297
     0
 46
4.0
 94
-1056964608
 47
1.0
 49
1.0
140
1.0
293
     1
141
0.0
294
     1
177
     0
142
1.0
295
     0
296
     0
143
3.75
271
     0
272
     9
273
     9
298
     0
  0
MLINESTYLE
  5
18
102
{ACAD_REACTORS
330
17
102
}
330
17
100
AcDbMlineStyle
  2
STANDARD
 70
     0
  3

 62
   256
 51
90.0
 52
90.0
 71
     2
 49
0.5
 62
   256
  6
BYLAYER
 49
-0.5
 62
   256
  6
BYLAYER
  0
ACDBPLACEHOLDER
  5
F
102
{ACAD_REACTORS
330
E
102
}
330
E
  0
SCALE
  5
48
102
{ACAD_REACTORS
330
47
102
}
330
47
100
AcDbScale
 70
     0
300
1:1
140
1.0
141
1.0
290
     1
  0
SCALE
  5
49
102
{ACAD_REACTORS
330
47
102
}
330
47
100
AcDbScale
 70
     0
300
1:2
140
1.0
141
2.0
290
     0
  0
SCALE
  5
4A
102
{ACAD_REACTORS
330
47
102
}
330
47
100
AcDbScale
 70
     0
300
1:4
140
1.0
141
4.0
290
     0
  0
SCALE
  5
4B
102
{ACAD_REACTORS
330
47
102
}
330
47
100
AcDbScale
 70
     0
300
1:5
140
1.0
141
5.0
290
     0
  0
SCALE
  5
4C
102
{ACAD_REACTORS
330
47
102
}
330
47
100
AcDbScale
 70
     0
300
1:8
140
1.0
141
8.0
290
     0
  0
SCALE
  5
4D
102
{ACAD_REACTORS
330
47
102
}
330
47
100
AcDbScale
 70
     0
300
1:10
140
1.0
141
10.0
290
     0
  0
SCALE
  5
4E
102
{ACAD_REACTORS
330
47
102
}
330
47
100
AcDbScale
 70
     0
300
1:16
140
1.0
141
16.0
290
     0
  0
SCALE
  5
4F
102
{ACAD_REACTORS
330
47
102
}
330
47
100
AcDbScale
 70
     0
300
1:20
140
1.0
141
20.0
290
     0
  0
SCALE
  5
50
102
{ACAD_REACTORS
330
47
102
}
330
47
100
AcDbScale
 70
     0
300
1:30
140
1.0
141
30.0
290
     0
  0
SCALE
  5
51
102
{ACAD_REACTORS
330
47
102
}
330
47
100
AcDbScale
 70
     0
300
1:40
140
1.0
141
40.0
290
     0
  0
SCALE
  5
52
102
{ACAD_REACTORS
330
47
102
}
330
47
100
AcDbScale
 70
     0
300
1:50
140
1.0
141
50.0
290
     0
  0
SCALE
  5
53
102
{ACAD_REACTORS
330
47
102
}
330
47
100
AcDbScale
 70
     0
300
1:100
140
1.0
141
100.0
290
     0
  0
SCALE
  5
54
102
{ACAD_REACTORS
330
47
102
}
330
47
100
AcDbScale
 70
     0
300
2:1
140
2.0
141
1.0
290
     0
  0
SCALE
  5
55
102
{ACAD_REACTORS
330
47
102
}
330
47
100
AcDbScale
 70
     0
300
4:1
140
4.0
141
1.0
290
     0
  0
SCALE
  5
56
102
{ACAD_REACTORS
330
47
102
}
330
47
100
AcDbScale
 70
     0
300
8:1
140
8.0
141
1.0
290
     0
  0
SCALE
  5
57
102
{ACAD_REACTORS
330
47
102
}
330
47
100
AcDbScale
 70
     0
300
10:1
140
10.0
141
1.0
290
     0
  0
SCALE
  5
58
102
{ACAD_REACTORS
330
47
102
}
330
47
100
AcDbScale
 70
     0
300
100:1
140
100.0
141
1.0
290
     0
  0
SCALE
  5
59
102
{ACAD_REACTORS
330
47
102
}
330
47
100
AcDbScale
 70
     0
300
1/128" = 1'-0"
140
0.0078125
141
12.0
290
     0
  0
SCALE
  5
5A
102
{ACAD_REACTORS
330
47
102
}
330
47
100
AcDbScale
 70
     0
300
1/64" = 1'-0"
140
0.015625
141
12.0
290
     0
  0
SCALE
  5
5B
102
{ACAD_REACTORS
330
47
102
}
330
47
100
AcDbScale
 70
     0
300
1/32" = 1'-0"
140
0.03125
141
12.0
290
     0
  0
SCALE
  5
5C
102
{ACAD_REACTORS
330
47
102
}
330
47
100
AcDbScale
 70
     0
300
1/16" = 1'-0"
140
0.0625
141
12.0
290
     0
  0
SCALE
  5
5D
102
{ACAD_REACTORS
330
47
102
}
330
47
100
AcDbScale
 70
     0
300
3/32" = 1'-0"
140
0.09375
141
12.0
290
     0
  0
SCALE
  5
5E
102
{ACAD_REACTORS
330
47
102
}
330
47
100
AcDbScale
 70
     0
300
1/8" = 1'-0"
140
0.125
141
12.0
290
     0
  0
SCALE
  5
5F
102
{ACAD_REACTORS
330
47
102
}
330
47
100
AcDbScale
 70
     0
300
3/16" = 1'-0"
140
0.1875
141
12.0
290
     0
  0
SCALE
  5
60
102
{ACAD_REACTORS
330
47
102
}
330
47
100
AcDbScale
 70
     0
300
1/4" = 1'-0"
140
0.25
141
12.0
290
     0
  0
SCALE
  5
61
102
{ACAD_REACTORS
330
47
102
}
330
47
100
AcDbScale
 70
     0
300
3/8" = 1'-0"
140
0.375
141
12.0
290
     0
  0
SCALE
  5
62
102
{ACAD_REACTORS
330
47
102
}
330
47
100
AcDbScale
 70
     0
300
1/2" = 1'-0"
140
0.5
141
12.0
290
     0
  0
SCALE
  5
63
102
{ACAD_REACTORS
330
47
102
}
330
47
100
AcDbScale
 70
     0
300
3/4" = 1'-0"
140
0.75
141
12.0
290
     0
  0
SCALE
  5
64
102
{ACAD_REACTORS
330
47
102
}
330
47
100
AcDbScale
 70
     0
300
1" = 1'-0"
140
1.0
141
12.0
290
     0
  0
SCALE
  5
65
102
{ACAD_REACTORS
330
47
102
}
330
47
100
AcDbScale
 70
     0
300
1-1/2" = 1'-0"
140
1.5
141
12.0
290
     0
  0
SCALE
  5
66
102
{ACAD_REACTORS
330
47
102
}
330
47
100
AcDbScale
 70
     0
300
3" = 1'-0"
140
3.0
141
12.0
290
     0
  0
SCALE
  5
67
102
{ACAD_REACTORS
330
47
102
}
330
47
100
AcDbScale
 70
     0
300
6" = 1'-0"
140
6.0
141
12.0
290
     0
  0
SCALE
  5
68
102
{ACAD_REACTORS
330
47
102
}
330
47
100
AcDbScale
 70
     0
300
1'-0" = 1'-0"
140
12.0
141
12.0
290
     0
  0
ACDBSECTIONVIEWSTYLE
  5
BFF6
102
{ACAD_XDICTIONARY
360
C394
102
}
102
{ACAD_REACTORS
330
86
102
}
330
86
100
AcDbModelDocViewStyle
 70
     0
  3
Imperial24
290
     0
100
AcDbSectionViewStyle
 70
     0
 71
     0
 90
       78
 71
     1
340
11
 62
   256
 40
0.24
340
0
340
0
 62
   256
 40
0.24
300
I, O, Q, S, X, Z
 40
0.48
 90
        3
 40
0.18
 90
        1
 71
     2
340
16
 90
       25
 62
   256
340
16
 90
       50
 62
   256
 40
0.24
 40
0.0
 40
0.24
 71
     3
340
11
 62
   256
 40
0.24
 90
        1
 40
0.75
 90
        1
300
%<\AcVar ViewType \f "%tc1">% %<\AcVar ViewSectionStartId>%-%<\AcVar ViewSectionEndId>%\PVARIA %<\AcVar ViewScale \f "%sn">%
 71
     4
 62
   256
 62
   257
300
ANSI31
 40
1.0
 90
        0
290
     0
290
     0
 90
        6
 40
0.0
 40
1.570796326794896
 40
0.2617993877991494
 40
1.308996938995747
 40
-0.2617993877991494
 40
1.832595714594045
  0
ACDBSECTIONVIEWSTYLE
  5
8B
102
{ACAD_XDICTIONARY
360
C390
102
}
102
{ACAD_REACTORS
330
86
102
}
330
86
100
AcDbModelDocViewStyle
 70
     0
  3
Metric50
290
     0
100
AcDbSectionViewStyle
 70
     0
 71
     0
 90
      102
 71
     1
340
11
 62
   256
 40
5.0
340
0
340
0
 62
   256
 40
5.0
300
I, O, Q, S, X, Z
 40
10.0
 90
        0
 40
2.5
 90
        0
 71
     2
340
16
 90
       25
 62
   256
340
16
 90
       50
 62
   256
 40
5.0
 40
2.5
 40
5.0
 71
     3
340
11
 62
   256
 40
5.0
 90
        0
 40
15.0
 90
        1
300
%<\AcVar ViewSectionStartId>%-%<\AcVar ViewSectionEndId>% (%<\AcVar ViewScale \f "%sn">%)
 71
     4
 62
   256
 62
   257
300
ANSI31
 40
1.0
 90
        0
290
     0
290
     0
 90
        6
 40
0.0
 40
1.570796326794896
 40
0.2617993877991494
 40
1.308996938995747
 40
-0.2617993877991494
 40
1.832595714594044
  0
TABLESTYLE
  5
6A
102
{ACAD_XDICTIONARY
360
171
102
}
102
{ACAD_REACTORS
330
69
102
}
330
69
100
AcDbTableStyle
280
     0
  3
Standard
 70
     0
 71
     0
 40
1.5
 41
1.5
280
     0
281
     0
  7
Standard
140
4.5
170
     2
 62
     0
 63
     7
283
     0
 90
        4
 91
        0
  1

274
    -2
284
     1
 64
     0
275
    -2
285
     1
 65
     0
276
    -2
286
     1
 66
     0
277
    -2
287
     1
 67
     0
278
    -2
288
     1
 68
     0
279
    -2
289
     1
 69
     0
  7
Standard
140
6.0
170
     5
 62
     0
 63
     7
283
     0
 90
        4
 91
        0
  1

274
    -2
284
     1
 64
     0
275
    -2
285
     1
 65
     0
276
    -2
286
     1
 66
     0
277
    -2
287
     1
 67
     0
278
    -2
288
     1
 68
     0
279
    -2
289
     1
 69
     0
  7
Standard
140
4.5
170
     5
 62
     0
 63
     7
283
     0
 90
        4
 91
        0
  1

274
    -2
284
     1
 64
     0
275
    -2
285
     1
 65
     0
276
    -2
286
     1
 66
     0
277
    -2
287
     1
 67
     0
278
    -2
288
     1
 68
     0
279
    -2
289
     1
 69
     0
  0
VISUALSTYLE
  5
2F
102
{ACAD_REACTORS
330
2A
102
}
330
2A
100
AcDbVisualStyle
  2
2dWireframe
 70
     4
177
     3
291
     0
 70
    58
 90
        0
176
     1
 90
        2
176
     1
 90
        0
176
     1
 90
        0
176
     1
 40
0.6
176
     1
 40
30.0
176
     1
 62
     7
420
 16777215
176
     1
 90
        1
176
     1
 90
        4
176
     1
 62
     7
176
     1
 62
   257
176
     1
 90
        1
176
     1
 90
        1
176
     1
 40
1.0
176
     1
 90
        0
176
     1
 62
   257
176
     1
 40
1.0
176
     1
 90
        1
176
     1
 90
        6
176
     1
 90
        2
176
     1
 62
     7
176
     1
 90
        5
176
     1
 90
        0
176
     1
 90
        0
176
     1
290
     0
176
     1
 90
        1
176
     1
 40
0.0
176
     1
 90
        0
176
     1
290
     1
176
     1
290
     1
176
     1
290
     0
176
     1
290
     0
176
     1
290
     0
176
     1
290
     0
176
     1
290
     0
176
     1
290
     0
176
     1
290
     0
176
     1
 90
       50
176
     1
 40
0.0
176
     1
 40
1.0
176
     1
 90
        0
176
     1
 62
    18
176
     1
 90
       50
176
     1
 90
        3
176
     1
 62
     5
420
      255
176
     1
290
     0
176
     1
 90
       50
176
     1
 90
       50
176
     1
 90
       50
176
     1
290
     0
176
     1
 90
       50
176
     1
 62
   256
176
     0
 40
1.0
176
     0
 90
        2
176
     1
  1
strokes_ogs.tif
176
     1
290
     0
176
     1
 40
1.0
176
     1
 40
1.0
176
     1
1001
ACAD
1000
AcDbSavedByObjectVersion
1070
     0
  0
VISUALSTYLE
  5
32
102
{ACAD_REACTORS
330
2A
102
}
330
2A
100
AcDbVisualStyle
  2
Basic
 70
     7
177
     3
291
     1
 70
    58
 90
        1
176
     1
 90
        0
176
     1
 90
        1
176
     1
 90
        0
176
     1
 40
0.6
176
     1
 40
30.0
176
     1
 62
     7
420
 16777215
176
     1
 90
        0
176
     1
 90
        4
176
     1
 62
     7
176
     1
 62
   257
176
     1
 90
        1
176
     1
 90
        1
176
     1
 40
1.0
176
     1
 90
        8
176
     1
 62
     7
176
     1
 40
1.0
176
     1
 90
        1
176
     1
 90
        6
176
     1
 90
        2
176
     1
 62
     7
176
     1
 90
        5
176
     1
 90
        0
176
     1
 90
        0
176
     1
290
     0
176
     1
 90
        1
176
     1
 40
0.0
176
     1
 90
        0
176
     1
290
     0
176
     1
290
     1
176
     1
290
     1
176
     1
290
     0
176
     1
290
     0
176
     1
290
     0
176
     1
290
     0
176
     1
290
     0
176
     1
290
     0
176
     1
 90
       50
176
     1
 40
0.0
176
     1
 40
1.0
176
     1
 90
        0
176
     1
 62
    18
176
     1
 90
       50
176
     1
 90
        3
176
     1
 62
     5
420
      255
176
     1
290
     0
176
     1
 90
       50
176
     1
 90
       50
176
     1
 90
       50
176
     1
290
     0
176
     1
 90
       50
176
     1
 62
   256
176
     0
 40
1.0
176
     0
 90
        2
176
     1
  1
strokes_ogs.tif
176
     1
290
     0
176
     1
 40
1.0
176
     1
 40
1.0
176
     1
1001
ACAD
1000
AcDbSavedByObjectVersion
1070
     0
  0
VISUALSTYLE
  5
36
102
{ACAD_REACTORS
330
2A
102
}
330
2A
100
AcDbVisualStyle
  2
Brighten
 70
    12
177
     3
291
     1
 70
    58
 90
        2
176
     1
 90
        2
176
     1
 90
        0
176
     1
 90
        0
176
     1
 40
0.6
176
     1
 40
30.0
176
     1
 62
     7
420
 16777215
176
     1
 90
        1
176
     1
 90
        4
176
     1
 62
     7
176
     1
 62
   257
176
     1
 90
        1
176
     1
 90
        1
176
     1
 40
1.0
176
     1
 90
        8
176
     1
 62
     7
176
     1
 40
1.0
176
     1
 90
        1
176
     1
 90
        6
176
     1
 90
        2
176
     1
 62
     7
176
     1
 90
        5
176
     1
 90
        0
176
     1
 90
        0
176
     1
290
     0
176
     1
 90
        1
176
     1
 40
50.0
176
     1
 90
        0
176
     1
290
     0
176
     1
290
     1
176
     1
290
     1
176
     1
290
     0
176
     1
290
     0
176
     1
290
     0
176
     1
290
     0
176
     1
290
     0
176
     1
290
     0
176
     1
 90
       50
176
     1
 40
0.0
176
     1
 40
1.0
176
     1
 90
        0
176
     1
 62
    18
176
     1
 90
       50
176
     1
 90
        3
176
     1
 62
     5
420
      255
176
     1
290
     0
176
     1
 90
       50
176
     1
 90
       50
176
     1
 90
       50
176
     1
290
     0
176
     1
 90
       50
176
     1
 62
   256
176
     0
 40
1.0
176
     0
 90
        2
176
     1
  1
strokes_ogs.tif
176
     1
290
     0
176
     1
 40
1.0
176
     1
 40
1.0
176
     1
1001
ACAD
1000
AcDbSavedByObjectVersion
1070
     0
  0
VISUALSTYLE
  5
3A
102
{ACAD_REACTORS
330
2A
102
}
330
2A
100
AcDbVisualStyle
  2
ColorChange
 70
    16
177
     3
291
     1
 70
    58
 90
        2
176
     1
 90
        2
176
     1
 90
        3
176
     1
 90
        0
176
     1
 40
0.6
176
     1
 40
30.0
176
     1
 62
     8
420
  8421504
176
     1
 90
        1
176
     1
 90
        4
176
     1
 62
     7
176
     1
 62
   257
176
     1
 90
        1
176
     1
 90
        1
176
     1
 40
1.0
176
     1
 90
        8
176
     1
 62
     8
420
  8421504
176
     1
 40
1.0
176
     1
 90
        1
176
     1
 90
        6
176
     1
 90
        2
176
     1
 62
     7
176
     1
 90
        5
176
     1
 90
        0
176
     1
 90
        0
176
     1
290
     0
176
     1
 90
        1
176
     1
 40
0.0
176
     1
 90
        0
176
     1
290
     0
176
     1
290
     1
176
     1
290
     1
176
     1
290
     0
176
     1
290
     0
176
     1
290
     0
176
     1
290
     0
176
     1
290
     0
176
     1
290
     0
176
     1
 90
       50
176
     1
 40
0.0
176
     1
 40
1.0
176
     1
 90
        0
176
     1
 62
    18
176
     1
 90
       50
176
     1
 90
        3
176
     1
 62
     5
420
      255
176
     1
290
     0
176
     1
 90
       50
176
     1
 90
       50
176
     1
 90
       50
176
     1
290
     0
176
     1
 90
       50
176
     1
 62
   256
176
     0
 40
1.0
176
     0
 90
        2
176
     1
  1
strokes_ogs.tif
176
     1
290
     0
176
     1
 40
1.0
176
     1
 40
1.0
176
     1
1001
ACAD
1000
AcDbSavedByObjectVersion
1070
     0
  0
VISUALSTYLE
  5
34
102
{ACAD_REACTORS
330
2A
102
}
330
2A
100
AcDbVisualStyle
  2
Conceptual
 70
     9
177
     3
291
     0
 70
    58
 90
        3
176
     1
 90
        2
176
     1
 90
        0
176
     1
 90
        0
176
     1
 40
0.6
176
     1
 40
30.0
176
     1
 62
     7
420
 16777215
176
     1
 90
        2
176
     1
 90
        2
176
     1
 62
     7
176
     1
 62
   257
176
     1
 90
        1
176
     1
 90
        1
176
     1
 40
179.0
176
     1
 90
        8
176
     1
 62
     7
176
     1
 40
1.0
176
     1
 90
        1
176
     1
 90
        6
176
     1
 90
        2
176
     1
 62
     7
176
     1
 90
        3
176
     1
 90
        0
176
     1
 90
        0
176
     1
290
     0
176
     1
 90
        1
176
     1
 40
0.0
176
     1
 90
        0
176
     1
290
     0
176
     1
290
     1
176
     1
290
     1
176
     1
290
     0
176
     1
290
     0
176
     1
290
     0
176
     1
290
     0
176
     1
290
     0
176
     1
290
     0
176
     1
 90
       50
176
     1
 40
0.0
176
     1
 40
1.0
176
     1
 90
        0
176
     1
 62
    18
176
     1
 90
       50
176
     1
 90
        3
176
     1
 62
     5
420
      255
176
     1
290
     0
176
     1
 90
       50
176
     1
 90
       50
176
     1
 90
       50
176
     1
290
     0
176
     1
 90
       50
176
     1
 62
   256
176
     0
 40
1.0
176
     0
 90
        2
176
     1
  1
strokes_ogs.tif
176
     1
290
     0
176
     1
 40
1.0
176
     1
 40
1.0
176
     1
1001
ACAD
1000
AcDbSavedByObjectVersion
1070
     0
  0
VISUALSTYLE
  5
35
102
{ACAD_REACTORS
330
2A
102
}
330
2A
100
AcDbVisualStyle
  2
Dim
 70
    11
177
     3
291
     1
 70
    58
 90
        2
176
     1
 90
        2
176
     1
 90
        0
176
     1
 90
        0
176
     1
 40
0.6
176
     1
 40
30.0
176
     1
 62
     7
420
 16777215
176
     1
 90
        1
176
     1
 90
        4
176
     1
 62
     7
176
     1
 62
   257
176
     1
 90
        1
176
     1
 90
        1
176
     1
 40
1.0
176
     1
 90
        8
176
     1
 62
     7
176
     1
 40
1.0
176
     1
 90
        1
176
     1
 90
        6
176
     1
 90
        2
176
     1
 62
     7
176
     1
 90
        5
176
     1
 90
        0
176
     1
 90
        0
176
     1
290
     0
176
     1
 90
        1
176
     1
 40
-50.0
176
     1
 90
        0
176
     1
290
     0
176
     1
290
     1
176
     1
290
     1
176
     1
290
     0
176
     1
290
     0
176
     1
290
     0
176
     1
290
     0
176
     1
290
     0
176
     1
290
     0
176
     1
 90
       50
176
     1
 40
0.0
176
     1
 40
1.0
176
     1
 90
        0
176
     1
 62
    18
176
     1
 90
       50
176
     1
 90
        3
176
     1
 62
     5
420
      255
176
     1
290
     0
176
     1
 90
       50
176
     1
 90
       50
176
     1
 90
       50
176
     1
290
     0
176
     1
 90
       50
176
     1
 62
   256
176
     0
 40
1.0
176
     0
 90
        2
176
     1
  1
strokes_ogs.tif
176
     1
290
     0
176
     1
 40
1.0
176
     1
 40
1.0
176
     1
1001
ACAD
1000
AcDbSavedByObjectVersion
1070
     0
  0
VISUALSTYLE
  5
3D
102
{ACAD_REACTORS
330
2A
102
}
330
2A
100
AcDbVisualStyle
  2
EdgeColorOff
 70
    22
177
     3
291
     1
 70
    58
 90
        2
176
     0
 90
        2
176
     0
 90
        0
176
     0
 90
        0
176
     0
 40
0.6
176
     0
 40
30.0
176
     0
 62
     7
420
 16777215
176
     0
 90
        1
176
     0
 90
        4
176
     0
 62
     7
176
     0
 62
   257
176
     0
 90
        1
176
     0
 90
        1
176
     0
 40
1.0
176
     0
 90
        8
176
     2
 62
     7
176
     0
 40
1.0
176
     0
 90
        1
176
     0
 90
        6
176
     0
 90
        2
176
     0
 62
     7
176
     0
 90
        5
176
     0
 90
        0
176
     0
 90
        0
176
     0
290
     0
176
     0
 90
        1
176
     0
 40
0.0
176
     0
 90
        0
176
     0
290
     0
176
     0
290
     1
176
     0
290
     1
176
     0
290
     0
176
     0
290
     0
176
     0
290
     0
176
     0
290
     0
176
     0
290
     0
176
     0
290
     0
176
     0
 90
       50
176
     0
 40
0.0
176
     0
 40
1.0
176
     0
 90
        0
176
     0
 62
    18
176
     0
 90
       50
176
     0
 90
        3
176
     0
 62
     5
420
      255
176
     0
290
     0
176
     0
 90
       50
176
     0
 90
       50
176
     0
 90
       50
176
     0
290
     0
176
     0
 90
       50
176
     0
 62
   256
176
     0
 40
1.0
176
     0
 90
        2
176
     0
  1
strokes_ogs.tif
176
     0
290
     0
176
     0
 40
1.0
176
     0
 40
1.0
176
     0
1001
ACAD
1000
AcDbSavedByObjectVersion
1070
     0
  0
VISUALSTYLE
  5
39
102
{ACAD_REACTORS
330
2A
102
}
330
2A
100
AcDbVisualStyle
  2
Facepattern
 70
    15
177
     3
291
     1
 70
    58
 90
        2
176
     1
 90
        2
176
     1
 90
        0
176
     1
 90
        0
176
     1
 40
0.6
176
     1
 40
30.0
176
     1
 62
     7
420
 16777215
176
     1
 90
        1
176
     1
 90
        4
176
     1
 62
     7
176
     1
 62
   257
176
     1
 90
        1
176
     1
 90
        1
176
     1
 40
1.0
176
     1
 90
        8
176
     1
 62
     7
176
     1
 40
1.0
176
     1
 90
        1
176
     1
 90
        6
176
     1
 90
        2
176
     1
 62
     7
176
     1
 90
        5
176
     1
 90
        0
176
     1
 90
        0
176
     1
290
     0
176
     1
 90
        1
176
     1
 40
0.0
176
     1
 90
        0
176
     1
290
     0
176
     1
290
     1
176
     1
290
     1
176
     1
290
     0
176
     1
290
     0
176
     1
290
     0
176
     1
290
     0
176
     1
290
     0
176
     1
290
     0
176
     1
 90
       50
176
     1
 40
0.0
176
     1
 40
1.0
176
     1
 90
        0
176
     1
 62
    18
176
     1
 90
       50
176
     1
 90
        3
176
     1
 62
     5
420
      255
176
     1
290
     0
176
     1
 90
       50
176
     1
 90
       50
176
     1
 90
       50
176
     1
290
     0
176
     1
 90
       50
176
     1
 62
   256
176
     0
 40
1.0
176
     0
 90
        2
176
     1
  1
strokes_ogs.tif
176
     1
290
     0
176
     1
 40
1.0
176
     1
 40
1.0
176
     1
1001
ACAD
1000
AcDbSavedByObjectVersion
1070
     0
  0
VISUALSTYLE
  5
2B
102
{ACAD_REACTORS
330
2A
102
}
330
2A
100
AcDbVisualStyle
  2
Flat
 70
     0
177
     3
291
     1
 70
    58
 90
        2
176
     1
 90
        1
176
     1
 90
        1
176
     1
 90
        2
176
     1
 40
0.6
176
     1
 40
30.0
176
     1
 62
     7
420
 16777215
176
     1
 90
        0
176
     1
 90
        0
176
     1
 62
     7
176
     1
 62
   257
176
     1
 90
        1
176
     1
 90
        1
176
     1
 40
1.0
176
     1
 90
        8
176
     1
 62
     7
176
     1
 40
1.0
176
     1
 90
        1
176
     1
 90
        6
176
     1
 90
        2
176
     1
 62
     7
176
     1
 90
        5
176
     1
 90
        0
176
     1
 90
        0
176
     1
290
     0
176
     1
 90
       13
176
     1
 40
0.0
176
     1
 90
        0
176
     1
290
     0
176
     1
290
     1
176
     1
290
     1
176
     1
290
     0
176
     1
290
     0
176
     1
290
     0
176
     1
290
     0
176
     1
290
     0
176
     1
290
     0
176
     1
 90
       50
176
     1
 40
0.0
176
     1
 40
1.0
176
     1
 90
        0
176
     1
 62
    18
176
     1
 90
       50
176
     1
 90
        3
176
     1
 62
     5
420
      255
176
     1
290
     0
176
     1
 90
       50
176
     1
 90
       50
176
     1
 90
       50
176
     1
290
     0
176
     1
 90
       50
176
     1
 62
   256
176
     0
 40
1.0
176
     0
 90
        2
176
     1
  1
strokes_ogs.tif
176
     1
290
     0
176
     1
 40
1.0
176
     1
 40
1.0
176
     1
1001
ACAD
1000
AcDbSavedByObjectVersion
1070
     0
  0
VISUALSTYLE
  5
2C
102
{ACAD_REACTORS
330
2A
102
}
330
2A
100
AcDbVisualStyle
  2
FlatWithEdges
 70
     1
177
     3
291
     1
 70
    58
 90
        2
176
     1
 90
        1
176
     1
 90
        1
176
     1
 90
        2
176
     1
 40
0.6
176
     1
 40
30.0
176
     1
 62
     7
420
 16777215
176
     1
 90
        1
176
     1
 90
        0
176
     1
 62
     7
176
     1
 62
   257
176
     1
 90
        1
176
     1
 90
        1
176
     1
 40
1.0
176
     1
 90
        0
176
     1
 62
   257
176
     1
 40
1.0
176
     1
 90
        1
176
     1
 90
        6
176
     1
 90
        2
176
     1
 62
     7
176
     1
 90
        5
176
     1
 90
        0
176
     1
 90
        0
176
     1
290
     0
176
     1
 90
       13
176
     1
 40
0.0
176
     1
 90
        0
176
     1
290
     0
176
     1
290
     1
176
     1
290
     1
176
     1
290
     0
176
     1
290
     0
176
     1
290
     0
176
     1
290
     0
176
     1
290
     0
176
     1
290
     0
176
     1
 90
       50
176
     1
 40
0.0
176
     1
 40
1.0
176
     1
 90
        0
176
     1
 62
    18
176
     1
 90
       50
176
     1
 90
        3
176
     1
 62
     5
420
      255
176
     1
290
     0
176
     1
 90
       50
176
     1
 90
       50
176
     1
 90
       50
176
     1
290
     0
176
     1
 90
       50
176
     1
 62
   256
176
     0
 40
1.0
176
     0
 90
        2
176
     1
  1
strokes_ogs.tif
176
     1
290
     0
176
     1
 40
1.0
176
     1
 40
1.0
176
     1
1001
ACAD
1000
AcDbSavedByObjectVersion
1070
     0
  0
VISUALSTYLE
  5
2D
102
{ACAD_REACTORS
330
2A
102
}
330
2A
100
AcDbVisualStyle
  2
Gouraud
 70
     2
177
     3
291
     1
 70
    58
 90
        2
176
     1
 90
        2
176
     1
 90
        1
176
     1
 90
        2
176
     1
 40
0.6
176
     1
 40
30.0
176
     1
 62
     7
420
 16777215
176
     1
 90
        0
176
     1
 90
        0
176
     1
 62
     7
176
     1
 62
   257
176
     1
 90
        1
176
     1
 90
        1
176
     1
 40
1.0
176
     1
 90
        0
176
     1
 62
     7
176
     1
 40
1.0
176
     1
 90
        1
176
     1
 90
        6
176
     1
 90
        2
176
     1
 62
     7
176
     1
 90
        5
176
     1
 90
        0
176
     1
 90
        0
176
     1
290
     0
176
     1
 90
       13
176
     1
 40
0.0
176
     1
 90
        0
176
     1
290
     0
176
     1
290
     1
176
     1
290
     1
176
     1
290
     0
176
     1
290
     0
176
     1
290
     0
176
     1
290
     0
176
     1
290
     0
176
     1
290
     0
176
     1
 90
       50
176
     1
 40
0.0
176
     1
 40
1.0
176
     1
 90
        0
176
     1
 62
    18
176
     1
 90
       50
176
     1
 90
        3
176
     1
 62
     5
420
      255
176
     1
290
     0
176
     1
 90
       50
176
     1
 90
       50
176
     1
 90
       50
176
     1
290
     0
176
     1
 90
       50
176
     1
 62
   256
176
     0
 40
1.0
176
     0
 90
        2
176
     1
  1
strokes_ogs.tif
176
     1
290
     0
176
     1
 40
1.0
176
     1
 40
1.0
176
     1
1001
ACAD
1000
AcDbSavedByObjectVersion
1070
     0
  0
VISUALSTYLE
  5
2E
102
{ACAD_REACTORS
330
2A
102
}
330
2A
100
AcDbVisualStyle
  2
GouraudWithEdges
 70
     3
177
     3
291
     1
 70
    58
 90
        2
176
     1
 90
        2
176
     1
 90
        1
176
     1
 90
        2
176
     1
 40
0.6
176
     1
 40
30.0
176
     1
 62
     7
420
 16777215
176
     1
 90
        1
176
     1
 90
        0
176
     1
 62
     7
176
     1
 62
   257
176
     1
 90
        1
176
     1
 90
        1
176
     1
 40
1.0
176
     1
 90
        0
176
     1
 62
   257
176
     1
 40
1.0
176
     1
 90
        1
176
     1
 90
        6
176
     1
 90
        2
176
     1
 62
     7
176
     1
 90
        5
176
     1
 90
        0
176
     1
 90
        0
176
     1
290
     0
176
     1
 90
       13
176
     1
 40
0.0
176
     1
 90
        0
176
     1
290
     0
176
     1
290
     1
176
     1
290
     1
176
     1
290
     0
176
     1
290
     0
176
     1
290
     0
176
     1
290
     0
176
     1
290
     0
176
     1
290
     0
176
     1
 90
       50
176
     1
 40
0.0
176
     1
 40
1.0
176
     1
 90
        0
176
     1
 62
    18
176
     1
 90
       50
176
     1
 90
        3
176
     1
 62
     5
420
      255
176
     1
290
     0
176
     1
 90
       50
176
     1
 90
       50
176
     1
 90
       50
176
     1
290
     0
176
     1
 90
       50
176
     1
 62
   256
176
     0
 40
1.0
176
     0
 90
        2
176
     1
  1
strokes_ogs.tif
176
     1
290
     0
176
     1
 40
1.0
176
     1
 40
1.0
176
     1
1001
ACAD
1000
AcDbSavedByObjectVersion
1070
     0
  0
VISUALSTYLE
  5
31
102
{ACAD_REACTORS
330
2A
102
}
330
2A
100
AcDbVisualStyle
  2
Hidden
 70
     6
177
     3
291
     0
 70
    58
 90
        1
176
     1
 90
        2
176
     1
 90
        2
176
     1
 90
        0
176
     1
 40
0.6
176
     1
 40
30.0
176
     1
 62
     7
420
 16777215
176
     1
 90
        2
176
     1
 90
        2
176
     1
 62
     7
176
     1
 62
   257
176
     1
 90
        2
176
     1
 90
        1
176
     1
 40
40.0
176
     1
 90
        0
176
     1
 62
   257
176
     1
 40
1.0
176
     1
 90
        1
176
     1
 90
        6
176
     1
 90
        2
176
     1
 62
     7
176
     1
 90
        3
176
     1
 90
        0
176
     1
 90
        0
176
     1
290
     0
176
     1
 90
        1
176
     1
 40
0.0
176
     1
 90
        0
176
     1
290
     0
176
     1
290
     1
176
     1
290
     1
176
     1
290
     0
176
     1
290
     0
176
     1
290
     0
176
     1
290
     0
176
     1
290
     0
176
     1
290
     0
176
     1
 90
       50
176
     1
 40
0.0
176
     1
 40
1.0
176
     1
 90
        0
176
     1
 62
    18
176
     1
 90
       50
176
     1
 90
        3
176
     1
 62
     5
420
      255
176
     1
290
     0
176
     1
 90
       50
176
     1
 90
       50
176
     1
 90
       50
176
     1
290
     0
176
     1
 90
       50
176
     1
 62
   256
176
     0
 40
1.0
176
     0
 90
        2
176
     1
  1
strokes_ogs.tif
176
     1
290
     0
176
     1
 40
1.0
176
     1
 40
1.0
176
     1
1001
ACAD
1000
AcDbSavedByObjectVersion
1070
     0
  0
VISUALSTYLE
  5
3B
102
{ACAD_REACTORS
330
2A
102
}
330
2A
100
AcDbVisualStyle
  2
JitterOff
 70
    20
177
     3
291
     1
 70
    58
 90
        2
176
     0
 90
        2
176
     0
 90
        0
176
     0
 90
        0
176
     0
 40
0.6
176
     0
 40
30.0
176
     0
 62
     7
420
 16777215
176
     0
 90
        1
176
     0
 90
        4
176
     0
 62
     7
176
     0
 62
   257
176
     0
 90
        1
176
     0
 90
        1
176
     0
 40
1.0
176
     0
 90
       10
176
     2
 62
     7
176
     0
 40
1.0
176
     0
 90
        1
176
     0
 90
        6
176
     0
 90
        2
176
     0
 62
     7
176
     0
 90
        5
176
     0
 90
        0
176
     0
 90
        0
176
     0
290
     0
176
     0
 90
        1
176
     0
 40
0.0
176
     0
 90
        0
176
     0
290
     0
176
     0
290
     1
176
     0
290
     1
176
     0
290
     0
176
     0
290
     0
176
     0
290
     0
176
     0
290
     0
176
     0
290
     0
176
     0
290
     0
176
     0
 90
       50
176
     0
 40
0.0
176
     0
 40
1.0
176
     0
 90
        0
176
     0
 62
    18
176
     0
 90
       50
176
     0
 90
        3
176
     0
 62
     5
420
      255
176
     0
290
     0
176
     0
 90
       50
176
     0
 90
       50
176
     0
 90
       50
176
     0
290
     0
176
     0
 90
       50
176
     0
 62
   256
176
     0
 40
1.0
176
     0
 90
        2
176
     0
  1
strokes_ogs.tif
176
     0
290
     0
176
     0
 40
1.0
176
     0
 40
1.0
176
     0
1001
ACAD
1000
AcDbSavedByObjectVersion
1070
     0
  0
VISUALSTYLE
  5
38
102
{ACAD_REACTORS
330
2A
102
}
330
2A
100
AcDbVisualStyle
  2
Linepattern
 70
    14
177
     3
291
     1
 70
    58
 90
        2
176
     1
 90
        2
176
     1
 90
        0
176
     1
 90
        0
176
     1
 40
0.6
176
     1
 40
30.0
176
     1
 62
     7
420
 16777215
176
     1
 90
        1
176
     1
 90
        4
176
     1
 62
     7
176
     1
 62
   257
176
     1
 90
        7
176
     1
 90
        7
176
     1
 40
1.0
176
     1
 90
        8
176
     1
 62
     7
176
     1
 40
1.0
176
     1
 90
        1
176
     1
 90
        6
176
     1
 90
        2
176
     1
 62
     7
176
     1
 90
        5
176
     1
 90
        0
176
     1
 90
        0
176
     1
290
     0
176
     1
 90
        1
176
     1
 40
0.0
176
     1
 90
        0
176
     1
290
     0
176
     1
290
     1
176
     1
290
     1
176
     1
290
     0
176
     1
290
     0
176
     1
290
     0
176
     1
290
     0
176
     1
290
     0
176
     1
290
     0
176
     1
 90
       50
176
     1
 40
0.0
176
     1
 40
1.0
176
     1
 90
        0
176
     1
 62
    18
176
     1
 90
       50
176
     1
 90
        3
176
     1
 62
     5
420
      255
176
     1
290
     0
176
     1
 90
       50
176
     1
 90
       50
176
     1
 90
       50
176
     1
290
     0
176
     1
 90
       50
176
     1
 62
   256
176
     0
 40
1.0
176
     0
 90
        2
176
     1
  1
strokes_ogs.tif
176
     1
290
     0
176
     1
 40
1.0
176
     1
 40
1.0
176
     1
1001
ACAD
1000
AcDbSavedByObjectVersion
1070
     0
  0
VISUALSTYLE
  5
3C
102
{ACAD_REACTORS
330
2A
102
}
330
2A
100
AcDbVisualStyle
  2
OverhangOff
 70
    21
177
     3
291
     1
 70
    58
 90
        2
176
     0
 90
        2
176
     0
 90
        0
176
     0
 90
        0
176
     0
 40
0.6
176
     0
 40
30.0
176
     0
 62
     7
420
 16777215
176
     0
 90
        1
176
     0
 90
        4
176
     0
 62
     7
176
     0
 62
   257
176
     0
 90
        1
176
     0
 90
        1
176
     0
 40
1.0
176
     0
 90
        9
176
     2
 62
     7
176
     0
 40
1.0
176
     0
 90
        1
176
     0
 90
        6
176
     0
 90
        2
176
     0
 62
     7
176
     0
 90
        5
176
     0
 90
        0
176
     0
 90
        0
176
     0
290
     0
176
     0
 90
        1
176
     0
 40
0.0
176
     0
 90
        0
176
     0
290
     0
176
     0
290
     1
176
     0
290
     1
176
     0
290
     0
176
     0
290
     0
176
     0
290
     0
176
     0
290
     0
176
     0
290
     0
176
     0
290
     0
176
     0
 90
       50
176
     0
 40
0.0
176
     0
 40
1.0
176
     0
 90
        0
176
     0
 62
    18
176
     0
 90
       50
176
     0
 90
        3
176
     0
 62
     5
420
      255
176
     0
290
     0
176
     0
 90
       50
176
     0
 90
       50
176
     0
 90
       50
176
     0
290
     0
176
     0
 90
       50
176
     0
 62
   256
176
     0
 40
1.0
176
     0
 90
        2
176
     0
  1
strokes_ogs.tif
176
     0
290
     0
176
     0
 40
1.0
176
     0
 40
1.0
176
     0
1001
ACAD
1000
AcDbSavedByObjectVersion
1070
     0
  0
VISUALSTYLE
  5
33
102
{ACAD_REACTORS
330
2A
102
}
330
2A
100
AcDbVisualStyle
  2
Realistic
 70
     8
177
     3
291
     0
 70
    58
 90
        2
176
     1
 90
        3
176
     1
 90
        0
176
     1
 90
        2
176
     1
 40
0.6
176
     1
 40
30.0
176
     1
 62
     7
420
 16777215
176
     1
 90
        0
176
     1
 90
        0
176
     1
 62
     7
176
     1
 62
   257
176
     1
 90
        1
176
     1
 90
        1
176
     1
 40
1.0
176
     1
 90
        8
176
     1
 62
   257
176
     1
 40
1.0
176
     1
 90
        1
176
     1
 90
        6
176
     1
 90
        2
176
     1
 62
     7
176
     1
 90
        3
176
     1
 90
        0
176
     1
 90
        0
176
     1
290
     0
176
     1
 90
       13
176
     1
 40
0.0
176
     1
 90
        0
176
     1
290
     0
176
     1
290
     1
176
     1
290
     1
176
     1
290
     0
176
     1
290
     0
176
     1
290
     0
176
     1
290
     0
176
     1
290
     0
176
     1
290
     0
176
     1
 90
       50
176
     1
 40
0.0
176
     1
 40
1.0
176
     1
 90
        0
176
     1
 62
    18
176
     1
 90
       50
176
     1
 90
        3
176
     1
 62
     5
420
      255
176
     1
290
     0
176
     1
 90
       50
176
     1
 90
       50
176
     1
 90
       50
176
     1
290
     0
176
     1
 90
       50
176
     1
 62
   256
176
     0
 40
1.0
176
     0
 90
        2
176
     1
  1
strokes_ogs.tif
176
     1
290
     0
176
     1
 40
1.0
176
     1
 40
1.0
176
     1
1001
ACAD
1000
AcDbSavedByObjectVersion
1070
     0
  0
VISUALSTYLE
  5
42
102
{ACAD_REACTORS
330
2A
102
}
330
2A
100
AcDbVisualStyle
  2
Shaded
 70
    27
177
     3
291
     0
 70
    58
 90
        2
176
     1
 90
        2
176
     1
 90
        1
176
     1
 90
        2
176
     1
 40
0.6
176
     1
 40
30.0
176
     1
 62
     7
420
 16777215
176
     1
 90
        0
176
     1
 90
        4
176
     1
 62
     7
176
     1
 62
   257
176
     1
 90
        1
176
     1
 90
        1
176
     1
 40
1.0
176
     1
 90
        8
176
     1
 62
   257
176
     1
 40
1.0
176
     1
 90
        1
176
     1
 90
        6
176
     1
 90
        2
176
     1
 62
     8
420
  7895160
176
     1
 90
        3
176
     1
 90
        0
176
     1
 90
        0
176
     1
290
     0
176
     1
 90
        5
176
     1
 40
0.0
176
     1
 90
        0
176
     1
290
     0
176
     1
290
     1
176
     1
290
     1
176
     1
290
     0
176
     1
290
     0
176
     1
290
     0
176
     1
290
     0
176
     1
290
     0
176
     1
290
     0
176
     1
 90
       50
176
     1
 40
0.0
176
     1
 40
1.0
176
     1
 90
        0
176
     1
 62
    18
176
     1
 90
       50
176
     1
 90
        3
176
     1
 62
     5
420
      255
176
     1
290
     0
176
     1
 90
       50
176
     1
 90
       50
176
     1
 90
       50
176
     1
290
     0
176
     1
 90
       50
176
     1
 62
   256
176
     0
 40
1.0
176
     0
 90
        2
176
     1
  1
strokes_ogs.tif
176
     1
290
     0
176
     1
 40
1.0
176
     1
 40
1.0
176
     1
1001
ACAD
1000
AcDbSavedByObjectVersion
1070
     0
  0
VISUALSTYLE
  5
41
102
{ACAD_REACTORS
330
2A
102
}
330
2A
100
AcDbVisualStyle
  2
Shaded with edges
 70
    26
177
     3
291
     0
 70
    58
 90
        2
176
     1
 90
        2
176
     1
 90
        1
176
     1
 90
        2
176
     1
 40
0.6
176
     1
 40
30.0
176
     1
 62
     7
420
 16777215
176
     1
 90
        1
176
     1
 90
        2
176
     1
 62
     7
176
     1
 62
   257
176
     1
 90
        2
176
     1
 90
        1
176
     1
 40
1.0
176
     1
 90
        8
176
     1
 62
   257
176
     1
 40
1.0
176
     1
 90
        1
176
     1
 90
        6
176
     1
 90
        2
176
     1
 62
     7
176
     1
 90
        3
176
     1
 90
        0
176
     1
 90
        0
176
     1
290
     0
176
     1
 90
        5
176
     1
 40
0.0
176
     1
 90
        0
176
     1
290
     0
176
     1
290
     1
176
     1
290
     1
176
     1
290
     0
176
     1
290
     0
176
     1
290
     0
176
     1
290
     0
176
     1
290
     0
176
     1
290
     0
176
     1
 90
       50
176
     1
 40
0.0
176
     1
 40
1.0
176
     1
 90
        0
176
     1
 62
    18
176
     1
 90
       50
176
     1
 90
        3
176
     1
 62
     5
420
      255
176
     1
290
     0
176
     1
 90
       50
176
     1
 90
       50
176
     1
 90
       50
176
     1
290
     0
176
     1
 90
       50
176
     1
 62
   256
176
     0
 40
1.0
176
     0
 90
        2
176
     1
  1
strokes_ogs.tif
176
     1
290
     0
176
     1
 40
1.0
176
     1
 40
1.0
176
     1
1001
ACAD
1000
AcDbSavedByObjectVersion
1070
     0
  0
VISUALSTYLE
  5
3E
102
{ACAD_REACTORS
330
2A
102
}
330
2A
100
AcDbVisualStyle
  2
Shades of Gray
 70
    23
177
     3
291
     0
 70
    58
 90
        2
176
     1
 90
        2
176
     1
 90
        3
176
     1
 90
        0
176
     1
 40
0.6
176
     1
 40
30.0
176
     1
 62
     7
420
 16777215
176
     1
 90
        2
176
     1
 90
        2
176
     1
 62
     7
176
     1
 62
     7
176
     1
 90
        1
176
     1
 90
        1
176
     1
 40
40.0
176
     1
 90
        8
176
     1
 62
     7
176
     1
 40
1.0
176
     1
 90
        1
176
     1
 90
        6
176
     1
 90
        2
176
     1
 62
     7
176
     1
 90
        3
176
     1
 90
        0
176
     1
 90
        0
176
     1
290
     0
176
     1
 90
        1
176
     1
 40
0.0
176
     1
 90
        0
176
     1
290
     0
176
     1
290
     1
176
     1
290
     1
176
     1
290
     0
176
     1
290
     0
176
     1
290
     0
176
     1
290
     0
176
     1
290
     0
176
     1
290
     0
176
     1
 90
       50
176
     1
 40
0.0
176
     1
 40
1.0
176
     1
 90
        0
176
     1
 62
    18
176
     1
 90
       50
176
     1
 90
        3
176
     1
 62
     5
420
      255
176
     1
290
     0
176
     1
 90
       50
176
     1
 90
       50
176
     1
 90
       50
176
     1
290
     0
176
     1
 90
       50
176
     1
 62
   256
176
     0
 40
1.0
176
     0
 90
        2
176
     1
  1
strokes_ogs.tif
176
     1
290
     0
176
     1
 40
1.0
176
     1
 40
1.0
176
     1
1001
ACAD
1000
AcDbSavedByObjectVersion
1070
     0
  0
VISUALSTYLE
  5
3F
102
{ACAD_REACTORS
330
2A
102
}
330
2A
100
AcDbVisualStyle
  2
Sketchy
 70
    24
177
     3
291
     0
 70
    58
 90
        1
176
     1
 90
        2
176
     1
 90
        2
176
     1
 90
        0
176
     1
 40
0.6
176
     1
 40
30.0
176
     1
 62
     7
420
 16777215
176
     1
 90
        2
176
     1
 90
        2
176
     1
 62
     7
176
     1
 62
     7
176
     1
 90
        1
176
     1
 90
        1
176
     1
 40
40.0
176
     1
 90
       11
176
     1
 62
     7
176
     1
 40
1.0
176
     1
 90
        1
176
     1
 90
        6
176
     1
 90
        2
176
     1
 62
     7
176
     1
 90
        6
176
     1
 90
        0
176
     1
 90
        0
176
     1
290
     0
176
     1
 90
        1
176
     1
 40
0.0
176
     1
 90
        0
176
     1
290
     0
176
     1
290
     1
176
     1
290
     1
176
     1
290
     0
176
     1
290
     0
176
     1
290
     0
176
     1
290
     0
176
     1
290
     0
176
     1
290
     0
176
     1
 90
       50
176
     1
 40
0.0
176
     1
 40
1.0
176
     1
 90
        0
176
     1
 62
    18
176
     1
 90
       50
176
     1
 90
        3
176
     1
 62
     5
420
      255
176
     1
290
     0
176
     1
 90
       50
176
     1
 90
       50
176
     1
 90
       50
176
     1
290
     0
176
     1
 90
       50
176
     1
 62
   256
176
     0
 40
1.0
176
     0
 90
        2
176
     1
  1
strokes_ogs.tif
176
     1
290
     0
176
     1
 40
1.0
176
     1
 40
1.0
176
     1
1001
ACAD
1000
AcDbSavedByObjectVersion
1070
     0
  0
VISUALSTYLE
  5
37
102
{ACAD_REACTORS
330
2A
102
}
330
2A
100
AcDbVisualStyle
  2
Thicken
 70
    13
177
     3
291
     1
 70
    58
 90
        2
176
     1
 90
        2
176
     1
 90
        0
176
     1
 90
        0
176
     1
 40
0.6
176
     1
 40
30.0
176
     1
 62
     7
420
 16777215
176
     1
 90
        1
176
     1
 90
        4
176
     1
 62
     7
176
     1
 62
   257
176
     1
 90
        1
176
     1
 90
        1
176
     1
 40
1.0
176
     1
 90
       12
176
     1
 62
     7
176
     1
 40
1.0
176
     1
 90
        1
176
     1
 90
        6
176
     1
 90
        2
176
     1
 62
     7
176
     1
 90
        5
176
     1
 90
        0
176
     1
 90
        0
176
     1
290
     0
176
     1
 90
        1
176
     1
 40
0.0
176
     1
 90
        0
176
     1
290
     0
176
     1
290
     1
176
     1
290
     1
176
     1
290
     0
176
     1
290
     0
176
     1
290
     0
176
     1
290
     0
176
     1
290
     0
176
     1
290
     0
176
     1
 90
       50
176
     1
 40
0.0
176
     1
 40
1.0
176
     1
 90
        0
176
     1
 62
    18
176
     1
 90
       50
176
     1
 90
        3
176
     1
 62
     5
420
      255
176
     1
290
     0
176
     1
 90
       50
176
     1
 90
       50
176
     1
 90
       50
176
     1
290
     0
176
     1
 90
       50
176
     1
 62
   256
176
     0
 40
1.0
176
     0
 90
        2
176
     1
  1
strokes_ogs.tif
176
     1
290
     0
176
     1
 40
1.0
176
     1
 40
1.0
176
     1
1001
ACAD
1000
AcDbSavedByObjectVersion
1070
     0
  0
VISUALSTYLE
  5
30
102
{ACAD_REACTORS
330
2A
102
}
330
2A
100
AcDbVisualStyle
  2
Wireframe
 70
     5
177
     3
291
     0
 70
    58
 90
        0
176
     1
 90
        2
176
     1
 90
        0
176
     1
 90
        0
176
     1
 40
0.6
176
     1
 40
30.0
176
     1
 62
     7
420
 16777215
176
     1
 90
        1
176
     1
 90
        4
176
     1
 62
     7
176
     1
 62
   257
176
     1
 90
        1
176
     1
 90
        1
176
     1
 40
1.0
176
     1
 90
        0
176
     1
 62
   257
176
     1
 40
1.0
176
     1
 90
        1
176
     1
 90
        6
176
     1
 90
        2
176
     1
 62
     7
176
     1
 90
        3
176
     1
 90
        0
176
     1
 90
        0
176
     1
290
     0
176
     1
 90
        1
176
     1
 40
0.0
176
     1
 90
        0
176
     1
290
     0
176
     1
290
     1
176
     1
290
     1
176
     1
290
     0
176
     1
290
     0
176
     1
290
     0
176
     1
290
     0
176
     1
290
     0
176
     1
290
     0
176
     1
 90
       50
176
     1
 40
0.0
176
     1
 40
1.0
176
     1
 90
        0
176
     1
 62
    18
176
     1
 90
       50
176
     1
 90
        3
176
     1
 62
     5
420
      255
176
     1
290
     0
176
     1
 90
       50
176
     1
 90
       50
176
     1
 90
       50
176
     1
290
     0
176
     1
 90
       50
176
     1
 62
   256
176
     0
 40
1.0
176
     0
 90
        2
176
     1
  1
strokes_ogs.tif
176
     1
290
     0
176
     1
 40
1.0
176
     1
 40
1.0
176
     1
1001
ACAD
1000
AcDbSavedByObjectVersion
1070
     0
  0
VISUALSTYLE
  5
40
102
{ACAD_REACTORS
330
2A
102
}
330
2A
100
AcDbVisualStyle
  2
X-Ray
 70
    25
177
     3
291
     0
 70
    58
 90
        2
176
     1
 90
        2
176
     1
 90
        1
176
     1
 90
        1
176
     1
 40
0.5
176
     1
 40
30.0
176
     1
 62
     7
420
 16777215
176
     1
 90
        1
176
     1
 90
        0
176
     1
 62
     7
176
     1
 62
   257
176
     1
 90
        1
176
     1
 90
        1
176
     1
 40
1.0
176
     1
 90
        8
176
     1
 62
     7
176
     1
 40
1.0
176
     1
 90
        1
176
     1
 90
        6
176
     1
 90
        2
176
     1
 62
     7
176
     1
 90
        3
176
     1
 90
        0
176
     1
 90
        0
176
     1
290
     0
176
     1
 90
       13
176
     1
 40
0.0
176
     1
 90
        0
176
     1
290
     0
176
     1
290
     1
176
     1
290
     1
176
     1
290
     0
176
     1
290
     0
176
     1
290
     0
176
     1
290
     0
176
     1
290
     0
176
     1
290
     0
176
     1
 90
       50
176
     1
 40
0.0
176
     1
 40
1.0
176
     1
 90
        0
176
     1
 62
    18
176
     1
 90
       50
176
     1
 90
        3
176
     1
 62
     5
420
      255
176
     1
290
     0
176
     1
 90
       50
176
     1
 90
       50
176
     1
 90
       50
176
     1
290
     0
176
     1
 90
       50
176
     1
 62
   256
176
     0
 40
1.0
176
     0
 90
        2
176
     1
  1
strokes_ogs.tif
176
     1
290
     0
176
     1
 40
1.0
176
     1
 40
1.0
176
     1
1001
ACAD
1000
AcDbSavedByObjectVersion
1070
     0
  0
DICTIONARYVAR
  5
82
102
{ACAD_REACTORS
330
81
102
}
330
81
100
DictionaryVariables
280
     0
  1
1:1
  0
DICTIONARYVAR
  5
87
102
{ACAD_REACTORS
330
81
102
}
330
81
100
DictionaryVariables
280
     0
  1
3.500000
  0
DICTIONARYVAR
  5
88
102
{ACAD_REACTORS
330
81
102
}
330
81
100
DictionaryVariables
280
     0
  1
acadiso.lin
  0
DICTIONARYVAR
  5
84
102
{ACAD_REACTORS
330
81
102
}
330
81
100
DictionaryVariables
280
     0
  1
STANDARD
  0
DICTIONARYVAR
  5
83
102
{ACAD_REACTORS
330
81
102
}
330
81
100
DictionaryVariables
280
     0
  1
STANDARD
  0
DICTIONARYVAR
  5
D4
102
{ACAD_REACTORS
330
81
102
}
330
81
100
DictionaryVariables
280
     0
  1
Metric50
  0
DICTIONARYVAR
  5
D5
102
{ACAD_REACTORS
330
81
102
}
330
81
100
DictionaryVariables
280
     0
  1
Metric50
  0
DICTIONARY
  5
C396
330
BFF7
100
AcDbDictionary
280
     1
281
     1
  3
ACAD_XREC_ROUNDTRIP
360
C397
  0
DICTIONARY
  5
C392
330
8C
100
AcDbDictionary
280
     1
281
     1
  3
ACAD_XREC_ROUNDTRIP
360
C393
  0
DICTIONARY
  5
C394
330
BFF6
100
AcDbDictionary
280
     1
281
     1
  3
ACAD_XREC_ROUNDTRIP
360
C395
  0
DICTIONARY
  5
C390
330
8B
100
AcDbDictionary
280
     1
281
     1
  3
ACAD_XREC_ROUNDTRIP
360
C391
  0
DICTIONARY
  5
171
330
6A
100
AcDbDictionary
280
     1
281
     1
  3
ACAD_ROUNDTRIP_2008_TABLESTYLE_CELLSTYLEMAP
360
C38E
  0
XRECORD
  5
C397
102
{ACAD_REACTORS
330
C396
102
}
330
C396
100
AcDbXrecord
280
     1
102
DISPLAYNAME
  1
Imperial24
102
FLAGS
 90
        0
  0
XRECORD
  5
C393
102
{ACAD_REACTORS
330
C392
102
}
330
C392
100
AcDbXrecord
280
     1
102
DISPLAYNAME
  1
Metric50
102
FLAGS
 90
        0
  0
XRECORD
  5
C395
102
{ACAD_REACTORS
330
C394
102
}
330
C394
100
AcDbXrecord
280
     1
102
DISPLAYNAME
  1
Imperial24
102
FLAGS
 90
        0
  0
XRECORD
  5
C391
102
{ACAD_REACTORS
330
C390
102
}
330
C390
100
AcDbXrecord
280
     1
102
DISPLAYNAME
  1
Metric50
102
FLAGS
 90
        0
  0
CELLSTYLEMAP
  5
C38E
102
{ACAD_REACTORS
330
171
102
}
330
171
100
AcDbCellStyleMap
 90
        3
300
CELLSTYLE
  1
TABLEFORMAT_BEGIN
 90
        5
170
     1
 91
        0
 92
    32768
 62
   257
 93
        1
300
CONTENTFORMAT
  1
CONTENTFORMAT_BEGIN
 90
        0
 91
        0
 92
        4
 93
        0
300

 40
0.0
140
1.0
 94
        5
 62
     0
340
11
144
6.0
309
CONTENTFORMAT_END
171
     1
301
MARGIN
  1
CELLMARGIN_BEGIN
 40
1.5
 40
1.5
 40
1.5
 40
1.5
 40
0.18
 40
0.18
309
CELLMARGIN_END
 94
        6
 95
        1
302
GRIDFORMAT
  1
GRIDFORMAT_BEGIN
 90
        0
 91
        1
 62
     0
 92
       -2
340
14
 93
        0
 40
0.045
309
GRIDFORMAT_END
 95
        2
302
GRIDFORMAT
  1
GRIDFORMAT_BEGIN
 90
        0
 91
        1
 62
     0
 92
       -2
340
14
 93
        0
 40
0.045
309
GRIDFORMAT_END
 95
        4
302
GRIDFORMAT
  1
GRIDFORMAT_BEGIN
 90
        0
 91
        1
 62
     0
 92
       -2
340
14
 93
        0
 40
0.045
309
GRIDFORMAT_END
 95
        8
302
GRIDFORMAT
  1
GRIDFORMAT_BEGIN
 90
        0
 91
        1
 62
     0
 92
       -2
340
14
 93
        0
 40
0.045
309
GRIDFORMAT_END
 95
       16
302
GRIDFORMAT
  1
GRIDFORMAT_BEGIN
 90
        0
 91
        1
 62
     0
 92
       -2
340
14
 93
        0
 40
0.045
309
GRIDFORMAT_END
 95
       32
302
GRIDFORMAT
  1
GRIDFORMAT_BEGIN
 90
        0
 91
        1
 62
     0
 92
       -2
340
14
 93
        0
 40
0.045
309
GRIDFORMAT_END
309
TABLEFORMAT_END
  1
CELLSTYLE_BEGIN
 90
        1
 91
        1
300
_TITLE
309
CELLSTYLE_END
300
CELLSTYLE
  1
TABLEFORMAT_BEGIN
 90
        5
170
     1
 91
        0
 92
        0
 62
   257
 93
        1
300
CONTENTFORMAT
  1
CONTENTFORMAT_BEGIN
 90
        0
 91
        0
 92
        4
 93
        0
300

 40
0.0
140
1.0
 94
        5
 62
     0
340
11
144
4.5
309
CONTENTFORMAT_END
171
     1
301
MARGIN
  1
CELLMARGIN_BEGIN
 40
1.5
 40
1.5
 40
1.5
 40
1.5
 40
0.18
 40
0.18
309
CELLMARGIN_END
 94
        6
 95
        1
302
GRIDFORMAT
  1
GRIDFORMAT_BEGIN
 90
        0
 91
        1
 62
     0
 92
       -2
340
14
 93
        0
 40
0.045
309
GRIDFORMAT_END
 95
        2
302
GRIDFORMAT
  1
GRIDFORMAT_BEGIN
 90
        0
 91
        1
 62
     0
 92
       -2
340
14
 93
        0
 40
0.045
309
GRIDFORMAT_END
 95
        4
302
GRIDFORMAT
  1
GRIDFORMAT_BEGIN
 90
        0
 91
        1
 62
     0
 92
       -2
340
14
 93
        0
 40
0.045
309
GRIDFORMAT_END
 95
        8
302
GRIDFORMAT
  1
GRIDFORMAT_BEGIN
 90
        0
 91
        1
 62
     0
 92
       -2
340
14
 93
        0
 40
0.045
309
GRIDFORMAT_END
 95
       16
302
GRIDFORMAT
  1
GRIDFORMAT_BEGIN
 90
        0
 91
        1
 62
     0
 92
       -2
340
14
 93
        0
 40
0.045
309
GRIDFORMAT_END
 95
       32
302
GRIDFORMAT
  1
GRIDFORMAT_BEGIN
 90
        0
 91
        1
 62
     0
 92
       -2
340
14
 93
        0
 40
0.045
309
GRIDFORMAT_END
309
TABLEFORMAT_END
  1
CELLSTYLE_BEGIN
 90
        2
 91
        1
300
_HEADER
309
CELLSTYLE_END
300
CELLSTYLE
  1
TABLEFORMAT_BEGIN
 90
        5
170
     1
 91
        0
 92
        0
 62
   257
 93
        1
300
CONTENTFORMAT
  1
CONTENTFORMAT_BEGIN
 90
        0
 91
        0
 92
        4
 93
        0
300

 40
0.0
140
1.0
 94
        2
 62
     0
340
11
144
4.5
309
CONTENTFORMAT_END
171
     1
301
MARGIN
  1
CELLMARGIN_BEGIN
 40
1.5
 40
1.5
 40
1.5
 40
1.5
 40
0.18
 40
0.18
309
CELLMARGIN_END
 94
        6
 95
        1
302
GRIDFORMAT
  1
GRIDFORMAT_BEGIN
 90
        0
 91
        1
 62
     0
 92
       -2
340
14
 93
        0
 40
0.045
309
GRIDFORMAT_END
 95
        2
302
GRIDFORMAT
  1
GRIDFORMAT_BEGIN
 90
        0
 91
        1
 62
     0
 92
       -2
340
14
 93
        0
 40
0.045
309
GRIDFORMAT_END
 95
        4
302
GRIDFORMAT
  1
GRIDFORMAT_BEGIN
 90
        0
 91
        1
 62
     0
 92
       -2
340
14
 93
        0
 40
0.045
309
GRIDFORMAT_END
 95
        8
302
GRIDFORMAT
  1
GRIDFORMAT_BEGIN
 90
        0
 91
        1
 62
     0
 92
       -2
340
14
 93
        0
 40
0.045
309
GRIDFORMAT_END
 95
       16
302
GRIDFORMAT
  1
GRIDFORMAT_BEGIN
 90
        0
 91
        1
 62
     0
 92
       -2
340
14
 93
        0
 40
0.045
309
GRIDFORMAT_END
 95
       32
302
GRIDFORMAT
  1
GRIDFORMAT_BEGIN
 90
        0
 91
        1
 62
     0
 92
       -2
340
14
 93
        0
 40
0.045
309
GRIDFORMAT_END
309
TABLEFORMAT_END
  1
CELLSTYLE_BEGIN
 90
        3
 91
        2
300
_DATA
309
CELLSTYLE_END
  0
ENDSEC
  0
EOF
