  0
SECTION
  2
HEADER
  9
$ACADVER
  1
AC1024
  9
$ACADMAINTVER
 70
   205
  9
$DWGCODEPAGE
  3
ANSI_1252
  9
$LASTSAVEDBY
  1
kaschu
  9
$INSBASE
 10
0.0
 20
0.0
 30
0.0
  9
$EXTMIN
 10
-462.6112711999167
 20
-618.5212152776321
 30
-0.0000000000000675
  9
$EXTMAX
 10
871.0951982716101
 20
1053.881371928801
 30
0.0000000000000433
  9
$LIMMIN
 10
0.0
 20
0.0
  9
$LIMMAX
 10
12.0
 20
9.0
  9
$ORTHOMODE
 70
     1
  9
$REGENMODE
 70
     1
  9
$FILLMODE
 70
     1
  9
$QTEXTMODE
 70
     0
  9
$MIRRTEXT
 70
     1
  9
$LTSCALE
 40
1.0
  9
$ATTMODE
 70
     1
  9
$TEXTSIZE
 40
0.2
  9
$TRACEWID
 40
0.05
  9
$TEXTSTYLE
  7
STANDARD
  9
$CLAYER
  8
0
  9
$CELTYPE
  6
BYLAYER
  9
$CECOLOR
 62
   256
  9
$CELTSCALE
 40
1.0
  9
$DISPSILH
 70
     0
  9
$DIMSCALE
 40
1.0
  9
$DIMASZ
 40
0.18
  9
$DIMEXO
 40
0.0625
  9
$DIMDLI
 40
0.38
  9
$DIMRND
 40
0.0
  9
$DIMDLE
 40
0.0
  9
$DIMEXE
 40
0.18
  9
$DIMTP
 40
0.0
  9
$DIMTM
 40
0.0
  9
$DIMTXT
 40
0.18
  9
$DIMCEN
 40
0.09
  9
$DIMTSZ
 40
0.0
  9
$DIMTOL
 70
     0
  9
$DIMLIM
 70
     0
  9
$DIMTIH
 70
     1
  9
$DIMTOH
 70
     1
  9
$DIMSE1
 70
     0
  9
$DIMSE2
 70
     0
  9
$DIMTAD
 70
     0
  9
$DIMZIN
 70
     0
  9
$DIMBLK
  1

  9
$DIMASO
 70
     1
  9
$DIMSHO
 70
     1
  9
$DIMPOST
  1

  9
$DIMAPOST
  1

  9
$DIMALT
 70
     0
  9
$DIMALTD
 70
     2
  9
$DIMALTF
 40
25.4
  9
$DIMLFAC
 40
1.0
  9
$DIMTOFL
 70
     0
  9
$DIMTVP
 40
0.0
  9
$DIMTIX
 70
     0
  9
$DIMSOXD
 70
     0
  9
$DIMSAH
 70
     0
  9
$DIMBLK1
  1

  9
$DIMBLK2
  1

  9
$DIMSTYLE
  2
STANDARD
  9
$DIMCLRD
 70
     0
  9
$DIMCLRE
 70
     0
  9
$DIMCLRT
 70
     0
  9
$DIMTFAC
 40
1.0
  9
$DIMGAP
 40
0.09
  9
$DIMJUST
 70
     0
  9
$DIMSD1
 70
     0
  9
$DIMSD2
 70
     0
  9
$DIMTOLJ
 70
     1
  9
$DIMTZIN
 70
     0
  9
$DIMALTZ
 70
     0
  9
$DIMALTTZ
 70
     0
  9
$DIMUPT
 70
     0
  9
$DIMDEC
 70
     4
  9
$DIMTDEC
 70
     4
  9
$DIMALTU
 70
     2
  9
$DIMALTTD
 70
     2
  9
$DIMTXSTY
  7
STANDARD
  9
$DIMAUNIT
 70
     0
  9
$DIMADEC
 70
     0
  9
$DIMALTRND
 40
0.0
  9
$DIMAZIN
 70
     0
  9
$DIMDSEP
 70
    46
  9
$DIMATFIT
 70
     3
  9
$DIMFRAC
 70
     0
  9
$DIMLDRBLK
  1

  9
$DIMLUNIT
 70
     2
  9
$DIMLWD
 70
    -2
  9
$DIMLWE
 70
    -2
  9
$DIMTMOVE
 70
     0
  9
$DIMFXL
 40
1.0
  9
$DIMFXLON
 70
     0
  9
$DIMJOGANG
 40
0.7853981633974483
  9
$DIMTFILL
 70
     0
  9
$DIMTFILLCLR
 70
     0
  9
$DIMARCSYM
 70
     0
  9
$DIMLTYPE
  6

  9
$DIMLTEX1
  6

  9
$DIMLTEX2
  6

  9
$DIMTXTDIRECTION
 70
     0
  9
$LUNITS
 70
     2
  9
$LUPREC
 70
     4
  9
$SKETCHINC
 40
0.1
  9
$FILLETRAD
 40
0.5
  9
$AUNITS
 70
     0
  9
$AUPREC
 70
     0
  9
$MENU
  1
.
  9
$ELEVATION
 40
0.0
  9
$PELEVATION
 40
0.0
  9
$THICKNESS
 40
0.0
  9
$LIMCHECK
 70
     0
  9
$CHAMFERA
 40
0.5
  9
$CHAMFERB
 40
0.5
  9
$CHAMFERC
 40
1.0
  9
$CHAMFERD
 40
0.0
  9
$SKPOLY
 70
     0
  9
$TDCREATE
 40
2451762.461182755
  9
$TDUCREATE
 40
2451762.419516088
  9
$TDUPDATE
 40
2458515.374094965
  9
$TDUUPDATE
 40
2458515.332428298
  9
$TDINDWG
 40
0.0097007292
  9
$TDUSRTIMER
 40
0.0097003819
  9
$USRTIMER
 70
     1
  9
$ANGBASE
 50
0.0
  9
$ANGDIR
 70
     0
  9
$PDMODE
 70
     0
  9
$PDSIZE
 40
0.0
  9
$PLINEWID
 40
0.0
  9
$SPLFRAME
 70
     0
  9
$SPLINETYPE
 70
     6
  9
$SPLINESEGS
 70
     8
  9
$HANDSEED
  5
6FC
  9
$SURFTAB1
 70
     6
  9
$SURFTAB2
 70
     6
  9
$SURFTYPE
 70
     6
  9
$SURFU
 70
     6
  9
$SURFV
 70
     6
  9
$UCSBASE
  2

  9
$UCSNAME
  2

  9
$UCSORG
 10
0.0
 20
0.0
 30
0.0
  9
$UCSXDIR
 10
1.0
 20
0.0
 30
0.0
  9
$UCSYDIR
 10
0.0
 20
1.0
 30
0.0
  9
$UCSORTHOREF
  2

  9
$UCSORTHOVIEW
 70
     0
  9
$UCSORGTOP
 10
0.0
 20
0.0
 30
0.0
  9
$UCSORGBOTTOM
 10
0.0
 20
0.0
 30
0.0
  9
$UCSORGLEFT
 10
0.0
 20
0.0
 30
0.0
  9
$UCSORGRIGHT
 10
0.0
 20
0.0
 30
0.0
  9
$UCSORGFRONT
 10
0.0
 20
0.0
 30
0.0
  9
$UCSORGBACK
 10
0.0
 20
0.0
 30
0.0
  9
$PUCSBASE
  2

  9
$PUCSNAME
  2

  9
$PUCSORG
 10
0.0
 20
0.0
 30
0.0
  9
$PUCSXDIR
 10
1.0
 20
0.0
 30
0.0
  9
$PUCSYDIR
 10
0.0
 20
1.0
 30
0.0
  9
$PUCSORTHOREF
  2

  9
$PUCSORTHOVIEW
 70
     0
  9
$PUCSORGTOP
 10
0.0
 20
0.0
 30
0.0
  9
$PUCSORGBOTTOM
 10
0.0
 20
0.0
 30
0.0
  9
$PUCSORGLEFT
 10
0.0
 20
0.0
 30
0.0
  9
$PUCSORGRIGHT
 10
0.0
 20
0.0
 30
0.0
  9
$PUCSORGFRONT
 10
0.0
 20
0.0
 30
0.0
  9
$PUCSORGBACK
 10
0.0
 20
0.0
 30
0.0
  9
$USERI1
 70
     0
  9
$USERI2
 70
     0
  9
$USERI3
 70
     0
  9
$USERI4
 70
     0
  9
$USERI5
 70
     0
  9
$USERR1
 40
0.0
  9
$USERR2
 40
0.0
  9
$USERR3
 40
0.0
  9
$USERR4
 40
0.0
  9
$USERR5
 40
0.0
  9
$WORLDVIEW
 70
     1
  9
$SHADEDGE
 70
     3
  9
$SHADEDIF
 70
    70
  9
$TILEMODE
 70
     1
  9
$MAXACTVP
 70
    64
  9
$PINSBASE
 10
0.0
 20
0.0
 30
0.0
  9
$PLIMCHECK
 70
     0
  9
$PEXTMIN
 10
1.000000000000000E+20
 20
1.000000000000000E+20
 30
1.000000000000000E+20
  9
$PEXTMAX
 10
-1.000000000000000E+20
 20
-1.000000000000000E+20
 30
-1.000000000000000E+20
  9
$PLIMMIN
 10
0.0
 20
0.0
  9
$PLIMMAX
 10
12.0
 20
9.0
  9
$UNITMODE
 70
     0
  9
$VISRETAIN
 70
     1
  9
$PLINEGEN
 70
     0
  9
$PSLTSCALE
 70
     1
  9
$TREEDEPTH
 70
  3020
  9
$CMLSTYLE
  2
STANDARD
  9
$CMLJUST
 70
     0
  9
$CMLSCALE
 40
1.0
  9
$PROXYGRAPHICS
 70
     1
  9
$MEASUREMENT
 70
     0
  9
$CELWEIGHT
370
    -1
  9
$ENDCAPS
280
     0
  9
$JOINSTYLE
280
     0
  9
$LWDISPLAY
290
     0
  9
$INSUNITS
 70
     0
  9
$HYPERLINKBASE
  1

  9
$STYLESHEET
  1

  9
$XEDIT
290
     1
  9
$CEPSNTYPE
380
     0
  9
$PSTYLEMODE
290
     1
  9
$FINGERPRINTGUID
  2
{3EF3B1E1-26CC-42C0-AB3B-A518CF65F475}
  9
$VERSIONGUID
  2
{FEA76110-FA95-4FAE-86C5-1FE6596FDA2E}
  9
$EXTNAMES
290
     1
  9
$PSVPSCALE
 40
0.0
  9
$OLESTARTUP
290
     0
  9
$SORTENTS
280
   127
  9
$INDEXCTL
280
     0
  9
$HIDETEXT
280
     0
  9
$XCLIPFRAME
280
     2
  9
$HALOGAP
280
     0
  9
$OBSCOLOR
 70
   257
  9
$OBSLTYPE
280
     0
  9
$INTERSECTIONDISPLAY
280
     0
  9
$INTERSECTIONCOLOR
 70
   257
  9
$DIMASSOC
280
     1
  9
$PROJECTNAME
  1

  9
$CAMERADISPLAY
290
     0
  9
$LENSLENGTH
 40
50.0
  9
$CAMERAHEIGHT
 40
0.0
  9
$STEPSPERSEC
 40
2.0
  9
$STEPSIZE
 40
6.0
  9
$3DDWFPREC
 40
2.0
  9
$PSOLWIDTH
 40
0.25
  9
$PSOLHEIGHT
 40
4.0
  9
$LOFTANG1
 40
1.570796326794896
  9
$LOFTANG2
 40
1.570796326794896
  9
$LOFTMAG1
 40
0.0
  9
$LOFTMAG2
 40
0.0
  9
$LOFTPARAM
 70
     7
  9
$LOFTNORMALS
280
     1
  9
$LATITUDE
 40
37.795
  9
$LONGITUDE
 40
-122.394
  9
$NORTHDIRECTION
 40
0.0
  9
$TIMEZONE
 70
 -8000
  9
$LIGHTGLYPHDISPLAY
280
     1
  9
$TILEMODELIGHTSYNCH
280
     1
  9
$CMATERIAL
347
63B
  9
$SOLIDHIST
280
     0
  9
$SHOWHIST
280
     1
  9
$DWFFRAME
280
     2
  9
$DGNFRAME
280
     0
  9
$REALWORLDSCALE
290
     1
  9
$INTERFERECOLOR
 62
     1
  9
$INTERFEREOBJVS
345
65D
  9
$INTERFEREVPVS
346
65A
  9
$CSHADOW
280
     0
  9
$SHADOWPLANELOCATION
 40
0.0
  0
ENDSEC
  0
SECTION
  2
CLASSES
  0
CLASS
  1
ACDBDICTIONARYWDFLT
  2
AcDbDictionaryWithDefault
  3
ObjectDBX Classes
 90
        0
 91
        1
280
     0
281
     0
  0
CLASS
  1
DICTIONARYVAR
  2
AcDbDictionaryVar
  3
ObjectDBX Classes
 90
        0
 91
       11
280
     0
281
     0
  0
CLASS
  1
MATERIAL
  2
AcDbMaterial
  3
ObjectDBX Classes
 90
     1153
 91
        3
280
     0
281
     0
  0
CLASS
  1
VISUALSTYLE
  2
AcDbVisualStyle
  3
ObjectDBX Classes
 90
     4095
 91
       24
280
     0
281
     0
  0
CLASS
  1
TABLESTYLE
  2
AcDbTableStyle
  3
ObjectDBX Classes
 90
     4095
 91
        1
280
     0
281
     0
  0
CLASS
  1
SCALE
  2
AcDbScale
  3
ObjectDBX Classes
 90
     1153
 91
       17
280
     0
281
     0
  0
CLASS
  1
MLEADERSTYLE
  2
AcDbMLeaderStyle
  3
ACDB_MLEADERSTYLE_CLASS
 90
     4095
 91
        1
280
     0
281
     0
  0
CLASS
  1
ACDBSECTIONVIEWSTYLE
  2
AcDbSectionViewStyle
  3
ObjectDBX Classes
 90
     1025
 91
        1
280
     0
281
     0
  0
CLASS
  1
ACDBDETAILVIEWSTYLE
  2
AcDbDetailViewStyle
  3
ObjectDBX Classes
 90
     1025
 91
        1
280
     0
281
     0
  0
CLASS
  1
CELLSTYLEMAP
  2
AcDbCellStyleMap
  3
ObjectDBX Classes
 90
     1152
 91
        1
280
     0
281
     0
  0
ENDSEC
  0
SECTION
  2
TABLES
  0
TABLE
  2
VPORT
  5
8
330
0
100
AcDbSymbolTable
 70
     1
  0
VPORT
  5
631
330
8
100
AcDbSymbolTableRecord
100
AcDbViewportTableRecord
  2
*Active
 70
     0
 10
0.0
 20
0.0
 11
1.0
 21
1.0
 12
179.3021207707279
 22
182.0788701840442
 13
0.0
 23
0.0
 14
0.5
 24
0.5
 15
0.5
 25
0.5
 16
0.0
 26
0.0
 36
1.0
 17
0.0
 27
0.0
 37
0.0
 40
2207.242083573255
 41
2.260445682451253
 42
50.0
 43
0.0
 44
0.0
 50
0.0
 51
0.0
 71
     0
 72
   100
 73
     1
 74
     3
 75
     0
 76
     0
 77
     0
 78
     0
281
     0
 65
     1
110
0.0
120
0.0
130
0.0
111
1.0
121
0.0
131
0.0
112
0.0
122
1.0
132
0.0
 79
     0
146
0.0
348
659
 60
     3
 61
     5
292
     1
282
     1
141
0.0
142
0.0
 63
   250
421
  3355443
1001
ACAD_NAV_VCDISPLAY
1070
     3
  0
ENDTAB
  0
TABLE
  2
LTYPE
  5
5
330
0
100
AcDbSymbolTable
 70
     1
  0
LTYPE
  5
14
330
5
100
AcDbSymbolTableRecord
100
AcDbLinetypeTableRecord
  2
BYBLOCK
 70
     0
  3

 72
    65
 73
     0
 40
0.0
  0
LTYPE
  5
15
330
5
100
AcDbSymbolTableRecord
100
AcDbLinetypeTableRecord
  2
BYLAYER
 70
     0
  3

 72
    65
 73
     0
 40
0.0
  0
LTYPE
  5
16
330
5
100
AcDbSymbolTableRecord
100
AcDbLinetypeTableRecord
  2
CONTINUOUS
 70
     0
  3
Solid line
 72
    65
 73
     0
 40
0.0
  0
ENDTAB
  0
TABLE
  2
LAYER
  5
2
330
0
100
AcDbSymbolTable
 70
     6
  0
LAYER
  5
10
102
{ACAD_XDICTIONARY
360
6B7
102
}
330
2
100
AcDbSymbolTableRecord
100
AcDbLayerTableRecord
  2
0
 70
     0
 62
     7
  6
CONTINUOUS
370
    -3
390
F5
347
64B
  0
LAYER
  5
3AC
330
2
100
AcDbSymbolTableRecord
100
AcDbLayerTableRecord
  2
Defpoints
 70
     0
 62
     7
  6
CONTINUOUS
290
     0
370
    -3
390
F5
347
64B
  0
LAYER
  5
6B4
102
{ACAD_XDICTIONARY
360
6B9
102
}
330
2
100
AcDbSymbolTableRecord
100
AcDbLayerTableRecord
  2
HEWI
 70
     0
 62
     7
  6
CONTINUOUS
370
    -3
390
F5
347
64B
1001
AcAecLayerStandard
1000

1000

1001
AcCmTransparency
1071
        0
  0
ENDTAB
  0
TABLE
  2
STYLE
  5
3
330
0
100
AcDbSymbolTable
 70
     2
  0
STYLE
  5
11
330
3
100
AcDbSymbolTableRecord
100
AcDbTextStyleTableRecord
  2
STANDARD
 70
     0
 40
0.0
 41
1.0
 50
0.0
 71
     0
 42
0.2
  3
txt
  4

  0
ENDTAB
  0
TABLE
  2
VIEW
  5
6
330
0
100
AcDbSymbolTable
 70
     0
  0
ENDTAB
  0
TABLE
  2
UCS
  5
7
330
0
100
AcDbSymbolTable
 70
     0
  0
ENDTAB
  0
TABLE
  2
APPID
  5
9
330
0
100
AcDbSymbolTable
 70
     4
  0
APPID
  5
12
330
9
100
AcDbSymbolTableRecord
100
AcDbRegAppTableRecord
  2
ACAD
 70
     0
  0
APPID
  5
6B5
330
9
100
AcDbSymbolTableRecord
100
AcDbRegAppTableRecord
  2
AcAecLayerStandard
 70
     0
  0
APPID
  5
6B6
330
9
100
AcDbSymbolTableRecord
100
AcDbRegAppTableRecord
  2
AcCmTransparency
 70
     0
  0
APPID
  5
6C4
330
9
100
AcDbSymbolTableRecord
100
AcDbRegAppTableRecord
  2
ACAD_NAV_VCDISPLAY
 70
     0
  0
ENDTAB
  0
TABLE
  2
DIMSTYLE
  5
A
330
0
100
AcDbSymbolTable
 70
     1
100
AcDbDimStyleTable
 71
     1
340
27
  0
DIMSTYLE
105
27
330
A
100
AcDbSymbolTableRecord
100
AcDbDimStyleTableRecord
  2
STANDARD
 70
     0
340
11
  0
ENDTAB
  0
TABLE
  2
BLOCK_RECORD
  5
1
330
0
100
AcDbSymbolTable
 70
    12
  0
BLOCK_RECORD
  5
1F
102
{ACAD_XDICTIONARY
360
EE
102
}
330
1
100
AcDbSymbolTableRecord
100
AcDbBlockTableRecord
  2
*MODEL_SPACE
340
1A6
 70
     0
280
     1
281
     0
  0
BLOCK_RECORD
  5
1B
102
{ACAD_XDICTIONARY
360
EC
102
}
330
1
100
AcDbSymbolTableRecord
100
AcDbBlockTableRecord
  2
*PAPER_SPACE
340
1A7
 70
     0
280
     1
281
     0
  0
ENDTAB
  0
ENDSEC
  0
SECTION
  2
BLOCKS
  0
BLOCK
  5
20
330
1F
100
AcDbEntity
  8
0
100
AcDbBlockBegin
  2
*MODEL_SPACE
 70
     0
 10
0.0
 20
0.0
 30
0.0
  3
*MODEL_SPACE
  1

  0
ENDBLK
  5
21
330
1F
100
AcDbEntity
  8
0
100
AcDbBlockEnd
  0
BLOCK
  5
1C
330
1B
100
AcDbEntity
 67
     1
  8
0
100
AcDbBlockBegin
  2
*PAPER_SPACE
 70
     0
 10
0.0
 20
0.0
 30
0.0
  3
*PAPER_SPACE
  1

  0
ENDBLK
  5
1D
330
1B
100
AcDbEntity
 67
     1
  8
0
100
AcDbBlockEnd
  0
ENDSEC
  0
SECTION
  2
ENTITIES
  0
LINE
  5
500
330
1F
100
AcDbEntity
  8
HEWI
100
AcDbLine
 10
343.120663019562
 20
-572.5211927333057
 30
0.0
 11
40.12066301956202
 21
-572.5211927333057
 31
0.0
  0
LINE
  5
501
330
1F
100
AcDbEntity
  8
HEWI
100
AcDbLine
 10
343.120663019562
 20
-539.5211927333056
 30
0.0
 11
40.12066301956202
 21
-539.5211927333056
 31
0.0
  0
LINE
  5
502
330
1F
100
AcDbEntity
  8
HEWI
100
AcDbLine
 10
16.12066301956201
 20
-618.5211927333047
 30
0.0
 11
9.620663019562016
 21
-618.5211927333047
 31
0.0
  0
LINE
  5
503
330
1F
100
AcDbEntity
  8
HEWI
100
AcDbLine
 10
-41.37933698043798
 20
-496.5211927333056
 30
0.0
 11
24.62066301956202
 21
-496.5211927333056
 31
0.0
  0
LINE
  5
504
330
1F
100
AcDbEntity
  8
HEWI
100
AcDbLine
 10
-43.37933698043797
 20
-484.5211927333056
 30
0.0
 11
26.62066301956202
 21
-484.5211927333056
 31
0.0
  0
LINE
  5
505
330
1F
100
AcDbEntity
  8
HEWI
100
AcDbLine
 10
9.620663019562016
 20
-589.8033948462048
 30
0.0
 11
16.32066301956183
 21
-589.8033948462048
 31
0.0
  0
ARC
  5
506
330
1F
100
AcDbEntity
  8
HEWI
100
AcDbCircle
 10
-7.879336980437981
 20
-556.5211927333056
 30
0.0
 40
26.69999999999936
100
AcDbArc
 50
0.0
 51
51.83140718636947
  0
ARC
  5
507
330
1F
100
AcDbEntity
  8
HEWI
100
AcDbCircle
 10
-7.879336980437981
 20
-556.5211927333056
 30
0.0
 40
16.5
100
AcDbArc
 50
223.7722019657615
 51
0.0
  0
LINE
  5
508
330
1F
100
AcDbEntity
  8
HEWI
100
AcDbLine
 10
-24.37933698043798
 20
-507.5211927333056
 30
0.0
 11
-24.37933698043798
 21
-556.5211927333056
 31
0.0
  0
LINE
  5
509
330
1F
100
AcDbEntity
  8
HEWI
100
AcDbLine
 10
8.620663019562016
 20
-556.5211927333056
 30
0.0
 11
8.620663019562016
 21
-507.5211927333056
 31
0.0
  0
LINE
  5
50A
330
1F
100
AcDbEntity
  8
HEWI
100
AcDbLine
 10
-3.848208106288439
 20
-572.5211927333057
 30
0.0
 11
-2.134774333901986
 21
-572.5211927333057
 31
0.0
  0
ARC
  5
50B
330
1F
100
AcDbEntity
  8
HEWI
100
AcDbCircle
 10
-65.22933698043653
 20
-579.5211927333046
 30
0.0
 40
0.9999999999999998
100
AcDbArc
 50
90.0
 51
180.0
  0
SPLINE
  5
50C
330
1F
100
AcDbEntity
  8
HEWI
100
AcDbSpline
210
0.0
220
0.0
230
1.0
 70
     8
 71
     3
 72
    10
 73
     6
 74
     0
 42
0.000000001
 43
0.0000000001
 40
1.86139545575616
 40
1.86139545575616
 40
1.86139545575616
 40
1.86139545575616
 40
3.074047116240881
 40
3.074047116240881
 40
4.714235913710636
 40
4.714235913710636
 40
4.714235913710636
 40
4.714235913710636
 10
-63.60747513234219
 20
-604.3939210169363
 30
0.0
 10
-63.87480191023314
 20
-604.1032228346912
 30
0.0
 10
-64.14022658724025
 20
-603.8089873963886
 30
0.0
 10
-64.7594357054877
 20
-603.1088524521504
 30
0.0
 10
-65.11171340048804
 20
-602.6997796128321
 30
0.0
 10
-65.45933848777167
 20
-602.2846738122125
 30
0.0
  0
SPLINE
  5
50D
330
1F
100
AcDbEntity
  8
HEWI
100
AcDbSpline
210
0.0
220
0.0
230
1.0
 70
     8
 71
     3
 72
    22
 73
    18
 74
     0
 42
0.000000001
 43
0.0000000001
 40
0.0
 40
0.0
 40
0.0
 40
0.0
 40
0.1010342156325368
 40
0.1010342156325368
 40
0.3279516765630044
 40
0.3279516765630044
 40
0.5175559881790206
 40
0.5175559881790206
 40
0.7979184818379857
 40
0.7979184818379857
 40
1.199996365120317
 40
1.199996365120317
 40
1.322552189555461
 40
1.322552189555461
 40
1.603510848517379
 40
1.603510848517379
 40
2.026822376410208
 40
2.026822376410208
 40
2.026822376410208
 40
2.026822376410208
 10
-65.45933843388593
 20
-602.2846737525882
 30
0.0
 10
-65.48078563425042
 20
-602.259063247242
 30
0.0
 10
-65.50190785782979
 20
-602.233033485435
 30
0.0
 10
-65.56933863479662
 20
-602.1474552328591
 30
0.0
 10
-65.61437411383849
 20
-602.08638554558
 30
0.0
 10
-65.69358500249927
 20
-601.972344328271
 30
0.0
 10
-65.7284363666522
 20
-601.9195345947743
 30
0.0
 10
-65.81145871576064
 20
-601.7873534136874
 30
0.0
 10
-65.85824806416076
 20
-601.7070095571137
 30
0.0
 10
-65.96418393577003
 20
-601.5103519186205
 30
0.0
 10
-66.02046544933092
 20
-601.3925342676628
 30
0.0
 10
-66.08309836305853
 20
-601.2399363135288
 30
0.0
 10
-66.09698665143423
 20
-601.2042953905297
 30
0.0
 10
-66.13998603023539
 20
-601.0872250503471
 30
0.0
 10
-66.16568115488826
 20
-601.0060139827072
 30
0.0
 10
-66.21588466911635
 20
-600.8049732949777
 30
0.0
 10
-66.22933698043652
 20
-600.7014856224961
 30
0.0
 10
-66.22933698043652
 20
-600.612952735346
 30
0.0
  0
SPLINE
  5
50E
330
1F
100
AcDbEntity
  8
HEWI
100
AcDbSpline
210
0.0
220
0.0
230
1.0
 70
     8
 71
     3
 72
    16
 73
    12
 74
     0
 42
0.000000001
 43
0.0000000001
 40
0.2153933378818875
 40
0.2153933378818875
 40
0.2153933378818875
 40
0.2153933378818875
 40
0.4400106383128409
 40
0.4400106383128409
 40
0.7443622166473654
 40
0.7443622166473654
 40
0.7898558523517304
 40
0.7898558523517304
 40
0.8400475890234059
 40
0.8400475890234059
 40
0.9391014517164848
 40
0.9391014517164848
 40
0.9391014517164848
 40
0.9391014517164848
 10
-62.5600945839833
 20
-604.9893934014606
 30
0.0
 10
-62.66972156047359
 20
-604.9894144148056
 30
0.0
 10
-62.77987156570906
 20
-604.9618189708308
 30
0.0
 10
-63.02461242853859
 20
-604.8648598732848
 30
0.0
 10
-63.17439951932374
 20
-604.7762849729564
 30
0.0
 10
-63.34876146617172
 20
-604.6379843461282
 30
0.0
 10
-63.37131186434362
 20
-604.6194049811806
 30
0.0
 10
-63.41839330247331
 20
-604.5791342574771
 30
0.0
 10
-63.44290321165772
 20
-604.5573069923797
 30
0.0
 10
-63.51503139359829
 20
-604.4904240482201
 30
0.0
 10
-63.56201541097561
 20
-604.4433550494139
 30
0.0
 10
-63.60747489590358
 20
-604.3939206601702
 30
0.0
  0
ARC
  5
50F
330
1F
100
AcDbEntity
  8
HEWI
100
AcDbCircle
 10
-65.22933698043653
 20
-617.5211927333046
 30
0.0
 40
0.9999999999999998
100
AcDbArc
 50
180.0
 51
270.0
  0
SPLINE
  5
510
330
1F
100
AcDbEntity
  8
HEWI
100
AcDbSpline
210
0.0
220
0.0
230
1.0
 70
     8
 71
     3
 72
    22
 73
    18
 74
     0
 42
0.000000001
 43
0.0000000001
 40
3.061871436955371
 40
3.061871436955371
 40
3.061871436955371
 40
3.061871436955371
 40
3.560368615882661
 40
3.560368615882661
 40
7.493792974690866
 40
7.493792974690866
 40
12.10816926551457
 40
12.10816926551457
 40
16.79563105604579
 40
16.79563105604579
 40
20.70282533587922
 40
20.70282533587922
 40
24.42008836558175
 40
24.42008836558175
 40
27.33511547717966
 40
27.33511547717966
 40
28.43964690264884
 40
28.43964690264884
 40
28.43964690264884
 40
28.43964690264884
 10
-42.94641694251185
 20
-612.1767954168777
 30
0.0
 10
-42.95220387939752
 20
-612.0604458302186
 30
0.0
 10
-42.96162056676165
 20
-611.9422920060518
 30
0.0
 10
-43.07798277382244
 20
-610.8760306840212
 30
0.0
 10
-43.40638949948607
 20
-609.8615598854744
 30
0.0
 10
-44.55517585861797
 20
-607.6443709698287
 30
0.0
 10
-45.43643513391997
 20
-606.4679259568656
 30
0.0
 10
-47.59854831762186
 20
-604.3860913602611
 30
0.0
 10
-48.89113244146028
 20
-603.4806863082417
 30
0.0
 10
-51.51108474457396
 20
-602.3618521625743
 30
0.0
 10
-52.7762950789047
 20
-602.0686884008199
 30
0.0
 10
-55.31861418504923
 20
-602.0279966502929
 30
0.0
 10
-56.53102760127786
 20
-602.2554459726116
 30
0.0
 10
-58.59234346921129
 20
-603.0291165602942
 30
0.0
 10
-59.44795384849204
 20
-603.4897183887331
 30
0.0
 10
-60.53544651679477
 20
-604.2389142492187
 30
0.0
 10
-60.82490365828107
 20
-604.4567848535161
 30
0.0
 10
-61.10412449437991
 20
-604.684786607756
 30
0.0
  0
SPLINE
  5
511
330
1F
100
AcDbEntity
  8
HEWI
100
AcDbSpline
210
0.0
220
0.0
230
1.0
 70
     8
 71
     3
 72
    14
 73
    10
 74
     0
 42
0.000000001
 43
0.0000000001
 40
0.0
 40
0.0
 40
0.0
 40
0.0
 40
0.1027022129701241
 40
0.1027022129701241
 40
0.7279570392031931
 40
0.7279570392031931
 40
0.878711546942449
 40
0.878711546942449
 40
1.007573759621968
 40
1.007573759621968
 40
1.007573759621968
 40
1.007573759621968
 10
-61.26110034469729
 20
-604.7877823233592
 30
0.0
 10
-61.28811306361331
 20
-604.8015426943639
 30
0.0
 10
-61.31502895384347
 20
-604.8148039793168
 30
0.0
 10
-61.50494617282584
 20
-604.9049105879952
 30
0.0
 10
-61.64155848189511
 20
-604.9517037733989
 30
0.0
 10
-61.78431125680617
 20
-604.9791944788335
 30
0.0
 10
-61.81199756391833
 20
-604.9833345932755
 30
0.0
 10
-61.86303840312485
 20
-604.9882708724535
 30
0.0
 10
-61.88570067062392
 20
-604.9894190303939
 30
0.0
 10
-61.90758988369545
 20
-604.9894355282863
 30
0.0
  0
SPLINE
  5
512
330
1F
100
AcDbEntity
  8
HEWI
100
AcDbSpline
210
0.0
220
0.0
230
1.0
 70
     8
 71
     3
 72
    20
 73
    16
 74
     0
 42
0.000000001
 43
0.0000000001
 40
0.1476977204276086
 40
0.1476977204276086
 40
0.1476977204276086
 40
0.1476977204276086
 40
0.2758370288594389
 40
0.2758370288594389
 40
0.293331138459643
 40
0.293331138459643
 40
0.301426564545421
 40
0.301426564545421
 40
0.3203753852087088
 40
0.3203753852087088
 40
0.3465415963585574
 40
0.3465415963585574
 40
0.3510419892013851
 40
0.3510419892013851
 40
0.3544686228257871
 40
0.3544686228257871
 40
0.3544686228257871
 40
0.3544686228257871
 10
-61.10410958919782
 20
-604.6848169582026
 30
0.0
 10
-61.13406975253747
 20
-604.709283032827
 30
0.0
 10
-61.16540119887122
 20
-604.7318707131535
 30
0.0
 10
-61.20297517508333
 20
-604.7552306933993
 30
0.0
 10
-61.20751778807153
 20
-604.7579968374757
 30
0.0
 10
-61.21420562901129
 20
-604.7619838046589
 30
0.0
 10
-61.21632763402157
 20
-604.7632364090377
 30
0.0
 10
-61.22343759363865
 20
-604.7673917115744
 30
0.0
 10
-61.22845361791497
 20
-604.7702551297938
 30
0.0
 10
-61.24047852680542
 20
-604.7769563748228
 30
0.0
 10
-61.24751849542008
 20
-604.7807497726662
 30
0.0
 10
-61.25584634083224
 20
-604.7850837718288
 30
0.0
 10
-61.25707042119847
 20
-604.7857169763561
 30
0.0
 10
-61.2592299543976
 20
-604.7868273184002
 30
0.0
 10
-61.26016458458526
 20
-604.7873056439716
 30
0.0
 10
-61.26110034471366
 20
-604.7877823233674
 30
0.0
  0
ARC
  5
513
330
1F
100
AcDbEntity
  8
HEWI
100
AcDbCircle
 10
-41.37933698043798
 20
-494.5211927333057
 30
0.0
 40
2.0
100
AcDbArc
 50
180.0
 51
270.0
  0
LINE
  5
514
330
1F
100
AcDbEntity
  8
HEWI
100
AcDbLine
 10
8.620663019562016
 20
-496.5211927333056
 30
0.0
 11
8.620663019562016
 21
-507.5211927333056
 31
0.0
  0
LINE
  5
515
330
1F
100
AcDbEntity
  8
HEWI
100
AcDbLine
 10
-24.37933698043798
 20
-496.5211927333056
 30
0.0
 11
-24.37933698043798
 21
-507.5211927333056
 31
0.0
  0
LINE
  5
517
330
1F
100
AcDbEntity
  8
HEWI
100
AcDbLine
 10
-40.72933698043653
 20
-581.1211927333046
 30
0.0
 11
-40.5793369804378
 21
-581.1211927333046
 31
0.0
  0
LINE
  5
518
330
1F
100
AcDbEntity
  8
HEWI
100
AcDbLine
 10
-40.72933698043653
 20
-615.9211927333049
 30
0.0
 11
-40.5793369804378
 21
-615.9211927333049
 31
0.0
  0
LINE
  5
519
330
1F
100
AcDbEntity
  8
HEWI
100
AcDbLine
 10
-62.56009816489403
 20
-604.9893912688252
 30
0.0
 11
-61.90752304295257
 21
-604.9893912688252
 31
0.0
  0
LINE
  5
51A
330
1F
100
AcDbEntity
  8
HEWI
100
AcDbLine
 10
-65.22933698043653
 20
-578.5211927333047
 30
0.0
 11
-40.72933698043653
 21
-578.5211927333047
 31
0.0
  0
LINE
  5
51B
330
1F
100
AcDbEntity
  8
HEWI
100
AcDbLine
 10
-65.22933698043653
 20
-618.5211927333047
 30
0.0
 11
-40.72933698043653
 21
-618.5211927333047
 31
0.0
  0
LINE
  5
51C
330
1F
100
AcDbEntity
  8
HEWI
100
AcDbLine
 10
9.620663019562016
 20
-618.5212152776321
 30
0.0
 11
-25.37933698043798
 21
-618.5212152776321
 31
0.0
  0
LINE
  5
51D
330
1F
100
AcDbEntity
  8
HEWI
100
AcDbLine
 10
-25.37933698043798
 20
-618.5211927333047
 30
0.0
 11
-31.87933698043798
 21
-618.5211927333047
 31
0.0
  0
LINE
  5
51E
330
1F
100
AcDbEntity
  8
HEWI
100
AcDbLine
 10
-32.0793369804378
 20
-618.5211927333066
 30
0.0
 11
-40.5793369804378
 21
-618.5211927333066
 31
0.0
  0
LINE
  5
51F
330
1F
100
AcDbEntity
  8
HEWI
100
AcDbLine
 10
-34.57933698043689
 20
-578.5211927333066
 30
0.0
 11
-40.5793369804378
 21
-578.5211927333066
 31
0.0
  0
LINE
  5
520
330
1F
100
AcDbEntity
  8
HEWI
100
AcDbLine
 10
-32.0793369804378
 20
-590.5211927333056
 30
0.0
 11
-31.87933698043798
 21
-590.5211927333056
 31
0.0
  0
LINE
  5
521
330
1F
100
AcDbEntity
  8
HEWI
100
AcDbLine
 10
-32.0793369804378
 20
-606.5211927333047
 30
0.0
 11
-31.87933698043798
 21
-606.5211927333047
 31
0.0
  0
LINE
  5
522
330
1F
100
AcDbEntity
  8
HEWI
100
AcDbLine
 10
-43.37933698043797
 20
-494.5211927333057
 30
0.0
 11
-43.37933698043797
 21
-484.5211927333056
 31
0.0
  0
LINE
  5
523
330
1F
100
AcDbEntity
  8
HEWI
100
AcDbLine
 10
-31.87933698043798
 20
-594.2785520461852
 30
0.0
 11
-32.0793369804378
 21
-594.2785520461852
 31
0.0
  0
LINE
  5
524
330
1F
100
AcDbEntity
  8
HEWI
100
AcDbLine
 10
-31.87933698043798
 20
-596.4506403724849
 30
0.0
 11
-32.0793369804378
 21
-596.4506403724849
 31
0.0
  0
LINE
  5
525
330
1F
100
AcDbEntity
  8
HEWI
100
AcDbLine
 10
-32.0793369804378
 20
-592.8643384838127
 30
0.0
 11
-31.87933698043798
 21
-592.8643384838127
 31
0.0
  0
LINE
  5
526
330
1F
100
AcDbEntity
  8
HEWI
100
AcDbLine
 10
-32.57933698043689
 20
-589.8033948462048
 30
0.0
 11
-32.0793369804378
 21
-589.8033948462048
 31
0.0
  0
SPLINE
  5
527
330
1F
100
AcDbEntity
  8
HEWI
100
AcDbSpline
210
0.0
220
0.0
230
1.0
 70
     8
 71
     3
 72
    18
 73
    14
 74
     0
 42
0.000000001
 43
0.0000000001
 40
-4.49455063240396
 40
-4.49455063240396
 40
-4.49455063240396
 40
-4.49455063240396
 40
-3.042993563053927
 40
-3.042993563053927
 40
-2.317215028378913
 40
-2.317215028378913
 40
-1.591436493703898
 40
-1.591436493703898
 40
-0.7957182468519495
 40
-0.7957182468519495
 40
-0.3978591234259738
 40
-0.3978591234259738
 40
0.0
 40
0.0
 40
0.0
 40
0.0
 10
-34.57933698043689
 20
-586.5211927332953
 30
0.0
 10
-34.57933698043689
 20
-586.9082746184549
 30
0.0
 10
-34.51409666840573
 20
-587.3390396053346
 30
0.0
 10
-34.3191791473264
 20
-587.9790191937916
 30
0.0
 10
-34.23841864302722
 20
-588.1912134684197
 30
0.0
 10
-34.04688487906879
 20
-588.6000842954554
 30
0.0
 10
-33.93626719450367
 20
-588.7968102709741
 30
0.0
 10
-33.67178896674341
 20
-589.1771163605649
 30
0.0
 10
-33.49653315454725
 20
-589.3828148841207
 30
0.0
 10
-33.1860287523341
 20
-589.6174688570612
 30
0.0
 10
-33.0747046619781
 20
-589.6833465992663
 30
0.0
 10
-32.83765101442805
 20
-589.7762805360412
 30
0.0
 10
-32.71195668824566
 20
-589.8033948462075
 30
0.0
 10
-32.57933698043689
 20
-589.8033948462075
 30
0.0
  0
LINE
  5
528
330
1F
100
AcDbEntity
  8
HEWI
100
AcDbLine
 10
-32.0793369804378
 20
-618.5211927333066
 30
0.0
 11
-32.0793369804378
 21
-589.8033948462048
 31
0.0
  0
LINE
  5
529
330
1F
100
AcDbEntity
  8
HEWI
100
AcDbLine
 10
-40.5793369804378
 20
-578.5211927333066
 30
0.0
 11
-40.5793369804378
 21
-618.5211927333066
 31
0.0
  0
LINE
  5
52A
330
1F
100
AcDbEntity
  8
HEWI
100
AcDbLine
 10
-32.0793369804378
 20
-589.8033948462048
 30
0.0
 11
-25.37933698043798
 21
-589.8033948462048
 31
0.0
  0
LINE
  5
52B
330
1F
100
AcDbEntity
  8
HEWI
100
AcDbLine
 10
-34.57933698043689
 20
-556.5211927333056
 30
0.0
 11
-34.57933698043689
 21
-586.5211927332953
 31
0.0
  0
ARC
  5
52C
330
1F
100
AcDbEntity
  8
HEWI
100
AcDbCircle
 10
-7.879336980437981
 20
-556.5211927333048
 30
0.0
 40
17.00000000000026
100
AcDbArc
 50
5.090467235369769
 51
13.93055456236994
  0
ARC
  5
52D
330
1F
100
AcDbEntity
  8
HEWI
100
AcDbCircle
 10
13.82066301956274
 20
-556.5211927333048
 30
0.0
 40
5.000000000000049
100
AcDbArc
 50
162.4416349365578
 51
197.558365063442
  0
ARC
  5
52E
330
1F
100
AcDbEntity
  8
HEWI
100
AcDbCircle
 10
-7.879336980437981
 20
-556.5211927333042
 30
0.0
 40
17.00000000000041
100
AcDbArc
 50
305.0904672353326
 51
354.9095327646302
  0
ARC
  5
52F
330
1F
100
AcDbEntity
  8
HEWI
100
AcDbCircle
 10
2.970663019563288
 20
-575.3139439954292
 30
0.0
 40
5.000000000001613
100
AcDbArc
 50
102.4416349365427
 51
137.558365063445
  0
ARC
  5
530
330
1F
100
AcDbEntity
  8
HEWI
100
AcDbCircle
 10
-7.879336980437981
 20
-556.5211927333042
 30
0.0
 40
17.00000000000053
100
AcDbArc
 50
245.0904672353369
 51
294.9095327646631
  0
ARC
  5
531
330
1F
100
AcDbEntity
  8
HEWI
100
AcDbCircle
 10
-18.72933698043744
 20
-575.3139439954273
 30
0.0
 40
4.999999999999737
100
AcDbArc
 50
42.44163493655486
 51
77.5583650634573
  0
ARC
  5
532
330
1F
100
AcDbEntity
  8
HEWI
100
AcDbCircle
 10
-7.879336980437074
 20
-556.5211927333051
 30
0.0
 40
17.0000000000003
100
AcDbArc
 50
185.0904672353697
 51
234.9095327646674
  0
ARC
  5
533
330
1F
100
AcDbEntity
  8
HEWI
100
AcDbCircle
 10
-29.57933698043871
 20
-556.5211927333056
 30
0.0
 40
5.000000000000047
100
AcDbArc
 50
342.4416349365579
 51
344.0278419482416
  0
ARC
  5
534
330
1F
100
AcDbEntity
  8
HEWI
100
AcDbCircle
 10
-7.879336980437981
 20
-556.5211927333056
 30
0.0
 40
26.69999999999936
100
AcDbArc
 50
128.1685928136305
 51
180.0
  0
LINE
  5
535
330
1F
100
AcDbEntity
  8
HEWI
100
AcDbLine
 10
-31.87933698043798
 20
-589.803394846191
 30
0.0
 11
-31.87933698043798
 21
-618.5211927333047
 31
0.0
  0
LINE
  5
536
330
1F
100
AcDbEntity
  8
HEWI
100
AcDbLine
 10
-25.37933698043798
 20
-589.8033431260696
 30
0.0
 11
-25.37933698043798
 21
-618.5212152776321
 31
0.0
  0
LINE
  5
537
330
1F
100
AcDbEntity
  8
HEWI
100
AcDbLine
 10
9.620663019562016
 20
-618.5212152776321
 30
0.0
 11
9.620663019562016
 21
-589.8033431260696
 31
0.0
  0
LINE
  5
538
330
1F
100
AcDbEntity
  8
HEWI
100
AcDbLine
 10
-40.72933698043653
 20
-578.5211927333047
 30
0.0
 11
-40.72933698043653
 21
-612.6633283570363
 31
0.0
  0
LINE
  5
539
330
1F
100
AcDbEntity
  8
HEWI
100
AcDbLine
 10
-40.72933698043653
 20
-612.6633283570359
 30
0.0
 11
-40.72933698043653
 21
-618.5211927333047
 31
0.0
  0
LINE
  5
53A
330
1F
100
AcDbEntity
  8
HEWI
100
AcDbLine
 10
-66.22933698043652
 20
-600.612952735346
 30
0.0
 11
-66.22933698043652
 21
-617.4056980245183
 31
0.0
  0
LINE
  5
53B
330
1F
100
AcDbEntity
  8
HEWI
100
AcDbLine
 10
-66.22933698043652
 20
-617.4056980245183
 30
0.0
 11
-66.22933698043652
 21
-617.5211927333046
 31
0.0
  0
LINE
  5
53C
330
1F
100
AcDbEntity
  8
HEWI
100
AcDbLine
 10
-66.22933698043652
 20
-579.5211927333046
 30
0.0
 11
-66.22933698043652
 21
-600.612952735346
 31
0.0
  0
ARC
  5
53D
330
1F
100
AcDbEntity
  8
HEWI
100
AcDbCircle
 10
-7.879336980437981
 20
-556.5211927333056
 30
0.0
 40
16.5
100
AcDbArc
 50
180.0
 51
223.7722019657615
  0
ARC
  5
53E
330
1F
100
AcDbEntity
  8
HEWI
100
AcDbCircle
 10
-8.379336980437981
 20
-556.0211927333056
 30
0.0
 40
16.5
100
AcDbArc
 50
165.8588897660732
 51
226.2277980342754
  0
LINE
  5
53F
330
1F
100
AcDbEntity
  8
HEWI
100
AcDbLine
 10
18.82066301956092
 20
-572.5211927333057
 30
0.0
 11
40.12066301956202
 21
-572.5211927333057
 31
0.0
  0
LINE
  5
540
330
1F
100
AcDbEntity
  8
HEWI
100
AcDbLine
 10
40.12066301956202
 20
-539.5211927333056
 30
0.0
 11
12.70925209215147
 21
-539.5211927333056
 31
0.0
  0
ARC
  5
541
330
1F
100
AcDbEntity
  8
HEWI
100
AcDbCircle
 10
24.97066301956238
 20
-616.5211927333047
 30
0.0
 40
1.999999999999999
100
AcDbArc
 50
270.0
 51
0.0
  0
ARC
  5
542
330
1F
100
AcDbEntity
  8
HEWI
100
AcDbCircle
 10
24.97066301956238
 20
-580.5211927333052
 30
0.0
 40
1.999999999999999
100
AcDbArc
 50
0.0
 51
90.0
  0
ARC
  5
543
330
1F
100
AcDbEntity
  8
HEWI
100
AcDbCircle
 10
24.62066301956202
 20
-494.5211927333057
 30
0.0
 40
2.0
100
AcDbArc
 50
270.0
 51
0.0
  0
LINE
  5
544
330
1F
100
AcDbEntity
  8
HEWI
100
AcDbLine
 10
24.82066301956184
 20
-618.5211927333066
 30
0.0
 11
16.32066301956183
 21
-618.5211927333066
 31
0.0
  0
LINE
  5
545
330
1F
100
AcDbEntity
  8
HEWI
100
AcDbLine
 10
24.82066301956184
 20
-578.5211927333066
 30
0.0
 11
18.82066301956092
 21
-578.5211927333066
 31
0.0
  0
LINE
  5
546
330
1F
100
AcDbEntity
  8
HEWI
100
AcDbLine
 10
24.82066301956184
 20
-581.1211927333053
 30
0.0
 11
24.97066301956238
 21
-581.1211927333053
 31
0.0
  0
LINE
  5
547
330
1F
100
AcDbEntity
  8
HEWI
100
AcDbLine
 10
24.82066301956184
 20
-615.9211927333053
 30
0.0
 11
24.97066301956238
 21
-615.9211927333053
 31
0.0
  0
LINE
  5
548
330
1F
100
AcDbEntity
  8
HEWI
100
AcDbLine
 10
16.12066301956201
 20
-590.5211927333056
 30
0.0
 11
16.32066301956183
 21
-590.5211927333056
 31
0.0
  0
LINE
  5
549
330
1F
100
AcDbEntity
  8
HEWI
100
AcDbLine
 10
16.12066301956201
 20
-606.5211927333047
 30
0.0
 11
16.32066301956183
 21
-606.5211927333047
 31
0.0
  0
LINE
  5
54A
330
1F
100
AcDbEntity
  8
HEWI
100
AcDbLine
 10
26.62066301956202
 20
-494.5211927333057
 30
0.0
 11
26.62066301956202
 21
-484.5211927333056
 31
0.0
  0
LINE
  5
54B
330
1F
100
AcDbEntity
  8
HEWI
100
AcDbLine
 10
24.97066301956238
 20
-578.5211927333052
 30
0.0
 11
24.97066301956238
 21
-584.3790571095743
 31
0.0
  0
LINE
  5
54C
330
1F
100
AcDbEntity
  8
HEWI
100
AcDbLine
 10
24.97066301956238
 20
-584.3790571095743
 30
0.0
 11
24.97066301956238
 21
-618.5211927333047
 31
0.0
  0
LINE
  5
54D
330
1F
100
AcDbEntity
  8
HEWI
100
AcDbLine
 10
26.97066301956238
 20
-580.5211927333052
 30
0.0
 11
26.97066301956238
 21
-585.7932706719473
 31
0.0
  0
LINE
  5
54E
330
1F
100
AcDbEntity
  8
HEWI
100
AcDbLine
 10
26.97066301956238
 20
-585.7932706719471
 30
0.0
 11
26.97066301956238
 21
-616.5211927333047
 31
0.0
  0
LINE
  5
54F
330
1F
100
AcDbEntity
  8
HEWI
100
AcDbLine
 10
16.32066301956183
 20
-589.8033948462048
 30
0.0
 11
16.82066301956092
 21
-589.8033948462048
 31
0.0
  0
LINE
  5
550
330
1F
100
AcDbEntity
  8
HEWI
100
AcDbLine
 10
16.32066301956183
 20
-618.5211927333066
 30
0.0
 11
16.32066301956183
 21
-589.8033948462048
 31
0.0
  0
SPLINE
  5
551
330
1F
100
AcDbEntity
  8
HEWI
100
AcDbSpline
210
0.0
220
0.0
230
1.0
 70
     8
 71
     3
 72
    18
 73
    14
 74
     0
 42
0.000000001
 43
0.0000000001
 40
0.0
 40
0.0
 40
0.0
 40
0.0
 40
0.3978591234259627
 40
0.3978591234259627
 40
0.7957182468519255
 40
0.7957182468519255
 40
1.59143649370385
 40
1.59143649370385
 40
2.317215028378713
 40
2.317215028378713
 40
3.042993563053578
 40
3.042993563053578
 40
4.494550632403308
 40
4.494550632403308
 40
4.494550632403308
 40
4.494550632403308
 10
16.82066301956092
 20
-589.8033948462066
 30
0.0
 10
16.9532827273697
 20
-589.8033948462066
 30
0.0
 10
17.07897705355208
 20
-589.7762805360403
 30
0.0
 10
17.31603070110213
 20
-589.6833465992654
 30
0.0
 10
17.42735479145813
 20
-589.6174688570607
 30
0.0
 10
17.73785919367128
 20
-589.3828148841203
 30
0.0
 10
17.91311500586744
 20
-589.1771163605644
 30
0.0
 10
18.1775932336277
 20
-588.7968102709737
 30
0.0
 10
18.28821091819282
 20
-588.6000842954545
 30
0.0
 10
18.47974468215125
 20
-588.1912134684194
 30
0.0
 10
18.56050518645043
 20
-587.9790191937916
 30
0.0
 10
18.75542270752976
 20
-587.339039605334
 30
0.0
 10
18.82066301956092
 20
-586.9082746184549
 30
0.0
 10
18.82066301956092
 20
-586.5211927332953
 30
0.0
  0
LINE
  5
552
330
1F
100
AcDbEntity
  8
HEWI
100
AcDbLine
 10
24.82066301956184
 20
-578.5211927333066
 30
0.0
 11
24.82066301956184
 21
-618.5211927333066
 31
0.0
  0
LINE
  5
553
330
1F
100
AcDbEntity
  8
HEWI
100
AcDbLine
 10
18.82066301956092
 20
-556.5211927333056
 30
0.0
 11
18.82066301956092
 21
-586.5211927332953
 31
0.0
  0
LINE
  5
554
330
1F
100
AcDbEntity
  8
HEWI
100
AcDbLine
 10
16.12066301956201
 20
-589.803394846191
 30
0.0
 11
16.12066301956201
 21
-618.5211927333047
 31
0.0
  0
ARC
  5
555
330
1F
100
AcDbEntity
  8
HEWI
100
AcDbCircle
 10
543.120663019562
 20
-507.5211927333056
 30
0.0
 40
65.0
100
AcDbArc
 50
270.0
 51
0.0
  0
ARC
  5
556
330
1F
100
AcDbEntity
  8
HEWI
100
AcDbCircle
 10
543.120663019562
 20
-507.5211927333056
 30
0.0
 40
32.0
100
AcDbArc
 50
270.0
 51
0.0
  0
ARC
  5
557
330
1F
100
AcDbEntity
  8
HEWI
100
AcDbCircle
 10
624.620663019562
 20
-494.5211927333057
 30
0.0
 40
2.0
100
AcDbArc
 50
270.0
 51
0.0
  0
ARC
  5
558
330
1F
100
AcDbEntity
  8
HEWI
100
AcDbCircle
 10
558.6206630195618
 20
-494.5211927333057
 30
0.0
 40
2.0
100
AcDbArc
 50
180.0
 51
270.0
  0
LINE
  5
559
330
1F
100
AcDbEntity
  8
HEWI
100
AcDbLine
 10
608.120663019562
 20
-496.5211927333057
 30
0.0
 11
608.120663019562
 21
-507.5211927333056
 31
0.0
  0
LINE
  5
55A
330
1F
100
AcDbEntity
  8
HEWI
100
AcDbLine
 10
575.1206630195618
 20
-496.5211927333057
 30
0.0
 11
575.1206630195618
 21
-507.5211927333056
 31
0.0
  0
LINE
  5
55B
330
1F
100
AcDbEntity
  8
HEWI
100
AcDbLine
 10
556.620663019562
 20
-494.5211927333057
 30
0.0
 11
556.620663019562
 21
-484.5211927333056
 31
0.0
  0
LINE
  5
55C
330
1F
100
AcDbEntity
  8
HEWI
100
AcDbLine
 10
626.620663019562
 20
-494.5211927333057
 30
0.0
 11
626.620663019562
 21
-484.5211927333056
 31
0.0
  0
LINE
  5
55D
330
1F
100
AcDbEntity
  8
HEWI
100
AcDbLine
 10
558.6206630195618
 20
-496.5211927333056
 30
0.0
 11
624.620663019562
 21
-496.5211927333056
 31
0.0
  0
LINE
  5
55E
330
1F
100
AcDbEntity
  8
HEWI
100
AcDbLine
 10
556.620663019562
 20
-484.5211927333056
 30
0.0
 11
626.620663019562
 21
-484.5211927333056
 31
0.0
  0
LINE
  5
55F
330
1F
100
AcDbEntity
  8
HEWI
100
AcDbLine
 10
552.2387288000817
 20
565.2714392179622
 30
0.0000000000000105
 11
552.2387288000817
 21
865.2714392179621
 31
0.0000000000000105
210
0.0
220
1.0
230
0.0
  0
LINE
  5
560
330
1F
100
AcDbEntity
  8
HEWI
100
AcDbLine
 10
585.2387288000817
 20
565.2714392179627
 30
0.0000000000000165
 11
585.2387288000817
 21
865.2714392179621
 31
0.0000000000000165
210
0.0
220
1.0
230
0.0
  0
LINE
  5
561
330
1F
100
AcDbEntity
  8
HEWI
100
AcDbLine
 10
-421.2612711999181
 20
549.7714617623114
 30
-0.000000000000002
 11
-421.2612711999181
 21
847.7714392179622
 31
-0.000000000000002
210
0.0
220
1.0
230
0.0
  0
LINE
  5
562
330
1F
100
AcDbEntity
  8
HEWI
100
AcDbLine
 10
-388.2612711999182
 20
549.7714617623114
 30
0.000000000000002
 11
-388.2612711999182
 21
847.7714392179622
 31
0.000000000000002
210
0.0
220
1.0
230
0.0
  0
LINE
  5
563
330
1F
100
AcDbEntity
  8
HEWI
100
AcDbLine
 10
-421.2612711999181
 20
-155.2285607820377
 30
-0.000000000000002
 11
-421.2612711999181
 21
441.771439217985
 31
-0.000000000000002
210
0.0
220
1.0
230
0.0
  0
LINE
  5
564
330
1F
100
AcDbEntity
  8
HEWI
100
AcDbLine
 10
-388.2612711999182
 20
-155.2285607820377
 30
0.000000000000002
 11
-388.2612711999182
 21
441.7714392179846
 31
0.000000000000002
210
0.0
220
1.0
230
0.0
  0
ARC
  5
565
330
1F
100
AcDbEntity
  8
HEWI
100
AcDbCircle
 10
-404.7612711999181
 20
-88.72856078203767
 30
0.0
 40
35.0
100
AcDbArc
 50
180.0
 51
241.8729317813679
  0
ARC
  5
566
330
1F
100
AcDbEntity
  8
HEWI
100
AcDbCircle
 10
-404.7612711999181
 20
-88.72856078203767
 30
0.0
 40
35.0
100
AcDbArc
 50
118.1270682186321
 51
180.0
  0
ARC
  5
567
330
1F
100
AcDbEntity
  8
HEWI
100
AcDbCircle
 10
-356.2612711999181
 20
-155.2285607820377
 30
0.0000000000000059
 40
65.0
100
AcDbArc
 50
180.0
 51
270.0
  0
ARC
  5
568
330
1F
100
AcDbEntity
  8
HEWI
100
AcDbCircle
 10
195.2387288000818
 20
-203.7285607820377
 30
0.0
 40
16.8
100
AcDbArc
 50
259.1559374362962
 51
100.8440625637038
  0
ARC
  5
569
330
1F
100
AcDbEntity
  8
HEWI
100
AcDbCircle
 10
195.2387288000818
 20
-203.7285607820377
 30
0.0
 40
35.0
100
AcDbArc
 50
208.1270682186103
 51
151.8729317813897
  0
ARC
  5
56A
330
1F
100
AcDbEntity
  8
HEWI
100
AcDbCircle
 10
195.2387288000818
 20
-203.7285607820377
 30
0.0
 40
16.5
100
AcDbArc
 50
0.0
 51
90.0
  0
LINE
  5
56B
330
1F
100
AcDbEntity
  8
HEWI
100
AcDbLine
 10
146.7387288000818
 20
-220.2285607820377
 30
-0.0000000000000059
 11
-356.2612711999181
 21
-220.2285607820377
 31
-0.0000000000000675
210
0.0
220
1.0
230
0.0
  0
LINE
  5
56C
330
1F
100
AcDbEntity
  8
HEWI
100
AcDbLine
 10
146.7387288000818
 20
-220.2285607820377
 30
-0.0000000000000059
 11
195.2387288000818
 21
-220.2285607820377
 31
0.0
210
0.0
220
1.0
230
0.0
  0
ARC
  5
56D
330
1F
100
AcDbEntity
  8
HEWI
100
AcDbCircle
 10
195.2387288000818
 20
-203.7285607820377
 30
0.0
 40
16.5
100
AcDbArc
 50
270.0
 51
0.0
  0
LINE
  5
56E
330
1F
100
AcDbEntity
  8
HEWI
100
AcDbLine
 10
146.7387288000818
 20
-187.2285607820377
 30
-0.0000000000000059
 11
-356.2612711999181
 21
-187.2285607820377
 31
-0.0000000000000675
210
0.0
220
1.0
230
0.0
  0
ARC
  5
56F
330
1F
100
AcDbEntity
  8
HEWI
100
AcDbCircle
 10
-356.2612711999181
 20
-155.2285607820377
 30
0.0000000000000059
 40
32.0
100
AcDbArc
 50
180.0
 51
270.0
  0
ARC
  5
570
330
1F
100
AcDbEntity
  8
HEWI
100
AcDbCircle
 10
-404.7612711999181
 20
-88.72856078203767
 30
0.0
 40
16.8
100
AcDbArc
 50
180.0
 51
190.8440625637011
  0
ARC
  5
571
330
1F
100
AcDbEntity
  8
HEWI
100
AcDbCircle
 10
-404.7612711999181
 20
-88.72856078203767
 30
0.0
 40
16.8
100
AcDbArc
 50
349.1559374362987
 51
10.84406256370127
  0
ARC
  5
572
330
1F
100
AcDbEntity
  8
HEWI
100
AcDbCircle
 10
-404.7612711999181
 20
-88.72856078203767
 30
0.0
 40
16.8
100
AcDbArc
 50
169.1559374362987
 51
180.0
  0
ARC
  5
573
330
1F
100
AcDbEntity
  8
HEWI
100
AcDbCircle
 10
-404.7612711999181
 20
-88.72856078203767
 30
0.0
 40
35.0
100
AcDbArc
 50
298.1270682186321
 51
61.87293178136793
  0
LINE
  5
574
330
1F
100
AcDbEntity
  8
HEWI
100
AcDbLine
 10
195.2387288000818
 20
-187.2285607820377
 30
0.0
 11
146.7387288000818
 21
-187.2285607820377
 31
-0.0000000000000059
210
0.0
220
1.0
230
0.0
  0
LINE
  5
575
330
1F
100
AcDbEntity
  8
HEWI
100
AcDbLine
 10
-428.4612711999179
 20
509.7714392179723
 30
-0.0000000000000029
 11
-436.9612711999179
 21
509.7714392179723
 31
-0.0000000000000039
210
0.0
220
1.0
230
0.0
  0
LINE
  5
576
330
1F
100
AcDbEntity
  8
HEWI
100
AcDbLine
 10
-428.4612711999179
 20
549.771439217972
 30
-0.0000000000000029
 11
-436.9612711999179
 21
549.771439217972
 31
-0.0000000000000039
210
0.0
220
1.0
230
0.0
  0
ARC
  5
577
330
1F
100
AcDbEntity
  8
HEWI
100
AcDbCircle
 10
-461.6112711999167
 20
548.7714392179846
 30
-0.000000000000007
 40
0.9999999999999998
100
AcDbArc
 50
90.0
 51
180.0
  0
ARC
  5
578
330
1F
100
AcDbEntity
  8
HEWI
100
AcDbCircle
 10
-461.6112711999167
 20
510.7714392179846
 30
-0.000000000000007
 40
0.9999999999999998
100
AcDbArc
 50
180.0
 51
270.0
  0
SPLINE
  5
579
330
1F
100
AcDbEntity
  8
HEWI
100
AcDbSpline
210
0.0000000000000011
220
-0.0000000000000011
230
1.0
 70
     8
 71
     3
 72
    10
 73
     6
 74
     0
 42
0.000000001
 43
0.0000000001
 40
0.5238557413344813
 40
0.5238557413344813
 40
0.5238557413344813
 40
0.5238557413344813
 40
3.344927373450713
 40
3.344927373450713
 40
3.375545046730998
 40
3.375545046730998
 40
3.375545046730998
 40
3.375545046730998
 10
-461.8412728713092
 20
533.5349204947723
 30
-0.000000000000007
 10
-461.2432120213652
 20
534.2490775677751
 30
-0.0000000000000069
 10
-460.631163589186
 20
534.9456373645562
 30
-0.0000000000000068
 10
-460.0029036533124
 20
535.6294892267909
 30
-0.0000000000000068
 10
-459.9961569915085
 20
535.6368292952196
 30
-0.0000000000000068
 10
-459.9894090982323
 20
535.6441671313896
 30
-0.0000000000000068
  0
SPLINE
  5
57A
330
1F
100
AcDbEntity
  8
HEWI
100
AcDbSpline
210
-0.0000000000000002
220
0.0000000000000001
230
1.0
 70
     8
 71
     3
 72
    18
 73
    14
 74
     0
 42
0.000000001
 43
0.0000000001
 40
1.6540747858433
 40
1.6540747858433
 40
1.6540747858433
 40
1.6540747858433
 40
1.715582394495875
 40
1.715582394495875
 40
1.902970208297488
 40
1.902970208297488
 40
2.031734176382974
 40
2.031734176382974
 40
2.255265245202036
 40
2.255265245202036
 40
2.814065234951959
 40
2.814065234951959
 40
3.138692671095101
 40
3.138692671095101
 40
3.138692671095101
 40
3.138692671095101
 10
-459.9894092729554
 20
535.6441672578283
 30
-0.0000000000000068
 10
-459.9757376746593
 20
535.6590340597875
 30
-0.0000000000000068
 10
-459.9619319569909
 20
535.6736820869937
 30
-0.0000000000000068
 10
-459.905604401425
 20
535.7320333816619
 30
-0.0000000000000068
 10
-459.8620672689066
 20
535.7739226266345
 30
-0.0000000000000067
 10
-459.7874726532063
 20
535.8407588077225
 30
-0.0000000000000067
 10
-459.7567342391303
 20
535.8669393771447
 30
-0.0000000000000067
 10
-459.671974433365
 20
535.9355272913501
 30
-0.0000000000000067
 10
-459.6173651906283
 20
535.975788730379
 30
-0.0000000000000067
 10
-459.4248703873171
 20
536.1039383766661
 30
-0.0000000000000067
 10
-459.2948696331603
 20
536.1664464995649
 30
-0.0000000000000067
 10
-459.1059705580009
 20
536.2234151114612
 30
-0.0000000000000067
 10
-459.0260746940603
 20
536.2396793417453
 30
-0.0000000000000066
 10
-458.9420194535032
 20
536.2396491356149
 30
-0.0000000000000066
  0
SPLINE
  5
57B
330
1F
100
AcDbEntity
  8
HEWI
100
AcDbSpline
210
-0.0000000000000003
220
0.0000000000000001
230
1.0
 70
     8
 71
     3
 72
    24
 73
    20
 74
     0
 42
0.000000001
 43
0.0000000001
 40
0.0
 40
0.0
 40
0.0
 40
0.0
 40
0.0756974007302869
 40
0.0756974007302869
 40
0.2789853411804089
 40
0.2789853411804089
 40
0.3497529015458669
 40
0.3497529015458669
 40
0.5919349001703657
 40
0.5919349001703657
 40
1.276514795648737
 40
1.276514795648737
 40
1.476316936862741
 40
1.476316936862741
 40
1.827563147716625
 40
1.827563147716625
 40
1.910592365237698
 40
1.910592365237698
 40
1.954297335670277
 40
1.954297335670277
 40
1.954297335670277
 40
1.954297335670277
 10
-462.6112711999167
 20
531.8631992200257
 30
-0.0000000000000071
 10
-462.6112711999167
 20
531.884288736775
 30
-0.0000000000000071
 10
-462.6105086662374
 20
531.9054601188915
 30
-0.0000000000000071
 10
-462.6053133396281
 20
531.9834891150029
 30
-0.0000000000000071
 10
-462.596875181267
 20
532.0410692325673
 30
-0.0000000000000071
 10
-462.5809773222563
 20
532.1194141924682
 30
-0.0000000000000071
 10
-462.5764596688632
 20
532.1397063843847
 30
-0.0000000000000071
 10
-462.5548225954235
 20
532.229678498139
 30
-0.0000000000000071
 10
-462.5336958950401
 20
532.3000617863839
 30
-0.0000000000000071
 10
-462.4399219585593
 20
532.5706672782533
 30
-0.0000000000000071
 10
-462.3428164178529
 20
532.7765259217515
 30
-0.0000000000000071
 10
-462.1962323072684
 20
533.031849911345
 30
-0.000000000000007
 10
-462.1615038646296
 20
533.0891485005221
 30
-0.000000000000007
 10
-462.06180136701
 20
533.2449983100023
 30
-0.000000000000007
 10
-461.9934035839524
 20
533.3426273848173
 30
-0.000000000000007
 10
-461.9040518369701
 20
533.4578073718746
 30
-0.000000000000007
 10
-461.8867286137357
 20
533.4796074150098
 30
-0.000000000000007
 10
-461.8599409691751
 20
533.5124740233028
 30
-0.000000000000007
 10
-461.8506382607328
 20
533.5237365893584
 30
-0.000000000000007
 10
-461.841272653366
 20
533.5349202372681
 30
-0.000000000000007
  0
SPLINE
  5
57C
330
1F
100
AcDbEntity
  8
HEWI
100
AcDbSpline
210
-0.0000000000000001
220
0.0
230
1.0
 70
     8
 71
     3
 72
    20
 73
    16
 74
     0
 42
0.000000001
 43
0.0000000001
 40
1.736023434719105
 40
1.736023434719105
 40
1.736023434719105
 40
1.736023434719105
 40
4.481724718716971
 40
4.481724718716971
 40
8.494256553288714
 40
8.494256553288714
 40
12.2302098530054
 40
12.2302098530054
 40
16.0190034065687
 40
16.0190034065687
 40
20.63191901924623
 40
20.63191901924623
 40
24.55726384241274
 40
24.55726384241274
 40
27.09366019960931
 40
27.09366019960931
 40
27.09366019960931
 40
27.09366019960931
 10
-457.4861200387721
 20
535.9349138831174
 30
-0.0000000000000065
 10
-456.7909469555279
 20
535.367155999028
 30
-0.0000000000000064
 10
-456.0320967153875
 20
534.8621302026685
 30
-0.0000000000000063
 10
-454.0402270066206
 20
533.8465178397805
 30
-0.000000000000006
 10
-452.7610410679734
 20
533.4484734088973
 30
-0.0000000000000059
 10
-450.185914550886
 20
533.2243093388078
 30
-0.0000000000000056
 10
-448.9569313019647
 20
533.3656214803458
 30
-0.0000000000000054
 10
-446.5638519486274
 20
534.0992700163709
 30
-0.0000000000000051
 10
-445.4369313828074
 20
534.6863516443903
 30
-0.000000000000005
 10
-443.1924184800918
 20
536.288845188551
 30
-0.0000000000000047
 10
-442.1222980868196
 20
537.3738638580171
 30
-0.0000000000000046
 10
-440.5704299260833
 20
539.5152434542406
 30
-0.0000000000000044
 10
-440.0279695447434
 20
540.5468789869233
 30
-0.0000000000000043
 10
-439.4806617221973
 20
542.2056944287724
 30
-0.0000000000000043
 10
-439.3576168762429
 20
542.8341544424211
 30
-0.0000000000000042
 10
-439.3283847405846
 20
543.4270872677894
 30
-0.0000000000000042
  0
SPLINE
  5
57D
330
1F
100
AcDbEntity
  8
HEWI
100
AcDbSpline
210
-0.0000000000000006
220
-0.0000000000000013
230
1.0
 70
     8
 71
     3
 72
    18
 73
    14
 74
     0
 42
0.000000001
 43
0.0000000001
 40
0.203900170074742
 40
0.203900170074742
 40
0.203900170074742
 40
0.203900170074742
 40
0.4140914887330024
 40
0.4140914887330024
 40
0.5531594004291947
 40
0.5531594004291947
 40
0.9342624836064976
 40
0.9342624836064976
 40
1.058715851533574
 40
1.058715851533574
 40
1.209079349970969
 40
1.209079349970969
 40
1.267392488679218
 40
1.267392488679218
 40
1.267392488679218
 40
1.267392488679218
 10
-458.2894975918378
 20
536.2397333729078
 30
-0.0000000000000066
 10
-458.241119033989
 20
536.2397406039503
 30
-0.0000000000000065
 10
-458.1951821742176
 20
536.2341834628105
 30
-0.0000000000000065
 10
-458.1279202397927
 20
536.2223811032976
 30
-0.0000000000000065
 10
-458.1009792707382
 20
536.2164960207624
 30
-0.0000000000000065
 10
-457.9997766693804
 20
536.1907569695786
 30
-0.0000000000000065
 10
-457.9243020943976
 20
536.1644262896286
 30
-0.0000000000000065
 10
-457.8222223622478
 20
536.1223286613466
 30
-0.0000000000000065
 10
-457.7969643760098
 20
536.1113881237209
 30
-0.0000000000000065
 10
-457.7409332127408
 20
536.0860708510418
 30
-0.0000000000000065
 10
-457.7101025011698
 20
536.0714512218947
 30
-0.0000000000000065
 10
-457.6671201290873
 20
536.0502084357765
 30
-0.0000000000000065
 10
-457.6550871159033
 20
536.0441684189314
 30
-0.0000000000000065
 10
-457.6430345641774
 20
536.0380288080391
 30
-0.0000000000000065
  0
SPLINE
  5
57E
330
1F
100
AcDbEntity
  8
HEWI
100
AcDbSpline
210
0.0
220
0.0
230
1.0
 70
     8
 71
     3
 72
    24
 73
    20
 74
     0
 42
0.000000001
 43
0.0000000001
 40
0.0
 40
0.0
 40
0.0
 40
0.0
 40
0.0069048149749769
 40
0.0069048149749769
 40
0.0247659649317762
 40
0.0247659649317762
 40
0.0545552763944881
 40
0.0545552763944881
 40
0.0643559091378874
 40
0.0643559091378874
 40
0.0859949234863203
 40
0.0859949234863203
 40
0.1473005450050084
 40
0.1473005450050084
 40
0.1844538307831443
 40
0.1844538307831443
 40
0.2059422517223871
 40
0.2059422517223871
 40
0.2061965395260138
 40
0.2061965395260138
 40
0.2061965395260138
 40
0.2061965395260138
 10
-457.6430345641937
 20
536.0380288080473
 30
-0.0000000000000065
 10
-457.6411462405166
 20
536.0370668895361
 30
-0.0000000000000065
 10
-457.6392625019307
 20
536.0360982591628
 30
-0.0000000000000065
 10
-457.6325224888924
 20
536.0326001131511
 30
-0.0000000000000065
 10
-457.6276923027326
 20
536.030032616648
 30
-0.0000000000000065
 10
-457.6148882272573
 20
536.0230658275345
 30
-0.0000000000000065
 10
-457.6069694255183
 20
536.0185884602502
 30
-0.0000000000000065
 10
-457.5965580872571
 20
536.0124797892666
 30
-0.0000000000000065
 10
-457.5939899847899
 20
536.0109547250694
 30
-0.0000000000000065
 10
-457.5857812335251
 20
536.0060215589026
 30
-0.0000000000000065
 10
-457.5801766879058
 20
536.0025643436836
 30
-0.0000000000000065
 10
-457.5588641929743
 20
535.9890790929865
 30
-0.0000000000000065
 10
-457.5434818577541
 20
535.9786317616586
 30
-0.0000000000000065
 10
-457.519322376891
 20
535.9611122580104
 30
-0.0000000000000065
 10
-457.5103371449431
 20
535.9543367497263
 30
-0.0000000000000065
 10
-457.4963489980791
 20
535.9433893959417
 30
-0.0000000000000065
 10
-457.4912656301957
 20
535.9393252719359
 30
-0.0000000000000065
 10
-457.4861632007069
 20
535.9351606559503
 30
-0.0000000000000065
 10
-457.4861035320317
 20
535.9351119423307
 30
-0.0000000000000065
 10
-457.4860438691921
 20
535.9350632215852
 30
-0.0000000000000065
  0
LINE
  5
57F
330
1F
100
AcDbEntity
  8
HEWI
100
AcDbLine
 10
-437.1112711999167
 20
547.1714392179847
 30
-0.000000000000004
 11
-436.9612711999179
 21
547.1714392179847
 31
-0.0000000000000039
210
0.0
220
1.0
230
0.0
  0
LINE
  5
580
330
1F
100
AcDbEntity
  8
HEWI
100
AcDbLine
 10
-437.1112711999167
 20
512.3714392179845
 30
-0.000000000000004
 11
-436.9612711999179
 21
512.3714392179845
 31
-0.0000000000000039
210
0.0
220
1.0
230
0.0
  0
LINE
  5
581
330
1F
100
AcDbEntity
  8
HEWI
100
AcDbLine
 10
-458.2894572624327
 20
536.2396377535047
 30
-0.0000000000000066
 11
-458.9420323843741
 21
536.2396377535047
 31
-0.0000000000000066
210
0.0
220
1.0
230
0.0
  0
LINE
  5
582
330
1F
100
AcDbEntity
  8
HEWI
100
AcDbLine
 10
-461.6112711999167
 20
549.7714392179846
 30
-0.000000000000007
 11
-437.1112711999167
 21
549.7714392179846
 31
-0.000000000000004
210
0.0
220
1.0
230
0.0
  0
LINE
  5
583
330
1F
100
AcDbEntity
  8
HEWI
100
AcDbLine
 10
-461.6112711999167
 20
509.7714392179844
 30
-0.000000000000007
 11
-437.1112711999167
 21
509.7714392179844
 31
-0.000000000000004
210
0.0
220
1.0
230
0.0
  0
LINE
  5
584
330
1F
100
AcDbEntity
  8
HEWI
100
AcDbLine
 10
-436.9612711999179
 20
549.771439217972
 30
-0.0000000000000039
 11
-436.9612711999179
 21
529.7714392179718
 31
-0.0000000000000039
210
0.0
220
1.0
230
0.0
  0
LINE
  5
585
330
1F
100
AcDbEntity
  8
HEWI
100
AcDbLine
 10
-436.9612711999179
 20
529.7714392179723
 30
-0.0000000000000039
 11
-436.9612711999179
 21
509.7714392179723
 31
-0.0000000000000039
210
0.0
220
1.0
230
0.0
  0
LINE
  5
586
330
1F
100
AcDbEntity
  8
HEWI
100
AcDbLine
 10
-437.1112711999167
 20
549.7714392179846
 30
-0.000000000000004
 11
-437.1112711999167
 21
543.9135748417152
 31
-0.000000000000004
210
0.0
220
1.0
230
0.0
  0
LINE
  5
587
330
1F
100
AcDbEntity
  8
HEWI
100
AcDbLine
 10
-437.1112711999167
 20
543.9135748417156
 30
-0.000000000000004
 11
-437.1112711999167
 21
509.7714392179844
 31
-0.000000000000004
210
0.0
220
1.0
230
0.0
  0
LINE
  5
588
330
1F
100
AcDbEntity
  8
HEWI
100
AcDbLine
 10
-462.6112711999167
 20
531.8631992200257
 30
-0.0000000000000071
 11
-462.6112711999167
 21
510.7714392179846
 31
-0.0000000000000071
210
0.0
220
1.0
230
0.0
  0
LINE
  5
589
330
1F
100
AcDbEntity
  8
HEWI
100
AcDbLine
 10
-462.6112711999167
 20
548.6559445091979
 30
-0.0000000000000071
 11
-462.6112711999167
 21
531.8631992200257
 31
-0.0000000000000071
210
0.0
220
1.0
230
0.0
  0
LINE
  5
58A
330
1F
100
AcDbEntity
  8
HEWI
100
AcDbLine
 10
-462.6112711999167
 20
548.7714392179846
 30
-0.0000000000000071
 11
-462.6112711999167
 21
548.6559445091979
 31
-0.0000000000000071
210
0.0
220
1.0
230
0.0
  0
SPLINE
  5
58B
330
1F
100
AcDbEntity
  8
HEWI
100
AcDbSpline
210
-0.0000000000000001
220
0.0
230
1.0
 70
     8
 71
     3
 72
    35
 73
    31
 74
     0
 42
0.000000001
 43
0.0000000001
 40
132.3072857087947
 40
132.3072857087947
 40
132.3072857087947
 40
132.3072857087947
 40
136.7855331456034
 40
136.7855331456034
 40
141.7555702341805
 40
141.7555702341805
 40
141.7555702341805
 40
150.5350853176014
 40
150.5350853176014
 40
159.3158069937373
 40
159.3158069937373
 40
168.101503115555
 40
168.101503115555
 40
176.8930034281827
 40
176.8930034281827
 40
185.6877688664844
 40
185.6877688664844
 40
194.4814480186283
 40
194.4814480186283
 40
203.2703476028081
 40
203.2703476028081
 40
212.0534605094508
 40
212.0534605094508
 40
220.8330910535008
 40
220.8330910535008
 40
229.6136189378029
 40
229.6136189378029
 40
238.398942885138
 40
238.398942885138
 40
241.1243396664151
 40
241.1243396664151
 40
241.1243396664151
 40
241.1243396664151
 10
-419.2612711907776
 20
481.2387325806307
 30
-0.0000000000000018
 10
-420.3735703447573
 20
480.2469752803465
 30
-0.0000000000000019
 10
-421.3845087888675
 20
479.1470291538898
 30
-0.000000000000002
 10
-423.2715438697613
 20
476.6320073821057
 30
-0.0000000000000023
 10
-424.1145671144741
 20
475.2036844209547
 30
-0.0000000000000024
 10
-424.7925808871167
 20
473.6959895310718
 30
-0.0000000000000025
 10
-425.9902846542289
 20
471.0326633242424
 30
-0.0000000000000026
 10
-426.6551186833393
 20
468.1615942492028
 30
-0.0000000000000027
 10
-426.8440225795257
 20
462.3262932386362
 30
-0.0000000000000027
 10
-426.3661225106633
 20
459.418034298666
 30
-0.0000000000000026
 10
-424.3189892543969
 20
453.946189381109
 30
-0.0000000000000024
 10
-422.7687847086153
 20
451.4352976495665
 30
-0.0000000000000022
 10
-418.7893641061052
 20
447.1459947554854
 30
-0.0000000000000017
 10
-416.3976838918459
 20
445.4091431518262
 30
-0.0000000000000014
 10
-411.0805248871447
 20
442.9471409818928
 30
-0.0000000000000008
 10
-408.2056340375065
 20
442.2458779858104
 30
-0.0000000000000004
 10
-402.3486876288052
 20
441.9820389647582
 30
0.0000000000000003
 10
-399.4224747785038
 20
442.4218371970908
 30
0.0000000000000007
 10
-393.9054729833924
 20
444.3949533045761
 30
0.0000000000000013
 10
-391.3670929495375
 20
445.9088705346339
 30
0.0000000000000016
 10
-387.0165848249708
 20
449.8207435265801
 30
0.0000000000000022
 10
-385.245533512204
 20
452.1807604225621
 30
0.0000000000000024
 10
-382.7106287676378
 20
457.4441445466796
 30
0.0000000000000027
 10
-381.9706550891087
 20
460.2968985283592
 30
0.0000000000000028
 10
-381.6286594590403
 20
466.1252223499941
 30
0.0000000000000028
 10
-382.0300361408227
 20
469.0448901616787
 30
0.0000000000000028
 10
-383.9327526566549
 20
474.5681273911014
 30
0.0000000000000026
 10
-385.4164311262821
 20
477.1185289277082
 30
0.0000000000000024
 10
-387.9477684125987
 20
479.9945464768756
 30
0.0000000000000021
 10
-388.5866995808237
 20
480.6372625824788
 30
0.000000000000002
 10
-389.2612748241672
 20
481.2387285226787
 30
0.0000000000000019
  0
ARC
  5
58C
330
1F
100
AcDbEntity
  8
HEWI
100
AcDbCircle
 10
-385.26127119992
 20
442.4714392179843
 30
0.0000000000000024
 40
0.6999999999999319
100
AcDbArc
 50
270.0
 51
0.0
  0
ARC
  5
58D
330
1F
100
AcDbEntity
  8
HEWI
100
AcDbCircle
 10
-423.2612711999181
 20
442.4714392179843
 30
-0.0000000000000023
 40
0.6999999999999319
100
AcDbArc
 50
180.0
 51
270.0
  0
ARC
  5
58E
330
1F
100
AcDbEntity
  8
HEWI
100
AcDbCircle
 10
-371.4112711999186
 20
511.7714392179846
 30
0.0000000000000041
 40
1.999999999999999
100
AcDbArc
 50
270.0
 51
0.0
  0
ARC
  5
58F
330
1F
100
AcDbEntity
  8
HEWI
100
AcDbCircle
 10
-371.4112711999178
 20
547.7714392179846
 30
0.0000000000000041
 40
1.999999999999999
100
AcDbArc
 50
0.0
 51
90.0
  0
LINE
  5
590
330
1F
100
AcDbEntity
  8
HEWI
100
AcDbLine
 10
-386.7612711999182
 20
509.7714166736578
 30
0.0000000000000022
 11
-389.2612711999182
 21
509.7714166736578
 31
0.0000000000000019
210
0.0
220
1.0
230
0.0
  0
LINE
  5
591
330
1F
100
AcDbEntity
  8
HEWI
100
AcDbLine
 10
-419.2612711999181
 20
509.7714166736578
 30
-0.0000000000000018
 11
-421.7612711999181
 21
509.7714166736578
 31
-0.0000000000000021
210
0.0
220
1.0
230
0.0
  0
LINE
  5
592
330
1F
100
AcDbEntity
  8
HEWI
100
AcDbLine
 10
-386.7612711999182
 20
549.7714617623114
 30
0.0000000000000022
 11
-421.7612711999181
 21
549.7714617623114
 31
-0.0000000000000021
210
0.0
220
1.0
230
0.0
  0
LINE
  5
593
330
1F
100
AcDbEntity
  8
HEWI
100
AcDbLine
 10
-380.2612711999182
 20
509.7714392179844
 30
0.000000000000003
 11
-386.7612711999182
 21
509.7714392179844
 31
0.0000000000000022
210
0.0
220
1.0
230
0.0
  0
LINE
  5
594
330
1F
100
AcDbEntity
  8
HEWI
100
AcDbLine
 10
-380.2612711999182
 20
549.7714392179846
 30
0.000000000000003
 11
-386.7612711999182
 21
549.7714392179846
 31
0.0000000000000022
210
0.0
220
1.0
230
0.0
  0
LINE
  5
595
330
1F
100
AcDbEntity
  8
HEWI
100
AcDbLine
 10
-421.7612711999181
 20
509.7714392179844
 30
-0.0000000000000021
 11
-428.2612711999181
 21
509.7714392179844
 31
-0.0000000000000029
210
0.0
220
1.0
230
0.0
  0
LINE
  5
596
330
1F
100
AcDbEntity
  8
HEWI
100
AcDbLine
 10
-421.7612711999181
 20
549.7714392179846
 30
-0.0000000000000021
 11
-428.2612711999181
 21
549.7714392179846
 31
-0.0000000000000029
210
0.0
220
1.0
230
0.0
  0
LINE
  5
597
330
1F
100
AcDbEntity
  8
HEWI
100
AcDbLine
 10
-423.9612711999188
 20
475.356827384543
 30
-0.0000000000000024
 11
-423.9612711999178
 21
509.7714392179844
 31
-0.0000000000000024
210
0.0
220
1.0
230
0.0
  0
LINE
  5
598
330
1F
100
AcDbEntity
  8
HEWI
100
AcDbLine
 10
-423.9612711999188
 20
442.4714392179843
 30
-0.0000000000000024
 11
-423.9612711999188
 21
453.6845456014083
 31
-0.0000000000000024
210
0.0
220
1.0
230
0.0
  0
LINE
  5
599
330
1F
100
AcDbEntity
  8
HEWI
100
AcDbLine
 10
-384.5612711999192
 20
475.3568273845452
 30
0.0000000000000025
 11
-384.5612711999184
 21
509.7714392179844
 31
0.0000000000000025
210
0.0
220
1.0
230
0.0
  0
LINE
  5
59A
330
1F
100
AcDbEntity
  8
HEWI
100
AcDbLine
 10
-384.5612711999192
 20
442.4714392179841
 30
0.0000000000000025
 11
-384.5612711999192
 21
453.6845456014051
 31
0.0000000000000025
210
0.0
220
1.0
230
0.0
  0
LINE
  5
59B
330
1F
100
AcDbEntity
  8
HEWI
100
AcDbLine
 10
-371.5612711999183
 20
509.7714392179723
 30
0.0000000000000041
 11
-380.0612711999183
 21
509.7714392179723
 31
0.000000000000003
210
0.0
220
1.0
230
0.0
  0
LINE
  5
59C
330
1F
100
AcDbEntity
  8
HEWI
100
AcDbLine
 10
-371.5612711999183
 20
549.771439217972
 30
0.0000000000000041
 11
-380.0612711999183
 21
549.771439217972
 31
0.000000000000003
210
0.0
220
1.0
230
0.0
  0
LINE
  5
59D
330
1F
100
AcDbEntity
  8
HEWI
100
AcDbLine
 10
-371.5612711999183
 20
547.1714392179847
 30
0.0000000000000041
 11
-371.4112711999178
 21
547.1714392179847
 31
0.0000000000000041
210
0.0
220
1.0
230
0.0
  0
LINE
  5
59E
330
1F
100
AcDbEntity
  8
HEWI
100
AcDbLine
 10
-371.5612711999183
 20
512.3714392179845
 30
0.0000000000000041
 11
-371.4112711999186
 21
512.3714392179845
 31
0.0000000000000041
210
0.0
220
1.0
230
0.0
  0
LINE
  5
59F
330
1F
100
AcDbEntity
  8
HEWI
100
AcDbLine
 10
-428.4612711999179
 20
537.7714392179846
 30
-0.0000000000000029
 11
-428.2612711999181
 21
537.7714392179841
 31
-0.0000000000000029
210
0.0
220
1.0
230
0.0
  0
LINE
  5
5A0
330
1F
100
AcDbEntity
  8
HEWI
100
AcDbLine
 10
-380.2612711999182
 20
537.7714392179841
 30
0.000000000000003
 11
-380.0612711999183
 21
537.7714392179841
 31
0.000000000000003
210
0.0
220
1.0
230
0.0
  0
LINE
  5
5A1
330
1F
100
AcDbEntity
  8
HEWI
100
AcDbLine
 10
-428.4612711999179
 20
521.7714392179855
 30
-0.0000000000000029
 11
-428.2612711999181
 21
521.7714392179849
 31
-0.0000000000000029
210
0.0
220
1.0
230
0.0
  0
LINE
  5
5A2
330
1F
100
AcDbEntity
  8
HEWI
100
AcDbLine
 10
-380.2612711999182
 20
521.7714392179849
 30
0.000000000000003
 11
-380.0612711999183
 21
521.7714392179849
 31
0.000000000000003
210
0.0
220
1.0
230
0.0
  0
LINE
  5
5A3
330
1F
100
AcDbEntity
  8
HEWI
100
AcDbLine
 10
-428.2612711999181
 20
522.0440326076726
 30
-0.0000000000000029
 11
-428.4612711999179
 21
522.0440326076726
 31
-0.0000000000000029
210
0.0
220
1.0
230
0.0
  0
LINE
  5
5A4
330
1F
100
AcDbEntity
  8
HEWI
100
AcDbLine
 10
-428.4612711999179
 20
523.97588426025
 30
-0.0000000000000029
 11
-428.2612711999181
 21
523.97588426025
 31
-0.0000000000000029
210
0.0
220
1.0
230
0.0
  0
LINE
  5
5A5
330
1F
100
AcDbEntity
  8
HEWI
100
AcDbLine
 10
-428.4612711999179
 20
524.1145849684929
 30
-0.0000000000000029
 11
-428.2612711999181
 21
524.1145849684929
 31
-0.0000000000000029
210
0.0
220
1.0
230
0.0
  0
LINE
  5
5A6
330
1F
100
AcDbEntity
  8
HEWI
100
AcDbLine
 10
-371.4112711999178
 20
549.7714392179846
 30
0.0000000000000041
 11
-371.4112711999186
 21
509.7714392179844
 31
0.0000000000000041
210
0.0
220
1.0
230
0.0
  0
LINE
  5
5A7
330
1F
100
AcDbEntity
  8
HEWI
100
AcDbLine
 10
-369.4112711999178
 20
547.7714392179846
 30
0.0000000000000043
 11
-369.4112711999186
 21
511.7714392179846
 31
0.0000000000000043
210
0.0
220
1.0
230
0.0
  0
LINE
  5
5A8
330
1F
100
AcDbEntity
  8
HEWI
100
AcDbLine
 10
-428.4612711999179
 20
509.7714392179723
 30
-0.0000000000000029
 11
-428.4612711999179
 21
549.771439217972
 31
-0.0000000000000029
210
0.0
220
1.0
230
0.0
  0
LINE
  5
5A9
330
1F
100
AcDbEntity
  8
HEWI
100
AcDbLine
 10
-428.2612711999181
 20
511.7714392179841
 30
-0.0000000000000029
 11
-428.4612711999179
 21
511.7714392179841
 31
-0.0000000000000029
210
0.0
220
1.0
230
0.0
  0
LINE
  5
5AA
330
1F
100
AcDbEntity
  8
HEWI
100
AcDbLine
 10
-380.0612711999183
 20
511.7714392179841
 30
0.000000000000003
 11
-380.2612711999182
 21
511.7714392179841
 31
0.000000000000003
210
0.0
220
1.0
230
0.0
  0
LINE
  5
5AB
330
1F
100
AcDbEntity
  8
HEWI
100
AcDbLine
 10
-380.2612711999182
 20
514.4714392179844
 30
0.000000000000003
 11
-380.0612711999193
 21
514.4714392179844
 31
0.000000000000003
210
0.0
220
1.0
230
0.0
  0
LINE
  5
5AC
330
1F
100
AcDbEntity
  8
HEWI
100
AcDbLine
 10
-428.4612711999169
 20
514.4714392179844
 30
-0.0000000000000029
 11
-428.2612711999181
 21
514.4714392179844
 31
-0.0000000000000029
210
0.0
220
1.0
230
0.0
  0
LINE
  5
5AD
330
1F
100
AcDbEntity
  8
HEWI
100
AcDbLine
 10
-428.2612711999181
 20
545.0714392179621
 30
-0.0000000000000029
 11
-428.4612711999169
 21
545.0714392179621
 31
-0.0000000000000029
210
0.0
220
1.0
230
0.0
  0
LINE
  5
5AE
330
1F
100
AcDbEntity
  8
HEWI
100
AcDbLine
 10
-380.0612711999193
 20
545.0714392179621
 30
0.000000000000003
 11
-380.2612711999182
 21
545.0714392179621
 31
0.000000000000003
210
0.0
220
1.0
230
0.0
  0
LINE
  5
5AF
330
1F
100
AcDbEntity
  8
HEWI
100
AcDbLine
 10
-380.2612711999182
 20
547.7714392179623
 30
0.000000000000003
 11
-380.0612711999183
 21
547.7714392179623
 31
0.000000000000003
210
0.0
220
1.0
230
0.0
  0
LINE
  5
5B0
330
1F
100
AcDbEntity
  8
HEWI
100
AcDbLine
 10
-428.4612711999179
 20
547.7714392179623
 30
-0.0000000000000029
 11
-428.2612711999181
 21
547.7714392179623
 31
-0.0000000000000029
210
0.0
220
1.0
230
0.0
  0
LINE
  5
5B1
330
1F
100
AcDbEntity
  8
HEWI
100
AcDbLine
 10
-380.0612711999183
 20
509.7714392179723
 30
0.000000000000003
 11
-380.0612711999183
 21
549.771439217972
 31
0.000000000000003
210
0.0
220
1.0
230
0.0
  0
LINE
  5
5B2
330
1F
100
AcDbEntity
  8
HEWI
100
AcDbLine
 10
-371.5612711999183
 20
549.771439217972
 30
0.0000000000000041
 11
-371.5612711999183
 21
529.7714392179718
 31
0.0000000000000041
210
0.0
220
1.0
230
0.0
  0
LINE
  5
5B3
330
1F
100
AcDbEntity
  8
HEWI
100
AcDbLine
 10
-371.5612711999183
 20
529.7714392179723
 30
0.0000000000000041
 11
-371.5612711999183
 21
509.7714392179723
 31
0.0000000000000041
210
0.0
220
1.0
230
0.0
  0
LINE
  5
5B4
330
1F
100
AcDbEntity
  8
HEWI
100
AcDbLine
 10
-385.26127119992
 20
441.7714392179846
 30
0.0000000000000024
 11
-423.2612711999181
 21
441.7714392179846
 31
-0.0000000000000023
210
0.0
220
1.0
230
0.0
  0
LINE
  5
5B5
330
1F
100
AcDbEntity
  8
HEWI
100
AcDbLine
 10
-428.2612711999181
 20
549.7714392179846
 30
-0.0000000000000029
 11
-428.2612711999181
 21
529.7714392179845
 31
-0.0000000000000029
210
0.0
220
1.0
230
0.0
  0
LINE
  5
5B6
330
1F
100
AcDbEntity
  8
HEWI
100
AcDbLine
 10
-428.2612711999181
 20
529.7714392179845
 30
-0.0000000000000029
 11
-428.2612711999181
 21
509.7714392179844
 31
-0.0000000000000029
210
0.0
220
1.0
230
0.0
  0
LINE
  5
5B7
330
1F
100
AcDbEntity
  8
HEWI
100
AcDbLine
 10
-421.7612711999181
 20
549.7714617623114
 30
-0.0000000000000021
 11
-421.7612711999181
 21
509.7714166736578
 31
-0.0000000000000021
210
0.0
220
1.0
230
0.0
  0
LINE
  5
5B8
330
1F
100
AcDbEntity
  8
HEWI
100
AcDbLine
 10
-380.2612711999182
 20
549.7714392179846
 30
0.000000000000003
 11
-380.2612711999182
 21
529.7714392179845
 31
0.000000000000003
210
0.0
220
1.0
230
0.0
  0
LINE
  5
5B9
330
1F
100
AcDbEntity
  8
HEWI
100
AcDbLine
 10
-380.2612711999182
 20
529.7714392179845
 30
0.000000000000003
 11
-380.2612711999182
 21
509.7714392179844
 31
0.000000000000003
210
0.0
220
1.0
230
0.0
  0
LINE
  5
5BA
330
1F
100
AcDbEntity
  8
HEWI
100
AcDbLine
 10
-386.7612711999182
 20
509.7714166736578
 30
0.0000000000000022
 11
-386.7612711999182
 21
549.7714617623114
 31
0.0000000000000022
210
0.0
220
1.0
230
0.0
  0
SPLINE
  5
5BB
330
1F
100
AcDbEntity
  8
HEWI
100
AcDbSpline
210
-0.0000000000000002
220
-0.0000000000000004
230
1.0
 70
     8
 71
     3
 72
    14
 73
    10
 74
     0
 42
0.000000001
 43
0.0000000001
 40
-1.51819376772367
 40
-1.51819376772367
 40
-1.51819376772367
 40
-1.51819376772367
 40
-1.135751222155821
 40
-1.135751222155821
 40
-0.7533086765879721
 40
-0.7533086765879721
 40
-0.376654338293986
 40
-0.376654338293986
 40
0.0
 40
0.0
 40
0.0
 40
0.0
 10
-389.2612711999182
 20
510.3344087715954
 30
0.0000000000000019
 10
-389.2612711999182
 20
510.3644430938966
 30
0.0000000000000019
 10
-389.2865306416343
 20
510.3977990461253
 30
0.0000000000000019
 10
-389.3892259288086
 20
510.4615775621437
 30
0.0000000000000019
 10
-389.4666610497397
 20
510.4919347519995
 30
0.0000000000000019
 10
-389.6445486406228
 20
510.5405925142409
 30
0.0000000000000019
 10
-389.7564181113157
 20
510.5622597137684
 30
0.0000000000000018
 10
-390.0019971195461
 20
510.5913468377334
 30
0.0000000000000018
 10
-390.13571975382
 20
510.5986897089998
 30
0.0000000000000018
 10
-390.2612711999182
 20
510.5986897089998
 30
0.0000000000000018
  0
SPLINE
  5
5BC
330
1F
100
AcDbEntity
  8
HEWI
100
AcDbSpline
210
0.0000000000000001
220
-0.0000000000000007
230
1.0
 70
     8
 71
     3
 72
    14
 73
    10
 74
     0
 42
0.000000001
 43
0.0000000001
 40
0.0
 40
0.0
 40
0.0
 40
0.0
 40
0.3766543382939877
 40
0.3766543382939877
 40
0.7533086765879756
 40
0.7533086765879756
 40
1.135751222155823
 40
1.135751222155823
 40
1.51819376772367
 40
1.51819376772367
 40
1.51819376772367
 40
1.51819376772367
 10
-418.2612711999182
 20
510.5986897089998
 30
-0.0000000000000017
 10
-418.3868226460162
 20
510.5986897089998
 30
-0.0000000000000017
 10
-418.5205452802902
 20
510.5913468377334
 30
-0.0000000000000017
 10
-418.7661242885205
 20
510.5622597137684
 30
-0.0000000000000017
 10
-418.8779937592133
 20
510.5405925142409
 30
-0.0000000000000017
 10
-419.0558813500955
 20
510.4919347519995
 30
-0.0000000000000018
 10
-419.1333164710276
 20
510.4615775621437
 30
-0.0000000000000018
 10
-419.2360117582019
 20
510.3977990461253
 30
-0.0000000000000018
 10
-419.2612711999181
 20
510.3644430938966
 30
-0.0000000000000018
 10
-419.2612711999181
 20
510.3344087715954
 30
-0.0000000000000018
  0
LINE
  5
5BD
330
1F
100
AcDbEntity
  8
HEWI
100
AcDbLine
 10
-390.2612711999182
 20
510.5986897089998
 30
0.0000000000000018
 11
-418.2612711999182
 21
510.5986897089998
 31
-0.0000000000000017
210
0.0
220
1.0
230
0.0
  0
LINE
  5
5BE
330
1F
100
AcDbEntity
  8
HEWI
100
AcDbLine
 10
-389.2612711999182
 20
510.3344087715954
 30
0.0000000000000019
 11
-389.2612711999182
 21
479.6298934272693
 31
0.0000000000000019
210
0.0
220
1.0
230
0.0
  0
LINE
  5
5BF
330
1F
100
AcDbEntity
  8
HEWI
100
AcDbLine
 10
-419.2612711999181
 20
510.3344087715954
 30
-0.0000000000000018
 11
-419.2612711999181
 21
479.6298934272693
 31
-0.0000000000000018
210
0.0
220
1.0
230
0.0
  0
SPLINE
  5
5C0
330
1F
100
AcDbEntity
  8
HEWI
100
AcDbSpline
210
-0.0000000000000003
220
0.0
230
1.0
 70
     8
 71
     3
 72
    14
 73
    10
 74
     0
 42
0.000000001
 43
0.0000000001
 40
0.649611117407552
 40
0.649611117407552
 40
0.649611117407552
 40
0.649611117407552
 40
0.7333587369340008
 40
0.7333587369340008
 40
1.466717473868001
 40
1.466717473868001
 40
2.251649856864295
 40
2.251649856864295
 40
3.036582239860591
 40
3.036582239860591
 40
3.036582239860591
 40
3.036582239860591
 10
-418.5771400659376
 20
477.5175515689038
 30
-0.0000000000000017
 10
-418.5907327328704
 20
477.5439408649653
 30
-0.0000000000000017
 10
-418.6042552808303
 20
477.5703246062794
 30
-0.0000000000000017
 10
-418.7352435135771
 20
477.8274062213803
 30
-0.0000000000000017
 10
-418.8446149283662
 20
478.0555182420385
 30
-0.0000000000000017
 10
-419.0256341543237
 20
478.4829153276107
 30
-0.0000000000000017
 10
-419.1123815759492
 20
478.7212372851163
 30
-0.0000000000000018
 10
-419.2305769681733
 20
479.1897759635289
 30
-0.0000000000000018
 10
-419.2612711999181
 20
479.4205665186108
 30
-0.0000000000000018
 10
-419.2612711999181
 20
479.6298934272693
 30
-0.0000000000000018
  0
SPLINE
  5
5C1
330
1F
100
AcDbEntity
  8
HEWI
100
AcDbSpline
210
0.0
220
0.0
230
1.0
 70
     8
 71
     3
 72
    20
 73
    16
 74
     0
 42
0.000000001
 43
0.0000000001
 40
-2.081957642337048
 40
-2.081957642337048
 40
-2.081957642337048
 40
-2.081957642337048
 40
-2.029036545889133
 40
-2.029036545889133
 40
-1.976115449441223
 40
-1.976115449441223
 40
-1.938296586027501
 40
-1.938296586027501
 40
-1.900477722613779
 40
-1.900477722613779
 40
-1.79865290262327
 40
-1.79865290262327
 40
-1.696828082632761
 40
-1.696828082632761
 40
-1.658125044755919
 40
-1.658125044755919
 40
-1.658125044755919
 40
-1.658125044755919
 10
-418.2612711999182
 20
477.3963434144206
 30
-0.0000000000000017
 10
-418.2730589694164
 20
477.3832696736863
 30
-0.0000000000000017
 10
-418.2869567630486
 20
477.3697922386676
 30
-0.0000000000000017
 10
-418.3175790645117
 20
477.347349834067
 30
-0.0000000000000017
 10
-418.3343668230463
 20
477.3384705454668
 30
-0.0000000000000017
 10
-418.3634602867704
 20
477.3304283509856
 30
-0.0000000000000017
 10
-418.3770414883411
 20
477.3289419859684
 30
-0.0000000000000017
 10
-418.4036445079246
 20
477.3313855753537
 30
-0.0000000000000017
 10
-418.4166710680192
 20
477.3352748149375
 30
-0.0000000000000017
 10
-418.4583366578308
 20
477.3541077631721
 30
-0.0000000000000017
 10
-418.4810839789843
 20
477.3759334885586
 30
-0.0000000000000017
 10
-418.5228865962717
 20
477.4251574229094
 30
-0.0000000000000017
 10
-418.5412983424829
 20
477.4530905408992
 30
-0.0000000000000017
 10
-418.5648324734102
 20
477.4942294855204
 30
-0.0000000000000017
 10
-418.571090612766
 20
477.5058069413375
 30
-0.0000000000000017
 10
-418.5771400659376
 20
477.5175515689038
 30
-0.0000000000000017
  0
SPLINE
  5
5C2
330
1F
100
AcDbEntity
  8
HEWI
100
AcDbSpline
210
0.0
220
0.0
230
1.0
 70
     8
 71
     3
 72
    20
 73
    16
 74
     0
 42
0.000000001
 43
0.0000000001
 40
1.658125044755959
 40
1.658125044755959
 40
1.658125044755959
 40
1.658125044755959
 40
1.696828082632773
 40
1.696828082632773
 40
1.798652902623284
 40
1.798652902623284
 40
1.900477722613793
 40
1.900477722613793
 40
1.93829658602752
 40
1.93829658602752
 40
1.976115449441245
 40
1.976115449441245
 40
2.029036545889154
 40
2.029036545889154
 40
2.081957642337065
 40
2.081957642337065
 40
2.081957642337065
 40
2.081957642337065
 10
-389.9454023338985
 20
477.5175515689038
 30
0.0000000000000018
 10
-389.9514517870703
 20
477.5058069413375
 30
0.0000000000000018
 10
-389.9577099264261
 20
477.4942294855204
 30
0.0000000000000018
 10
-389.9812440573533
 20
477.4530905408992
 30
0.0000000000000018
 10
-389.9996558035646
 20
477.4251574229094
 30
0.0000000000000018
 10
-390.041458420852
 20
477.3759334885586
 30
0.0000000000000018
 10
-390.0642057420055
 20
477.3541077631721
 30
0.0000000000000018
 10
-390.1058713318171
 20
477.3352748149375
 30
0.0000000000000018
 10
-390.1188978919117
 20
477.3313855753537
 30
0.0000000000000018
 10
-390.1455009114952
 20
477.3289419859684
 30
0.0000000000000018
 10
-390.1590821130658
 20
477.3304283509856
 30
0.0000000000000018
 10
-390.18817557679
 20
477.3384705454668
 30
0.0000000000000018
 10
-390.2049633353245
 20
477.347349834067
 30
0.0000000000000018
 10
-390.2355856367876
 20
477.3697922386676
 30
0.0000000000000018
 10
-390.2494834304198
 20
477.3832696736863
 30
0.0000000000000018
 10
-390.2612711999182
 20
477.3963434144206
 30
0.0000000000000018
  0
SPLINE
  5
5C3
330
1F
100
AcDbEntity
  8
HEWI
100
AcDbSpline
210
-0.0000000000000003
220
0.0
230
1.0
 70
     8
 71
     3
 72
    14
 73
    10
 74
     0
 42
0.000000001
 43
0.0000000001
 40
8.794524056531006
 40
8.794524056531006
 40
8.794524056531006
 40
8.794524056531006
 40
9.579456439527339
 40
9.579456439527339
 40
10.36438882252367
 40
10.36438882252367
 40
11.09774755945768
 40
11.09774755945768
 40
11.18149517898412
 40
11.18149517898412
 40
11.18149517898412
 40
11.18149517898412
 10
-389.2612711999182
 20
479.6298934272693
 30
0.0000000000000019
 10
-389.2612711999182
 20
479.4205665186108
 30
0.0000000000000019
 10
-389.2919654316629
 20
479.1897759635289
 30
0.0000000000000019
 10
-389.410160823887
 20
478.7212372851159
 30
0.0000000000000019
 10
-389.4969082455127
 20
478.4829153276107
 30
0.0000000000000019
 10
-389.67792747147
 20
478.0555182420385
 30
0.0000000000000018
 10
-389.7872988862592
 20
477.8274062213803
 30
0.0000000000000018
 10
-389.918287119006
 20
477.5703246062794
 30
0.0000000000000018
 10
-389.9318096669658
 20
477.5439408649653
 30
0.0000000000000018
 10
-389.9454023338985
 20
477.5175515689038
 30
0.0000000000000018
  0
ELLIPSE
  5
5C4
330
1F
100
AcDbEntity
  8
HEWI
100
AcDbEllipse
 10
-404.2612711999181
 20
464.869309463965
 30
0.0000000000000001
 11
-18.81828199961667
 21
0.0
 31
-0.0000000000000023
210
-0.0000000000000001
220
0.0
230
1.0
 40
0.9961946980917455
 41
-2.409769549797642
 42
-0.7318231037921505
  0
ELLIPSE
  5
5C5
330
1F
100
AcDbEntity
  8
HEWI
100
AcDbEllipse
 10
-404.2612711999181
 20
464.9399321352579
 30
0.0000000000000001
 11
12.70449773839052
 21
0.0
 31
0.0000000000000016
210
-0.0000000000000001
220
0.0
230
1.0
 40
0.9961946980917455
 41
0.0
 42
6.283185307179584
  0
LINE
  5
5C6
330
1F
100
AcDbEntity
  8
HEWI
100
AcDbLine
 10
552.2387288000817
 20
-54.72856078203768
 30
0.0000000000000105
 11
552.2387288000817
 21
459.2714392179848
 31
0.0000000000000105
210
0.0
220
1.0
230
0.0
  0
LINE
  5
5C7
330
1F
100
AcDbEntity
  8
HEWI
100
AcDbLine
 10
585.2387288000817
 20
-137.7285607820377
 30
0.0000000000000165
 11
585.2387288000817
 21
459.2714392179848
 31
0.0000000000000165
210
0.0
220
1.0
230
0.0
  0
LINE
  5
5C8
330
1F
100
AcDbEntity
  8
HEWI
100
AcDbLine
 10
509.2387288000818
 20
-219.2285607820377
 30
0.0000000000000022
 11
509.2387288000818
 21
-186.2285607820372
 31
0.0000000000000022
210
0.0
220
1.0
230
0.0
  0
LINE
  5
5C9
330
1F
100
AcDbEntity
  8
HEWI
100
AcDbLine
 10
497.2387288000818
 20
-221.2285607820377
 30
0.0
 11
497.2387288000818
 21
-186.2285607820372
 31
0.0
210
0.0
220
1.0
230
0.0
  0
ARC
  5
5CA
330
1F
100
AcDbEntity
  8
HEWI
100
AcDbCircle
 10
568.7387288000817
 20
-186.2285607820377
 30
0.0000000000000135
 40
16.5
100
AcDbArc
 50
180.0
 51
0.0
  0
LINE
  5
5CB
330
1F
100
AcDbEntity
  8
HEWI
100
AcDbLine
 10
507.2387288000817
 20
-221.2285607820377
 30
0.0000000000000018
 11
497.2387288000818
 21
-221.2285607820377
 31
0.0
210
0.0
220
1.0
230
0.0
  0
LINE
  5
5CC
330
1F
100
AcDbEntity
  8
HEWI
100
AcDbLine
 10
520.2387288000817
 20
-202.7285607820377
 30
0.0000000000000046
 11
568.7387288000817
 21
-202.7285607820377
 31
0.0000000000000135
210
0.0
220
1.0
230
0.0
  0
ARC
  5
5CD
330
1F
100
AcDbEntity
  8
HEWI
100
AcDbCircle
 10
507.2387288000817
 20
-219.2285607820377
 30
0.0000000000000018
 40
2.0
100
AcDbArc
 50
270.0
 51
0.0
  0
LINE
  5
5CE
330
1F
100
AcDbEntity
  8
HEWI
100
AcDbLine
 10
509.2387288000818
 20
-202.7285607820377
 30
0.0000000000000022
 11
522.2387288000817
 21
-202.7285607820377
 31
0.0000000000000046
210
0.0
220
1.0
230
0.0
  0
LINE
  5
5CF
330
1F
100
AcDbEntity
  8
HEWI
100
AcDbLine
 10
507.2387288000817
 20
-106.2285607820377
 30
0.0000000000000018
 11
497.2387288000818
 21
-106.2285607820377
 31
0.0
210
0.0
220
1.0
230
0.0
  0
LINE
  5
5D0
330
1F
100
AcDbEntity
  8
HEWI
100
AcDbLine
 10
507.2387288000817
 20
-36.22856078203767
 30
0.0000000000000018
 11
497.2387288000818
 21
-36.22856078203767
 31
0.0
210
0.0
220
1.0
230
0.0
  0
LINE
  5
5D1
330
1F
100
AcDbEntity
  8
HEWI
100
AcDbLine
 10
507.2387288000817
 20
-151.2285607820377
 30
0.0000000000000018
 11
497.2387288000818
 21
-151.2285607820377
 31
0.0
210
0.0
220
1.0
230
0.0
  0
LINE
  5
5D2
330
1F
100
AcDbEntity
  8
HEWI
100
AcDbLine
 10
497.2387288000818
 20
-186.2285607820377
 30
0.0
 11
497.2387288000818
 21
-151.2285607820377
 31
0.0
210
0.0
220
1.0
230
0.0
  0
LINE
  5
5D3
330
1F
100
AcDbEntity
  8
HEWI
100
AcDbLine
 10
497.2387288000818
 20
-106.2285607820377
 30
0.0
 11
497.2387288000818
 21
-71.22856078203722
 31
0.0
210
0.0
220
1.0
230
0.0
  0
LINE
  5
5D4
330
1F
100
AcDbEntity
  8
HEWI
100
AcDbLine
 10
497.2387288000818
 20
-71.22856078203766
 30
0.0
 11
497.2387288000818
 21
-36.22856078203767
 31
0.0
210
0.0
220
1.0
230
0.0
  0
LINE
  5
5D5
330
1F
100
AcDbEntity
  8
HEWI
100
AcDbLine
 10
552.2387288000817
 20
-169.7285607820377
 30
0.0000000000000105
 11
520.2387288000817
 21
-169.7285607820377
 31
0.0000000000000046
210
0.0
220
1.0
230
0.0
  0
LINE
  5
5D6
330
1F
100
AcDbEntity
  8
HEWI
100
AcDbLine
 10
585.2387288000817
 20
-186.2285607820377
 30
0.0000000000000165
 11
585.2387288000817
 21
-137.7285607820379
 31
0.0000000000000165
210
0.0
220
1.0
230
0.0
  0
LINE
  5
5D7
330
1F
100
AcDbEntity
  8
HEWI
100
AcDbLine
 10
552.2387288000817
 20
-137.7285607820379
 30
0.0000000000000105
 11
552.2387288000817
 21
-186.2285607820377
 31
0.0000000000000105
210
0.0
220
1.0
230
0.0
  0
ARC
  5
5D8
330
1F
100
AcDbEntity
  8
HEWI
100
AcDbCircle
 10
507.2387288000817
 20
-38.22856078203768
 30
0.0000000000000018
 40
2.0
100
AcDbArc
 50
0.0
 51
90.0
  0
ARC
  5
5D9
330
1F
100
AcDbEntity
  8
HEWI
100
AcDbCircle
 10
507.2387288000817
 20
-104.2285607820377
 30
0.0000000000000018
 40
2.0
100
AcDbArc
 50
270.0
 51
0.0
  0
ARC
  5
5DA
330
1F
100
AcDbEntity
  8
HEWI
100
AcDbCircle
 10
507.2387288000817
 20
-153.2285607820377
 30
0.0000000000000018
 40
2.0
100
AcDbArc
 50
0.0
 51
90.0
  0
LINE
  5
5DB
330
1F
100
AcDbEntity
  8
HEWI
100
AcDbLine
 10
552.2387288000817
 20
-137.7285607820377
 30
0.0000000000000105
 11
552.2387288000817
 21
-87.72856078203767
 31
0.0000000000000105
210
0.0
220
1.0
230
0.0
  0
LINE
  5
5DC
330
1F
100
AcDbEntity
  8
HEWI
100
AcDbLine
 10
507.2387288000817
 20
-54.72856078203768
 30
0.0000000000000022
 11
552.2387288000817
 21
-54.72856078203768
 31
0.0000000000000105
210
0.0
220
1.0
230
0.0
  0
LINE
  5
5DD
330
1F
100
AcDbEntity
  8
HEWI
100
AcDbLine
 10
507.2387288000817
 20
-87.72856078203767
 30
0.0000000000000022
 11
552.2387288000817
 21
-87.72856078203767
 31
0.0000000000000105
210
0.0
220
1.0
230
0.0
  0
LINE
  5
5DE
330
1F
100
AcDbEntity
  8
HEWI
100
AcDbLine
 10
509.2387288000818
 20
-169.7285607820377
 30
0.0000000000000022
 11
522.2387288000817
 21
-169.7285607820377
 31
0.0000000000000046
210
0.0
220
1.0
230
0.0
  0
LINE
  5
5DF
330
1F
100
AcDbEntity
  8
HEWI
100
AcDbLine
 10
509.2387288000818
 20
-186.2285607820377
 30
0.0000000000000022
 11
509.2387288000818
 21
-153.2285607820377
 31
0.0000000000000022
210
0.0
220
1.0
230
0.0
  0
LINE
  5
5E0
330
1F
100
AcDbEntity
  8
HEWI
100
AcDbLine
 10
509.2387288000818
 20
-104.2285607820377
 30
0.0000000000000022
 11
509.2387288000818
 21
-71.22856078203722
 31
0.0000000000000022
210
0.0
220
1.0
230
0.0
  0
LINE
  5
5E1
330
1F
100
AcDbEntity
  8
HEWI
100
AcDbLine
 10
509.2387288000818
 20
-71.22856078203766
 30
0.0000000000000022
 11
509.2387288000818
 21
-38.22856078203768
 31
0.0000000000000022
210
0.0
220
1.0
230
0.0
  0
LINE
  5
5E2
330
1F
100
AcDbEntity
  8
HEWI
100
AcDbLine
 10
552.2387288000817
 20
-54.72856078203768
 30
0.0000000000000105
 11
568.7387288000817
 21
-71.22856078203766
 31
0.0000000000000135
210
0.0
220
1.0
230
0.0
  0
LINE
  5
5E3
330
1F
100
AcDbEntity
  8
HEWI
100
AcDbLine
 10
568.7387288000817
 20
-71.22856078203745
 30
0.0000000000000135
 11
552.2387288000817
 21
-87.72856078203767
 31
0.0000000000000105
210
0.0
220
1.0
230
0.0
  0
ARC
  5
5E4
330
1F
100
AcDbEntity
  8
HEWI
100
AcDbCircle
 10
618.5598111908839
 20
463.5910845782781
 30
0.0000000000000227
 40
4.000000000000073
100
AcDbArc
 50
194.1768749669958
 51
355.8231250330066
  0
ARC
  5
5E5
330
1F
100
AcDbEntity
  8
HEWI
100
AcDbCircle
 10
588.2387288000808
 20
459.9714392179843
 30
0.0000000000000171
 40
0.6999999999999319
100
AcDbArc
 50
270.0
 51
0.0
  0
ARC
  5
5E6
330
1F
100
AcDbEntity
  8
HEWI
100
AcDbCircle
 10
550.2387288000817
 20
459.9714392179843
 30
0.0000000000000101
 40
0.6999999999999319
100
AcDbArc
 50
180.0
 51
270.0
  0
ARC
  5
5E7
330
1F
100
AcDbEntity
  8
HEWI
100
AcDbCircle
 10
544.538728800082
 20
563.2714392179622
 30
0.0000000000000091
 40
1.999999999999995
100
AcDbArc
 50
90.0
 51
180.0
  0
ARC
  5
5E8
330
1F
100
AcDbEntity
  8
HEWI
100
AcDbCircle
 10
544.538728800082
 20
531.2714392179841
 30
0.0000000000000091
 40
1.999999999999999
100
AcDbArc
 50
180.0
 51
270.0
  0
ARC
  5
5E9
330
1F
100
AcDbEntity
  8
HEWI
100
AcDbCircle
 10
502.8679123514421
 20
472.0400219625896
 30
0.0000000000000014
 40
119.9999999999995
100
AcDbArc
 50
355.8231250330066
 51
358.9226597831567
  0
ARC
  5
5EA
330
1F
100
AcDbEntity
  8
HEWI
100
AcDbCircle
 10
502.8679123514421
 20
472.0400219625896
 30
0.0000000000000014
 40
119.9999999999995
100
AcDbArc
 50
11.07734021684895
 51
14.02230851987706
  0
LINE
  5
5EB
330
1F
100
AcDbEntity
  8
HEWI
100
AcDbLine
 10
549.5387288000811
 20
459.9714392179843
 30
0.00000000000001
 11
549.5387288000811
 21
529.2714392179846
 31
0.00000000000001
210
0.0
220
1.0
230
0.0
  0
LINE
  5
5EC
330
1F
100
AcDbEntity
  8
HEWI
100
AcDbLine
 10
588.9387288000807
 20
459.9714392179843
 30
0.0000000000000172
 11
588.9387288000807
 21
529.2714392179846
 31
0.0000000000000172
210
0.0
220
1.0
230
0.0
  0
LINE
  5
5ED
330
1F
100
AcDbEntity
  8
HEWI
100
AcDbLine
 10
542.538728800082
 20
531.2714392179841
 30
0.0000000000000087
 11
542.538728800082
 21
563.2714392179622
 31
0.0000000000000087
210
0.0
220
1.0
230
0.0
  0
LINE
  5
5EE
330
1F
100
AcDbEntity
  8
HEWI
100
AcDbLine
 10
569.2387288000817
 20
529.2714392179854
 30
0.0000000000000136
 11
602.520930912973
 21
529.2714392179854
 31
0.0000000000000197
210
0.0
220
1.0
230
0.0
  0
LINE
  5
5EF
330
1F
100
AcDbEntity
  8
HEWI
100
AcDbLine
 10
569.2387288000817
 20
565.2714392179636
 30
0.0000000000000136
 11
602.5209309129832
 21
565.2714392179636
 31
0.0000000000000197
210
0.0
220
1.0
230
0.0
  0
LINE
  5
5F0
330
1F
100
AcDbEntity
  8
HEWI
100
AcDbLine
 10
544.538728800082
 20
565.2714392179622
 30
0.0000000000000091
 11
569.2387288000817
 21
565.2714392179622
 31
0.0000000000000136
210
0.0
220
1.0
230
0.0
  0
LINE
  5
5F1
330
1F
100
AcDbEntity
  8
HEWI
100
AcDbLine
 10
544.538728800082
 20
529.2714392179841
 30
0.0000000000000091
 11
569.2387288000817
 21
529.2714392179841
 31
0.0000000000000136
210
0.0
220
1.0
230
0.0
  0
LINE
  5
5F2
330
1F
100
AcDbEntity
  8
HEWI
100
AcDbLine
 10
588.2387288000808
 20
459.2714392179845
 30
0.0000000000000171
 11
550.2387288000817
 21
459.2714392179845
 31
0.0000000000000101
210
0.0
220
1.0
230
0.0
  0
ARC
  5
5F3
330
1F
100
AcDbEntity
  8
HEWI
100
AcDbCircle
 10
611.2387288000808
 20
547.2714392179844
 30
0.0000000000000213
 40
20.00002254432668
100
AcDbArc
 50
244.1579338865223
 51
115.8420661136524
  0
LINE
  5
5F4
330
1F
100
AcDbEntity
  8
HEWI
100
AcDbLine
 10
608.9618487961787
 20
527.4014437670187
 30
0.0000000000000209
 11
611.8666776994167
 21
494.1990974724398
 31
0.0000000000000214
210
0.0
220
1.0
230
0.0
  0
SPLINE
  5
5F5
330
1F
100
AcDbEntity
  8
HEWI
100
AcDbSpline
210
0.0
220
0.0
230
1.0
 70
     8
 71
     3
 72
    20
 73
    16
 74
     0
 42
0.000000001
 43
0.0000000001
 40
1.658125044756507
 40
1.658125044756507
 40
1.658125044756507
 40
1.658125044756507
 40
1.696828082632723
 40
1.696828082632723
 40
1.798652902623234
 40
1.798652902623234
 40
1.900477722613745
 40
1.900477722613745
 40
1.938296586027634
 40
1.938296586027634
 40
1.97611544944152
 40
1.97611544944152
 40
2.029036545890053
 40
2.029036545890053
 40
2.081957642338585
 40
2.081957642338585
 40
2.081957642338585
 40
2.081957642338585
 10
611.9066852980586
 20
494.3292298771531
 30
0.0000000000000214
 10
611.9057218980823
 20
494.3171341963671
 30
0.0000000000000214
 10
611.9047389894102
 20
494.3052048263139
 30
0.0000000000000214
 10
611.9010982795597
 20
494.2627892917853
 30
0.0000000000000214
 10
611.8983491047082
 20
494.2339405067246
 30
0.0000000000000214
 10
611.8924066955424
 20
494.1829094067769
 30
0.0000000000000214
 10
611.8892798092765
 20
494.1601956299812
 30
0.0000000000000214
 10
611.8839644696936
 20
494.1401349153833
 30
0.0000000000000214
 10
611.8823414522893
 20
494.1358994962525
 30
0.0000000000000214
 10
611.8791321545377
 20
494.1328523247793
 30
0.0000000000000214
 10
611.8775460365395
 20
494.1340819439719
 30
0.0000000000000214
 10
611.8742415594124
 20
494.1416655337916
 30
0.0000000000000214
 10
611.8724162444376
 20
494.1503599474535
 30
0.0000000000000214
 10
611.869210681928
 20
494.1725833351609
 30
0.0000000000000214
 10
611.8678215035206
 20
494.1860237317055
 30
0.0000000000000214
 10
611.8666776994167
 20
494.1990974724398
 30
0.0000000000000214
  0
SPLINE
  5
5F6
330
1F
100
AcDbEntity
  8
HEWI
100
AcDbSpline
210
0.0000000000000001
220
-0.0000000000000001
230
1.0
 70
     8
 71
     3
 72
    14
 73
    10
 74
     0
 42
0.000000001
 43
0.0000000001
 40
8.778950683888792
 40
8.778950683888792
 40
8.778950683888792
 40
8.778950683888792
 40
9.563883066885145
 40
9.563883066885145
 40
10.34881544988149
 40
10.34881544988149
 40
11.08217418681549
 40
11.08217418681549
 40
11.16592180634194
 40
11.16592180634194
 40
11.16592180634194
 40
11.16592180634194
 10
612.6598369525145
 20
496.6069589707831
 30
0.0000000000000216
 10
612.5415999309025
 20
496.3735544801193
 30
0.0000000000000215
 10
612.4173232584971
 20
496.117290278299
 30
0.0000000000000215
 10
612.2015183918937
 20
495.6034714149908
 30
0.0000000000000215
 10
612.110677589395
 20
495.3454552727131
 30
0.0000000000000215
 10
611.9862217432482
 20
494.889519974598
 30
0.0000000000000214
 10
611.9382170209201
 20
494.6494244305831
 30
0.0000000000000214
 10
611.9113131053364
 20
494.3836330309785
 30
0.0000000000000214
 10
611.9088499854496
 20
494.3564079634348
 30
0.0000000000000214
 10
611.9066852980586
 20
494.3292298771531
 30
0.0000000000000214
  0
SPLINE
  5
5F7
330
1F
100
AcDbEntity
  8
HEWI
100
AcDbSpline
210
-0.0000000000000002
220
0.0
230
1.0
 70
     8
 71
     3
 72
    30
 73
    26
 74
     0
 42
0.000000001
 43
0.0000000001
 40
50.21703549202495
 40
50.21703549202495
 40
50.21703549202495
 40
50.21703549202495
 40
50.53039260880385
 40
50.53039260880385
 40
51.29598074329932
 40
51.29598074329932
 40
51.92914302530023
 40
51.92914302530023
 40
52.56230530730113
 40
52.56230530730113
 40
53.12551373138332
 40
53.12551373138332
 40
53.68872215546555
 40
53.68872215546555
 40
54.25193057954776
 40
54.25193057954776
 40
54.81513900362998
 40
54.81513900362998
 40
55.44830128563085
 40
55.44830128563085
 40
56.08146356763175
 40
56.08146356763175
 40
56.84705170212724
 40
56.84705170212724
 40
57.16040881890615
 40
57.16040881890615
 40
57.16040881890615
 40
57.16040881890615
 10
618.6370051410649
 20
497.1298934272693
 30
0.0000000000000227
 10
618.5694320783967
 20
497.2200047237073
 30
0.0000000000000227
 10
618.4979401306746
 20
497.309156145887
 30
0.0000000000000226
 10
618.2412590997463
 20
497.6067659475811
 30
0.0000000000000226
 10
618.0398425125757
 20
497.8009080011251
 30
0.0000000000000226
 10
617.6760228067613
 20
498.0924974618774
 30
0.0000000000000225
 10
617.4848492864057
 20
498.223409798627
 30
0.0000000000000225
 10
617.0805684438446
 20
498.4441840375096
 30
0.0000000000000224
 10
616.8673352749356
 20
498.5338154115847
 30
0.0000000000000223
 10
616.4866458244205
 20
498.6525975402326
 30
0.0000000000000223
 10
616.2855446154426
 20
498.697088735278
 30
0.0000000000000222
 10
615.8786295270556
 20
498.7427063111209
 30
0.0000000000000222
 10
615.6728054581171
 20
498.7437417540014
 30
0.0000000000000221
 10
615.2987619607902
 20
498.71101718832
 30
0.0000000000000221
 10
615.0962446247111
 20
498.674256501652
 30
0.000000000000022
 10
614.7034328997651
 20
498.5586718957247
 30
0.0000000000000219
 10
614.5131126849655
 20
498.4799357634373
 30
0.0000000000000219
 10
614.1588330627874
 20
498.2968521728871
 30
0.0000000000000218
 10
613.9644037096159
 20
498.1715549495857
 30
0.0000000000000218
 10
613.6046018457253
 20
497.8839321358917
 30
0.0000000000000217
 10
613.4390653694198
 20
497.7218117182682
 30
0.0000000000000217
 10
613.1314068809215
 20
497.3714755277085
 30
0.0000000000000217
 10
612.9667626780964
 20
497.1453073048786
 30
0.0000000000000216
 10
612.7656606085073
 20
496.8076466715356
 30
0.0000000000000216
 10
612.7107357661097
 20
496.7074352133413
 30
0.0000000000000216
 10
612.6598369525145
 20
496.6069589707831
 30
0.0000000000000216
  0
SPLINE
  5
5F8
330
1F
100
AcDbEntity
  8
HEWI
100
AcDbSpline
210
0.0000000000000001
220
0.0000000000000001
230
1.0
 70
     8
 71
     3
 72
    14
 73
    10
 74
     0
 42
0.000000001
 43
0.0000000001
 40
0.649611117407552
 40
0.649611117407552
 40
0.649611117407552
 40
0.649611117407552
 40
0.7333587369340008
 40
0.7333587369340008
 40
1.466717473868001
 40
1.466717473868001
 40
2.251649856864295
 40
2.251649856864295
 40
3.036582239860591
 40
3.036582239860591
 40
3.036582239860591
 40
3.036582239860591
 10
619.7742382358947
 20
495.0175515689037
 30
0.0000000000000229
 10
619.7673870098132
 20
495.0439408649653
 30
0.0000000000000229
 10
619.7602337268872
 20
495.0703246062793
 30
0.0000000000000229
 10
619.6875843500528
 20
495.3274062213804
 30
0.0000000000000229
 10
619.5986167736391
 20
495.5555182420383
 30
0.0000000000000228
 10
619.3968793577941
 20
495.9829153276107
 30
0.0000000000000228
 10
619.2626145982877
 20
496.2212372851163
 30
0.0000000000000228
 10
618.9608645832548
 20
496.689775963529
 30
0.0000000000000227
 10
618.7939761411044
 20
496.9205665186108
 30
0.0000000000000227
 10
618.6370051410649
 20
497.1298934272693
 30
0.0000000000000227
  0
SPLINE
  5
5F9
330
1F
100
AcDbEntity
  8
HEWI
100
AcDbSpline
210
0.0
220
0.0
230
1.0
 70
     8
 71
     3
 72
    20
 73
    16
 74
     0
 42
0.000000001
 43
0.0000000001
 40
-2.081957642337048
 40
-2.081957642337048
 40
-2.081957642337048
 40
-2.081957642337048
 40
-2.029036545889133
 40
-2.029036545889133
 40
-1.976115449441223
 40
-1.976115449441223
 40
-1.938296586027501
 40
-1.938296586027501
 40
-1.900477722613779
 40
-1.900477722613779
 40
-1.79865290262327
 40
-1.79865290262327
 40
-1.696828082632761
 40
-1.696828082632761
 40
-1.658125044755919
 40
-1.658125044755919
 40
-1.658125044755919
 40
-1.658125044755919
 10
619.8362352841503
 20
494.8963434144206
 30
0.0000000000000229
 10
619.8373790882551
 20
494.8832696736863
 30
0.0000000000000229
 10
619.8383449149559
 20
494.8697922386677
 30
0.0000000000000229
 10
619.8390471029206
 20
494.8473498340668
 30
0.0000000000000229
 10
619.8387592876697
 20
494.8384705454668
 30
0.0000000000000229
 10
619.8368218895275
 20
494.8304283509854
 30
0.0000000000000229
 10
619.8354733893584
 20
494.8289419859682
 30
0.0000000000000229
 10
619.8317837122767
 20
494.8313855753537
 30
0.0000000000000229
 10
619.8294498793402
 20
494.8352748149375
 30
0.0000000000000229
 10
619.8207317851775
 20
494.8541077631721
 30
0.0000000000000229
 10
619.8137081973909
 20
494.8759334885586
 30
0.0000000000000229
 10
619.7989946092628
 20
494.9251574229093
 30
0.0000000000000229
 10
619.7912776616004
 20
494.9530905408992
 30
0.0000000000000229
 10
619.7803268820379
 20
494.9942294855204
 30
0.0000000000000229
 10
619.7772873925869
 20
495.0058069413374
 30
0.0000000000000229
 10
619.7742382358947
 20
495.0175515689037
 30
0.0000000000000229
  0
LINE
  5
5FA
330
1F
100
AcDbEntity
  8
HEWI
100
AcDbLine
 10
616.9314063809125
 20
528.0986897089998
 30
0.0000000000000224
 11
619.8362352841503
 21
494.8963434144206
 31
0.0000000000000229
210
0.0
220
1.0
230
0.0
  0
LINE
  5
5FB
330
1F
100
AcDbEntity
  8
HEWI
100
AcDbLine
 10
620.6321596324222
 20
495.0960854241611
 30
0.000000000000023
 11
622.8466995056732
 21
469.7837788463548
 31
0.0000000000000234
210
0.0
220
1.0
230
0.0
  0
LINE
  5
5FC
330
1F
100
AcDbEntity
  8
HEWI
100
AcDbLine
 10
611.0481603944325
 20
494.2575941395961
 30
0.0000000000000213
 11
613.2627002676835
 21
468.9452875617896
 31
0.0000000000000217
210
0.0
220
1.0
230
0.0
  0
SPLINE
  5
5FD
330
1F
100
AcDbEntity
  8
HEWI
100
AcDbSpline
210
-0.0000000000000002
220
0.0
230
1.0
 70
     8
 71
     3
 72
    46
 73
    42
 74
     0
 42
0.000000001
 43
0.0000000001
 40
-26.25009051702358
 40
-26.25009051702358
 40
-26.25009051702358
 40
-26.25009051702358
 40
-25.19226716828405
 40
-25.19226716828405
 40
-24.06297385938894
 40
-24.06297385938894
 40
-22.97039393615168
 40
-22.97039393615168
 40
-21.87781401291442
 40
-21.87781401291442
 40
-20.78523408967716
 40
-20.78523408967716
 40
-19.6926541664399
 40
-19.6926541664399
 40
-18.59462246291696
 40
-18.59462246291696
 40
-17.49659075939401
 40
-17.49659075939401
 40
-16.39855905587109
 40
-16.39855905587109
 40
-15.30052735234815
 40
-15.30052735234815
 40
-14.20249564882519
 40
-14.20249564882519
 40
-13.10446394530224
 40
-13.10446394530224
 40
-12.00643224177928
 40
-12.00643224177928
 40
-10.90840053825633
 40
-10.90840053825633
 40
-9.815820615019132
 40
-9.815820615019132
 40
-8.723240691781931
 40
-8.723240691781931
 40
-7.630660768544732
 40
-7.630660768544732
 40
-6.538080845307532
 40
-6.538080845307532
 40
-5.408787536412319
 40
-5.408787536412319
 40
-4.350964187672493
 40
-4.350964187672493
 40
-4.350964187672493
 40
-4.350964187672493
 10
605.4827242444979
 20
528.1176304735367
 30
0.0000000000000203
 10
605.3114551507113
 20
528.1691047346724
 30
0.0000000000000202
 10
605.1197233569646
 20
528.2292649095607
 30
0.0000000000000202
 10
604.6961603308127
 20
528.3704354977118
 30
0.0000000000000201
 10
604.4625565070008
 20
528.4526339940921
 30
0.0000000000000201
 10
603.9966345048642
 20
528.6270856129836
 30
0.00000000000002
 10
603.744142474281
 20
528.7264424096746
 30
0.0000000000000199
 10
603.2044764634629
 20
528.9537832487665
 30
0.0000000000000198
 10
602.9173353881806
 20
529.0818205528271
 30
0.0000000000000198
 10
602.3247199461475
 20
529.364785101387
 30
0.0000000000000197
 10
602.0191146509322
 20
529.5198374000102
 30
0.0000000000000196
 10
601.4082584872776
 20
529.8506899346675
 30
0.0000000000000195
 10
601.1030277040654
 20
530.0265263078115
 30
0.0000000000000194
 10
600.5117556352652
 20
530.3879354397036
 30
0.0000000000000193
 10
600.1993404826207
 20
530.5896578616275
 30
0.0000000000000193
 10
599.5619365600478
 20
531.0294428312077
 30
0.0000000000000192
 10
599.2369719326879
 20
531.2675514715277
 30
0.0000000000000191
 10
598.5940291545894
 20
531.7705308000721
 30
0.000000000000019
 10
598.2758237956486
 20
532.0356176751114
 30
0.0000000000000189
 10
597.6639865698662
 20
532.5781231312928
 30
0.0000000000000188
 10
597.3703551095821
 20
532.855541661022
 30
0.0000000000000188
 10
596.8228312431182
 20
533.4030655274856
 30
0.0000000000000187
 10
596.5454127133889
 20
533.6966969877704
 30
0.0000000000000186
 10
596.0029072572077
 20
534.3085342135529
 30
0.0000000000000185
 10
595.7378203821681
 20
534.6267395724931
 30
0.0000000000000185
 10
595.2348410536242
 20
535.2696823505916
 30
0.0000000000000184
 10
594.996732413304
 20
535.5946469779508
 30
0.0000000000000183
 10
594.5569474437234
 20
536.2320509005242
 30
0.0000000000000182
 10
594.3552250217997
 20
536.5444660531689
 30
0.0000000000000182
 10
593.9938158899076
 20
537.1357381219695
 30
0.0000000000000181
 10
593.8179795167642
 20
537.4409689051816
 30
0.0000000000000181
 10
593.4871269821067
 20
538.0518250688363
 30
0.000000000000018
 10
593.3320746834834
 20
538.3574303640512
 30
0.000000000000018
 10
593.0491101349233
 20
538.9500458060846
 30
0.000000000000018
 10
592.9210728308626
 20
539.2371868813663
 30
0.0000000000000179
 10
592.6937319917714
 20
539.7768528921849
 30
0.0000000000000179
 10
592.5943751950799
 20
540.0293449227681
 30
0.0000000000000179
 10
592.4199235761887
 20
540.495266924904
 30
0.0000000000000179
 10
592.3377250798083
 20
540.7288707487158
 30
0.0000000000000178
 10
592.1965544916567
 20
541.1524337748683
 30
0.0000000000000178
 10
592.1363943167689
 20
541.3441655686146
 30
0.0000000000000178
 10
592.0849200556331
 20
541.5154346624013
 30
0.0000000000000178
  0
SPLINE
  5
5FE
330
1F
100
AcDbEntity
  8
HEWI
100
AcDbSpline
210
-0.0000000000000002
220
0.0
230
1.0
 70
     8
 71
     3
 72
    38
 73
    34
 74
     0
 42
0.000000001
 43
0.0000000001
 40
7.989195374219312
 40
7.989195374219312
 40
7.989195374219312
 40
7.989195374219312
 40
8.254479951649056
 40
8.254479951649056
 40
9.559037833637082
 40
9.559037833637082
 40
10.8635957156251
 40
10.8635957156251
 40
12.16815359761313
 40
12.16815359761313
 40
13.47206133512371
 40
13.47206133512371
 40
14.77596907263429
 40
14.77596907263429
 40
16.07987681014486
 40
16.07987681014486
 40
17.38378454765544
 40
17.38378454765544
 40
18.68769228516606
 40
18.68769228516606
 40
19.99160002267668
 40
19.99160002267668
 40
21.29550776018729
 40
21.29550776018729
 40
22.59941549769791
 40
22.59941549769791
 40
23.90397337968593
 40
23.90397337968593
 40
25.20853126167392
 40
25.20853126167392
 40
26.51308914366193
 40
26.51308914366193
 40
26.77837372109179
 40
26.77837372109179
 40
26.77837372109179
 40
26.77837372109179
 10
616.9947540859339
 20
566.425241793908
 30
0.0000000000000224
 10
617.0588244685577
 20
566.4059878233488
 30
0.0000000000000224
 10
617.1240878320841
 20
566.3860248977913
 30
0.0000000000000224
 10
617.5169865788266
 20
566.2635544731856
 30
0.0000000000000225
 10
617.8707891051945
 20
566.1439597669258
 30
0.0000000000000225
 10
618.6113339598705
 20
565.8671631597602
 30
0.0000000000000227
 10
618.9982618284894
 20
565.7097842360199
 30
0.0000000000000227
 10
619.7793996735663
 20
565.3612114900136
 30
0.0000000000000229
 10
620.1735806411123
 20
565.1699410769631
 30
0.0000000000000229
 10
620.9405821671371
 20
564.7660612538179
 30
0.0000000000000231
 10
621.3465013274436
 20
564.5361712859946
 30
0.0000000000000232
 10
622.1763101910337
 20
564.0227780349674
 30
0.0000000000000233
 10
622.6001580489755
 20
563.7391896243025
 30
0.0000000000000234
 10
623.4382301718133
 20
563.1283318613592
 30
0.0000000000000235
 10
623.8528550591109
 20
562.8006934850341
 30
0.0000000000000236
 10
624.6477937653852
 20
562.11970161214
 30
0.0000000000000238
 10
625.0281010608813
 20
561.7663382046462
 30
0.0000000000000238
 10
625.7336277867424
 20
561.0608114787851
 30
0.000000000000024
 10
626.0869911942362
 20
560.6805041832886
 30
0.000000000000024
 10
626.7679830671303
 20
559.8855654770146
 30
0.0000000000000242
 10
627.0956214434553
 20
559.470940589717
 30
0.0000000000000242
 10
627.7064792063992
 20
558.6328684668788
 30
0.0000000000000243
 10
627.9900676170638
 20
558.2090206089374
 30
0.0000000000000244
 10
628.5034608680907
 20
557.3792117453471
 30
0.0000000000000245
 10
628.7333508359142
 20
556.9732925850408
 30
0.0000000000000245
 10
629.1372306590592
 20
556.2062910590161
 30
0.0000000000000246
 10
629.3285010721101
 20
555.81211009147
 30
0.0000000000000246
 10
629.6770738181168
 20
555.0309722463928
 30
0.0000000000000247
 10
629.8344527418565
 20
554.6440443777742
 30
0.0000000000000247
 10
630.1112493490227
 20
553.9034995230986
 30
0.0000000000000248
 10
630.2308440552815
 20
553.5496969967303
 30
0.0000000000000248
 10
630.3533144798874
 20
553.1567982499881
 30
0.0000000000000248
 10
630.3732774054451
 20
553.0915348864616
 30
0.0000000000000248
 10
630.3925313760046
 20
553.0274645038371
 30
0.0000000000000248
  0
ARC
  5
5FF
330
1F
100
AcDbEntity
  8
HEWI
100
AcDbCircle
 10
611.2387288000808
 20
547.2714392179844
 30
0.0000000000000213
 40
20.0
100
AcDbArc
 50
190.4432992891753
 51
196.7262863686397
  0
ARC
  5
600
330
1F
100
AcDbEntity
  8
HEWI
100
AcDbCircle
 10
611.2387288000808
 20
547.2714392179844
 30
0.0000000000000213
 40
20.0
100
AcDbArc
 50
79.55670071079848
 51
190.4432992891753
  0
ARC
  5
601
330
1F
100
AcDbEntity
  8
HEWI
100
AcDbCircle
 10
611.2387288000808
 20
547.2714392179844
 30
0.0000000000000213
 40
20.0
100
AcDbArc
 50
73.27371363136339
 51
79.55670071079848
  0
ARC
  5
602
330
1F
100
AcDbEntity
  8
HEWI
100
AcDbCircle
 10
611.2387288000808
 20
547.2714392179844
 30
0.0000000000000213
 40
20.0
100
AcDbArc
 50
10.44329928917531
 51
16.72628636863972
  0
ARC
  5
603
330
1F
100
AcDbEntity
  8
HEWI
100
AcDbCircle
 10
611.2387288000808
 20
547.2714392179844
 30
0.0000000000000213
 40
20.0
100
AcDbArc
 50
259.5567007107985
 51
10.44329928917531
  0
ARC
  5
604
330
1F
100
AcDbEntity
  8
HEWI
100
AcDbCircle
 10
611.2387288000808
 20
547.2714392179844
 30
0.0000000000000213
 40
20.0
100
AcDbArc
 50
253.2737136313634
 51
259.5567007107985
  0
ARC
  5
605
330
1F
100
AcDbEntity
  8
HEWI
100
AcDbCircle
 10
629.4348493969591
 20
552.7396377535048
 30
0.0000000000000247
 40
1.000000000000051
100
AcDbArc
 50
16.72628636863972
 51
135.0
  0
ARC
  5
606
330
1F
100
AcDbEntity
  8
HEWI
100
AcDbCircle
 10
605.7705302645607
 20
529.0753186211064
 30
0.0000000000000203
 40
1.000000000000051
100
AcDbArc
 50
135.0
 51
253.2737136313634
  0
LINE
  5
607
330
1F
100
AcDbEntity
  8
HEWI
100
AcDbLine
 10
628.7277426157725
 20
553.4467445346913
 30
0.0000000000000245
 11
605.0634234833742
 21
529.782425402293
 31
0.0000000000000202
210
0.0
220
1.0
230
0.0
  0
ARC
  5
608
330
1F
100
AcDbEntity
  8
HEWI
100
AcDbCircle
 10
593.0426082032027
 20
541.8032406824645
 30
0.000000000000018
 40
1.000000000000051
100
AcDbArc
 50
196.7262863686397
 51
315.0
  0
LINE
  5
609
330
1F
100
AcDbEntity
  8
HEWI
100
AcDbLine
 10
593.7497149843892
 20
541.0961339012779
 30
0.0000000000000181
 11
617.4140341167876
 21
564.7604530336762
 31
0.0000000000000224
210
0.0
220
1.0
230
0.0
  0
ARC
  5
60A
330
1F
100
AcDbEntity
  8
HEWI
100
AcDbCircle
 10
616.706927335601
 20
565.4675598148624
 30
0.0000000000000223
 40
1.000000000000051
100
AcDbArc
 50
315.0000000000184
 51
73.27371363136339
  0
ARC
  5
60B
330
1F
100
AcDbEntity
  8
HEWI
100
AcDbCircle
 10
-404.7612711999181
 20
896.2714392179622
 30
0.0
 40
35.0
100
AcDbArc
 50
180.0
 51
242.7971055878054
  0
ARC
  5
60C
330
1F
100
AcDbEntity
  8
HEWI
100
AcDbCircle
 10
-404.7612711999181
 20
896.2714392179622
 30
0.0
 40
35.0
100
AcDbArc
 50
299.0592810680475
 51
180.0
  0
LINE
  5
60D
330
1F
100
AcDbEntity
  8
HEWI
100
AcDbLine
 10
-420.7612711999181
 20
896.7714392179622
 30
-0.000000000000002
 11
-420.7612711999181
 21
847.7714392179622
 31
-0.000000000000002
210
0.0
220
1.0
230
0.0
  0
LINE
  5
60E
330
1F
100
AcDbEntity
  8
HEWI
100
AcDbLine
 10
-387.7612711999181
 20
847.7714392179622
 30
0.0000000000000021
 11
-387.7612711999181
 21
896.7714392179622
 31
0.0000000000000021
210
0.0
220
1.0
230
0.0
  0
LINE
  5
60F
330
1F
100
AcDbEntity
  8
HEWI
100
AcDbLine
 10
-421.2612711999181
 20
847.7714392179622
 30
-0.000000000000002
 11
-416.175854347206
 21
847.7714392179622
 31
-0.0000000000000014
210
0.0
220
1.0
230
0.0
  0
LINE
  5
610
330
1F
100
AcDbEntity
  8
HEWI
100
AcDbLine
 10
-416.175854347206
 20
847.7714392179622
 30
-0.0000000000000014
 11
-387.7612711999181
 21
847.7714392179622
 31
0.0000000000000021
210
0.0
220
1.0
230
0.0
  0
ARC
  5
611
330
1F
100
AcDbEntity
  8
HEWI
100
AcDbCircle
 10
-404.7612711999181
 20
896.2714392179622
 30
0.0
 40
16.8
100
AcDbArc
 50
180.0
 51
197.752790161954
  0
ARC
  5
612
330
1F
100
AcDbEntity
  8
HEWI
100
AcDbCircle
 10
-404.7612711999181
 20
896.2714392179622
 30
0.0
 40
16.8
100
AcDbArc
 50
108.7990428793207
 51
180.0
  0
ARC
  5
613
330
1F
100
AcDbEntity
  8
HEWI
100
AcDbCircle
 10
-404.2612711999181
 20
896.7714392179622
 30
0.0000000000000001
 40
16.5
100
AcDbArc
 50
0.0
 51
180.0
  0
LINE
  5
614
330
1F
100
AcDbEntity
  8
HEWI
100
AcDbLine
 10
507.2387288000817
 20
878.7714392179621
 30
0.0000000000000018
 11
497.2387288000818
 21
878.7714392179621
 31
0.0
210
0.0
220
1.0
230
0.0
  0
LINE
  5
615
330
1F
100
AcDbEntity
  8
HEWI
100
AcDbLine
 10
507.2387288000817
 20
948.7714392179624
 30
0.0000000000000018
 11
497.2387288000818
 21
948.7714392179624
 31
0.0
210
0.0
220
1.0
230
0.0
  0
LINE
  5
616
330
1F
100
AcDbEntity
  8
HEWI
100
AcDbLine
 10
497.2387288000818
 20
878.7714392179621
 30
0.0
 11
497.2387288000818
 21
913.7714392179622
 31
0.0
210
0.0
220
1.0
230
0.0
  0
LINE
  5
617
330
1F
100
AcDbEntity
  8
HEWI
100
AcDbLine
 10
497.2387288000818
 20
913.7714392179622
 30
0.0
 11
497.2387288000818
 21
948.7714392179624
 31
0.0
210
0.0
220
1.0
230
0.0
  0
ARC
  5
618
330
1F
100
AcDbEntity
  8
HEWI
100
AcDbCircle
 10
520.2387288000817
 20
865.2714392179621
 30
0.0000000000000046
 40
65.5
100
AcDbArc
 50
0.0
 51
90.0
  0
ARC
  5
619
330
1F
100
AcDbEntity
  8
HEWI
100
AcDbCircle
 10
520.2387288000817
 20
865.2714392179621
 30
0.0000000000000046
 40
32.5
100
AcDbArc
 50
0.0
 51
90.0
  0
ARC
  5
61A
330
1F
100
AcDbEntity
  8
HEWI
100
AcDbCircle
 10
507.2387288000817
 20
946.7714392179622
 30
0.0000000000000018
 40
2.0
100
AcDbArc
 50
0.0
 51
90.0
  0
ARC
  5
61B
330
1F
100
AcDbEntity
  8
HEWI
100
AcDbCircle
 10
507.2387288000817
 20
880.7714392179622
 30
0.0000000000000018
 40
2.0
100
AcDbArc
 50
270.0
 51
0.0
  0
LINE
  5
61C
330
1F
100
AcDbEntity
  8
HEWI
100
AcDbLine
 10
509.2387288000818
 20
930.7714392179622
 30
0.0000000000000022
 11
522.2387288000817
 21
930.7714392179622
 31
0.0000000000000046
210
0.0
220
1.0
230
0.0
  0
LINE
  5
61D
330
1F
100
AcDbEntity
  8
HEWI
100
AcDbLine
 10
509.2387288000818
 20
897.7714392179622
 30
0.0000000000000022
 11
522.2387288000817
 21
897.7714392179622
 31
0.0000000000000046
210
0.0
220
1.0
230
0.0
  0
LINE
  5
61E
330
1F
100
AcDbEntity
  8
HEWI
100
AcDbLine
 10
509.2387288000818
 20
880.7714392179622
 30
0.0000000000000022
 11
509.2387288000818
 21
913.7714392179622
 31
0.0000000000000022
210
0.0
220
1.0
230
0.0
  0
LINE
  5
61F
330
1F
100
AcDbEntity
  8
HEWI
100
AcDbLine
 10
509.2387288000818
 20
913.7714392179622
 30
0.0000000000000022
 11
509.2387288000818
 21
946.7714392179622
 31
0.0000000000000022
210
0.0
220
1.0
230
0.0
  0
LINE
  5
620
330
1F
100
AcDbEntity
  8
HEWI
100
AcDbLine
 10
552.2387288000817
 20
865.2714392179621
 30
0.0000000000000105
 11
580.6533119473697
 21
865.2714392179621
 31
0.0000000000000157
210
0.0
220
1.0
230
0.0
  0
LINE
  5
621
330
1F
100
AcDbEntity
  8
HEWI
100
AcDbLine
 10
580.6533119473697
 20
865.2714392179621
 30
0.0000000000000157
 11
585.7387288000817
 21
865.2714392179621
 31
0.0000000000000166
210
0.0
220
1.0
230
0.0
  0
ARC
  5
622
330
1F
100
AcDbEntity
  8
HEWI
100
AcDbCircle
 10
731.0269475486647
 20
492.0013510233594
 30
0.0000000000000433
 40
120.0000000000005
100
AcDbArc
 50
175.9776914801459
 51
178.9226597831305
  0
ARC
  5
623
330
1F
100
AcDbEntity
  8
HEWI
100
AcDbCircle
 10
731.0269475486647
 20
492.0013510233594
 30
0.0000000000000433
 40
120.0000000000005
100
AcDbArc
 50
191.0773402168489
 51
194.1768749669958
  0
LINE
  5
625
330
1F
100
AcDbEntity
  8
HEWI
100
AcDbLine
 10
343.120663019562
 20
-539.5211927333056
 30
0.0
 11
543.120663019562
 21
-539.5211927333056
 31
0.0
  0
LINE
  5
626
330
1F
100
AcDbEntity
  8
HEWI
100
AcDbLine
 10
343.120663019562
 20
-572.5211927333057
 30
0.0
 11
543.120663019562
 21
-572.5211927333057
 31
0.0
  0
ENDSEC
  0
SECTION
  2
OBJECTS
  0
DICTIONARY
  5
C
330
0
100
AcDbDictionary
281
     1
  3
ACAD_CIP_PREVIOUS_PRODUCT_INFO
350
689
  3
ACAD_COLOR
350
1A5
  3
ACAD_DETAILVIEWSTYLE
350
684
  3
ACAD_GROUP
350
D
  3
ACAD_LAYOUT
350
1A
  3
ACAD_MATERIAL
350
1A4
  3
ACAD_MLEADERSTYLE
350
680
  3
ACAD_MLINESTYLE
350
17
  3
ACAD_PLOTSETTINGS
350
19
  3
ACAD_PLOTSTYLENAME
350
F4
  3
ACAD_SCALELIST
350
66E
  3
ACAD_SECTIONVIEWSTYLE
350
682
  3
ACAD_TABLESTYLE
350
66C
  3
ACAD_VISUALSTYLE
350
653
  3
ACDB_RECOMPOSE_DATA
350
6C7
  3
AcDbVariableDictionary
350
1AB
  0
DICTIONARY
  5
6B7
330
10
100
AcDbDictionary
280
     1
281
     1
  3
ADSK_XREC_LAYER_RECONCILED
360
6B8
  0
DICTIONARY
  5
6B9
330
6B4
100
AcDbDictionary
280
     1
281
     1
  3
ADSK_XREC_LAYER_RECONCILED
360
6BA
  0
DICTIONARY
  5
EE
330
1F
100
AcDbDictionary
281
     1
  3
ACAD_LAYOUTSELFREF
350
1A1
  0
DICTIONARY
  5
EC
330
1B
100
AcDbDictionary
281
     1
  3
ACAD_LAYOUTSELFREF
350
1A0
  0
XRECORD
  5
689
102
{ACAD_REACTORS
330
C
102
}
330
C
100
AcDbXrecord
280
     1
300
ACDLT
300
2016
300
ACDLT_F_S
  0
DICTIONARY
  5
1A5
102
{ACAD_REACTORS
330
C
102
}
330
C
100
AcDbDictionary
281
     1
  0
DICTIONARY
  5
684
102
{ACAD_REACTORS
330
C
102
}
330
C
100
AcDbDictionary
281
     1
  3
Imperial24
350
685
  0
DICTIONARY
  5
D
102
{ACAD_REACTORS
330
C
102
}
330
C
100
AcDbDictionary
281
     1
  0
DICTIONARY
  5
1A
102
{ACAD_REACTORS
330
C
102
}
330
C
100
AcDbDictionary
281
     1
  3
Layout1
350
1A7
  3
Model
350
1A6
  0
DICTIONARY
  5
1A4
102
{ACAD_REACTORS
330
C
102
}
330
C
100
AcDbDictionary
281
     1
  3
ByBlock
350
643
  3
ByLayer
350
63B
  3
Global
350
64B
  0
DICTIONARY
  5
680
102
{ACAD_REACTORS
330
C
102
}
330
C
100
AcDbDictionary
281
     1
  3
Standard
350
681
  0
DICTIONARY
  5
17
102
{ACAD_REACTORS
330
C
102
}
330
C
100
AcDbDictionary
281
     1
  3
STANDARD
350
18
  0
DICTIONARY
  5
19
102
{ACAD_REACTORS
330
C
102
}
330
C
100
AcDbDictionary
281
     1
  0
ACDBDICTIONARYWDFLT
  5
F4
102
{ACAD_REACTORS
330
C
102
}
330
C
100
AcDbDictionary
281
     1
  3
Normal
350
F5
100
AcDbDictionaryWithDefault
340
F5
  0
DICTIONARY
  5
66E
102
{ACAD_REACTORS
330
C
102
}
330
C
100
AcDbDictionary
281
     1
  3
A0
350
66F
  3
A1
350
670
  3
A2
350
671
  3
A3
350
672
  3
A4
350
673
  3
A5
350
674
  3
A6
350
675
  3
A7
350
676
  3
A8
350
677
  3
A9
350
678
  3
B0
350
679
  3
B1
350
67A
  3
B2
350
67B
  3
B3
350
67C
  3
B4
350
67D
  3
B5
350
67E
  3
B6
350
67F
  0
DICTIONARY
  5
682
102
{ACAD_REACTORS
330
C
102
}
330
C
100
AcDbDictionary
281
     1
  3
Imperial24
350
683
  0
DICTIONARY
  5
66C
102
{ACAD_REACTORS
330
C
102
}
330
C
100
AcDbDictionary
281
     1
  3
Standard
350
66D
  0
DICTIONARY
  5
653
102
{ACAD_REACTORS
330
C
102
}
330
C
100
AcDbDictionary
281
     1
  3
2dWireframe
350
659
  3
Basic
350
658
  3
Brighten
350
65F
  3
ColorChange
350
663
  3
Conceptual
350
65C
  3
Dim
350
65E
  3
EdgeColorOff
350
66B
  3
Facepattern
350
662
  3
Flat
350
654
  3
FlatWithEdges
350
655
  3
Gouraud
350
656
  3
GouraudWithEdges
350
657
  3
Hidden
350
65B
  3
JitterOff
350
669
  3
Linepattern
350
661
  3
OverhangOff
350
66A
  3
Realistic
350
65D
  3
Shaded
350
668
  3
Shaded with edges
350
667
  3
Shades of Gray
350
664
  3
Sketchy
350
665
  3
Thicken
350
660
  3
Wireframe
350
65A
  3
X-Ray
350
666
  0
XRECORD
  5
6C7
102
{ACAD_REACTORS
330
C
102
}
330
C
100
AcDbXrecord
280
     1
 90
        1
330
66D
  0
DICTIONARY
  5
1AB
102
{ACAD_REACTORS
330
C
102
}
330
C
100
AcDbDictionary
281
     1
  3
CANNOSCALE
350
6C0
  3
CMLEADERSTYLE
350
6BC
  3
CTABLESTYLE
350
6BB
  3
CVIEWDETAILSTYLE
350
6BD
  3
CVIEWSECTIONSTYLE
350
6BE
  3
DIMASSOC
350
1AC
  3
LAYEREVAL
350
6C2
  3
LAYERNOTIFY
350
6C3
  3
LIGHTINGUNITS
350
6C1
  3
MSLTSCALE
350
6BF
  3
PROJECTNAME
350
1AD
  0
XRECORD
  5
6B8
102
{ACAD_REACTORS
330
6B7
102
}
330
6B7
100
AcDbXrecord
280
     1
290
     1
  0
XRECORD
  5
6BA
102
{ACAD_REACTORS
330
6B9
102
}
330
6B9
100
AcDbXrecord
280
     1
290
     1
  0
XRECORD
  5
1A1
102
{ACAD_REACTORS
330
EE
102
}
330
EE
100
AcDbXrecord
280
     1
340
1F
  0
XRECORD
  5
1A0
102
{ACAD_REACTORS
330
EC
102
}
330
EC
100
AcDbXrecord
280
     1
340
1B
  0
ACDBDETAILVIEWSTYLE
  5
685
102
{ACAD_XDICTIONARY
360
6FA
102
}
102
{ACAD_REACTORS
330
684
102
}
330
684
100
AcDbModelDocViewStyle
 70
     0
  3
Imperial24
290
     0
100
AcDbDetailViewStyle
 70
     0
 71
     0
 90
        3
 71
     1
340
11
 62
   256
 40
0.24
340
0
 62
   256
 40
0.24
300

 40
0.36
280
     3
 71
     2
340
16
 90
       25
 62
   256
 71
     3
340
11
 62
   256
 40
0.24
 90
        1
 40
0.75
 90
        1
300
%<\AcVar ViewType \f "%tc1">% %<\AcVar ViewDetailId>%\PVARIA %<\AcVar ViewScale \f "%sn">%
 71
     4
340
16
 90
       25
 62
   256
340
16
 90
       25
 62
   256
280
     0
  0
LAYOUT
  5
1A7
102
{ACAD_REACTORS
330
1A
102
}
330
1A
100
AcDbPlotSettings
  1

  2
\\PCDRUCK1\AROSCB06
  4

  6

 40
0.0
 41
0.0
 42
0.0
 43
0.0
 44
0.0
 45
0.0
 46
0.0
 47
0.0
 48
0.0
 49
0.0
140
0.0
141
0.0
142
1.0
143
1.0
 70
   688
 72
     0
 73
     0
 74
     5
  7

 75
    16
147
1.0
 76
     0
 77
     2
 78
   300
148
0.0
149
0.0
100
AcDbLayout
  1
Layout1
 70
     1
 71
     1
 10
0.0
 20
0.0
 11
12.0
 21
9.0
 12
0.0
 22
0.0
 32
0.0
 14
1.000000000000000E+20
 24
1.000000000000000E+20
 34
1.000000000000000E+20
 15
-1.000000000000000E+20
 25
-1.000000000000000E+20
 35
-1.000000000000000E+20
146
0.0
 13
0.0
 23
0.0
 33
0.0
 16
1.0
 26
0.0
 36
0.0
 17
0.0
 27
1.0
 37
0.0
 76
     0
330
1B
  0
LAYOUT
  5
1A6
102
{ACAD_REACTORS
330
1A
102
}
330
1A
100
AcDbPlotSettings
  1

  2
\\PCDRUCK1\AROSCB06
  4

  6

 40
0.0
 41
0.0
 42
0.0
 43
0.0
 44
0.0
 45
0.0
 46
0.0
 47
0.0
 48
0.0
 49
0.0
140
0.0
141
0.0
142
1.0
143
1.0
 70
  1712
 72
     0
 73
     0
 74
     0
  7

 75
     0
147
1.0
 76
     0
 77
     2
 78
   300
148
0.0
149
0.0
100
AcDbLayout
  1
Model
 70
     1
 71
     0
 10
0.0
 20
0.0
 11
12.0
 21
9.0
 12
0.0
 22
0.0
 32
0.0
 14
0.0
 24
0.0
 34
0.0
 15
0.0
 25
0.0
 35
0.0
146
0.0
 13
0.0
 23
0.0
 33
0.0
 16
1.0
 26
0.0
 36
0.0
 17
0.0
 27
1.0
 37
0.0
 76
     0
330
1F
331
631
  0
MATERIAL
  5
643
102
{ACAD_XDICTIONARY
360
644
102
}
102
{ACAD_REACTORS
330
1A4
102
}
330
1A4
100
AcDbMaterial
  1
ByBlock
 72
     0
 43
0.0208333333333333
 43
0.0
 43
0.0
 43
0.0
 43
0.0
 43
0.0208333333333333
 43
0.0
 43
0.0
 43
0.0
 43
0.0
 43
1.0
 43
0.0
 43
0.0
 43
0.0
 43
0.0
 43
1.0
 77
     0
 47
0.0208333333333333
 47
0.0
 47
0.0
 47
0.0
 47
0.0
 47
0.0208333333333333
 47
0.0
 47
0.0
 47
0.0
 47
0.0
 47
1.0
 47
0.0
 47
0.0
 47
0.0
 47
0.0
 47
1.0
171
     0
 49
0.0208333333333333
 49
0.0
 49
0.0
 49
0.0
 49
0.0
 49
0.0208333333333333
 49
0.0
 49
0.0
 49
0.0
 49
0.0
 49
1.0
 49
0.0
 49
0.0
 49
0.0
 49
0.0
 49
1.0
175
     0
142
0.0208333333333333
142
0.0
142
0.0
142
0.0
142
0.0
142
0.0208333333333333
142
0.0
142
0.0
142
0.0
142
0.0
142
1.0
142
0.0
142
0.0
142
0.0
142
0.0
142
1.0
179
     0
144
0.0208333333333333
144
0.0
144
0.0
144
0.0
144
0.0
144
0.0208333333333333
144
0.0
144
0.0
144
0.0
144
0.0
144
1.0
144
0.0
144
0.0
144
0.0
144
0.0
144
1.0
147
0.0208333333333333
147
0.0
147
0.0
147
0.0
147
0.0
147
0.0208333333333333
147
0.0
147
0.0
147
0.0
147
0.0
147
1.0
147
0.0
147
0.0
147
0.0
147
0.0
147
1.0
  0
MATERIAL
  5
63B
102
{ACAD_XDICTIONARY
360
63C
102
}
102
{ACAD_REACTORS
330
1A4
102
}
330
1A4
100
AcDbMaterial
  1
ByLayer
 72
     0
 43
0.0208333333333333
 43
0.0
 43
0.0
 43
0.0
 43
0.0
 43
0.0208333333333333
 43
0.0
 43
0.0
 43
0.0
 43
0.0
 43
1.0
 43
0.0
 43
0.0
 43
0.0
 43
0.0
 43
1.0
 77
     0
 47
0.0208333333333333
 47
0.0
 47
0.0
 47
0.0
 47
0.0
 47
0.0208333333333333
 47
0.0
 47
0.0
 47
0.0
 47
0.0
 47
1.0
 47
0.0
 47
0.0
 47
0.0
 47
0.0
 47
1.0
171
     0
 49
0.0208333333333333
 49
0.0
 49
0.0
 49
0.0
 49
0.0
 49
0.0208333333333333
 49
0.0
 49
0.0
 49
0.0
 49
0.0
 49
1.0
 49
0.0
 49
0.0
 49
0.0
 49
0.0
 49
1.0
175
     0
142
0.0208333333333333
142
0.0
142
0.0
142
0.0
142
0.0
142
0.0208333333333333
142
0.0
142
0.0
142
0.0
142
0.0
142
1.0
142
0.0
142
0.0
142
0.0
142
0.0
142
1.0
179
     0
144
0.0208333333333333
144
0.0
144
0.0
144
0.0
144
0.0
144
0.0208333333333333
144
0.0
144
0.0
144
0.0
144
0.0
144
1.0
144
0.0
144
0.0
144
0.0
144
0.0
144
1.0
147
0.0208333333333333
147
0.0
147
0.0
147
0.0
147
0.0
147
0.0208333333333333
147
0.0
147
0.0
147
0.0
147
0.0
147
1.0
147
0.0
147
0.0
147
0.0
147
0.0
147
1.0
  0
MATERIAL
  5
64B
102
{ACAD_XDICTIONARY
360
64C
102
}
102
{ACAD_REACTORS
330
1A4
102
}
330
1A4
100
AcDbMaterial
  1
Global
 72
     0
 43
0.0208333333333333
 43
0.0
 43
0.0
 43
0.0
 43
0.0
 43
0.0208333333333333
 43
0.0
 43
0.0
 43
0.0
 43
0.0
 43
1.0
 43
0.0
 43
0.0
 43
0.0
 43
0.0
 43
1.0
 77
     0
 47
0.0208333333333333
 47
0.0
 47
0.0
 47
0.0
 47
0.0
 47
0.0208333333333333
 47
0.0
 47
0.0
 47
0.0
 47
0.0
 47
1.0
 47
0.0
 47
0.0
 47
0.0
 47
0.0
 47
1.0
171
     0
 49
0.0208333333333333
 49
0.0
 49
0.0
 49
0.0
 49
0.0
 49
0.0208333333333333
 49
0.0
 49
0.0
 49
0.0
 49
0.0
 49
1.0
 49
0.0
 49
0.0
 49
0.0
 49
0.0
 49
1.0
175
     0
142
0.0208333333333333
142
0.0
142
0.0
142
0.0
142
0.0
142
0.0208333333333333
142
0.0
142
0.0
142
0.0
142
0.0
142
1.0
142
0.0
142
0.0
142
0.0
142
0.0
142
1.0
179
     0
144
0.0208333333333333
144
0.0
144
0.0
144
0.0
144
0.0
144
0.0208333333333333
144
0.0
144
0.0
144
0.0
144
0.0
144
1.0
144
0.0
144
0.0
144
0.0
144
0.0
144
1.0
147
0.0208333333333333
147
0.0
147
0.0
147
0.0
147
0.0
147
0.0208333333333333
147
0.0
147
0.0
147
0.0
147
0.0
147
1.0
147
0.0
147
0.0
147
0.0
147
0.0
147
1.0
  0
MLEADERSTYLE
  5
681
102
{ACAD_REACTORS
330
680
102
}
330
680
100
AcDbMLeaderStyle
179
     2
170
     2
171
     1
172
     0
 90
        2
 40
0.0
 41
0.0
173
     1
 91
-1056964608
340
14
 92
       -2
290
     1
 42
0.09
291
     1
 43
0.36
  3
Standard
 44
0.18
300

342
11
174
     1
178
     6
175
     1
176
     0
 93
-1056964608
 45
0.18
292
     0
297
     0
 46
0.18
 94
-1056964608
 47
1.0
 49
1.0
140
1.0
293
     1
141
0.0
294
     1
177
     0
142
1.0
295
     0
296
     0
143
0.125
271
     0
272
     9
273
     9
  0
MLINESTYLE
  5
18
102
{ACAD_REACTORS
330
17
102
}
330
17
100
AcDbMlineStyle
  2
STANDARD
 70
     0
  3

 62
   256
 51
90.0
 52
90.0
 71
     2
 49
0.5
 62
   256
  6
BYLAYER
 49
-0.5
 62
   256
  6
BYLAYER
  0
ACDBPLACEHOLDER
  5
F5
102
{ACAD_REACTORS
330
F4
102
}
330
F4
  0
SCALE
  5
66F
102
{ACAD_REACTORS
330
66E
102
}
330
66E
100
AcDbScale
 70
     0
300
1:1
140
1.0
141
1.0
290
     1
  0
SCALE
  5
670
102
{ACAD_REACTORS
330
66E
102
}
330
66E
100
AcDbScale
 70
     0
300
1/128" = 1'-0"
140
0.0078125
141
12.0
290
     0
  0
SCALE
  5
671
102
{ACAD_REACTORS
330
66E
102
}
330
66E
100
AcDbScale
 70
     0
300
1/64" = 1'-0"
140
0.015625
141
12.0
290
     0
  0
SCALE
  5
672
102
{ACAD_REACTORS
330
66E
102
}
330
66E
100
AcDbScale
 70
     0
300
1/32" = 1'-0"
140
0.03125
141
12.0
290
     0
  0
SCALE
  5
673
102
{ACAD_REACTORS
330
66E
102
}
330
66E
100
AcDbScale
 70
     0
300
1/16" = 1'-0"
140
0.0625
141
12.0
290
     0
  0
SCALE
  5
674
102
{ACAD_REACTORS
330
66E
102
}
330
66E
100
AcDbScale
 70
     0
300
3/32" = 1'-0"
140
0.09375
141
12.0
290
     0
  0
SCALE
  5
675
102
{ACAD_REACTORS
330
66E
102
}
330
66E
100
AcDbScale
 70
     0
300
1/8" = 1'-0"
140
0.125
141
12.0
290
     0
  0
SCALE
  5
676
102
{ACAD_REACTORS
330
66E
102
}
330
66E
100
AcDbScale
 70
     0
300
3/16" = 1'-0"
140
0.1875
141
12.0
290
     0
  0
SCALE
  5
677
102
{ACAD_REACTORS
330
66E
102
}
330
66E
100
AcDbScale
 70
     0
300
1/4" = 1'-0"
140
0.25
141
12.0
290
     0
  0
SCALE
  5
678
102
{ACAD_REACTORS
330
66E
102
}
330
66E
100
AcDbScale
 70
     0
300
3/8" = 1'-0"
140
0.375
141
12.0
290
     0
  0
SCALE
  5
679
102
{ACAD_REACTORS
330
66E
102
}
330
66E
100
AcDbScale
 70
     0
300
1/2" = 1'-0"
140
0.5
141
12.0
290
     0
  0
SCALE
  5
67A
102
{ACAD_REACTORS
330
66E
102
}
330
66E
100
AcDbScale
 70
     0
300
3/4" = 1'-0"
140
0.75
141
12.0
290
     0
  0
SCALE
  5
67B
102
{ACAD_REACTORS
330
66E
102
}
330
66E
100
AcDbScale
 70
     0
300
1" = 1'-0"
140
1.0
141
12.0
290
     0
  0
SCALE
  5
67C
102
{ACAD_REACTORS
330
66E
102
}
330
66E
100
AcDbScale
 70
     0
300
1-1/2" = 1'-0"
140
1.5
141
12.0
290
     0
  0
SCALE
  5
67D
102
{ACAD_REACTORS
330
66E
102
}
330
66E
100
AcDbScale
 70
     0
300
3" = 1'-0"
140
3.0
141
12.0
290
     0
  0
SCALE
  5
67E
102
{ACAD_REACTORS
330
66E
102
}
330
66E
100
AcDbScale
 70
     0
300
6" = 1'-0"
140
6.0
141
12.0
290
     0
  0
SCALE
  5
67F
102
{ACAD_REACTORS
330
66E
102
}
330
66E
100
AcDbScale
 70
     0
300
1'-0" = 1'-0"
140
12.0
141
12.0
290
     0
  0
ACDBSECTIONVIEWSTYLE
  5
683
102
{ACAD_XDICTIONARY
360
6F8
102
}
102
{ACAD_REACTORS
330
682
102
}
330
682
100
AcDbModelDocViewStyle
 70
     0
  3
Imperial24
290
     0
100
AcDbSectionViewStyle
 70
     0
 71
     0
 90
       78
 71
     1
340
11
 62
   256
 40
0.24
340
0
340
0
 62
   256
 40
0.24
300
I, O, Q, S, X, Z
 40
0.48
 90
        3
 40
0.18
 90
        1
 71
     2
340
16
 90
       25
 62
   256
340
16
 90
       50
 62
   256
 40
0.24
 40
0.0
 40
0.24
 71
     3
340
11
 62
   256
 40
0.24
 90
        1
 40
0.75
 90
        1
300
%<\AcVar ViewType \f "%tc1">% %<\AcVar ViewSectionStartId>%-%<\AcVar ViewSectionEndId>%\PVARIA %<\AcVar ViewScale \f "%sn">%
 71
     4
 62
   256
 62
   257
300
ANSI31
 40
1.0
 90
        0
290
     0
290
     0
 90
        6
 40
0.0
 40
1.570796326794896
 40
0.2617993877991494
 40
1.308996938995747
 40
-0.2617993877991494
 40
1.832595714594046
  0
TABLESTYLE
  5
66D
102
{ACAD_XDICTIONARY
360
6C5
102
}
102
{ACAD_REACTORS
330
66C
102
}
330
66C
100
AcDbTableStyle
280
     0
  3
Standard
 70
     0
 71
     0
 40
0.06
 41
0.06
280
     0
281
     0
  7
STANDARD
140
0.18
170
     2
 62
     0
 63
     7
283
     0
 90
      512
 91
        0
  1

274
    -2
284
     1
 64
     0
275
    -2
285
     1
 65
     0
276
    -2
286
     1
 66
     0
277
    -2
287
     1
 67
     0
278
    -2
288
     1
 68
     0
279
    -2
289
     1
 69
     0
  7
STANDARD
140
0.25
170
     5
 62
     0
 63
     7
283
     0
 90
      512
 91
        0
  1

274
    -2
284
     1
 64
     0
275
    -2
285
     1
 65
     0
276
    -2
286
     1
 66
     0
277
    -2
287
     1
 67
     0
278
    -2
288
     1
 68
     0
279
    -2
289
     1
 69
     0
  7
STANDARD
140
0.18
170
     5
 62
     0
 63
     7
283
     0
 90
      512
 91
        0
  1

274
    -2
284
     1
 64
     0
275
    -2
285
     1
 65
     0
276
    -2
286
     1
 66
     0
277
    -2
287
     1
 67
     0
278
    -2
288
     1
 68
     0
279
    -2
289
     1
 69
     0
  0
VISUALSTYLE
  5
659
102
{ACAD_XDICTIONARY
360
6D2
102
}
102
{ACAD_REACTORS
330
653
102
}
330
653
100
AcDbVisualStyle
  2
2dWireframe
 70
     4
177
     2
291
     0
 71
     0
176
     1
 72
     2
176
     1
 73
     0
176
     1
 90
        0
176
     1
 40
0.6
176
     1
 41
30.0
176
     1
 63
     7
421
 16777215
176
     1
 74
     1
176
     1
 91
        4
176
     1
 64
     7
176
     1
 65
   257
176
     1
 75
     1
176
     1
175
     1
176
     1
 42
1.0
176
     1
 92
        0
176
     1
 66
   257
176
     1
 43
1.0
176
     1
 76
     1
176
     1
 77
     6
176
     1
 78
     2
176
     1
 67
     7
176
     1
 79
     5
176
     1
170
     0
176
     1
171
     0
176
     1
290
     0
176
     1
 93
        1
176
     1
 44
0.0
176
     1
173
     0
176
     1
1001
ACAD
1000
AcDbSavedByObjectVersion
1070
     0
  0
VISUALSTYLE
  5
658
102
{ACAD_XDICTIONARY
360
6D0
102
}
102
{ACAD_REACTORS
330
653
102
}
330
653
100
AcDbVisualStyle
  2
Basic
 70
     7
177
     2
291
     1
 71
     1
176
     1
 72
     0
176
     1
 73
     1
176
     1
 90
        0
176
     1
 40
0.6
176
     1
 41
30.0
176
     1
 63
     7
421
 16777215
176
     1
 74
     0
176
     1
 91
        4
176
     1
 64
     7
176
     1
 65
   257
176
     1
 75
     1
176
     1
175
     1
176
     1
 42
1.0
176
     1
 92
        8
176
     1
 66
     7
176
     1
 43
1.0
176
     1
 76
     1
176
     1
 77
     6
176
     1
 78
     2
176
     1
 67
     7
176
     1
 79
     5
176
     1
170
     0
176
     1
171
     0
176
     1
290
     0
176
     1
 93
        1
176
     1
 44
0.0
176
     1
173
     0
176
     1
1001
ACAD
1000
AcDbSavedByObjectVersion
1070
     0
  0
VISUALSTYLE
  5
65F
102
{ACAD_XDICTIONARY
360
6DE
102
}
102
{ACAD_REACTORS
330
653
102
}
330
653
100
AcDbVisualStyle
  2
Brighten
 70
    12
177
     2
291
     1
 71
     2
176
     1
 72
     2
176
     1
 73
     0
176
     1
 90
        0
176
     1
 40
0.6
176
     1
 41
30.0
176
     1
 63
     7
421
 16777215
176
     1
 74
     1
176
     1
 91
        4
176
     1
 64
     7
176
     1
 65
   257
176
     1
 75
     1
176
     1
175
     1
176
     1
 42
1.0
176
     1
 92
        8
176
     1
 66
     7
176
     1
 43
1.0
176
     1
 76
     1
176
     1
 77
     6
176
     1
 78
     2
176
     1
 67
     7
176
     1
 79
     5
176
     1
170
     0
176
     1
171
     0
176
     1
290
     0
176
     1
 93
        1
176
     1
 44
50.0
176
     1
173
     0
176
     1
1001
ACAD
1000
AcDbSavedByObjectVersion
1070
     0
  0
VISUALSTYLE
  5
663
102
{ACAD_XDICTIONARY
360
6E6
102
}
102
{ACAD_REACTORS
330
653
102
}
330
653
100
AcDbVisualStyle
  2
ColorChange
 70
    16
177
     2
291
     1
 71
     2
176
     1
 72
     2
176
     1
 73
     3
176
     1
 90
        0
176
     1
 40
0.6
176
     1
 41
30.0
176
     1
 63
     8
421
  8421504
176
     1
 74
     1
176
     1
 91
        4
176
     1
 64
     7
176
     1
 65
   257
176
     1
 75
     1
176
     1
175
     1
176
     1
 42
1.0
176
     1
 92
        8
176
     1
 66
     8
424
  8421504
176
     1
 43
1.0
176
     1
 76
     1
176
     1
 77
     6
176
     1
 78
     2
176
     1
 67
     7
176
     1
 79
     5
176
     1
170
     0
176
     1
171
     0
176
     1
290
     0
176
     1
 93
        1
176
     1
 44
0.0
176
     1
173
     0
176
     1
1001
ACAD
1000
AcDbSavedByObjectVersion
1070
     0
  0
VISUALSTYLE
  5
65C
102
{ACAD_XDICTIONARY
360
6D8
102
}
102
{ACAD_REACTORS
330
653
102
}
330
653
100
AcDbVisualStyle
  2
Conceptual
 70
     9
177
     2
291
     0
 71
     3
176
     1
 72
     2
176
     1
 73
     0
176
     1
 90
        0
176
     1
 40
0.6
176
     1
 41
30.0
176
     1
 63
     7
421
 16777215
176
     1
 74
     2
176
     1
 91
        2
176
     1
 64
     7
176
     1
 65
   257
176
     1
 75
     1
176
     1
175
     1
176
     1
 42
179.0
176
     1
 92
        8
176
     1
 66
     7
176
     1
 43
1.0
176
     1
 76
     1
176
     1
 77
     6
176
     1
 78
     2
176
     1
 67
     7
176
     1
 79
     3
176
     1
170
     0
176
     1
171
     0
176
     1
290
     0
176
     1
 93
        1
176
     1
 44
0.0
176
     1
173
     0
176
     1
1001
ACAD
1000
AcDbSavedByObjectVersion
1070
     0
  0
VISUALSTYLE
  5
65E
102
{ACAD_XDICTIONARY
360
6DC
102
}
102
{ACAD_REACTORS
330
653
102
}
330
653
100
AcDbVisualStyle
  2
Dim
 70
    11
177
     2
291
     1
 71
     2
176
     1
 72
     2
176
     1
 73
     0
176
     1
 90
        0
176
     1
 40
0.6
176
     1
 41
30.0
176
     1
 63
     7
421
 16777215
176
     1
 74
     1
176
     1
 91
        4
176
     1
 64
     7
176
     1
 65
   257
176
     1
 75
     1
176
     1
175
     1
176
     1
 42
1.0
176
     1
 92
        8
176
     1
 66
     7
176
     1
 43
1.0
176
     1
 76
     1
176
     1
 77
     6
176
     1
 78
     2
176
     1
 67
     7
176
     1
 79
     5
176
     1
170
     0
176
     1
171
     0
176
     1
290
     0
176
     1
 93
        1
176
     1
 44
-50.0
176
     1
173
     0
176
     1
1001
ACAD
1000
AcDbSavedByObjectVersion
1070
     0
  0
VISUALSTYLE
  5
66B
102
{ACAD_XDICTIONARY
360
6F6
102
}
102
{ACAD_REACTORS
330
653
102
}
330
653
100
AcDbVisualStyle
  2
EdgeColorOff
 70
    22
177
     2
291
     1
 71
     2
176
     0
 72
     2
176
     0
 73
     0
176
     0
 90
        0
176
     0
 40
0.6
176
     0
 41
30.0
176
     0
 63
     7
421
 16777215
176
     0
 74
     1
176
     0
 91
        4
176
     0
 64
     7
176
     0
 65
   257
176
     0
 75
     1
176
     0
175
     1
176
     0
 42
1.0
176
     0
 92
        8
176
     2
 66
     7
176
     0
 43
1.0
176
     0
 76
     1
176
     0
 77
     6
176
     0
 78
     2
176
     0
 67
     7
176
     0
 79
     5
176
     0
170
     0
176
     0
171
     0
176
     0
290
     0
176
     0
 93
        1
176
     0
 44
0.0
176
     0
173
     0
176
     0
1001
ACAD
1000
AcDbSavedByObjectVersion
1070
     0
  0
VISUALSTYLE
  5
662
102
{ACAD_XDICTIONARY
360
6E4
102
}
102
{ACAD_REACTORS
330
653
102
}
330
653
100
AcDbVisualStyle
  2
Facepattern
 70
    15
177
     2
291
     1
 71
     2
176
     1
 72
     2
176
     1
 73
     0
176
     1
 90
        0
176
     1
 40
0.6
176
     1
 41
30.0
176
     1
 63
     7
421
 16777215
176
     1
 74
     1
176
     1
 91
        4
176
     1
 64
     7
176
     1
 65
   257
176
     1
 75
     1
176
     1
175
     1
176
     1
 42
1.0
176
     1
 92
        8
176
     1
 66
     7
176
     1
 43
1.0
176
     1
 76
     1
176
     1
 77
     6
176
     1
 78
     2
176
     1
 67
     7
176
     1
 79
     5
176
     1
170
     0
176
     1
171
     0
176
     1
290
     0
176
     1
 93
        1
176
     1
 44
0.0
176
     1
173
     0
176
     1
1001
ACAD
1000
AcDbSavedByObjectVersion
1070
     0
  0
VISUALSTYLE
  5
654
102
{ACAD_XDICTIONARY
360
6C8
102
}
102
{ACAD_REACTORS
330
653
102
}
330
653
100
AcDbVisualStyle
  2
Flat
 70
     0
177
     2
291
     1
 71
     2
176
     1
 72
     1
176
     1
 73
     1
176
     1
 90
        2
176
     1
 40
0.6
176
     1
 41
30.0
176
     1
 63
     7
421
 16777215
176
     1
 74
     0
176
     1
 91
        0
176
     1
 64
     7
176
     1
 65
   257
176
     1
 75
     1
176
     1
175
     1
176
     1
 42
1.0
176
     1
 92
        8
176
     1
 66
     7
176
     1
 43
1.0
176
     1
 76
     1
176
     1
 77
     6
176
     1
 78
     2
176
     1
 67
     7
176
     1
 79
     5
176
     1
170
     0
176
     1
171
     0
176
     1
290
     0
176
     1
 93
       13
176
     1
 44
0.0
176
     1
173
     0
176
     1
1001
ACAD
1000
AcDbSavedByObjectVersion
1070
     0
  0
VISUALSTYLE
  5
655
102
{ACAD_XDICTIONARY
360
6CA
102
}
102
{ACAD_REACTORS
330
653
102
}
330
653
100
AcDbVisualStyle
  2
FlatWithEdges
 70
     1
177
     2
291
     1
 71
     2
176
     1
 72
     1
176
     1
 73
     1
176
     1
 90
        2
176
     1
 40
0.6
176
     1
 41
30.0
176
     1
 63
     7
421
 16777215
176
     1
 74
     1
176
     1
 91
        0
176
     1
 64
     7
176
     1
 65
   257
176
     1
 75
     1
176
     1
175
     1
176
     1
 42
1.0
176
     1
 92
        0
176
     1
 66
   257
176
     1
 43
1.0
176
     1
 76
     1
176
     1
 77
     6
176
     1
 78
     2
176
     1
 67
     7
176
     1
 79
     5
176
     1
170
     0
176
     1
171
     0
176
     1
290
     0
176
     1
 93
       13
176
     1
 44
0.0
176
     1
173
     0
176
     1
1001
ACAD
1000
AcDbSavedByObjectVersion
1070
     0
  0
VISUALSTYLE
  5
656
102
{ACAD_XDICTIONARY
360
6CC
102
}
102
{ACAD_REACTORS
330
653
102
}
330
653
100
AcDbVisualStyle
  2
Gouraud
 70
     2
177
     2
291
     1
 71
     2
176
     1
 72
     2
176
     1
 73
     1
176
     1
 90
        2
176
     1
 40
0.6
176
     1
 41
30.0
176
     1
 63
     7
421
 16777215
176
     1
 74
     0
176
     1
 91
        0
176
     1
 64
     7
176
     1
 65
   257
176
     1
 75
     1
176
     1
175
     1
176
     1
 42
1.0
176
     1
 92
        0
176
     1
 66
     7
176
     1
 43
1.0
176
     1
 76
     1
176
     1
 77
     6
176
     1
 78
     2
176
     1
 67
     7
176
     1
 79
     5
176
     1
170
     0
176
     1
171
     0
176
     1
290
     0
176
     1
 93
       13
176
     1
 44
0.0
176
     1
173
     0
176
     1
1001
ACAD
1000
AcDbSavedByObjectVersion
1070
     0
  0
VISUALSTYLE
  5
657
102
{ACAD_XDICTIONARY
360
6CE
102
}
102
{ACAD_REACTORS
330
653
102
}
330
653
100
AcDbVisualStyle
  2
GouraudWithEdges
 70
     3
177
     2
291
     1
 71
     2
176
     1
 72
     2
176
     1
 73
     1
176
     1
 90
        2
176
     1
 40
0.6
176
     1
 41
30.0
176
     1
 63
     7
421
 16777215
176
     1
 74
     1
176
     1
 91
        0
176
     1
 64
     7
176
     1
 65
   257
176
     1
 75
     1
176
     1
175
     1
176
     1
 42
1.0
176
     1
 92
        0
176
     1
 66
   257
176
     1
 43
1.0
176
     1
 76
     1
176
     1
 77
     6
176
     1
 78
     2
176
     1
 67
     7
176
     1
 79
     5
176
     1
170
     0
176
     1
171
     0
176
     1
290
     0
176
     1
 93
       13
176
     1
 44
0.0
176
     1
173
     0
176
     1
1001
ACAD
1000
AcDbSavedByObjectVersion
1070
     0
  0
VISUALSTYLE
  5
65B
102
{ACAD_XDICTIONARY
360
6D6
102
}
102
{ACAD_REACTORS
330
653
102
}
330
653
100
AcDbVisualStyle
  2
Hidden
 70
     6
177
     2
291
     0
 71
     1
176
     1
 72
     2
176
     1
 73
     2
176
     1
 90
        0
176
     1
 40
0.6
176
     1
 41
30.0
176
     1
 63
     7
421
 16777215
176
     1
 74
     2
176
     1
 91
        2
176
     1
 64
     7
176
     1
 65
   257
176
     1
 75
     2
176
     1
175
     1
176
     1
 42
40.0
176
     1
 92
        0
176
     1
 66
   257
176
     1
 43
1.0
176
     1
 76
     1
176
     1
 77
     6
176
     1
 78
     2
176
     1
 67
     7
176
     1
 79
     3
176
     1
170
     0
176
     1
171
     0
176
     1
290
     0
176
     1
 93
        1
176
     1
 44
0.0
176
     1
173
     0
176
     1
1001
ACAD
1000
AcDbSavedByObjectVersion
1070
     0
  0
VISUALSTYLE
  5
669
102
{ACAD_XDICTIONARY
360
6F2
102
}
102
{ACAD_REACTORS
330
653
102
}
330
653
100
AcDbVisualStyle
  2
JitterOff
 70
    20
177
     2
291
     1
 71
     2
176
     0
 72
     2
176
     0
 73
     0
176
     0
 90
        0
176
     0
 40
0.6
176
     0
 41
30.0
176
     0
 63
     7
421
 16777215
176
     0
 74
     1
176
     0
 91
        4
176
     0
 64
     7
176
     0
 65
   257
176
     0
 75
     1
176
     0
175
     1
176
     0
 42
1.0
176
     0
 92
       10
176
     2
 66
     7
176
     0
 43
1.0
176
     0
 76
     1
176
     0
 77
     6
176
     0
 78
     2
176
     0
 67
     7
176
     0
 79
     5
176
     0
170
     0
176
     0
171
     0
176
     0
290
     0
176
     0
 93
        1
176
     0
 44
0.0
176
     0
173
     0
176
     0
1001
ACAD
1000
AcDbSavedByObjectVersion
1070
     0
  0
VISUALSTYLE
  5
661
102
{ACAD_XDICTIONARY
360
6E2
102
}
102
{ACAD_REACTORS
330
653
102
}
330
653
100
AcDbVisualStyle
  2
Linepattern
 70
    14
177
     2
291
     1
 71
     2
176
     1
 72
     2
176
     1
 73
     0
176
     1
 90
        0
176
     1
 40
0.6
176
     1
 41
30.0
176
     1
 63
     7
421
 16777215
176
     1
 74
     1
176
     1
 91
        4
176
     1
 64
     7
176
     1
 65
   257
176
     1
 75
     7
176
     1
175
     7
176
     1
 42
1.0
176
     1
 92
        8
176
     1
 66
     7
176
     1
 43
1.0
176
     1
 76
     1
176
     1
 77
     6
176
     1
 78
     2
176
     1
 67
     7
176
     1
 79
     5
176
     1
170
     0
176
     1
171
     0
176
     1
290
     0
176
     1
 93
        1
176
     1
 44
0.0
176
     1
173
     0
176
     1
1001
ACAD
1000
AcDbSavedByObjectVersion
1070
     0
  0
VISUALSTYLE
  5
66A
102
{ACAD_XDICTIONARY
360
6F4
102
}
102
{ACAD_REACTORS
330
653
102
}
330
653
100
AcDbVisualStyle
  2
OverhangOff
 70
    21
177
     2
291
     1
 71
     2
176
     0
 72
     2
176
     0
 73
     0
176
     0
 90
        0
176
     0
 40
0.6
176
     0
 41
30.0
176
     0
 63
     7
421
 16777215
176
     0
 74
     1
176
     0
 91
        4
176
     0
 64
     7
176
     0
 65
   257
176
     0
 75
     1
176
     0
175
     1
176
     0
 42
1.0
176
     0
 92
        9
176
     2
 66
     7
176
     0
 43
1.0
176
     0
 76
     1
176
     0
 77
     6
176
     0
 78
     2
176
     0
 67
     7
176
     0
 79
     5
176
     0
170
     0
176
     0
171
     0
176
     0
290
     0
176
     0
 93
        1
176
     0
 44
0.0
176
     0
173
     0
176
     0
1001
ACAD
1000
AcDbSavedByObjectVersion
1070
     0
  0
VISUALSTYLE
  5
65D
102
{ACAD_XDICTIONARY
360
6DA
102
}
102
{ACAD_REACTORS
330
653
102
}
330
653
100
AcDbVisualStyle
  2
Realistic
 70
     8
177
     2
291
     0
 71
     2
176
     1
 72
     3
176
     1
 73
     0
176
     1
 90
        2
176
     1
 40
0.6
176
     1
 41
30.0
176
     1
 63
     7
421
 16777215
176
     1
 74
     0
176
     1
 91
        0
176
     1
 64
     7
176
     1
 65
   257
176
     1
 75
     1
176
     1
175
     1
176
     1
 42
1.0
176
     1
 92
        8
176
     1
 66
   257
176
     1
 43
1.0
176
     1
 76
     1
176
     1
 77
     6
176
     1
 78
     2
176
     1
 67
     7
176
     1
 79
     3
176
     1
170
     0
176
     1
171
     0
176
     1
290
     0
176
     1
 93
       13
176
     1
 44
0.0
176
     1
173
     0
176
     1
1001
ACAD
1000
AcDbSavedByObjectVersion
1070
     0
  0
VISUALSTYLE
  5
668
102
{ACAD_XDICTIONARY
360
6F0
102
}
102
{ACAD_REACTORS
330
653
102
}
330
653
100
AcDbVisualStyle
  2
Shaded
 70
    27
177
     2
291
     0
 71
     2
176
     1
 72
     2
176
     1
 73
     1
176
     1
 90
        2
176
     1
 40
0.6
176
     1
 41
30.0
176
     1
 63
     7
421
 16777215
176
     1
 74
     0
176
     1
 91
        4
176
     1
 64
     7
176
     1
 65
   257
176
     1
 75
     1
176
     1
175
     1
176
     1
 42
1.0
176
     1
 92
        8
176
     1
 66
   257
176
     1
 43
1.0
176
     1
 76
     1
176
     1
 77
     6
176
     1
 78
     2
176
     1
 67
     8
425
  7895160
176
     1
 79
     3
176
     1
170
     0
176
     1
171
     0
176
     1
290
     0
176
     1
 93
        5
176
     1
 44
0.0
176
     1
173
     0
176
     1
1001
ACAD
1000
AcDbSavedByObjectVersion
1070
     0
  0
VISUALSTYLE
  5
667
102
{ACAD_XDICTIONARY
360
6EE
102
}
102
{ACAD_REACTORS
330
653
102
}
330
653
100
AcDbVisualStyle
  2
Shaded with edges
 70
    26
177
     2
291
     0
 71
     2
176
     1
 72
     2
176
     1
 73
     1
176
     1
 90
        2
176
     1
 40
0.6
176
     1
 41
30.0
176
     1
 63
     7
421
 16777215
176
     1
 74
     1
176
     1
 91
       10
176
     1
 64
     7
176
     1
 65
   257
176
     1
 75
     2
176
     1
175
     1
176
     1
 42
1.0
176
     1
 92
        8
176
     1
 66
   257
176
     1
 43
1.0
176
     1
 76
     1
176
     1
 77
     6
176
     1
 78
     2
176
     1
 67
     7
176
     1
 79
     3
176
     1
170
     0
176
     1
171
     0
176
     1
290
     0
176
     1
 93
        5
176
     1
 44
0.0
176
     1
173
     0
176
     1
1001
ACAD
1000
AcDbSavedByObjectVersion
1070
     0
  0
VISUALSTYLE
  5
664
102
{ACAD_XDICTIONARY
360
6E8
102
}
102
{ACAD_REACTORS
330
653
102
}
330
653
100
AcDbVisualStyle
  2
Shades of Gray
 70
    23
177
     2
291
     0
 71
     2
176
     1
 72
     2
176
     1
 73
     3
176
     1
 90
        0
176
     1
 40
0.6
176
     1
 41
30.0
176
     1
 63
     7
421
 16777215
176
     1
 74
     2
176
     1
 91
        2
176
     1
 64
     7
176
     1
 65
     7
176
     1
 75
     1
176
     1
175
     1
176
     1
 42
40.0
176
     1
 92
        8
176
     1
 66
     7
176
     1
 43
1.0
176
     1
 76
     1
176
     1
 77
     6
176
     1
 78
     2
176
     1
 67
     7
176
     1
 79
     3
176
     1
170
     0
176
     1
171
     0
176
     1
290
     0
176
     1
 93
        1
176
     1
 44
0.0
176
     1
173
     0
176
     1
1001
ACAD
1000
AcDbSavedByObjectVersion
1070
     0
  0
VISUALSTYLE
  5
665
102
{ACAD_XDICTIONARY
360
6EA
102
}
102
{ACAD_REACTORS
330
653
102
}
330
653
100
AcDbVisualStyle
  2
Sketchy
 70
    24
177
     2
291
     0
 71
     1
176
     1
 72
     2
176
     1
 73
     2
176
     1
 90
        0
176
     1
 40
0.6
176
     1
 41
30.0
176
     1
 63
     7
421
 16777215
176
     1
 74
     2
176
     1
 91
        2
176
     1
 64
     7
176
     1
 65
     7
176
     1
 75
     1
176
     1
175
     1
176
     1
 42
40.0
176
     1
 92
       11
176
     1
 66
     7
176
     1
 43
1.0
176
     1
 76
     1
176
     1
 77
     6
176
     1
 78
     2
176
     1
 67
     7
176
     1
 79
     6
176
     1
170
     0
176
     1
171
     0
176
     1
290
     0
176
     1
 93
        1
176
     1
 44
0.0
176
     1
173
     0
176
     1
1001
ACAD
1000
AcDbSavedByObjectVersion
1070
     0
  0
VISUALSTYLE
  5
660
102
{ACAD_XDICTIONARY
360
6E0
102
}
102
{ACAD_REACTORS
330
653
102
}
330
653
100
AcDbVisualStyle
  2
Thicken
 70
    13
177
     2
291
     1
 71
     2
176
     1
 72
     2
176
     1
 73
     0
176
     1
 90
        0
176
     1
 40
0.6
176
     1
 41
30.0
176
     1
 63
     7
421
 16777215
176
     1
 74
     1
176
     1
 91
        4
176
     1
 64
     7
176
     1
 65
   257
176
     1
 75
     1
176
     1
175
     1
176
     1
 42
1.0
176
     1
 92
       12
176
     1
 66
     7
176
     1
 43
1.0
176
     1
 76
     1
176
     1
 77
     6
176
     1
 78
     2
176
     1
 67
     7
176
     1
 79
     5
176
     1
170
     0
176
     1
171
     0
176
     1
290
     0
176
     1
 93
        1
176
     1
 44
0.0
176
     1
173
     0
176
     1
1001
ACAD
1000
AcDbSavedByObjectVersion
1070
     0
  0
VISUALSTYLE
  5
65A
102
{ACAD_XDICTIONARY
360
6D4
102
}
102
{ACAD_REACTORS
330
653
102
}
330
653
100
AcDbVisualStyle
  2
Wireframe
 70
     5
177
     2
291
     0
 71
     0
176
     1
 72
     2
176
     1
 73
     0
176
     1
 90
        0
176
     1
 40
0.6
176
     1
 41
30.0
176
     1
 63
     7
421
 16777215
176
     1
 74
     1
176
     1
 91
        4
176
     1
 64
     7
176
     1
 65
   257
176
     1
 75
     1
176
     1
175
     1
176
     1
 42
1.0
176
     1
 92
        0
176
     1
 66
   257
176
     1
 43
1.0
176
     1
 76
     1
176
     1
 77
     6
176
     1
 78
     2
176
     1
 67
     7
176
     1
 79
     3
176
     1
170
     0
176
     1
171
     0
176
     1
290
     0
176
     1
 93
        1
176
     1
 44
0.0
176
     1
173
     0
176
     1
1001
ACAD
1000
AcDbSavedByObjectVersion
1070
     0
  0
VISUALSTYLE
  5
666
102
{ACAD_XDICTIONARY
360
6EC
102
}
102
{ACAD_REACTORS
330
653
102
}
330
653
100
AcDbVisualStyle
  2
X-Ray
 70
    25
177
     2
291
     0
 71
     2
176
     1
 72
     2
176
     1
 73
     1
176
     1
 90
        1
176
     1
 40
0.5
176
     1
 41
30.0
176
     1
 63
     7
421
 16777215
176
     1
 74
     1
176
     1
 91
        0
176
     1
 64
     7
176
     1
 65
   257
176
     1
 75
     1
176
     1
175
     1
176
     1
 42
1.0
176
     1
 92
        8
176
     1
 66
     7
176
     1
 43
1.0
176
     1
 76
     1
176
     1
 77
     6
176
     1
 78
     2
176
     1
 67
     7
176
     1
 79
     3
176
     1
170
     0
176
     1
171
     0
176
     1
290
     0
176
     1
 93
       13
176
     1
 44
0.0
176
     1
173
     0
176
     1
1001
ACAD
1000
AcDbSavedByObjectVersion
1070
     0
  0
DICTIONARYVAR
  5
6C0
102
{ACAD_REACTORS
330
1AB
102
}
330
1AB
100
DictionaryVariables
280
     0
  1
1:1
  0
DICTIONARYVAR
  5
6BC
102
{ACAD_REACTORS
330
1AB
102
}
330
1AB
100
DictionaryVariables
280
     0
  1
STANDARD
  0
DICTIONARYVAR
  5
6BB
102
{ACAD_REACTORS
330
1AB
102
}
330
1AB
100
DictionaryVariables
280
     0
  1
STANDARD
  0
DICTIONARYVAR
  5
6BD
102
{ACAD_REACTORS
330
1AB
102
}
330
1AB
100
DictionaryVariables
280
     0
  1
Imperial24
  0
DICTIONARYVAR
  5
6BE
102
{ACAD_REACTORS
330
1AB
102
}
330
1AB
100
DictionaryVariables
280
     0
  1
Imperial24
  0
DICTIONARYVAR
  5
1AC
102
{ACAD_REACTORS
330
1AB
102
}
330
1AB
100
DictionaryVariables
280
     0
  1
1
  0
DICTIONARYVAR
  5
6C2
102
{ACAD_REACTORS
330
1AB
102
}
330
1AB
100
DictionaryVariables
280
     0
  1
1
  0
DICTIONARYVAR
  5
6C3
102
{ACAD_REACTORS
330
1AB
102
}
330
1AB
100
DictionaryVariables
280
     0
  1
15
  0
DICTIONARYVAR
  5
6C1
102
{ACAD_REACTORS
330
1AB
102
}
330
1AB
100
DictionaryVariables
280
     0
  1
0
  0
DICTIONARYVAR
  5
6BF
102
{ACAD_REACTORS
330
1AB
102
}
330
1AB
100
DictionaryVariables
280
     0
  1
0
  0
DICTIONARYVAR
  5
1AD
102
{ACAD_REACTORS
330
1AB
102
}
330
1AB
100
DictionaryVariables
280
     0
  1

  0
DICTIONARY
  5
6FA
330
685
100
AcDbDictionary
280
     1
281
     1
  3
ACAD_XREC_ROUNDTRIP
360
6FB
  0
DICTIONARY
  5
644
330
643
100
AcDbDictionary
280
     1
281
     1
  3
BUMPTILE
360
646
  3
DIFFUSETILE
360
645
  3
OPACITYTILE
360
649
  3
REFLECTIONTILE
360
648
  3
REFRACTIONTILE
360
64A
  3
SPECULARTILE
360
647
  0
DICTIONARY
  5
63C
330
63B
100
AcDbDictionary
280
     1
281
     1
  3
BUMPTILE
360
63E
  3
DIFFUSETILE
360
63D
  3
OPACITYTILE
360
641
  3
REFLECTIONTILE
360
640
  3
REFRACTIONTILE
360
642
  3
SPECULARTILE
360
63F
  0
DICTIONARY
  5
64C
330
64B
100
AcDbDictionary
280
     1
281
     1
  3
BUMPTILE
360
64E
  3
DIFFUSETILE
360
64D
  3
OPACITYTILE
360
651
  3
REFLECTIONTILE
360
650
  3
REFRACTIONTILE
360
652
  3
SPECULARTILE
360
64F
  0
DICTIONARY
  5
6F8
330
683
100
AcDbDictionary
280
     1
281
     1
  3
ACAD_XREC_ROUNDTRIP
360
6F9
  0
DICTIONARY
  5
6C5
330
66D
100
AcDbDictionary
280
     1
281
     1
  3
ACAD_ROUNDTRIP_2008_TABLESTYLE_CELLSTYLEMAP
360
6C6
  0
DICTIONARY
  5
6D2
330
659
100
AcDbDictionary
280
     1
281
     1
  3
ACAD_XREC_ROUNDTRIP
360
6D3
  0
DICTIONARY
  5
6D0
330
658
100
AcDbDictionary
280
     1
281
     1
  3
ACAD_XREC_ROUNDTRIP
360
6D1
  0
DICTIONARY
  5
6DE
330
65F
100
AcDbDictionary
280
     1
281
     1
  3
ACAD_XREC_ROUNDTRIP
360
6DF
  0
DICTIONARY
  5
6E6
330
663
100
AcDbDictionary
280
     1
281
     1
  3
ACAD_XREC_ROUNDTRIP
360
6E7
  0
DICTIONARY
  5
6D8
330
65C
100
AcDbDictionary
280
     1
281
     1
  3
ACAD_XREC_ROUNDTRIP
360
6D9
  0
DICTIONARY
  5
6DC
330
65E
100
AcDbDictionary
280
     1
281
     1
  3
ACAD_XREC_ROUNDTRIP
360
6DD
  0
DICTIONARY
  5
6F6
330
66B
100
AcDbDictionary
280
     1
281
     1
  3
ACAD_XREC_ROUNDTRIP
360
6F7
  0
DICTIONARY
  5
6E4
330
662
100
AcDbDictionary
280
     1
281
     1
  3
ACAD_XREC_ROUNDTRIP
360
6E5
  0
DICTIONARY
  5
6C8
330
654
100
AcDbDictionary
280
     1
281
     1
  3
ACAD_XREC_ROUNDTRIP
360
6C9
  0
DICTIONARY
  5
6CA
330
655
100
AcDbDictionary
280
     1
281
     1
  3
ACAD_XREC_ROUNDTRIP
360
6CB
  0
DICTIONARY
  5
6CC
330
656
100
AcDbDictionary
280
     1
281
     1
  3
ACAD_XREC_ROUNDTRIP
360
6CD
  0
DICTIONARY
  5
6CE
330
657
100
AcDbDictionary
280
     1
281
     1
  3
ACAD_XREC_ROUNDTRIP
360
6CF
  0
DICTIONARY
  5
6D6
330
65B
100
AcDbDictionary
280
     1
281
     1
  3
ACAD_XREC_ROUNDTRIP
360
6D7
  0
DICTIONARY
  5
6F2
330
669
100
AcDbDictionary
280
     1
281
     1
  3
ACAD_XREC_ROUNDTRIP
360
6F3
  0
DICTIONARY
  5
6E2
330
661
100
AcDbDictionary
280
     1
281
     1
  3
ACAD_XREC_ROUNDTRIP
360
6E3
  0
DICTIONARY
  5
6F4
330
66A
100
AcDbDictionary
280
     1
281
     1
  3
ACAD_XREC_ROUNDTRIP
360
6F5
  0
DICTIONARY
  5
6DA
330
65D
100
AcDbDictionary
280
     1
281
     1
  3
ACAD_XREC_ROUNDTRIP
360
6DB
  0
DICTIONARY
  5
6F0
330
668
100
AcDbDictionary
280
     1
281
     1
  3
ACAD_XREC_ROUNDTRIP
360
6F1
  0
DICTIONARY
  5
6EE
330
667
100
AcDbDictionary
280
     1
281
     1
  3
ACAD_XREC_ROUNDTRIP
360
6EF
  0
DICTIONARY
  5
6E8
330
664
100
AcDbDictionary
280
     1
281
     1
  3
ACAD_XREC_ROUNDTRIP
360
6E9
  0
DICTIONARY
  5
6EA
330
665
100
AcDbDictionary
280
     1
281
     1
  3
ACAD_XREC_ROUNDTRIP
360
6EB
  0
DICTIONARY
  5
6E0
330
660
100
AcDbDictionary
280
     1
281
     1
  3
ACAD_XREC_ROUNDTRIP
360
6E1
  0
DICTIONARY
  5
6D4
330
65A
100
AcDbDictionary
280
     1
281
     1
  3
ACAD_XREC_ROUNDTRIP
360
6D5
  0
DICTIONARY
  5
6EC
330
666
100
AcDbDictionary
280
     1
281
     1
  3
ACAD_XREC_ROUNDTRIP
360
6ED
  0
XRECORD
  5
6FB
102
{ACAD_REACTORS
330
6FA
102
}
330
6FA
100
AcDbXrecord
280
     1
102
DISPLAYNAME
  1
Imperial24
102
FLAGS
 90
        0
  0
XRECORD
  5
646
102
{ACAD_REACTORS
330
644
102
}
330
644
100
AcDbXrecord
280
     1
270
     1
271
     1
  0
XRECORD
  5
645
102
{ACAD_REACTORS
330
644
102
}
330
644
100
AcDbXrecord
280
     1
270
     1
271
     1
  0
XRECORD
  5
649
102
{ACAD_REACTORS
330
644
102
}
330
644
100
AcDbXrecord
280
     1
270
     1
271
     1
  0
XRECORD
  5
648
102
{ACAD_REACTORS
330
644
102
}
330
644
100
AcDbXrecord
280
     1
270
     1
271
     1
  0
XRECORD
  5
64A
102
{ACAD_REACTORS
330
644
102
}
330
644
100
AcDbXrecord
280
     1
270
     1
271
     1
  0
XRECORD
  5
647
102
{ACAD_REACTORS
330
644
102
}
330
644
100
AcDbXrecord
280
     1
270
     1
271
     1
  0
XRECORD
  5
63E
102
{ACAD_REACTORS
330
63C
102
}
330
63C
100
AcDbXrecord
280
     1
270
     1
271
     1
  0
XRECORD
  5
63D
102
{ACAD_REACTORS
330
63C
102
}
330
63C
100
AcDbXrecord
280
     1
270
     1
271
     1
  0
XRECORD
  5
641
102
{ACAD_REACTORS
330
63C
102
}
330
63C
100
AcDbXrecord
280
     1
270
     1
271
     1
  0
XRECORD
  5
640
102
{ACAD_REACTORS
330
63C
102
}
330
63C
100
AcDbXrecord
280
     1
270
     1
271
     1
  0
XRECORD
  5
642
102
{ACAD_REACTORS
330
63C
102
}
330
63C
100
AcDbXrecord
280
     1
270
     1
271
     1
  0
XRECORD
  5
63F
102
{ACAD_REACTORS
330
63C
102
}
330
63C
100
AcDbXrecord
280
     1
270
     1
271
     1
  0
XRECORD
  5
64E
102
{ACAD_REACTORS
330
64C
102
}
330
64C
100
AcDbXrecord
280
     1
270
     1
271
     1
  0
XRECORD
  5
64D
102
{ACAD_REACTORS
330
64C
102
}
330
64C
100
AcDbXrecord
280
     1
270
     1
271
     1
  0
XRECORD
  5
651
102
{ACAD_REACTORS
330
64C
102
}
330
64C
100
AcDbXrecord
280
     1
270
     1
271
     1
  0
XRECORD
  5
650
102
{ACAD_REACTORS
330
64C
102
}
330
64C
100
AcDbXrecord
280
     1
270
     1
271
     1
  0
XRECORD
  5
652
102
{ACAD_REACTORS
330
64C
102
}
330
64C
100
AcDbXrecord
280
     1
270
     1
271
     1
  0
XRECORD
  5
64F
102
{ACAD_REACTORS
330
64C
102
}
330
64C
100
AcDbXrecord
280
     1
270
     1
271
     1
  0
XRECORD
  5
6F9
102
{ACAD_REACTORS
330
6F8
102
}
330
6F8
100
AcDbXrecord
280
     1
102
DISPLAYNAME
  1
Imperial24
102
FLAGS
 90
        0
  0
CELLSTYLEMAP
  5
6C6
102
{ACAD_REACTORS
330
6C5
102
}
330
6C5
100
AcDbCellStyleMap
 90
        3
300
CELLSTYLE
  1
TABLEFORMAT_BEGIN
 90
        5
170
     1
 91
        0
 92
    32768
 62
   257
 93
        1
300
CONTENTFORMAT
  1
CONTENTFORMAT_BEGIN
 90
        0
 91
        0
 92
      512
 93
        0
300

 40
0.0
140
1.0
 94
        5
 62
     0
340
11
144
0.25
309
CONTENTFORMAT_END
171
     0
 94
        0
309
TABLEFORMAT_END
  1
CELLSTYLE_BEGIN
 90
        1
 91
        1
300
_TITLE
309
CELLSTYLE_END
300
CELLSTYLE
  1
TABLEFORMAT_BEGIN
 90
        5
170
     1
 91
        0
 92
        0
 62
   257
 93
        1
300
CONTENTFORMAT
  1
CONTENTFORMAT_BEGIN
 90
        0
 91
        0
 92
      512
 93
        0
300

 40
0.0
140
1.0
 94
        5
 62
     0
340
11
144
0.18
309
CONTENTFORMAT_END
171
     0
 94
        0
309
TABLEFORMAT_END
  1
CELLSTYLE_BEGIN
 90
        2
 91
        1
300
_HEADER
309
CELLSTYLE_END
300
CELLSTYLE
  1
TABLEFORMAT_BEGIN
 90
        5
170
     1
 91
        0
 92
        0
 62
   257
 93
        1
300
CONTENTFORMAT
  1
CONTENTFORMAT_BEGIN
 90
        0
 91
        0
 92
      512
 93
        0
300

 40
0.0
140
1.0
 94
        2
 62
     0
340
11
144
0.18
309
CONTENTFORMAT_END
171
     0
 94
        0
309
TABLEFORMAT_END
  1
CELLSTYLE_BEGIN
 90
        3
 91
        2
300
_DATA
309
CELLSTYLE_END
  0
XRECORD
  5
6D3
102
{ACAD_REACTORS
330
6D2
102
}
330
6D2
100
AcDbXrecord
280
     1
102
RTVSPost2010Prop28
280
     1
102
RTVSPost2010PropOp28
 70
     1
102
RTVSPost2010Prop29
280
     1
102
RTVSPost2010PropOp29
 70
     1
102
RTVSPost2010Prop30
280
     0
102
RTVSPost2010PropOp30
 70
     1
102
RTVSPost2010Prop31
280
     0
102
RTVSPost2010PropOp31
 70
     1
102
RTVSPost2010Prop32
280
     0
102
RTVSPost2010PropOp32
 70
     1
102
RTVSPost2010Prop33
280
     0
102
RTVSPost2010PropOp33
 70
     1
102
RTVSPost2010Prop34
280
     0
102
RTVSPost2010PropOp34
 70
     1
102
RTVSPost2010Prop35
280
     0
102
RTVSPost2010PropOp35
 70
     1
102
RTVSPost2010Prop36
280
     0
102
RTVSPost2010PropOp36
 70
     1
102
RTVSPost2010Prop37
 90
       50
102
RTVSPost2010PropOp37
 70
     1
102
RTVSPost2010Prop38
140
0.0
102
RTVSPost2010PropOp38
 70
     1
102
RTVSPost2010Prop39
140
1.0
102
RTVSPost2010PropOp39
 70
     1
102
RTVSPost2010Prop40
 90
        0
102
RTVSPost2010PropOp40
 70
     1
102
RTVSPost2010Prop41ColorIndex
 90
       18
102
RTVSPost2010Prop41ColorRGB
 90
        0
102
RTVSPost2010PropOp41
 70
     1
102
RTVSPost2010Prop42
 90
       50
102
RTVSPost2010PropOp42
 70
     1
102
RTVSPost2010Prop43
 90
        3
102
RTVSPost2010PropOp43
 70
     1
102
RTVSPost2010Prop44ColorIndex
 90
        5
102
RTVSPost2010Prop44ColorRGB
 90
      255
102
RTVSPost2010PropOp44
 70
     1
102
RTVSPost2010Prop45
280
     0
102
RTVSPost2010PropOp45
 70
     1
102
RTVSPost2010Prop46
 90
       50
102
RTVSPost2010PropOp46
 70
     1
102
RTVSPost2010Prop47
 90
       50
102
RTVSPost2010PropOp47
 70
     1
102
RTVSPost2010Prop48
 90
       50
102
RTVSPost2010PropOp48
 70
     1
102
RTVSPost2010Prop49
280
     0
102
RTVSPost2010PropOp49
 70
     1
102
RTVSPost2010Prop50
 90
       50
102
RTVSPost2010PropOp50
 70
     1
102
RTVSPost2010Prop51ColorIndex
 90
      256
102
RTVSPost2010Prop51ColorRGB
 90
-16777216
102
RTVSPost2010PropOp51
 70
     0
102
RTVSPost2010Prop52
140
1.0
102
RTVSPost2010PropOp52
 70
     0
102
RTVSPost2010Prop53
 90
        2
102
RTVSPost2010PropOp53
 70
     1
102
RTVSPost2010Prop54
  1
strokes_ogs.tif
102
RTVSPost2010PropOp54
 70
     1
102
RTVSPost2010Prop55
280
     0
102
RTVSPost2010PropOp55
 70
     1
102
RTVSPost2010Prop56
140
1.0
102
RTVSPost2010PropOp56
 70
     1
102
RTVSPost2010Prop57
140
1.0
102
RTVSPost2010PropOp57
 70
     1
  0
XRECORD
  5
6D1
102
{ACAD_REACTORS
330
6D0
102
}
330
6D0
100
AcDbXrecord
280
     1
102
RTVSPost2010Prop28
280
     0
102
RTVSPost2010PropOp28
 70
     1
102
RTVSPost2010Prop29
280
     1
102
RTVSPost2010PropOp29
 70
     1
102
RTVSPost2010Prop30
280
     1
102
RTVSPost2010PropOp30
 70
     1
102
RTVSPost2010Prop31
280
     0
102
RTVSPost2010PropOp31
 70
     1
102
RTVSPost2010Prop32
280
     0
102
RTVSPost2010PropOp32
 70
     1
102
RTVSPost2010Prop33
280
     0
102
RTVSPost2010PropOp33
 70
     1
102
RTVSPost2010Prop34
280
     0
102
RTVSPost2010PropOp34
 70
     1
102
RTVSPost2010Prop35
280
     0
102
RTVSPost2010PropOp35
 70
     1
102
RTVSPost2010Prop36
280
     0
102
RTVSPost2010PropOp36
 70
     1
102
RTVSPost2010Prop37
 90
       50
102
RTVSPost2010PropOp37
 70
     1
102
RTVSPost2010Prop38
140
0.0
102
RTVSPost2010PropOp38
 70
     1
102
RTVSPost2010Prop39
140
1.0
102
RTVSPost2010PropOp39
 70
     1
102
RTVSPost2010Prop40
 90
        0
102
RTVSPost2010PropOp40
 70
     1
102
RTVSPost2010Prop41ColorIndex
 90
       18
102
RTVSPost2010Prop41ColorRGB
 90
        0
102
RTVSPost2010PropOp41
 70
     1
102
RTVSPost2010Prop42
 90
       50
102
RTVSPost2010PropOp42
 70
     1
102
RTVSPost2010Prop43
 90
        3
102
RTVSPost2010PropOp43
 70
     1
102
RTVSPost2010Prop44ColorIndex
 90
        5
102
RTVSPost2010Prop44ColorRGB
 90
      255
102
RTVSPost2010PropOp44
 70
     1
102
RTVSPost2010Prop45
280
     0
102
RTVSPost2010PropOp45
 70
     1
102
RTVSPost2010Prop46
 90
       50
102
RTVSPost2010PropOp46
 70
     1
102
RTVSPost2010Prop47
 90
       50
102
RTVSPost2010PropOp47
 70
     1
102
RTVSPost2010Prop48
 90
       50
102
RTVSPost2010PropOp48
 70
     1
102
RTVSPost2010Prop49
280
     0
102
RTVSPost2010PropOp49
 70
     1
102
RTVSPost2010Prop50
 90
       50
102
RTVSPost2010PropOp50
 70
     1
102
RTVSPost2010Prop51ColorIndex
 90
      256
102
RTVSPost2010Prop51ColorRGB
 90
-16777216
102
RTVSPost2010PropOp51
 70
     0
102
RTVSPost2010Prop52
140
1.0
102
RTVSPost2010PropOp52
 70
     0
102
RTVSPost2010Prop53
 90
        2
102
RTVSPost2010PropOp53
 70
     1
102
RTVSPost2010Prop54
  1
strokes_ogs.tif
102
RTVSPost2010PropOp54
 70
     1
102
RTVSPost2010Prop55
280
     0
102
RTVSPost2010PropOp55
 70
     1
102
RTVSPost2010Prop56
140
1.0
102
RTVSPost2010PropOp56
 70
     1
102
RTVSPost2010Prop57
140
1.0
102
RTVSPost2010PropOp57
 70
     1
  0
XRECORD
  5
6DF
102
{ACAD_REACTORS
330
6DE
102
}
330
6DE
100
AcDbXrecord
280
     1
102
RTVSPost2010Prop28
280
     0
102
RTVSPost2010PropOp28
 70
     1
102
RTVSPost2010Prop29
280
     1
102
RTVSPost2010PropOp29
 70
     1
102
RTVSPost2010Prop30
280
     1
102
RTVSPost2010PropOp30
 70
     1
102
RTVSPost2010Prop31
280
     0
102
RTVSPost2010PropOp31
 70
     1
102
RTVSPost2010Prop32
280
     0
102
RTVSPost2010PropOp32
 70
     1
102
RTVSPost2010Prop33
280
     0
102
RTVSPost2010PropOp33
 70
     1
102
RTVSPost2010Prop34
280
     0
102
RTVSPost2010PropOp34
 70
     1
102
RTVSPost2010Prop35
280
     0
102
RTVSPost2010PropOp35
 70
     1
102
RTVSPost2010Prop36
280
     0
102
RTVSPost2010PropOp36
 70
     1
102
RTVSPost2010Prop37
 90
       50
102
RTVSPost2010PropOp37
 70
     1
102
RTVSPost2010Prop38
140
0.0
102
RTVSPost2010PropOp38
 70
     1
102
RTVSPost2010Prop39
140
1.0
102
RTVSPost2010PropOp39
 70
     1
102
RTVSPost2010Prop40
 90
        0
102
RTVSPost2010PropOp40
 70
     1
102
RTVSPost2010Prop41ColorIndex
 90
       18
102
RTVSPost2010Prop41ColorRGB
 90
        0
102
RTVSPost2010PropOp41
 70
     1
102
RTVSPost2010Prop42
 90
       50
102
RTVSPost2010PropOp42
 70
     1
102
RTVSPost2010Prop43
 90
        3
102
RTVSPost2010PropOp43
 70
     1
102
RTVSPost2010Prop44ColorIndex
 90
        5
102
RTVSPost2010Prop44ColorRGB
 90
      255
102
RTVSPost2010PropOp44
 70
     1
102
RTVSPost2010Prop45
280
     0
102
RTVSPost2010PropOp45
 70
     1
102
RTVSPost2010Prop46
 90
       50
102
RTVSPost2010PropOp46
 70
     1
102
RTVSPost2010Prop47
 90
       50
102
RTVSPost2010PropOp47
 70
     1
102
RTVSPost2010Prop48
 90
       50
102
RTVSPost2010PropOp48
 70
     1
102
RTVSPost2010Prop49
280
     0
102
RTVSPost2010PropOp49
 70
     1
102
RTVSPost2010Prop50
 90
       50
102
RTVSPost2010PropOp50
 70
     1
102
RTVSPost2010Prop51ColorIndex
 90
      256
102
RTVSPost2010Prop51ColorRGB
 90
-16777216
102
RTVSPost2010PropOp51
 70
     0
102
RTVSPost2010Prop52
140
1.0
102
RTVSPost2010PropOp52
 70
     0
102
RTVSPost2010Prop53
 90
        2
102
RTVSPost2010PropOp53
 70
     1
102
RTVSPost2010Prop54
  1
strokes_ogs.tif
102
RTVSPost2010PropOp54
 70
     1
102
RTVSPost2010Prop55
280
     0
102
RTVSPost2010PropOp55
 70
     1
102
RTVSPost2010Prop56
140
1.0
102
RTVSPost2010PropOp56
 70
     1
102
RTVSPost2010Prop57
140
1.0
102
RTVSPost2010PropOp57
 70
     1
  0
XRECORD
  5
6E7
102
{ACAD_REACTORS
330
6E6
102
}
330
6E6
100
AcDbXrecord
280
     1
102
RTVSPost2010Prop28
280
     0
102
RTVSPost2010PropOp28
 70
     1
102
RTVSPost2010Prop29
280
     1
102
RTVSPost2010PropOp29
 70
     1
102
RTVSPost2010Prop30
280
     1
102
RTVSPost2010PropOp30
 70
     1
102
RTVSPost2010Prop31
280
     0
102
RTVSPost2010PropOp31
 70
     1
102
RTVSPost2010Prop32
280
     0
102
RTVSPost2010PropOp32
 70
     1
102
RTVSPost2010Prop33
280
     0
102
RTVSPost2010PropOp33
 70
     1
102
RTVSPost2010Prop34
280
     0
102
RTVSPost2010PropOp34
 70
     1
102
RTVSPost2010Prop35
280
     0
102
RTVSPost2010PropOp35
 70
     1
102
RTVSPost2010Prop36
280
     0
102
RTVSPost2010PropOp36
 70
     1
102
RTVSPost2010Prop37
 90
       50
102
RTVSPost2010PropOp37
 70
     1
102
RTVSPost2010Prop38
140
0.0
102
RTVSPost2010PropOp38
 70
     1
102
RTVSPost2010Prop39
140
1.0
102
RTVSPost2010PropOp39
 70
     1
102
RTVSPost2010Prop40
 90
        0
102
RTVSPost2010PropOp40
 70
     1
102
RTVSPost2010Prop41ColorIndex
 90
       18
102
RTVSPost2010Prop41ColorRGB
 90
        0
102
RTVSPost2010PropOp41
 70
     1
102
RTVSPost2010Prop42
 90
       50
102
RTVSPost2010PropOp42
 70
     1
102
RTVSPost2010Prop43
 90
        3
102
RTVSPost2010PropOp43
 70
     1
102
RTVSPost2010Prop44ColorIndex
 90
        5
102
RTVSPost2010Prop44ColorRGB
 90
      255
102
RTVSPost2010PropOp44
 70
     1
102
RTVSPost2010Prop45
280
     0
102
RTVSPost2010PropOp45
 70
     1
102
RTVSPost2010Prop46
 90
       50
102
RTVSPost2010PropOp46
 70
     1
102
RTVSPost2010Prop47
 90
       50
102
RTVSPost2010PropOp47
 70
     1
102
RTVSPost2010Prop48
 90
       50
102
RTVSPost2010PropOp48
 70
     1
102
RTVSPost2010Prop49
280
     0
102
RTVSPost2010PropOp49
 70
     1
102
RTVSPost2010Prop50
 90
       50
102
RTVSPost2010PropOp50
 70
     1
102
RTVSPost2010Prop51ColorIndex
 90
      256
102
RTVSPost2010Prop51ColorRGB
 90
-16777216
102
RTVSPost2010PropOp51
 70
     0
102
RTVSPost2010Prop52
140
1.0
102
RTVSPost2010PropOp52
 70
     0
102
RTVSPost2010Prop53
 90
        2
102
RTVSPost2010PropOp53
 70
     1
102
RTVSPost2010Prop54
  1
strokes_ogs.tif
102
RTVSPost2010PropOp54
 70
     1
102
RTVSPost2010Prop55
280
     0
102
RTVSPost2010PropOp55
 70
     1
102
RTVSPost2010Prop56
140
1.0
102
RTVSPost2010PropOp56
 70
     1
102
RTVSPost2010Prop57
140
1.0
102
RTVSPost2010PropOp57
 70
     1
  0
XRECORD
  5
6D9
102
{ACAD_REACTORS
330
6D8
102
}
330
6D8
100
AcDbXrecord
280
     1
102
RTVSPost2010Prop28
280
     0
102
RTVSPost2010PropOp28
 70
     1
102
RTVSPost2010Prop29
280
     1
102
RTVSPost2010PropOp29
 70
     1
102
RTVSPost2010Prop30
280
     1
102
RTVSPost2010PropOp30
 70
     1
102
RTVSPost2010Prop31
280
     0
102
RTVSPost2010PropOp31
 70
     1
102
RTVSPost2010Prop32
280
     0
102
RTVSPost2010PropOp32
 70
     1
102
RTVSPost2010Prop33
280
     0
102
RTVSPost2010PropOp33
 70
     1
102
RTVSPost2010Prop34
280
     0
102
RTVSPost2010PropOp34
 70
     1
102
RTVSPost2010Prop35
280
     0
102
RTVSPost2010PropOp35
 70
     1
102
RTVSPost2010Prop36
280
     0
102
RTVSPost2010PropOp36
 70
     1
102
RTVSPost2010Prop37
 90
       50
102
RTVSPost2010PropOp37
 70
     1
102
RTVSPost2010Prop38
140
0.0
102
RTVSPost2010PropOp38
 70
     1
102
RTVSPost2010Prop39
140
1.0
102
RTVSPost2010PropOp39
 70
     1
102
RTVSPost2010Prop40
 90
        0
102
RTVSPost2010PropOp40
 70
     1
102
RTVSPost2010Prop41ColorIndex
 90
       18
102
RTVSPost2010Prop41ColorRGB
 90
        0
102
RTVSPost2010PropOp41
 70
     1
102
RTVSPost2010Prop42
 90
       50
102
RTVSPost2010PropOp42
 70
     1
102
RTVSPost2010Prop43
 90
        3
102
RTVSPost2010PropOp43
 70
     1
102
RTVSPost2010Prop44ColorIndex
 90
        5
102
RTVSPost2010Prop44ColorRGB
 90
      255
102
RTVSPost2010PropOp44
 70
     1
102
RTVSPost2010Prop45
280
     0
102
RTVSPost2010PropOp45
 70
     1
102
RTVSPost2010Prop46
 90
       50
102
RTVSPost2010PropOp46
 70
     1
102
RTVSPost2010Prop47
 90
       50
102
RTVSPost2010PropOp47
 70
     1
102
RTVSPost2010Prop48
 90
       50
102
RTVSPost2010PropOp48
 70
     1
102
RTVSPost2010Prop49
280
     0
102
RTVSPost2010PropOp49
 70
     1
102
RTVSPost2010Prop50
 90
       50
102
RTVSPost2010PropOp50
 70
     1
102
RTVSPost2010Prop51ColorIndex
 90
      256
102
RTVSPost2010Prop51ColorRGB
 90
-16777216
102
RTVSPost2010PropOp51
 70
     0
102
RTVSPost2010Prop52
140
1.0
102
RTVSPost2010PropOp52
 70
     0
102
RTVSPost2010Prop53
 90
        2
102
RTVSPost2010PropOp53
 70
     1
102
RTVSPost2010Prop54
  1
strokes_ogs.tif
102
RTVSPost2010PropOp54
 70
     1
102
RTVSPost2010Prop55
280
     0
102
RTVSPost2010PropOp55
 70
     1
102
RTVSPost2010Prop56
140
1.0
102
RTVSPost2010PropOp56
 70
     1
102
RTVSPost2010Prop57
140
1.0
102
RTVSPost2010PropOp57
 70
     1
  0
XRECORD
  5
6DD
102
{ACAD_REACTORS
330
6DC
102
}
330
6DC
100
AcDbXrecord
280
     1
102
RTVSPost2010Prop28
280
     0
102
RTVSPost2010PropOp28
 70
     1
102
RTVSPost2010Prop29
280
     1
102
RTVSPost2010PropOp29
 70
     1
102
RTVSPost2010Prop30
280
     1
102
RTVSPost2010PropOp30
 70
     1
102
RTVSPost2010Prop31
280
     0
102
RTVSPost2010PropOp31
 70
     1
102
RTVSPost2010Prop32
280
     0
102
RTVSPost2010PropOp32
 70
     1
102
RTVSPost2010Prop33
280
     0
102
RTVSPost2010PropOp33
 70
     1
102
RTVSPost2010Prop34
280
     0
102
RTVSPost2010PropOp34
 70
     1
102
RTVSPost2010Prop35
280
     0
102
RTVSPost2010PropOp35
 70
     1
102
RTVSPost2010Prop36
280
     0
102
RTVSPost2010PropOp36
 70
     1
102
RTVSPost2010Prop37
 90
       50
102
RTVSPost2010PropOp37
 70
     1
102
RTVSPost2010Prop38
140
0.0
102
RTVSPost2010PropOp38
 70
     1
102
RTVSPost2010Prop39
140
1.0
102
RTVSPost2010PropOp39
 70
     1
102
RTVSPost2010Prop40
 90
        0
102
RTVSPost2010PropOp40
 70
     1
102
RTVSPost2010Prop41ColorIndex
 90
       18
102
RTVSPost2010Prop41ColorRGB
 90
        0
102
RTVSPost2010PropOp41
 70
     1
102
RTVSPost2010Prop42
 90
       50
102
RTVSPost2010PropOp42
 70
     1
102
RTVSPost2010Prop43
 90
        3
102
RTVSPost2010PropOp43
 70
     1
102
RTVSPost2010Prop44ColorIndex
 90
        5
102
RTVSPost2010Prop44ColorRGB
 90
      255
102
RTVSPost2010PropOp44
 70
     1
102
RTVSPost2010Prop45
280
     0
102
RTVSPost2010PropOp45
 70
     1
102
RTVSPost2010Prop46
 90
       50
102
RTVSPost2010PropOp46
 70
     1
102
RTVSPost2010Prop47
 90
       50
102
RTVSPost2010PropOp47
 70
     1
102
RTVSPost2010Prop48
 90
       50
102
RTVSPost2010PropOp48
 70
     1
102
RTVSPost2010Prop49
280
     0
102
RTVSPost2010PropOp49
 70
     1
102
RTVSPost2010Prop50
 90
       50
102
RTVSPost2010PropOp50
 70
     1
102
RTVSPost2010Prop51ColorIndex
 90
      256
102
RTVSPost2010Prop51ColorRGB
 90
-16777216
102
RTVSPost2010PropOp51
 70
     0
102
RTVSPost2010Prop52
140
1.0
102
RTVSPost2010PropOp52
 70
     0
102
RTVSPost2010Prop53
 90
        2
102
RTVSPost2010PropOp53
 70
     1
102
RTVSPost2010Prop54
  1
strokes_ogs.tif
102
RTVSPost2010PropOp54
 70
     1
102
RTVSPost2010Prop55
280
     0
102
RTVSPost2010PropOp55
 70
     1
102
RTVSPost2010Prop56
140
1.0
102
RTVSPost2010PropOp56
 70
     1
102
RTVSPost2010Prop57
140
1.0
102
RTVSPost2010PropOp57
 70
     1
  0
XRECORD
  5
6F7
102
{ACAD_REACTORS
330
6F6
102
}
330
6F6
100
AcDbXrecord
280
     1
102
RTVSPost2010Prop28
280
     0
102
RTVSPost2010PropOp28
 70
     1
102
RTVSPost2010Prop29
280
     1
102
RTVSPost2010PropOp29
 70
     1
102
RTVSPost2010Prop30
280
     1
102
RTVSPost2010PropOp30
 70
     1
102
RTVSPost2010Prop31
280
     0
102
RTVSPost2010PropOp31
 70
     1
102
RTVSPost2010Prop32
280
     0
102
RTVSPost2010PropOp32
 70
     1
102
RTVSPost2010Prop33
280
     0
102
RTVSPost2010PropOp33
 70
     1
102
RTVSPost2010Prop34
280
     0
102
RTVSPost2010PropOp34
 70
     1
102
RTVSPost2010Prop35
280
     0
102
RTVSPost2010PropOp35
 70
     1
102
RTVSPost2010Prop36
280
     0
102
RTVSPost2010PropOp36
 70
     1
102
RTVSPost2010Prop37
 90
       50
102
RTVSPost2010PropOp37
 70
     0
102
RTVSPost2010Prop38
140
0.0
102
RTVSPost2010PropOp38
 70
     0
102
RTVSPost2010Prop39
140
1.0
102
RTVSPost2010PropOp39
 70
     0
102
RTVSPost2010Prop40
 90
        0
102
RTVSPost2010PropOp40
 70
     0
102
RTVSPost2010Prop41ColorIndex
 90
       18
102
RTVSPost2010Prop41ColorRGB
 90
        0
102
RTVSPost2010PropOp41
 70
     0
102
RTVSPost2010Prop42
 90
       50
102
RTVSPost2010PropOp42
 70
     0
102
RTVSPost2010Prop43
 90
        3
102
RTVSPost2010PropOp43
 70
     0
102
RTVSPost2010Prop44ColorIndex
 90
        5
102
RTVSPost2010Prop44ColorRGB
 90
      255
102
RTVSPost2010PropOp44
 70
     0
102
RTVSPost2010Prop45
280
     0
102
RTVSPost2010PropOp45
 70
     1
102
RTVSPost2010Prop46
 90
       50
102
RTVSPost2010PropOp46
 70
     0
102
RTVSPost2010Prop47
 90
       50
102
RTVSPost2010PropOp47
 70
     0
102
RTVSPost2010Prop48
 90
       50
102
RTVSPost2010PropOp48
 70
     0
102
RTVSPost2010Prop49
280
     0
102
RTVSPost2010PropOp49
 70
     1
102
RTVSPost2010Prop50
 90
       50
102
RTVSPost2010PropOp50
 70
     0
102
RTVSPost2010Prop51ColorIndex
 90
      256
102
RTVSPost2010Prop51ColorRGB
 90
-16777216
102
RTVSPost2010PropOp51
 70
     0
102
RTVSPost2010Prop52
140
1.0
102
RTVSPost2010PropOp52
 70
     0
102
RTVSPost2010Prop53
 90
        2
102
RTVSPost2010PropOp53
 70
     0
102
RTVSPost2010Prop54
  1
strokes_ogs.tif
102
RTVSPost2010PropOp54
 70
     0
102
RTVSPost2010Prop55
280
     0
102
RTVSPost2010PropOp55
 70
     1
102
RTVSPost2010Prop56
140
1.0
102
RTVSPost2010PropOp56
 70
     0
102
RTVSPost2010Prop57
140
1.0
102
RTVSPost2010PropOp57
 70
     0
  0
XRECORD
  5
6E5
102
{ACAD_REACTORS
330
6E4
102
}
330
6E4
100
AcDbXrecord
280
     1
102
RTVSPost2010Prop28
280
     0
102
RTVSPost2010PropOp28
 70
     1
102
RTVSPost2010Prop29
280
     1
102
RTVSPost2010PropOp29
 70
     1
102
RTVSPost2010Prop30
280
     1
102
RTVSPost2010PropOp30
 70
     1
102
RTVSPost2010Prop31
280
     0
102
RTVSPost2010PropOp31
 70
     1
102
RTVSPost2010Prop32
280
     0
102
RTVSPost2010PropOp32
 70
     1
102
RTVSPost2010Prop33
280
     0
102
RTVSPost2010PropOp33
 70
     1
102
RTVSPost2010Prop34
280
     0
102
RTVSPost2010PropOp34
 70
     1
102
RTVSPost2010Prop35
280
     0
102
RTVSPost2010PropOp35
 70
     1
102
RTVSPost2010Prop36
280
     0
102
RTVSPost2010PropOp36
 70
     1
102
RTVSPost2010Prop37
 90
       50
102
RTVSPost2010PropOp37
 70
     1
102
RTVSPost2010Prop38
140
0.0
102
RTVSPost2010PropOp38
 70
     1
102
RTVSPost2010Prop39
140
1.0
102
RTVSPost2010PropOp39
 70
     1
102
RTVSPost2010Prop40
 90
        0
102
RTVSPost2010PropOp40
 70
     1
102
RTVSPost2010Prop41ColorIndex
 90
       18
102
RTVSPost2010Prop41ColorRGB
 90
        0
102
RTVSPost2010PropOp41
 70
     1
102
RTVSPost2010Prop42
 90
       50
102
RTVSPost2010PropOp42
 70
     1
102
RTVSPost2010Prop43
 90
        3
102
RTVSPost2010PropOp43
 70
     1
102
RTVSPost2010Prop44ColorIndex
 90
        5
102
RTVSPost2010Prop44ColorRGB
 90
      255
102
RTVSPost2010PropOp44
 70
     1
102
RTVSPost2010Prop45
280
     0
102
RTVSPost2010PropOp45
 70
     1
102
RTVSPost2010Prop46
 90
       50
102
RTVSPost2010PropOp46
 70
     1
102
RTVSPost2010Prop47
 90
       50
102
RTVSPost2010PropOp47
 70
     1
102
RTVSPost2010Prop48
 90
       50
102
RTVSPost2010PropOp48
 70
     1
102
RTVSPost2010Prop49
280
     0
102
RTVSPost2010PropOp49
 70
     1
102
RTVSPost2010Prop50
 90
       50
102
RTVSPost2010PropOp50
 70
     1
102
RTVSPost2010Prop51ColorIndex
 90
      256
102
RTVSPost2010Prop51ColorRGB
 90
-16777216
102
RTVSPost2010PropOp51
 70
     0
102
RTVSPost2010Prop52
140
1.0
102
RTVSPost2010PropOp52
 70
     0
102
RTVSPost2010Prop53
 90
        2
102
RTVSPost2010PropOp53
 70
     1
102
RTVSPost2010Prop54
  1
strokes_ogs.tif
102
RTVSPost2010PropOp54
 70
     1
102
RTVSPost2010Prop55
280
     0
102
RTVSPost2010PropOp55
 70
     1
102
RTVSPost2010Prop56
140
1.0
102
RTVSPost2010PropOp56
 70
     1
102
RTVSPost2010Prop57
140
1.0
102
RTVSPost2010PropOp57
 70
     1
  0
XRECORD
  5
6C9
102
{ACAD_REACTORS
330
6C8
102
}
330
6C8
100
AcDbXrecord
280
     1
102
RTVSPost2010Prop28
280
     0
102
RTVSPost2010PropOp28
 70
     1
102
RTVSPost2010Prop29
280
     1
102
RTVSPost2010PropOp29
 70
     1
102
RTVSPost2010Prop30
280
     1
102
RTVSPost2010PropOp30
 70
     1
102
RTVSPost2010Prop31
280
     0
102
RTVSPost2010PropOp31
 70
     1
102
RTVSPost2010Prop32
280
     0
102
RTVSPost2010PropOp32
 70
     1
102
RTVSPost2010Prop33
280
     0
102
RTVSPost2010PropOp33
 70
     1
102
RTVSPost2010Prop34
280
     0
102
RTVSPost2010PropOp34
 70
     1
102
RTVSPost2010Prop35
280
     0
102
RTVSPost2010PropOp35
 70
     1
102
RTVSPost2010Prop36
280
     0
102
RTVSPost2010PropOp36
 70
     1
102
RTVSPost2010Prop37
 90
       50
102
RTVSPost2010PropOp37
 70
     1
102
RTVSPost2010Prop38
140
0.0
102
RTVSPost2010PropOp38
 70
     1
102
RTVSPost2010Prop39
140
1.0
102
RTVSPost2010PropOp39
 70
     1
102
RTVSPost2010Prop40
 90
        0
102
RTVSPost2010PropOp40
 70
     1
102
RTVSPost2010Prop41ColorIndex
 90
       18
102
RTVSPost2010Prop41ColorRGB
 90
        0
102
RTVSPost2010PropOp41
 70
     1
102
RTVSPost2010Prop42
 90
       50
102
RTVSPost2010PropOp42
 70
     1
102
RTVSPost2010Prop43
 90
        3
102
RTVSPost2010PropOp43
 70
     1
102
RTVSPost2010Prop44ColorIndex
 90
        5
102
RTVSPost2010Prop44ColorRGB
 90
      255
102
RTVSPost2010PropOp44
 70
     1
102
RTVSPost2010Prop45
280
     0
102
RTVSPost2010PropOp45
 70
     1
102
RTVSPost2010Prop46
 90
       50
102
RTVSPost2010PropOp46
 70
     1
102
RTVSPost2010Prop47
 90
       50
102
RTVSPost2010PropOp47
 70
     1
102
RTVSPost2010Prop48
 90
       50
102
RTVSPost2010PropOp48
 70
     1
102
RTVSPost2010Prop49
280
     0
102
RTVSPost2010PropOp49
 70
     1
102
RTVSPost2010Prop50
 90
       50
102
RTVSPost2010PropOp50
 70
     1
102
RTVSPost2010Prop51ColorIndex
 90
      256
102
RTVSPost2010Prop51ColorRGB
 90
-16777216
102
RTVSPost2010PropOp51
 70
     0
102
RTVSPost2010Prop52
140
1.0
102
RTVSPost2010PropOp52
 70
     0
102
RTVSPost2010Prop53
 90
        2
102
RTVSPost2010PropOp53
 70
     1
102
RTVSPost2010Prop54
  1
strokes_ogs.tif
102
RTVSPost2010PropOp54
 70
     1
102
RTVSPost2010Prop55
280
     0
102
RTVSPost2010PropOp55
 70
     1
102
RTVSPost2010Prop56
140
1.0
102
RTVSPost2010PropOp56
 70
     1
102
RTVSPost2010Prop57
140
1.0
102
RTVSPost2010PropOp57
 70
     1
  0
XRECORD
  5
6CB
102
{ACAD_REACTORS
330
6CA
102
}
330
6CA
100
AcDbXrecord
280
     1
102
RTVSPost2010Prop28
280
     0
102
RTVSPost2010PropOp28
 70
     1
102
RTVSPost2010Prop29
280
     1
102
RTVSPost2010PropOp29
 70
     1
102
RTVSPost2010Prop30
280
     1
102
RTVSPost2010PropOp30
 70
     1
102
RTVSPost2010Prop31
280
     0
102
RTVSPost2010PropOp31
 70
     1
102
RTVSPost2010Prop32
280
     0
102
RTVSPost2010PropOp32
 70
     1
102
RTVSPost2010Prop33
280
     0
102
RTVSPost2010PropOp33
 70
     1
102
RTVSPost2010Prop34
280
     0
102
RTVSPost2010PropOp34
 70
     1
102
RTVSPost2010Prop35
280
     0
102
RTVSPost2010PropOp35
 70
     1
102
RTVSPost2010Prop36
280
     0
102
RTVSPost2010PropOp36
 70
     1
102
RTVSPost2010Prop37
 90
       50
102
RTVSPost2010PropOp37
 70
     1
102
RTVSPost2010Prop38
140
0.0
102
RTVSPost2010PropOp38
 70
     1
102
RTVSPost2010Prop39
140
1.0
102
RTVSPost2010PropOp39
 70
     1
102
RTVSPost2010Prop40
 90
        0
102
RTVSPost2010PropOp40
 70
     1
102
RTVSPost2010Prop41ColorIndex
 90
       18
102
RTVSPost2010Prop41ColorRGB
 90
        0
102
RTVSPost2010PropOp41
 70
     1
102
RTVSPost2010Prop42
 90
       50
102
RTVSPost2010PropOp42
 70
     1
102
RTVSPost2010Prop43
 90
        3
102
RTVSPost2010PropOp43
 70
     1
102
RTVSPost2010Prop44ColorIndex
 90
        5
102
RTVSPost2010Prop44ColorRGB
 90
      255
102
RTVSPost2010PropOp44
 70
     1
102
RTVSPost2010Prop45
280
     0
102
RTVSPost2010PropOp45
 70
     1
102
RTVSPost2010Prop46
 90
       50
102
RTVSPost2010PropOp46
 70
     1
102
RTVSPost2010Prop47
 90
       50
102
RTVSPost2010PropOp47
 70
     1
102
RTVSPost2010Prop48
 90
       50
102
RTVSPost2010PropOp48
 70
     1
102
RTVSPost2010Prop49
280
     0
102
RTVSPost2010PropOp49
 70
     1
102
RTVSPost2010Prop50
 90
       50
102
RTVSPost2010PropOp50
 70
     1
102
RTVSPost2010Prop51ColorIndex
 90
      256
102
RTVSPost2010Prop51ColorRGB
 90
-16777216
102
RTVSPost2010PropOp51
 70
     0
102
RTVSPost2010Prop52
140
1.0
102
RTVSPost2010PropOp52
 70
     0
102
RTVSPost2010Prop53
 90
        2
102
RTVSPost2010PropOp53
 70
     1
102
RTVSPost2010Prop54
  1
strokes_ogs.tif
102
RTVSPost2010PropOp54
 70
     1
102
RTVSPost2010Prop55
280
     0
102
RTVSPost2010PropOp55
 70
     1
102
RTVSPost2010Prop56
140
1.0
102
RTVSPost2010PropOp56
 70
     1
102
RTVSPost2010Prop57
140
1.0
102
RTVSPost2010PropOp57
 70
     1
  0
XRECORD
  5
6CD
102
{ACAD_REACTORS
330
6CC
102
}
330
6CC
100
AcDbXrecord
280
     1
102
RTVSPost2010Prop28
280
     0
102
RTVSPost2010PropOp28
 70
     1
102
RTVSPost2010Prop29
280
     1
102
RTVSPost2010PropOp29
 70
     1
102
RTVSPost2010Prop30
280
     1
102
RTVSPost2010PropOp30
 70
     1
102
RTVSPost2010Prop31
280
     0
102
RTVSPost2010PropOp31
 70
     1
102
RTVSPost2010Prop32
280
     0
102
RTVSPost2010PropOp32
 70
     1
102
RTVSPost2010Prop33
280
     0
102
RTVSPost2010PropOp33
 70
     1
102
RTVSPost2010Prop34
280
     0
102
RTVSPost2010PropOp34
 70
     1
102
RTVSPost2010Prop35
280
     0
102
RTVSPost2010PropOp35
 70
     1
102
RTVSPost2010Prop36
280
     0
102
RTVSPost2010PropOp36
 70
     1
102
RTVSPost2010Prop37
 90
       50
102
RTVSPost2010PropOp37
 70
     1
102
RTVSPost2010Prop38
140
0.0
102
RTVSPost2010PropOp38
 70
     1
102
RTVSPost2010Prop39
140
1.0
102
RTVSPost2010PropOp39
 70
     1
102
RTVSPost2010Prop40
 90
        0
102
RTVSPost2010PropOp40
 70
     1
102
RTVSPost2010Prop41ColorIndex
 90
       18
102
RTVSPost2010Prop41ColorRGB
 90
        0
102
RTVSPost2010PropOp41
 70
     1
102
RTVSPost2010Prop42
 90
       50
102
RTVSPost2010PropOp42
 70
     1
102
RTVSPost2010Prop43
 90
        3
102
RTVSPost2010PropOp43
 70
     1
102
RTVSPost2010Prop44ColorIndex
 90
        5
102
RTVSPost2010Prop44ColorRGB
 90
      255
102
RTVSPost2010PropOp44
 70
     1
102
RTVSPost2010Prop45
280
     0
102
RTVSPost2010PropOp45
 70
     1
102
RTVSPost2010Prop46
 90
       50
102
RTVSPost2010PropOp46
 70
     1
102
RTVSPost2010Prop47
 90
       50
102
RTVSPost2010PropOp47
 70
     1
102
RTVSPost2010Prop48
 90
       50
102
RTVSPost2010PropOp48
 70
     1
102
RTVSPost2010Prop49
280
     0
102
RTVSPost2010PropOp49
 70
     1
102
RTVSPost2010Prop50
 90
       50
102
RTVSPost2010PropOp50
 70
     1
102
RTVSPost2010Prop51ColorIndex
 90
      256
102
RTVSPost2010Prop51ColorRGB
 90
-16777216
102
RTVSPost2010PropOp51
 70
     0
102
RTVSPost2010Prop52
140
1.0
102
RTVSPost2010PropOp52
 70
     0
102
RTVSPost2010Prop53
 90
        2
102
RTVSPost2010PropOp53
 70
     1
102
RTVSPost2010Prop54
  1
strokes_ogs.tif
102
RTVSPost2010PropOp54
 70
     1
102
RTVSPost2010Prop55
280
     0
102
RTVSPost2010PropOp55
 70
     1
102
RTVSPost2010Prop56
140
1.0
102
RTVSPost2010PropOp56
 70
     1
102
RTVSPost2010Prop57
140
1.0
102
RTVSPost2010PropOp57
 70
     1
  0
XRECORD
  5
6CF
102
{ACAD_REACTORS
330
6CE
102
}
330
6CE
100
AcDbXrecord
280
     1
102
RTVSPost2010Prop28
280
     0
102
RTVSPost2010PropOp28
 70
     1
102
RTVSPost2010Prop29
280
     1
102
RTVSPost2010PropOp29
 70
     1
102
RTVSPost2010Prop30
280
     1
102
RTVSPost2010PropOp30
 70
     1
102
RTVSPost2010Prop31
280
     0
102
RTVSPost2010PropOp31
 70
     1
102
RTVSPost2010Prop32
280
     0
102
RTVSPost2010PropOp32
 70
     1
102
RTVSPost2010Prop33
280
     0
102
RTVSPost2010PropOp33
 70
     1
102
RTVSPost2010Prop34
280
     0
102
RTVSPost2010PropOp34
 70
     1
102
RTVSPost2010Prop35
280
     0
102
RTVSPost2010PropOp35
 70
     1
102
RTVSPost2010Prop36
280
     0
102
RTVSPost2010PropOp36
 70
     1
102
RTVSPost2010Prop37
 90
       50
102
RTVSPost2010PropOp37
 70
     1
102
RTVSPost2010Prop38
140
0.0
102
RTVSPost2010PropOp38
 70
     1
102
RTVSPost2010Prop39
140
1.0
102
RTVSPost2010PropOp39
 70
     1
102
RTVSPost2010Prop40
 90
        0
102
RTVSPost2010PropOp40
 70
     1
102
RTVSPost2010Prop41ColorIndex
 90
       18
102
RTVSPost2010Prop41ColorRGB
 90
        0
102
RTVSPost2010PropOp41
 70
     1
102
RTVSPost2010Prop42
 90
       50
102
RTVSPost2010PropOp42
 70
     1
102
RTVSPost2010Prop43
 90
        3
102
RTVSPost2010PropOp43
 70
     1
102
RTVSPost2010Prop44ColorIndex
 90
        5
102
RTVSPost2010Prop44ColorRGB
 90
      255
102
RTVSPost2010PropOp44
 70
     1
102
RTVSPost2010Prop45
280
     0
102
RTVSPost2010PropOp45
 70
     1
102
RTVSPost2010Prop46
 90
       50
102
RTVSPost2010PropOp46
 70
     1
102
RTVSPost2010Prop47
 90
       50
102
RTVSPost2010PropOp47
 70
     1
102
RTVSPost2010Prop48
 90
       50
102
RTVSPost2010PropOp48
 70
     1
102
RTVSPost2010Prop49
280
     0
102
RTVSPost2010PropOp49
 70
     1
102
RTVSPost2010Prop50
 90
       50
102
RTVSPost2010PropOp50
 70
     1
102
RTVSPost2010Prop51ColorIndex
 90
      256
102
RTVSPost2010Prop51ColorRGB
 90
-16777216
102
RTVSPost2010PropOp51
 70
     0
102
RTVSPost2010Prop52
140
1.0
102
RTVSPost2010PropOp52
 70
     0
102
RTVSPost2010Prop53
 90
        2
102
RTVSPost2010PropOp53
 70
     1
102
RTVSPost2010Prop54
  1
strokes_ogs.tif
102
RTVSPost2010PropOp54
 70
     1
102
RTVSPost2010Prop55
280
     0
102
RTVSPost2010PropOp55
 70
     1
102
RTVSPost2010Prop56
140
1.0
102
RTVSPost2010PropOp56
 70
     1
102
RTVSPost2010Prop57
140
1.0
102
RTVSPost2010PropOp57
 70
     1
  0
XRECORD
  5
6D7
102
{ACAD_REACTORS
330
6D6
102
}
330
6D6
100
AcDbXrecord
280
     1
102
RTVSPost2010Prop28
280
     0
102
RTVSPost2010PropOp28
 70
     1
102
RTVSPost2010Prop29
280
     1
102
RTVSPost2010PropOp29
 70
     1
102
RTVSPost2010Prop30
280
     1
102
RTVSPost2010PropOp30
 70
     1
102
RTVSPost2010Prop31
280
     0
102
RTVSPost2010PropOp31
 70
     1
102
RTVSPost2010Prop32
280
     0
102
RTVSPost2010PropOp32
 70
     1
102
RTVSPost2010Prop33
280
     0
102
RTVSPost2010PropOp33
 70
     1
102
RTVSPost2010Prop34
280
     0
102
RTVSPost2010PropOp34
 70
     1
102
RTVSPost2010Prop35
280
     0
102
RTVSPost2010PropOp35
 70
     1
102
RTVSPost2010Prop36
280
     0
102
RTVSPost2010PropOp36
 70
     1
102
RTVSPost2010Prop37
 90
       50
102
RTVSPost2010PropOp37
 70
     1
102
RTVSPost2010Prop38
140
0.0
102
RTVSPost2010PropOp38
 70
     1
102
RTVSPost2010Prop39
140
1.0
102
RTVSPost2010PropOp39
 70
     1
102
RTVSPost2010Prop40
 90
        0
102
RTVSPost2010PropOp40
 70
     1
102
RTVSPost2010Prop41ColorIndex
 90
       18
102
RTVSPost2010Prop41ColorRGB
 90
        0
102
RTVSPost2010PropOp41
 70
     1
102
RTVSPost2010Prop42
 90
       50
102
RTVSPost2010PropOp42
 70
     1
102
RTVSPost2010Prop43
 90
        3
102
RTVSPost2010PropOp43
 70
     1
102
RTVSPost2010Prop44ColorIndex
 90
        5
102
RTVSPost2010Prop44ColorRGB
 90
      255
102
RTVSPost2010PropOp44
 70
     1
102
RTVSPost2010Prop45
280
     0
102
RTVSPost2010PropOp45
 70
     1
102
RTVSPost2010Prop46
 90
       50
102
RTVSPost2010PropOp46
 70
     1
102
RTVSPost2010Prop47
 90
       50
102
RTVSPost2010PropOp47
 70
     1
102
RTVSPost2010Prop48
 90
       50
102
RTVSPost2010PropOp48
 70
     1
102
RTVSPost2010Prop49
280
     0
102
RTVSPost2010PropOp49
 70
     1
102
RTVSPost2010Prop50
 90
       50
102
RTVSPost2010PropOp50
 70
     1
102
RTVSPost2010Prop51ColorIndex
 90
      256
102
RTVSPost2010Prop51ColorRGB
 90
-16777216
102
RTVSPost2010PropOp51
 70
     0
102
RTVSPost2010Prop52
140
1.0
102
RTVSPost2010PropOp52
 70
     0
102
RTVSPost2010Prop53
 90
        2
102
RTVSPost2010PropOp53
 70
     1
102
RTVSPost2010Prop54
  1
strokes_ogs.tif
102
RTVSPost2010PropOp54
 70
     1
102
RTVSPost2010Prop55
280
     0
102
RTVSPost2010PropOp55
 70
     1
102
RTVSPost2010Prop56
140
1.0
102
RTVSPost2010PropOp56
 70
     1
102
RTVSPost2010Prop57
140
1.0
102
RTVSPost2010PropOp57
 70
     1
  0
XRECORD
  5
6F3
102
{ACAD_REACTORS
330
6F2
102
}
330
6F2
100
AcDbXrecord
280
     1
102
RTVSPost2010Prop28
280
     0
102
RTVSPost2010PropOp28
 70
     1
102
RTVSPost2010Prop29
280
     1
102
RTVSPost2010PropOp29
 70
     1
102
RTVSPost2010Prop30
280
     1
102
RTVSPost2010PropOp30
 70
     1
102
RTVSPost2010Prop31
280
     0
102
RTVSPost2010PropOp31
 70
     1
102
RTVSPost2010Prop32
280
     0
102
RTVSPost2010PropOp32
 70
     1
102
RTVSPost2010Prop33
280
     0
102
RTVSPost2010PropOp33
 70
     1
102
RTVSPost2010Prop34
280
     0
102
RTVSPost2010PropOp34
 70
     1
102
RTVSPost2010Prop35
280
     0
102
RTVSPost2010PropOp35
 70
     1
102
RTVSPost2010Prop36
280
     0
102
RTVSPost2010PropOp36
 70
     1
102
RTVSPost2010Prop37
 90
       50
102
RTVSPost2010PropOp37
 70
     0
102
RTVSPost2010Prop38
140
0.0
102
RTVSPost2010PropOp38
 70
     0
102
RTVSPost2010Prop39
140
1.0
102
RTVSPost2010PropOp39
 70
     0
102
RTVSPost2010Prop40
 90
        0
102
RTVSPost2010PropOp40
 70
     0
102
RTVSPost2010Prop41ColorIndex
 90
       18
102
RTVSPost2010Prop41ColorRGB
 90
        0
102
RTVSPost2010PropOp41
 70
     0
102
RTVSPost2010Prop42
 90
       50
102
RTVSPost2010PropOp42
 70
     0
102
RTVSPost2010Prop43
 90
        3
102
RTVSPost2010PropOp43
 70
     0
102
RTVSPost2010Prop44ColorIndex
 90
        5
102
RTVSPost2010Prop44ColorRGB
 90
      255
102
RTVSPost2010PropOp44
 70
     0
102
RTVSPost2010Prop45
280
     0
102
RTVSPost2010PropOp45
 70
     1
102
RTVSPost2010Prop46
 90
       50
102
RTVSPost2010PropOp46
 70
     0
102
RTVSPost2010Prop47
 90
       50
102
RTVSPost2010PropOp47
 70
     0
102
RTVSPost2010Prop48
 90
       50
102
RTVSPost2010PropOp48
 70
     0
102
RTVSPost2010Prop49
280
     0
102
RTVSPost2010PropOp49
 70
     1
102
RTVSPost2010Prop50
 90
       50
102
RTVSPost2010PropOp50
 70
     0
102
RTVSPost2010Prop51ColorIndex
 90
      256
102
RTVSPost2010Prop51ColorRGB
 90
-16777216
102
RTVSPost2010PropOp51
 70
     0
102
RTVSPost2010Prop52
140
1.0
102
RTVSPost2010PropOp52
 70
     0
102
RTVSPost2010Prop53
 90
        2
102
RTVSPost2010PropOp53
 70
     0
102
RTVSPost2010Prop54
  1
strokes_ogs.tif
102
RTVSPost2010PropOp54
 70
     0
102
RTVSPost2010Prop55
280
     0
102
RTVSPost2010PropOp55
 70
     1
102
RTVSPost2010Prop56
140
1.0
102
RTVSPost2010PropOp56
 70
     0
102
RTVSPost2010Prop57
140
1.0
102
RTVSPost2010PropOp57
 70
     0
  0
XRECORD
  5
6E3
102
{ACAD_REACTORS
330
6E2
102
}
330
6E2
100
AcDbXrecord
280
     1
102
RTVSPost2010Prop28
280
     0
102
RTVSPost2010PropOp28
 70
     1
102
RTVSPost2010Prop29
280
     1
102
RTVSPost2010PropOp29
 70
     1
102
RTVSPost2010Prop30
280
     1
102
RTVSPost2010PropOp30
 70
     1
102
RTVSPost2010Prop31
280
     0
102
RTVSPost2010PropOp31
 70
     1
102
RTVSPost2010Prop32
280
     0
102
RTVSPost2010PropOp32
 70
     1
102
RTVSPost2010Prop33
280
     0
102
RTVSPost2010PropOp33
 70
     1
102
RTVSPost2010Prop34
280
     0
102
RTVSPost2010PropOp34
 70
     1
102
RTVSPost2010Prop35
280
     0
102
RTVSPost2010PropOp35
 70
     1
102
RTVSPost2010Prop36
280
     0
102
RTVSPost2010PropOp36
 70
     1
102
RTVSPost2010Prop37
 90
       50
102
RTVSPost2010PropOp37
 70
     1
102
RTVSPost2010Prop38
140
0.0
102
RTVSPost2010PropOp38
 70
     1
102
RTVSPost2010Prop39
140
1.0
102
RTVSPost2010PropOp39
 70
     1
102
RTVSPost2010Prop40
 90
        0
102
RTVSPost2010PropOp40
 70
     1
102
RTVSPost2010Prop41ColorIndex
 90
       18
102
RTVSPost2010Prop41ColorRGB
 90
        0
102
RTVSPost2010PropOp41
 70
     1
102
RTVSPost2010Prop42
 90
       50
102
RTVSPost2010PropOp42
 70
     1
102
RTVSPost2010Prop43
 90
        3
102
RTVSPost2010PropOp43
 70
     1
102
RTVSPost2010Prop44ColorIndex
 90
        5
102
RTVSPost2010Prop44ColorRGB
 90
      255
102
RTVSPost2010PropOp44
 70
     1
102
RTVSPost2010Prop45
280
     0
102
RTVSPost2010PropOp45
 70
     1
102
RTVSPost2010Prop46
 90
       50
102
RTVSPost2010PropOp46
 70
     1
102
RTVSPost2010Prop47
 90
       50
102
RTVSPost2010PropOp47
 70
     1
102
RTVSPost2010Prop48
 90
       50
102
RTVSPost2010PropOp48
 70
     1
102
RTVSPost2010Prop49
280
     0
102
RTVSPost2010PropOp49
 70
     1
102
RTVSPost2010Prop50
 90
       50
102
RTVSPost2010PropOp50
 70
     1
102
RTVSPost2010Prop51ColorIndex
 90
      256
102
RTVSPost2010Prop51ColorRGB
 90
-16777216
102
RTVSPost2010PropOp51
 70
     0
102
RTVSPost2010Prop52
140
1.0
102
RTVSPost2010PropOp52
 70
     0
102
RTVSPost2010Prop53
 90
        2
102
RTVSPost2010PropOp53
 70
     1
102
RTVSPost2010Prop54
  1
strokes_ogs.tif
102
RTVSPost2010PropOp54
 70
     1
102
RTVSPost2010Prop55
280
     0
102
RTVSPost2010PropOp55
 70
     1
102
RTVSPost2010Prop56
140
1.0
102
RTVSPost2010PropOp56
 70
     1
102
RTVSPost2010Prop57
140
1.0
102
RTVSPost2010PropOp57
 70
     1
  0
XRECORD
  5
6F5
102
{ACAD_REACTORS
330
6F4
102
}
330
6F4
100
AcDbXrecord
280
     1
102
RTVSPost2010Prop28
280
     0
102
RTVSPost2010PropOp28
 70
     1
102
RTVSPost2010Prop29
280
     1
102
RTVSPost2010PropOp29
 70
     1
102
RTVSPost2010Prop30
280
     1
102
RTVSPost2010PropOp30
 70
     1
102
RTVSPost2010Prop31
280
     0
102
RTVSPost2010PropOp31
 70
     1
102
RTVSPost2010Prop32
280
     0
102
RTVSPost2010PropOp32
 70
     1
102
RTVSPost2010Prop33
280
     0
102
RTVSPost2010PropOp33
 70
     1
102
RTVSPost2010Prop34
280
     0
102
RTVSPost2010PropOp34
 70
     1
102
RTVSPost2010Prop35
280
     0
102
RTVSPost2010PropOp35
 70
     1
102
RTVSPost2010Prop36
280
     0
102
RTVSPost2010PropOp36
 70
     1
102
RTVSPost2010Prop37
 90
       50
102
RTVSPost2010PropOp37
 70
     0
102
RTVSPost2010Prop38
140
0.0
102
RTVSPost2010PropOp38
 70
     0
102
RTVSPost2010Prop39
140
1.0
102
RTVSPost2010PropOp39
 70
     0
102
RTVSPost2010Prop40
 90
        0
102
RTVSPost2010PropOp40
 70
     0
102
RTVSPost2010Prop41ColorIndex
 90
       18
102
RTVSPost2010Prop41ColorRGB
 90
        0
102
RTVSPost2010PropOp41
 70
     0
102
RTVSPost2010Prop42
 90
       50
102
RTVSPost2010PropOp42
 70
     0
102
RTVSPost2010Prop43
 90
        3
102
RTVSPost2010PropOp43
 70
     0
102
RTVSPost2010Prop44ColorIndex
 90
        5
102
RTVSPost2010Prop44ColorRGB
 90
      255
102
RTVSPost2010PropOp44
 70
     0
102
RTVSPost2010Prop45
280
     0
102
RTVSPost2010PropOp45
 70
     1
102
RTVSPost2010Prop46
 90
       50
102
RTVSPost2010PropOp46
 70
     0
102
RTVSPost2010Prop47
 90
       50
102
RTVSPost2010PropOp47
 70
     0
102
RTVSPost2010Prop48
 90
       50
102
RTVSPost2010PropOp48
 70
     0
102
RTVSPost2010Prop49
280
     0
102
RTVSPost2010PropOp49
 70
     1
102
RTVSPost2010Prop50
 90
       50
102
RTVSPost2010PropOp50
 70
     0
102
RTVSPost2010Prop51ColorIndex
 90
      256
102
RTVSPost2010Prop51ColorRGB
 90
-16777216
102
RTVSPost2010PropOp51
 70
     0
102
RTVSPost2010Prop52
140
1.0
102
RTVSPost2010PropOp52
 70
     0
102
RTVSPost2010Prop53
 90
        2
102
RTVSPost2010PropOp53
 70
     0
102
RTVSPost2010Prop54
  1
strokes_ogs.tif
102
RTVSPost2010PropOp54
 70
     0
102
RTVSPost2010Prop55
280
     0
102
RTVSPost2010PropOp55
 70
     1
102
RTVSPost2010Prop56
140
1.0
102
RTVSPost2010PropOp56
 70
     0
102
RTVSPost2010Prop57
140
1.0
102
RTVSPost2010PropOp57
 70
     0
  0
XRECORD
  5
6DB
102
{ACAD_REACTORS
330
6DA
102
}
330
6DA
100
AcDbXrecord
280
     1
102
RTVSPost2010Prop28
280
     0
102
RTVSPost2010PropOp28
 70
     1
102
RTVSPost2010Prop29
280
     1
102
RTVSPost2010PropOp29
 70
     1
102
RTVSPost2010Prop30
280
     1
102
RTVSPost2010PropOp30
 70
     1
102
RTVSPost2010Prop31
280
     0
102
RTVSPost2010PropOp31
 70
     1
102
RTVSPost2010Prop32
280
     0
102
RTVSPost2010PropOp32
 70
     1
102
RTVSPost2010Prop33
280
     0
102
RTVSPost2010PropOp33
 70
     1
102
RTVSPost2010Prop34
280
     0
102
RTVSPost2010PropOp34
 70
     1
102
RTVSPost2010Prop35
280
     0
102
RTVSPost2010PropOp35
 70
     1
102
RTVSPost2010Prop36
280
     0
102
RTVSPost2010PropOp36
 70
     1
102
RTVSPost2010Prop37
 90
       50
102
RTVSPost2010PropOp37
 70
     1
102
RTVSPost2010Prop38
140
0.0
102
RTVSPost2010PropOp38
 70
     1
102
RTVSPost2010Prop39
140
1.0
102
RTVSPost2010PropOp39
 70
     1
102
RTVSPost2010Prop40
 90
        0
102
RTVSPost2010PropOp40
 70
     1
102
RTVSPost2010Prop41ColorIndex
 90
       18
102
RTVSPost2010Prop41ColorRGB
 90
        0
102
RTVSPost2010PropOp41
 70
     1
102
RTVSPost2010Prop42
 90
       50
102
RTVSPost2010PropOp42
 70
     1
102
RTVSPost2010Prop43
 90
        3
102
RTVSPost2010PropOp43
 70
     1
102
RTVSPost2010Prop44ColorIndex
 90
        5
102
RTVSPost2010Prop44ColorRGB
 90
      255
102
RTVSPost2010PropOp44
 70
     1
102
RTVSPost2010Prop45
280
     0
102
RTVSPost2010PropOp45
 70
     1
102
RTVSPost2010Prop46
 90
       50
102
RTVSPost2010PropOp46
 70
     1
102
RTVSPost2010Prop47
 90
       50
102
RTVSPost2010PropOp47
 70
     1
102
RTVSPost2010Prop48
 90
       50
102
RTVSPost2010PropOp48
 70
     1
102
RTVSPost2010Prop49
280
     0
102
RTVSPost2010PropOp49
 70
     1
102
RTVSPost2010Prop50
 90
       50
102
RTVSPost2010PropOp50
 70
     1
102
RTVSPost2010Prop51ColorIndex
 90
      256
102
RTVSPost2010Prop51ColorRGB
 90
-16777216
102
RTVSPost2010PropOp51
 70
     0
102
RTVSPost2010Prop52
140
1.0
102
RTVSPost2010PropOp52
 70
     0
102
RTVSPost2010Prop53
 90
        2
102
RTVSPost2010PropOp53
 70
     1
102
RTVSPost2010Prop54
  1
strokes_ogs.tif
102
RTVSPost2010PropOp54
 70
     1
102
RTVSPost2010Prop55
280
     0
102
RTVSPost2010PropOp55
 70
     1
102
RTVSPost2010Prop56
140
1.0
102
RTVSPost2010PropOp56
 70
     1
102
RTVSPost2010Prop57
140
1.0
102
RTVSPost2010PropOp57
 70
     1
  0
XRECORD
  5
6F1
102
{ACAD_REACTORS
330
6F0
102
}
330
6F0
100
AcDbXrecord
280
     1
102
RTVSPost2010Prop28
280
     0
102
RTVSPost2010PropOp28
 70
     1
102
RTVSPost2010Prop29
280
     1
102
RTVSPost2010PropOp29
 70
     1
102
RTVSPost2010Prop30
280
     1
102
RTVSPost2010PropOp30
 70
     1
102
RTVSPost2010Prop31
280
     0
102
RTVSPost2010PropOp31
 70
     1
102
RTVSPost2010Prop32
280
     0
102
RTVSPost2010PropOp32
 70
     1
102
RTVSPost2010Prop33
280
     0
102
RTVSPost2010PropOp33
 70
     1
102
RTVSPost2010Prop34
280
     0
102
RTVSPost2010PropOp34
 70
     1
102
RTVSPost2010Prop35
280
     0
102
RTVSPost2010PropOp35
 70
     1
102
RTVSPost2010Prop36
280
     0
102
RTVSPost2010PropOp36
 70
     1
102
RTVSPost2010Prop37
 90
       50
102
RTVSPost2010PropOp37
 70
     1
102
RTVSPost2010Prop38
140
0.0
102
RTVSPost2010PropOp38
 70
     1
102
RTVSPost2010Prop39
140
1.0
102
RTVSPost2010PropOp39
 70
     1
102
RTVSPost2010Prop40
 90
        0
102
RTVSPost2010PropOp40
 70
     1
102
RTVSPost2010Prop41ColorIndex
 90
       18
102
RTVSPost2010Prop41ColorRGB
 90
        0
102
RTVSPost2010PropOp41
 70
     1
102
RTVSPost2010Prop42
 90
       50
102
RTVSPost2010PropOp42
 70
     1
102
RTVSPost2010Prop43
 90
        3
102
RTVSPost2010PropOp43
 70
     1
102
RTVSPost2010Prop44ColorIndex
 90
        5
102
RTVSPost2010Prop44ColorRGB
 90
      255
102
RTVSPost2010PropOp44
 70
     1
102
RTVSPost2010Prop45
280
     0
102
RTVSPost2010PropOp45
 70
     1
102
RTVSPost2010Prop46
 90
       50
102
RTVSPost2010PropOp46
 70
     1
102
RTVSPost2010Prop47
 90
       50
102
RTVSPost2010PropOp47
 70
     1
102
RTVSPost2010Prop48
 90
       50
102
RTVSPost2010PropOp48
 70
     1
102
RTVSPost2010Prop49
280
     0
102
RTVSPost2010PropOp49
 70
     1
102
RTVSPost2010Prop50
 90
       50
102
RTVSPost2010PropOp50
 70
     1
102
RTVSPost2010Prop51ColorIndex
 90
      256
102
RTVSPost2010Prop51ColorRGB
 90
-16777216
102
RTVSPost2010PropOp51
 70
     0
102
RTVSPost2010Prop52
140
1.0
102
RTVSPost2010PropOp52
 70
     0
102
RTVSPost2010Prop53
 90
        2
102
RTVSPost2010PropOp53
 70
     1
102
RTVSPost2010Prop54
  1
strokes_ogs.tif
102
RTVSPost2010PropOp54
 70
     1
102
RTVSPost2010Prop55
280
     0
102
RTVSPost2010PropOp55
 70
     1
102
RTVSPost2010Prop56
140
1.0
102
RTVSPost2010PropOp56
 70
     1
102
RTVSPost2010Prop57
140
1.0
102
RTVSPost2010PropOp57
 70
     1
  0
XRECORD
  5
6EF
102
{ACAD_REACTORS
330
6EE
102
}
330
6EE
100
AcDbXrecord
280
     1
102
RTVSPost2010Prop28
280
     0
102
RTVSPost2010PropOp28
 70
     1
102
RTVSPost2010Prop29
280
     1
102
RTVSPost2010PropOp29
 70
     1
102
RTVSPost2010Prop30
280
     1
102
RTVSPost2010PropOp30
 70
     1
102
RTVSPost2010Prop31
280
     0
102
RTVSPost2010PropOp31
 70
     1
102
RTVSPost2010Prop32
280
     0
102
RTVSPost2010PropOp32
 70
     1
102
RTVSPost2010Prop33
280
     0
102
RTVSPost2010PropOp33
 70
     1
102
RTVSPost2010Prop34
280
     0
102
RTVSPost2010PropOp34
 70
     1
102
RTVSPost2010Prop35
280
     0
102
RTVSPost2010PropOp35
 70
     1
102
RTVSPost2010Prop36
280
     0
102
RTVSPost2010PropOp36
 70
     1
102
RTVSPost2010Prop37
 90
       50
102
RTVSPost2010PropOp37
 70
     1
102
RTVSPost2010Prop38
140
0.0
102
RTVSPost2010PropOp38
 70
     1
102
RTVSPost2010Prop39
140
1.0
102
RTVSPost2010PropOp39
 70
     1
102
RTVSPost2010Prop40
 90
        0
102
RTVSPost2010PropOp40
 70
     1
102
RTVSPost2010Prop41ColorIndex
 90
       18
102
RTVSPost2010Prop41ColorRGB
 90
        0
102
RTVSPost2010PropOp41
 70
     1
102
RTVSPost2010Prop42
 90
       50
102
RTVSPost2010PropOp42
 70
     1
102
RTVSPost2010Prop43
 90
        3
102
RTVSPost2010PropOp43
 70
     1
102
RTVSPost2010Prop44ColorIndex
 90
        5
102
RTVSPost2010Prop44ColorRGB
 90
      255
102
RTVSPost2010PropOp44
 70
     1
102
RTVSPost2010Prop45
280
     0
102
RTVSPost2010PropOp45
 70
     1
102
RTVSPost2010Prop46
 90
       50
102
RTVSPost2010PropOp46
 70
     1
102
RTVSPost2010Prop47
 90
       50
102
RTVSPost2010PropOp47
 70
     1
102
RTVSPost2010Prop48
 90
       50
102
RTVSPost2010PropOp48
 70
     1
102
RTVSPost2010Prop49
280
     0
102
RTVSPost2010PropOp49
 70
     1
102
RTVSPost2010Prop50
 90
       50
102
RTVSPost2010PropOp50
 70
     1
102
RTVSPost2010Prop51ColorIndex
 90
      256
102
RTVSPost2010Prop51ColorRGB
 90
-16777216
102
RTVSPost2010PropOp51
 70
     0
102
RTVSPost2010Prop52
140
1.0
102
RTVSPost2010PropOp52
 70
     0
102
RTVSPost2010Prop53
 90
        2
102
RTVSPost2010PropOp53
 70
     1
102
RTVSPost2010Prop54
  1
strokes_ogs.tif
102
RTVSPost2010PropOp54
 70
     1
102
RTVSPost2010Prop55
280
     0
102
RTVSPost2010PropOp55
 70
     1
102
RTVSPost2010Prop56
140
1.0
102
RTVSPost2010PropOp56
 70
     1
102
RTVSPost2010Prop57
140
1.0
102
RTVSPost2010PropOp57
 70
     1
  0
XRECORD
  5
6E9
102
{ACAD_REACTORS
330
6E8
102
}
330
6E8
100
AcDbXrecord
280
     1
102
RTVSPost2010Prop28
280
     0
102
RTVSPost2010PropOp28
 70
     1
102
RTVSPost2010Prop29
280
     1
102
RTVSPost2010PropOp29
 70
     1
102
RTVSPost2010Prop30
280
     1
102
RTVSPost2010PropOp30
 70
     1
102
RTVSPost2010Prop31
280
     0
102
RTVSPost2010PropOp31
 70
     1
102
RTVSPost2010Prop32
280
     0
102
RTVSPost2010PropOp32
 70
     1
102
RTVSPost2010Prop33
280
     0
102
RTVSPost2010PropOp33
 70
     1
102
RTVSPost2010Prop34
280
     0
102
RTVSPost2010PropOp34
 70
     1
102
RTVSPost2010Prop35
280
     0
102
RTVSPost2010PropOp35
 70
     1
102
RTVSPost2010Prop36
280
     0
102
RTVSPost2010PropOp36
 70
     1
102
RTVSPost2010Prop37
 90
       50
102
RTVSPost2010PropOp37
 70
     1
102
RTVSPost2010Prop38
140
0.0
102
RTVSPost2010PropOp38
 70
     1
102
RTVSPost2010Prop39
140
1.0
102
RTVSPost2010PropOp39
 70
     1
102
RTVSPost2010Prop40
 90
        0
102
RTVSPost2010PropOp40
 70
     1
102
RTVSPost2010Prop41ColorIndex
 90
       18
102
RTVSPost2010Prop41ColorRGB
 90
        0
102
RTVSPost2010PropOp41
 70
     1
102
RTVSPost2010Prop42
 90
       50
102
RTVSPost2010PropOp42
 70
     1
102
RTVSPost2010Prop43
 90
        3
102
RTVSPost2010PropOp43
 70
     1
102
RTVSPost2010Prop44ColorIndex
 90
        5
102
RTVSPost2010Prop44ColorRGB
 90
      255
102
RTVSPost2010PropOp44
 70
     1
102
RTVSPost2010Prop45
280
     0
102
RTVSPost2010PropOp45
 70
     1
102
RTVSPost2010Prop46
 90
       50
102
RTVSPost2010PropOp46
 70
     1
102
RTVSPost2010Prop47
 90
       50
102
RTVSPost2010PropOp47
 70
     1
102
RTVSPost2010Prop48
 90
       50
102
RTVSPost2010PropOp48
 70
     1
102
RTVSPost2010Prop49
280
     0
102
RTVSPost2010PropOp49
 70
     1
102
RTVSPost2010Prop50
 90
       50
102
RTVSPost2010PropOp50
 70
     1
102
RTVSPost2010Prop51ColorIndex
 90
      256
102
RTVSPost2010Prop51ColorRGB
 90
-16777216
102
RTVSPost2010PropOp51
 70
     0
102
RTVSPost2010Prop52
140
1.0
102
RTVSPost2010PropOp52
 70
     0
102
RTVSPost2010Prop53
 90
        2
102
RTVSPost2010PropOp53
 70
     1
102
RTVSPost2010Prop54
  1
strokes_ogs.tif
102
RTVSPost2010PropOp54
 70
     1
102
RTVSPost2010Prop55
280
     0
102
RTVSPost2010PropOp55
 70
     1
102
RTVSPost2010Prop56
140
1.0
102
RTVSPost2010PropOp56
 70
     1
102
RTVSPost2010Prop57
140
1.0
102
RTVSPost2010PropOp57
 70
     1
  0
XRECORD
  5
6EB
102
{ACAD_REACTORS
330
6EA
102
}
330
6EA
100
AcDbXrecord
280
     1
102
RTVSPost2010Prop28
280
     0
102
RTVSPost2010PropOp28
 70
     1
102
RTVSPost2010Prop29
280
     1
102
RTVSPost2010PropOp29
 70
     1
102
RTVSPost2010Prop30
280
     1
102
RTVSPost2010PropOp30
 70
     1
102
RTVSPost2010Prop31
280
     0
102
RTVSPost2010PropOp31
 70
     1
102
RTVSPost2010Prop32
280
     0
102
RTVSPost2010PropOp32
 70
     1
102
RTVSPost2010Prop33
280
     0
102
RTVSPost2010PropOp33
 70
     1
102
RTVSPost2010Prop34
280
     0
102
RTVSPost2010PropOp34
 70
     1
102
RTVSPost2010Prop35
280
     0
102
RTVSPost2010PropOp35
 70
     1
102
RTVSPost2010Prop36
280
     0
102
RTVSPost2010PropOp36
 70
     1
102
RTVSPost2010Prop37
 90
       50
102
RTVSPost2010PropOp37
 70
     1
102
RTVSPost2010Prop38
140
0.0
102
RTVSPost2010PropOp38
 70
     1
102
RTVSPost2010Prop39
140
1.0
102
RTVSPost2010PropOp39
 70
     1
102
RTVSPost2010Prop40
 90
        0
102
RTVSPost2010PropOp40
 70
     1
102
RTVSPost2010Prop41ColorIndex
 90
       18
102
RTVSPost2010Prop41ColorRGB
 90
        0
102
RTVSPost2010PropOp41
 70
     1
102
RTVSPost2010Prop42
 90
       50
102
RTVSPost2010PropOp42
 70
     1
102
RTVSPost2010Prop43
 90
        3
102
RTVSPost2010PropOp43
 70
     1
102
RTVSPost2010Prop44ColorIndex
 90
        5
102
RTVSPost2010Prop44ColorRGB
 90
      255
102
RTVSPost2010PropOp44
 70
     1
102
RTVSPost2010Prop45
280
     0
102
RTVSPost2010PropOp45
 70
     1
102
RTVSPost2010Prop46
 90
       50
102
RTVSPost2010PropOp46
 70
     1
102
RTVSPost2010Prop47
 90
       50
102
RTVSPost2010PropOp47
 70
     1
102
RTVSPost2010Prop48
 90
       50
102
RTVSPost2010PropOp48
 70
     1
102
RTVSPost2010Prop49
280
     0
102
RTVSPost2010PropOp49
 70
     1
102
RTVSPost2010Prop50
 90
       50
102
RTVSPost2010PropOp50
 70
     1
102
RTVSPost2010Prop51ColorIndex
 90
      256
102
RTVSPost2010Prop51ColorRGB
 90
-16777216
102
RTVSPost2010PropOp51
 70
     0
102
RTVSPost2010Prop52
140
1.0
102
RTVSPost2010PropOp52
 70
     0
102
RTVSPost2010Prop53
 90
        2
102
RTVSPost2010PropOp53
 70
     1
102
RTVSPost2010Prop54
  1
strokes_ogs.tif
102
RTVSPost2010PropOp54
 70
     1
102
RTVSPost2010Prop55
280
     0
102
RTVSPost2010PropOp55
 70
     1
102
RTVSPost2010Prop56
140
1.0
102
RTVSPost2010PropOp56
 70
     1
102
RTVSPost2010Prop57
140
1.0
102
RTVSPost2010PropOp57
 70
     1
  0
XRECORD
  5
6E1
102
{ACAD_REACTORS
330
6E0
102
}
330
6E0
100
AcDbXrecord
280
     1
102
RTVSPost2010Prop28
280
     0
102
RTVSPost2010PropOp28
 70
     1
102
RTVSPost2010Prop29
280
     1
102
RTVSPost2010PropOp29
 70
     1
102
RTVSPost2010Prop30
280
     1
102
RTVSPost2010PropOp30
 70
     1
102
RTVSPost2010Prop31
280
     0
102
RTVSPost2010PropOp31
 70
     1
102
RTVSPost2010Prop32
280
     0
102
RTVSPost2010PropOp32
 70
     1
102
RTVSPost2010Prop33
280
     0
102
RTVSPost2010PropOp33
 70
     1
102
RTVSPost2010Prop34
280
     0
102
RTVSPost2010PropOp34
 70
     1
102
RTVSPost2010Prop35
280
     0
102
RTVSPost2010PropOp35
 70
     1
102
RTVSPost2010Prop36
280
     0
102
RTVSPost2010PropOp36
 70
     1
102
RTVSPost2010Prop37
 90
       50
102
RTVSPost2010PropOp37
 70
     1
102
RTVSPost2010Prop38
140
0.0
102
RTVSPost2010PropOp38
 70
     1
102
RTVSPost2010Prop39
140
1.0
102
RTVSPost2010PropOp39
 70
     1
102
RTVSPost2010Prop40
 90
        0
102
RTVSPost2010PropOp40
 70
     1
102
RTVSPost2010Prop41ColorIndex
 90
       18
102
RTVSPost2010Prop41ColorRGB
 90
        0
102
RTVSPost2010PropOp41
 70
     1
102
RTVSPost2010Prop42
 90
       50
102
RTVSPost2010PropOp42
 70
     1
102
RTVSPost2010Prop43
 90
        3
102
RTVSPost2010PropOp43
 70
     1
102
RTVSPost2010Prop44ColorIndex
 90
        5
102
RTVSPost2010Prop44ColorRGB
 90
      255
102
RTVSPost2010PropOp44
 70
     1
102
RTVSPost2010Prop45
280
     0
102
RTVSPost2010PropOp45
 70
     1
102
RTVSPost2010Prop46
 90
       50
102
RTVSPost2010PropOp46
 70
     1
102
RTVSPost2010Prop47
 90
       50
102
RTVSPost2010PropOp47
 70
     1
102
RTVSPost2010Prop48
 90
       50
102
RTVSPost2010PropOp48
 70
     1
102
RTVSPost2010Prop49
280
     0
102
RTVSPost2010PropOp49
 70
     1
102
RTVSPost2010Prop50
 90
       50
102
RTVSPost2010PropOp50
 70
     1
102
RTVSPost2010Prop51ColorIndex
 90
      256
102
RTVSPost2010Prop51ColorRGB
 90
-16777216
102
RTVSPost2010PropOp51
 70
     0
102
RTVSPost2010Prop52
140
1.0
102
RTVSPost2010PropOp52
 70
     0
102
RTVSPost2010Prop53
 90
        2
102
RTVSPost2010PropOp53
 70
     1
102
RTVSPost2010Prop54
  1
strokes_ogs.tif
102
RTVSPost2010PropOp54
 70
     1
102
RTVSPost2010Prop55
280
     0
102
RTVSPost2010PropOp55
 70
     1
102
RTVSPost2010Prop56
140
1.0
102
RTVSPost2010PropOp56
 70
     1
102
RTVSPost2010Prop57
140
1.0
102
RTVSPost2010PropOp57
 70
     1
  0
XRECORD
  5
6D5
102
{ACAD_REACTORS
330
6D4
102
}
330
6D4
100
AcDbXrecord
280
     1
102
RTVSPost2010Prop28
280
     0
102
RTVSPost2010PropOp28
 70
     1
102
RTVSPost2010Prop29
280
     1
102
RTVSPost2010PropOp29
 70
     1
102
RTVSPost2010Prop30
280
     1
102
RTVSPost2010PropOp30
 70
     1
102
RTVSPost2010Prop31
280
     0
102
RTVSPost2010PropOp31
 70
     1
102
RTVSPost2010Prop32
280
     0
102
RTVSPost2010PropOp32
 70
     1
102
RTVSPost2010Prop33
280
     0
102
RTVSPost2010PropOp33
 70
     1
102
RTVSPost2010Prop34
280
     0
102
RTVSPost2010PropOp34
 70
     1
102
RTVSPost2010Prop35
280
     0
102
RTVSPost2010PropOp35
 70
     1
102
RTVSPost2010Prop36
280
     0
102
RTVSPost2010PropOp36
 70
     1
102
RTVSPost2010Prop37
 90
       50
102
RTVSPost2010PropOp37
 70
     1
102
RTVSPost2010Prop38
140
0.0
102
RTVSPost2010PropOp38
 70
     1
102
RTVSPost2010Prop39
140
1.0
102
RTVSPost2010PropOp39
 70
     1
102
RTVSPost2010Prop40
 90
        0
102
RTVSPost2010PropOp40
 70
     1
102
RTVSPost2010Prop41ColorIndex
 90
       18
102
RTVSPost2010Prop41ColorRGB
 90
        0
102
RTVSPost2010PropOp41
 70
     1
102
RTVSPost2010Prop42
 90
       50
102
RTVSPost2010PropOp42
 70
     1
102
RTVSPost2010Prop43
 90
        3
102
RTVSPost2010PropOp43
 70
     1
102
RTVSPost2010Prop44ColorIndex
 90
        5
102
RTVSPost2010Prop44ColorRGB
 90
      255
102
RTVSPost2010PropOp44
 70
     1
102
RTVSPost2010Prop45
280
     0
102
RTVSPost2010PropOp45
 70
     1
102
RTVSPost2010Prop46
 90
       50
102
RTVSPost2010PropOp46
 70
     1
102
RTVSPost2010Prop47
 90
       50
102
RTVSPost2010PropOp47
 70
     1
102
RTVSPost2010Prop48
 90
       50
102
RTVSPost2010PropOp48
 70
     1
102
RTVSPost2010Prop49
280
     0
102
RTVSPost2010PropOp49
 70
     1
102
RTVSPost2010Prop50
 90
       50
102
RTVSPost2010PropOp50
 70
     1
102
RTVSPost2010Prop51ColorIndex
 90
      256
102
RTVSPost2010Prop51ColorRGB
 90
-16777216
102
RTVSPost2010PropOp51
 70
     0
102
RTVSPost2010Prop52
140
1.0
102
RTVSPost2010PropOp52
 70
     0
102
RTVSPost2010Prop53
 90
        2
102
RTVSPost2010PropOp53
 70
     1
102
RTVSPost2010Prop54
  1
strokes_ogs.tif
102
RTVSPost2010PropOp54
 70
     1
102
RTVSPost2010Prop55
280
     0
102
RTVSPost2010PropOp55
 70
     1
102
RTVSPost2010Prop56
140
1.0
102
RTVSPost2010PropOp56
 70
     1
102
RTVSPost2010Prop57
140
1.0
102
RTVSPost2010PropOp57
 70
     1
  0
XRECORD
  5
6ED
102
{ACAD_REACTORS
330
6EC
102
}
330
6EC
100
AcDbXrecord
280
     1
102
RTVSPost2010Prop28
280
     0
102
RTVSPost2010PropOp28
 70
     1
102
RTVSPost2010Prop29
280
     1
102
RTVSPost2010PropOp29
 70
     1
102
RTVSPost2010Prop30
280
     1
102
RTVSPost2010PropOp30
 70
     1
102
RTVSPost2010Prop31
280
     0
102
RTVSPost2010PropOp31
 70
     1
102
RTVSPost2010Prop32
280
     0
102
RTVSPost2010PropOp32
 70
     1
102
RTVSPost2010Prop33
280
     0
102
RTVSPost2010PropOp33
 70
     1
102
RTVSPost2010Prop34
280
     0
102
RTVSPost2010PropOp34
 70
     1
102
RTVSPost2010Prop35
280
     0
102
RTVSPost2010PropOp35
 70
     1
102
RTVSPost2010Prop36
280
     0
102
RTVSPost2010PropOp36
 70
     1
102
RTVSPost2010Prop37
 90
       50
102
RTVSPost2010PropOp37
 70
     1
102
RTVSPost2010Prop38
140
0.0
102
RTVSPost2010PropOp38
 70
     1
102
RTVSPost2010Prop39
140
1.0
102
RTVSPost2010PropOp39
 70
     1
102
RTVSPost2010Prop40
 90
        0
102
RTVSPost2010PropOp40
 70
     1
102
RTVSPost2010Prop41ColorIndex
 90
       18
102
RTVSPost2010Prop41ColorRGB
 90
        0
102
RTVSPost2010PropOp41
 70
     1
102
RTVSPost2010Prop42
 90
       50
102
RTVSPost2010PropOp42
 70
     1
102
RTVSPost2010Prop43
 90
        3
102
RTVSPost2010PropOp43
 70
     1
102
RTVSPost2010Prop44ColorIndex
 90
        5
102
RTVSPost2010Prop44ColorRGB
 90
      255
102
RTVSPost2010PropOp44
 70
     1
102
RTVSPost2010Prop45
280
     0
102
RTVSPost2010PropOp45
 70
     1
102
RTVSPost2010Prop46
 90
       50
102
RTVSPost2010PropOp46
 70
     1
102
RTVSPost2010Prop47
 90
       50
102
RTVSPost2010PropOp47
 70
     1
102
RTVSPost2010Prop48
 90
       50
102
RTVSPost2010PropOp48
 70
     1
102
RTVSPost2010Prop49
280
     0
102
RTVSPost2010PropOp49
 70
     1
102
RTVSPost2010Prop50
 90
       50
102
RTVSPost2010PropOp50
 70
     1
102
RTVSPost2010Prop51ColorIndex
 90
      256
102
RTVSPost2010Prop51ColorRGB
 90
-16777216
102
RTVSPost2010PropOp51
 70
     0
102
RTVSPost2010Prop52
140
1.0
102
RTVSPost2010PropOp52
 70
     0
102
RTVSPost2010Prop53
 90
        2
102
RTVSPost2010PropOp53
 70
     1
102
RTVSPost2010Prop54
  1
strokes_ogs.tif
102
RTVSPost2010PropOp54
 70
     1
102
RTVSPost2010Prop55
280
     0
102
RTVSPost2010PropOp55
 70
     1
102
RTVSPost2010Prop56
140
1.0
102
RTVSPost2010PropOp56
 70
     1
102
RTVSPost2010Prop57
140
1.0
102
RTVSPost2010PropOp57
 70
     1
  0
ENDSEC
  0
EOF
