  0
SECTION
  2
HEADER
  9
$ACADVER
  1
AC1018
  9
$ACADMAINTVER
 70
   104
  9
$DWGCODEPAGE
  3
ANSI_1252
  9
$LASTSAVEDBY
  1
kaschu
  9
$INSBASE
 10
0.0
 20
0.0
 30
0.0
  9
$EXTMIN
 10
165.8114209404265
 20
42.41101495001703
 30
-0.0000000000000055
  9
$EXTMAX
 10
778.4373021274674
 20
1661.037328595786
 30
0.0000000000000783
  9
$LIMMIN
 10
0.0
 20
0.0
  9
$LIMMAX
 10
12.0
 20
9.0
  9
$ORTHOMODE
 70
     0
  9
$REGENMODE
 70
     1
  9
$FILLMODE
 70
     1
  9
$QTEXTMODE
 70
     0
  9
$MIRRTEXT
 70
     1
  9
$LTSCALE
 40
1.0
  9
$ATTMODE
 70
     1
  9
$TEXTSIZE
 40
0.2
  9
$TRACEWID
 40
0.05
  9
$TEXTSTYLE
  7
STANDARD
  9
$CLAYER
  8
0
  9
$CELTYPE
  6
BYLAYER
  9
$CECOLOR
 62
   256
  9
$CELTSCALE
 40
1.0
  9
$DISPSILH
 70
     0
  9
$DIMSCALE
 40
1.0
  9
$DIMASZ
 40
0.18
  9
$DIMEXO
 40
0.0625
  9
$DIMDLI
 40
0.38
  9
$DIMRND
 40
0.0
  9
$DIMDLE
 40
0.0
  9
$DIMEXE
 40
0.18
  9
$DIMTP
 40
0.0
  9
$DIMTM
 40
0.0
  9
$DIMTXT
 40
0.18
  9
$DIMCEN
 40
0.09
  9
$DIMTSZ
 40
0.0
  9
$DIMTOL
 70
     0
  9
$DIMLIM
 70
     0
  9
$DIMTIH
 70
     1
  9
$DIMTOH
 70
     1
  9
$DIMSE1
 70
     0
  9
$DIMSE2
 70
     0
  9
$DIMTAD
 70
     0
  9
$DIMZIN
 70
     0
  9
$DIMBLK
  1

  9
$DIMASO
 70
     1
  9
$DIMSHO
 70
     1
  9
$DIMPOST
  1

  9
$DIMAPOST
  1

  9
$DIMALT
 70
     0
  9
$DIMALTD
 70
     2
  9
$DIMALTF
 40
25.4
  9
$DIMLFAC
 40
1.0
  9
$DIMTOFL
 70
     0
  9
$DIMTVP
 40
0.0
  9
$DIMTIX
 70
     0
  9
$DIMSOXD
 70
     0
  9
$DIMSAH
 70
     0
  9
$DIMBLK1
  1

  9
$DIMBLK2
  1

  9
$DIMSTYLE
  2
STANDARD
  9
$DIMCLRD
 70
     0
  9
$DIMCLRE
 70
     0
  9
$DIMCLRT
 70
     0
  9
$DIMTFAC
 40
1.0
  9
$DIMGAP
 40
0.09
  9
$DIMJUST
 70
     0
  9
$DIMSD1
 70
     0
  9
$DIMSD2
 70
     0
  9
$DIMTOLJ
 70
     1
  9
$DIMTZIN
 70
     0
  9
$DIMALTZ
 70
     0
  9
$DIMALTTZ
 70
     0
  9
$DIMUPT
 70
     0
  9
$DIMDEC
 70
     4
  9
$DIMTDEC
 70
     4
  9
$DIMALTU
 70
     2
  9
$DIMALTTD
 70
     2
  9
$DIMTXSTY
  7
STANDARD
  9
$DIMAUNIT
 70
     0
  9
$DIMADEC
 70
     0
  9
$DIMALTRND
 40
0.0
  9
$DIMAZIN
 70
     0
  9
$DIMDSEP
 70
    46
  9
$DIMATFIT
 70
     3
  9
$DIMFRAC
 70
     0
  9
$DIMLDRBLK
  1

  9
$DIMLUNIT
 70
     2
  9
$DIMLWD
 70
    -2
  9
$DIMLWE
 70
    -2
  9
$DIMTMOVE
 70
     0
  9
$LUNITS
 70
     2
  9
$LUPREC
 70
     4
  9
$SKETCHINC
 40
0.1
  9
$FILLETRAD
 40
0.5
  9
$AUNITS
 70
     0
  9
$AUPREC
 70
     0
  9
$MENU
  1
.
  9
$ELEVATION
 40
0.0
  9
$PELEVATION
 40
0.0
  9
$THICKNESS
 40
0.0
  9
$LIMCHECK
 70
     0
  9
$CHAMFERA
 40
0.5
  9
$CHAMFERB
 40
0.5
  9
$CHAMFERC
 40
1.0
  9
$CHAMFERD
 40
0.0
  9
$SKPOLY
 70
     0
  9
$TDCREATE
 40
2451762.411081481
  9
$TDUCREATE
 40
2451762.369414815
  9
$TDUPDATE
 40
2457345.598328125
  9
$TDUUPDATE
 40
2457345.556661458
  9
$TDINDWG
 40
0.0058680093
  9
$TDUSRTIMER
 40
0.0058670949
  9
$USRTIMER
 70
     1
  9
$ANGBASE
 50
0.0
  9
$ANGDIR
 70
     0
  9
$PDMODE
 70
     0
  9
$PDSIZE
 40
0.0
  9
$PLINEWID
 40
0.0
  9
$SPLFRAME
 70
     0
  9
$SPLINETYPE
 70
     6
  9
$SPLINESEGS
 70
     8
  9
$HANDSEED
  5
8D6
  9
$SURFTAB1
 70
     6
  9
$SURFTAB2
 70
     6
  9
$SURFTYPE
 70
     6
  9
$SURFU
 70
     6
  9
$SURFV
 70
     6
  9
$UCSBASE
  2

  9
$UCSNAME
  2

  9
$UCSORG
 10
0.0
 20
0.0
 30
0.0
  9
$UCSXDIR
 10
1.0
 20
0.0
 30
0.0
  9
$UCSYDIR
 10
0.0
 20
1.0
 30
0.0
  9
$UCSORTHOREF
  2

  9
$UCSORTHOVIEW
 70
     0
  9
$UCSORGTOP
 10
0.0
 20
0.0
 30
0.0
  9
$UCSORGBOTTOM
 10
0.0
 20
0.0
 30
0.0
  9
$UCSORGLEFT
 10
0.0
 20
0.0
 30
0.0
  9
$UCSORGRIGHT
 10
0.0
 20
0.0
 30
0.0
  9
$UCSORGFRONT
 10
0.0
 20
0.0
 30
0.0
  9
$UCSORGBACK
 10
0.0
 20
0.0
 30
0.0
  9
$PUCSBASE
  2

  9
$PUCSNAME
  2

  9
$PUCSORG
 10
0.0
 20
0.0
 30
0.0
  9
$PUCSXDIR
 10
1.0
 20
0.0
 30
0.0
  9
$PUCSYDIR
 10
0.0
 20
1.0
 30
0.0
  9
$PUCSORTHOREF
  2

  9
$PUCSORTHOVIEW
 70
     0
  9
$PUCSORGTOP
 10
0.0
 20
0.0
 30
0.0
  9
$PUCSORGBOTTOM
 10
0.0
 20
0.0
 30
0.0
  9
$PUCSORGLEFT
 10
0.0
 20
0.0
 30
0.0
  9
$PUCSORGRIGHT
 10
0.0
 20
0.0
 30
0.0
  9
$PUCSORGFRONT
 10
0.0
 20
0.0
 30
0.0
  9
$PUCSORGBACK
 10
0.0
 20
0.0
 30
0.0
  9
$USERI1
 70
     0
  9
$USERI2
 70
     0
  9
$USERI3
 70
     0
  9
$USERI4
 70
     0
  9
$USERI5
 70
     0
  9
$USERR1
 40
0.0
  9
$USERR2
 40
0.0
  9
$USERR3
 40
0.0
  9
$USERR4
 40
0.0
  9
$USERR5
 40
0.0
  9
$WORLDVIEW
 70
     1
  9
$SHADEDGE
 70
     3
  9
$SHADEDIF
 70
    70
  9
$TILEMODE
 70
     1
  9
$MAXACTVP
 70
    64
  9
$PINSBASE
 10
0.0
 20
0.0
 30
0.0
  9
$PLIMCHECK
 70
     0
  9
$PEXTMIN
 10
1.000000000000000E+20
 20
1.000000000000000E+20
 30
1.000000000000000E+20
  9
$PEXTMAX
 10
-1.000000000000000E+20
 20
-1.000000000000000E+20
 30
-1.000000000000000E+20
  9
$PLIMMIN
 10
0.0
 20
0.0
  9
$PLIMMAX
 10
12.0
 20
9.0
  9
$UNITMODE
 70
     0
  9
$VISRETAIN
 70
     1
  9
$PLINEGEN
 70
     0
  9
$PSLTSCALE
 70
     1
  9
$TREEDEPTH
 70
  3020
  9
$CMLSTYLE
  2
STANDARD
  9
$CMLJUST
 70
     0
  9
$CMLSCALE
 40
1.0
  9
$PROXYGRAPHICS
 70
     1
  9
$MEASUREMENT
 70
     0
  9
$CELWEIGHT
370
    -1
  9
$ENDCAPS
280
     0
  9
$JOINSTYLE
280
     0
  9
$LWDISPLAY
290
     0
  9
$INSUNITS
 70
     0
  9
$HYPERLINKBASE
  1

  9
$STYLESHEET
  1

  9
$XEDIT
290
     1
  9
$CEPSNTYPE
380
     0
  9
$PSTYLEMODE
290
     1
  9
$FINGERPRINTGUID
  2
{85370529-A06A-48AB-8D9C-1A968EA7A9F3}
  9
$VERSIONGUID
  2
{2B5DB7CA-392D-4660-8194-B145A8F1D039}
  9
$EXTNAMES
290
     1
  9
$PSVPSCALE
 40
0.0
  9
$OLESTARTUP
290
     0
  9
$SORTENTS
280
   127
  9
$INDEXCTL
280
     0
  9
$HIDETEXT
280
     0
  9
$XCLIPFRAME
290
     0
  9
$HALOGAP
280
     0
  9
$OBSCOLOR
 70
   257
  9
$OBSLTYPE
280
     0
  9
$INTERSECTIONDISPLAY
280
     0
  9
$INTERSECTIONCOLOR
 70
   257
  9
$DIMASSOC
280
     1
  9
$PROJECTNAME
  1

  0
ENDSEC
  0
SECTION
  2
CLASSES
  0
CLASS
  1
ACDBDICTIONARYWDFLT
  2
AcDbDictionaryWithDefault
  3
ObjectDBX Classes
 90
        0
 91
        1
280
     0
281
     0
  0
CLASS
  1
MATERIAL
  2
AcDbMaterial
  3
ObjectDBX Classes
 90
     1153
 91
        3
280
     0
281
     0
  0
CLASS
  1
VISUALSTYLE
  2
AcDbVisualStyle
  3
ObjectDBX Classes
 90
     4095
 91
       26
280
     0
281
     0
  0
CLASS
  1
TABLESTYLE
  2
AcDbTableStyle
  3
ObjectDBX Classes
 90
     4095
 91
        1
280
     0
281
     0
  0
CLASS
  1
DICTIONARYVAR
  2
AcDbDictionaryVar
  3
ObjectDBX Classes
 90
        0
 91
       13
280
     0
281
     0
  0
CLASS
  1
SCALE
  2
AcDbScale
  3
ObjectDBX Classes
 90
     1153
 91
       17
280
     0
281
     0
  0
CLASS
  1
MLEADERSTYLE
  2
AcDbMLeaderStyle
  3
ACDB_MLEADERSTYLE_CLASS
 90
     4095
 91
        1
280
     0
281
     0
  0
CLASS
  1
ACDBSECTIONVIEWSTYLE
  2
AcDbSectionViewStyle
  3
ObjectDBX Classes
 90
     1025
 91
        1
280
     0
281
     0
  0
CLASS
  1
ACDBDETAILVIEWSTYLE
  2
AcDbDetailViewStyle
  3
ObjectDBX Classes
 90
     1025
 91
        1
280
     0
281
     0
  0
CLASS
  1
SORTENTSTABLE
  2
AcDbSortentsTable
  3
ObjectDBX Classes
 90
        0
 91
        1
280
     0
281
     0
  0
CLASS
  1
CELLSTYLEMAP
  2
AcDbCellStyleMap
  3
ObjectDBX Classes
 90
     1152
 91
        1
280
     0
281
     0
  0
ENDSEC
  0
SECTION
  2
TABLES
  0
TABLE
  2
VPORT
  5
8
330
0
100
AcDbSymbolTable
 70
     1
  0
VPORT
  5
2C7
330
8
100
AcDbSymbolTableRecord
100
AcDbViewportTableRecord
  2
*ACTIVE
 70
     0
 10
0.0
 20
0.0
 11
1.0
 21
1.0
 12
423.392205926565
 22
1023.061887482332
 13
0.0
 23
0.0
 14
0.5
 24
0.5
 15
0.5
 25
0.5
 16
0.0
 26
0.0
 36
1.0
 17
0.0
 27
0.0
 37
0.0
 40
2706.112684499833
 41
1.983850931677018
 42
50.0
 43
0.0
 44
0.0
 50
0.0
 51
0.0
 71
     0
 72
 10000
 73
     1
 74
     3
 75
     0
 76
     0
 77
     0
 78
     0
281
     0
 65
     1
110
0.0
120
0.0
130
0.0
111
1.0
121
0.0
131
0.0
112
0.0
122
1.0
132
0.0
 79
     0
146
0.0
1001
ACAD_NAV_VCDISPLAY
1070
     3
  0
ENDTAB
  0
TABLE
  2
LTYPE
  5
5
330
0
100
AcDbSymbolTable
 70
     2
  0
LTYPE
  5
14
330
5
100
AcDbSymbolTableRecord
100
AcDbLinetypeTableRecord
  2
BYBLOCK
 70
     0
  3

 72
    65
 73
     0
 40
0.0
  0
LTYPE
  5
15
330
5
100
AcDbSymbolTableRecord
100
AcDbLinetypeTableRecord
  2
BYLAYER
 70
     0
  3

 72
    65
 73
     0
 40
0.0
  0
LTYPE
  5
16
330
5
100
AcDbSymbolTableRecord
100
AcDbLinetypeTableRecord
  2
CONTINUOUS
 70
     0
  3
Solid line
 72
    65
 73
     0
 40
0.0
  0
LTYPE
  5
865
330
5
100
AcDbSymbolTableRecord
100
AcDbLinetypeTableRecord
  2
PHANTOM2
 70
     0
  3
___ _ _ ___ _ _ ___ _ _ ___ _ _
 72
    65
 73
     6
 40
1.25
 49
0.625
 74
     0
 49
-0.125
 74
     0
 49
0.125
 74
     0
 49
-0.125
 74
     0
 49
0.125
 74
     0
 49
-0.125
 74
     0
  0
ENDTAB
  0
TABLE
  2
LAYER
  5
2
330
0
100
AcDbSymbolTable
 70
     3
  0
LAYER
  5
10
102
{ACAD_XDICTIONARY
360
87D
102
}
330
2
100
AcDbSymbolTableRecord
100
AcDbLayerTableRecord
  2
0
 70
     0
 62
     7
  6
CONTINUOUS
370
    -3
390
199
  0
LAYER
  5
AD
102
{ACAD_XDICTIONARY
360
87F
102
}
330
2
100
AcDbSymbolTableRecord
100
AcDbLayerTableRecord
  2
PV-1B9
 70
     2
 62
     7
  6
CONTINUOUS
370
    -3
390
199
  0
LAYER
  5
778
330
2
100
AcDbSymbolTableRecord
100
AcDbLayerTableRecord
  2
Defpoints
 70
     0
 62
     7
  6
CONTINUOUS
290
     0
370
    -3
390
199
  0
ENDTAB
  0
TABLE
  2
STYLE
  5
3
330
0
100
AcDbSymbolTable
 70
     1
  0
STYLE
  5
11
330
3
100
AcDbSymbolTableRecord
100
AcDbTextStyleTableRecord
  2
STANDARD
 70
     0
 40
0.0
 41
1.0
 50
0.0
 71
     0
 42
0.2
  3
txt
  4

  0
ENDTAB
  0
TABLE
  2
VIEW
  5
6
330
0
100
AcDbSymbolTable
 70
     0
  0
ENDTAB
  0
TABLE
  2
UCS
  5
7
330
0
100
AcDbSymbolTable
 70
     0
  0
ENDTAB
  0
TABLE
  2
APPID
  5
9
330
0
100
AcDbSymbolTable
 70
     3
  0
APPID
  5
12
330
9
100
AcDbSymbolTableRecord
100
AcDbRegAppTableRecord
  2
ACAD
 70
     0
  0
APPID
  5
881
330
9
100
AcDbSymbolTableRecord
100
AcDbRegAppTableRecord
  2
ACAD_NAV_VCDISPLAY
 70
     0
  0
APPID
  5
8D5
330
9
100
AcDbSymbolTableRecord
100
AcDbRegAppTableRecord
  2
ACAD_MLEADERVER
 70
     0
  0
ENDTAB
  0
TABLE
  2
DIMSTYLE
  5
A
330
0
100
AcDbSymbolTable
 70
     1
100
AcDbDimStyleTable
 71
     1
340
27
  0
DIMSTYLE
105
27
330
A
100
AcDbSymbolTableRecord
100
AcDbDimStyleTableRecord
  2
STANDARD
 70
     0
340
11
  0
ENDTAB
  0
TABLE
  2
BLOCK_RECORD
  5
1
330
0
100
AcDbSymbolTable
 70
     2
  0
BLOCK_RECORD
  5
1F
102
{ACAD_XDICTIONARY
360
192
102
}
330
1
100
AcDbSymbolTableRecord
100
AcDbBlockTableRecord
  2
*MODEL_SPACE
340
305
  0
BLOCK_RECORD
  5
1B
102
{ACAD_XDICTIONARY
360
190
102
}
330
1
100
AcDbSymbolTableRecord
100
AcDbBlockTableRecord
  2
*PAPER_SPACE
340
306
  0
BLOCK_RECORD
  5
88F
330
1
100
AcDbSymbolTableRecord
100
AcDbBlockTableRecord
  2
*D1
340
0
  0
ENDTAB
  0
ENDSEC
  0
SECTION
  2
BLOCKS
  0
BLOCK
  5
20
330
1F
100
AcDbEntity
  8
0
100
AcDbBlockBegin
  2
*MODEL_SPACE
 70
     0
 10
0.0
 20
0.0
 30
0.0
  3
*MODEL_SPACE
  1

  0
ENDBLK
  5
21
330
1F
100
AcDbEntity
  8
0
100
AcDbBlockEnd
  0
BLOCK
  5
1C
330
1B
100
AcDbEntity
 67
     1
  8
0
100
AcDbBlockBegin
  2
*PAPER_SPACE
 70
     0
 10
0.0
 20
0.0
 30
0.0
  3
*PAPER_SPACE
  1

  0
ENDBLK
  5
1D
330
1B
100
AcDbEntity
 67
     1
  8
0
100
AcDbBlockEnd
  0
BLOCK
  5
890
330
88F
100
AcDbEntity
  8
0
100
AcDbBlockBegin
  2
*D1
 70
     1
 10
0.0
 20
0.0
 30
0.0
  3
*D1
  1

  0
LINE
  5
892
330
88F
100
AcDbEntity
  8
0
 62
     0
440
 16777216
370
    -2
100
AcDbLine
 10
359.764893198485
 20
1626.037328595787
 30
0.0
 11
778.0023021274681
 21
1626.037328595786
 31
0.0
  0
LINE
  5
893
330
88F
100
AcDbEntity
  8
0
 62
     0
440
 16777216
370
    -2
100
AcDbLine
 10
360.0179415256899
 20
376.0373285957867
 30
0.0
 11
778.0023021274679
 21
376.0373285957866
 31
0.0
  0
LINE
  5
894
330
88F
100
AcDbEntity
  8
0
 62
     0
440
 16777216
370
    -2
100
AcDbLine
 10
777.8223021274682
 20
1625.857328595786
 30
0.0
 11
777.8223021274681
 21
1001.217328595786
 31
0.0
  0
LINE
  5
895
330
88F
100
AcDbEntity
  8
0
 62
     0
440
 16777216
370
    -2
100
AcDbLine
 10
777.822302127468
 20
376.2173285957866
 30
0.0
 11
777.8223021274681
 21
1000.857328595786
 31
0.0
  0
SOLID
  5
896
330
88F
100
AcDbEntity
  8
0
 62
     0
440
 16777216
100
AcDbTrace
 10
777.7923021274682
 20
1625.857328595786
 30
0.0
 11
777.8523021274682
 21
1625.857328595786
 31
0.0
 12
777.8223021274682
 22
1626.037328595786
 32
0.0
 13
777.8223021274682
 23
1626.037328595786
 33
0.0
  0
SOLID
  5
897
330
88F
100
AcDbEntity
  8
0
 62
     0
440
 16777216
100
AcDbTrace
 10
777.792302127468
 20
376.2173285957866
 30
0.0
 11
777.8523021274679
 21
376.2173285957866
 31
0.0
 12
777.822302127468
 22
376.0373285957866
 32
0.0
 13
777.822302127468
 23
376.0373285957866
 33
0.0
  0
MTEXT
  5
898
330
88F
100
AcDbEntity
  8
0
 62
     0
440
 16777216
100
AcDbMText
 10
777.822302127468
 20
1001.037328595786
 30
0.0
 40
0.18
 41
0.0
 71
     5
 72
     1
  1
\A1;1250.0000
 73
     1
 44
1.0
  0
POINT
  5
899
330
88F
100
AcDbEntity
  8
Defpoints
 62
     0
440
 16777216
100
AcDbPoint
 10
359.702393198485
 20
1626.037328595787
 30
-0.0000000000000055
  0
POINT
  5
89A
330
88F
100
AcDbEntity
  8
Defpoints
 62
     0
440
 16777216
100
AcDbPoint
 10
359.9554415256899
 20
376.0373285957867
 30
-0.0000000000000055
  0
POINT
  5
89B
330
88F
100
AcDbEntity
  8
Defpoints
 62
     0
440
 16777216
100
AcDbPoint
 10
777.822302127468
 20
376.0373285957866
 30
0.0
  0
ENDBLK
  5
891
330
88F
100
AcDbEntity
  8
0
100
AcDbBlockEnd
  0
ENDSEC
  0
SECTION
  2
ENTITIES
  0
LINE
  5
597
330
1F
100
AcDbEntity
  8
0
  6
Continuous
100
AcDbLine
 10
420.7554415256908
 20
1530.75605873841
 30
-0.0000000000000055
 11
420.7554415256908
 21
1530.711832175911
 31
-0.0000000000000055
  0
LINE
  5
598
330
1F
100
AcDbEntity
  8
0
  6
Continuous
100
AcDbLine
 10
420.7554415256908
 20
444.588961408287
 30
-0.0000000000000055
 11
420.7554415256908
 21
444.5447348457864
 31
-0.0000000000000055
  0
LINE
  5
599
330
1F
100
AcDbEntity
  8
0
  6
Continuous
100
AcDbLine
 10
417.2554415256908
 20
444.582982846321
 30
-0.0000000000000055
 11
449.25544152569
 21
444.582982846321
 31
-0.0000000000000055
  0
LINE
  5
59A
330
1F
100
AcDbEntity
  8
0
  6
Continuous
100
AcDbLine
 10
449.7554415256908
 20
445.0829828463211
 30
-0.0000000000000055
 11
449.7554415256908
 21
1126.086203738918
 31
-0.0000000000000055
  0
LINE
  5
59B
330
1F
100
AcDbEntity
  8
0
  6
Continuous
100
AcDbLine
 10
449.7554415256908
 20
1232.032068350539
 30
-0.0000000000000055
 11
449.7554415256908
 21
1530.217810737876
 31
-0.0000000000000055
  0
LINE
  5
59C
330
1F
100
AcDbEntity
  8
0
  6
Continuous
100
AcDbLine
 10
416.7554415256908
 20
1530.217810737876
 30
-0.0000000000000055
 11
416.7554415256908
 21
1232.032068350539
 31
-0.0000000000000055
  0
LINE
  5
59D
330
1F
100
AcDbEntity
  8
0
  6
Continuous
100
AcDbLine
 10
416.7554415256908
 20
1126.086203738918
 30
-0.0000000000000055
 11
416.7554415256908
 21
445.0829828463211
 31
-0.0000000000000055
  0
LINE
  5
59E
330
1F
100
AcDbEntity
  8
0
  6
Continuous
100
AcDbLine
 10
406.5554415256901
 20
1230.037328595787
 30
-0.0000000000000055
 11
406.5554415256901
 21
1198.137328595787
 31
-0.0000000000000055
  0
LINE
  5
59F
330
1F
100
AcDbEntity
  8
0
  6
Continuous
100
AcDbLine
 10
413.6054415256904
 20
1196.137328595786
 30
-0.0000000000000055
 11
413.6054415256904
 21
1127.587328595787
 31
-0.0000000000000055
  0
LINE
  5
5A0
330
1F
100
AcDbEntity
  8
0
  6
Continuous
100
AcDbLine
 10
452.9054415256905
 20
1127.587328595787
 30
-0.0000000000000055
 11
452.9054415256905
 21
1196.137328595786
 31
-0.0000000000000055
  0
LINE
  5
5A1
330
1F
100
AcDbEntity
  8
0
  6
Continuous
100
AcDbLine
 10
369.9554415256899
 20
411.0373285957867
 30
-0.0000000000000055
 11
359.9554415256899
 21
411.0373285957867
 31
-0.0000000000000055
  0
LINE
  5
5A2
330
1F
100
AcDbEntity
  8
0
  6
Continuous
100
AcDbLine
 10
359.9554415256899
 20
341.0373285957867
 30
-0.0000000000000055
 11
369.9554415256899
 21
341.0373285957867
 31
-0.0000000000000055
  0
LINE
  5
5A3
330
1F
100
AcDbEntity
  8
0
  6
Continuous
100
AcDbLine
 10
416.6554415256905
 20
444.5373285957867
 30
-0.0000000000000055
 11
416.6554415256905
 21
424.5373285957867
 31
-0.0000000000000055
  0
LINE
  5
5A4
330
1F
100
AcDbEntity
  8
0
  6
Continuous
100
AcDbLine
 10
449.8554415256903
 20
424.5373285957867
 30
-0.0000000000000055
 11
449.8554415256903
 21
444.5373285957867
 31
-0.0000000000000055
  0
LINE
  5
5A5
330
1F
100
AcDbEntity
  8
0
  6
Continuous
100
AcDbLine
 10
371.955754025691
 20
359.4373285957868
 30
-0.0000000000000055
 11
384.7554415256908
 21
359.4373285957868
 31
-0.0000000000000055
  0
LINE
  5
5A6
330
1F
100
AcDbEntity
  8
0
  6
Continuous
100
AcDbLine
 10
384.7554415256908
 20
392.6373285957866
 30
-0.0000000000000055
 11
371.955754025691
 21
392.6373285957866
 31
-0.0000000000000055
  0
LINE
  5
5A7
330
1F
100
AcDbEntity
  8
0
  6
Continuous
100
AcDbLine
 10
416.7554415256908
 20
1553.763464988411
 30
-0.0000000000000055
 11
416.7554415256908
 21
1531.26346498841
 31
-0.0000000000000055
  0
LINE
  5
5A8
330
1F
100
AcDbEntity
  8
0
  6
Continuous
100
AcDbLine
 10
449.7554415256908
 20
1531.26346498841
 30
-0.0000000000000055
 11
449.7554415256908
 21
1553.763464988411
 31
-0.0000000000000055
  0
LINE
  5
5A9
330
1F
100
AcDbEntity
  8
0
  6
Continuous
100
AcDbLine
 10
388.5440237588282
 20
1599.371852374942
 30
-0.0000000000000055
 11
404.4539263355253
 21
1583.461949798245
 31
-0.0000000000000055
  0
LINE
  5
5AA
330
1F
100
AcDbEntity
  8
0
  6
Continuous
100
AcDbLine
 10
427.7884501146817
 20
1606.7964735774
 30
-0.0000000000000055
 11
411.8785475379836
 21
1622.706376154098
 31
-0.0000000000000055
  0
LINE
  5
5AB
330
1F
100
AcDbEntity
  8
0
  6
Continuous
100
AcDbLine
 10
445.7554415256908
 20
444.5447348457864
 30
-0.0000000000000055
 11
445.7554415256908
 21
444.588961408287
 31
-0.0000000000000055
  0
LINE
  5
5AC
330
1F
100
AcDbEntity
  8
0
  6
Continuous
100
AcDbLine
 10
445.7554415256908
 20
1530.711832175911
 30
-0.0000000000000055
 11
445.7554415256908
 21
1530.75605873841
 31
-0.0000000000000055
  0
LINE
  5
5AD
330
1F
100
AcDbEntity
  8
0
  6
Continuous
100
AcDbLine
 10
359.702393198485
 20
1591.037328595787
 30
-0.0000000000000055
 11
369.702393198485
 21
1591.037328595787
 31
-0.0000000000000055
  0
LINE
  5
5AE
330
1F
100
AcDbEntity
  8
0
  6
Continuous
100
AcDbLine
 10
369.702393198485
 20
1661.037328595786
 30
-0.0000000000000055
 11
359.702393198485
 21
1661.037328595786
 31
-0.0000000000000055
  0
LINE
  5
5AF
330
1F
100
AcDbEntity
  8
0
  6
Continuous
100
AcDbLine
 10
449.2554415256909
 20
1530.717810737876
 30
-0.0000000000000055
 11
417.2554415256908
 21
1530.717810737876
 31
-0.0000000000000055
  0
LINE
  5
5B0
330
1F
100
AcDbEntity
  8
0
  6
Continuous
100
AcDbLine
 10
411.5249941473912
 20
1623.059929544693
 30
-0.0000000000000055
 11
388.1904703682349
 21
1599.725405765536
 31
-0.0000000000000055
  0
LINE
  5
5B1
330
1F
100
AcDbEntity
  8
0
  6
Continuous
100
AcDbLine
 10
359.9554415256899
 20
411.0373285957867
 30
-0.0000000000000055
 11
359.9554415256899
 21
341.0373285957867
 31
-0.0000000000000055
  0
LINE
  5
5B2
330
1F
100
AcDbEntity
  8
0
  6
Continuous
100
AcDbLine
 10
359.702393198485
 20
1591.037328595787
 30
-0.0000000000000055
 11
359.702393198485
 21
1661.037328595786
 31
-0.0000000000000055
  0
LINE
  5
5B3
330
1F
100
AcDbEntity
  8
0
  6
Continuous
100
AcDbLine
 10
463.1890626156773
 20
1198.137328595787
 30
-0.0000000000000055
 11
433.2554415256908
 21
1198.137328595787
 31
-0.0000000000000055
  0
LINE
  5
5B4
330
1F
100
AcDbEntity
  8
0
  6
Continuous
100
AcDbLine
 10
433.2554415256908
 20
1196.137328595786
 30
-0.0000000000000055
 11
466.4351524147823
 21
1196.137328595786
 31
-0.0000000000000055
  0
LINE
  5
5B5
330
1F
100
AcDbEntity
  8
0
  6
Continuous
100
AcDbLine
 10
408.55544152569
 20
1196.137328595786
 30
-0.0000000000000055
 11
433.2554415256908
 21
1196.137328595786
 31
-0.0000000000000055
  0
LINE
  5
5B6
330
1F
100
AcDbEntity
  8
0
  6
Continuous
100
AcDbLine
 10
415.1054437123766
 20
1126.087328595786
 30
-0.0000000000000055
 11
415.1054415256902
 21
1126.087328595786
 31
-0.0000000000000055
  0
LINE
  5
5B7
330
1F
100
AcDbEntity
  8
0
  6
Continuous
100
AcDbLine
 10
451.4054415256905
 20
1126.087328595786
 30
-0.0000000000000055
 11
415.1054415256902
 21
1126.087328595786
 31
-0.0000000000000055
  0
LINE
  5
5B8
330
1F
100
AcDbEntity
  8
0
  6
Continuous
100
AcDbLine
 10
475.8668412155539
 20
1160.630459517794
 30
-0.0000000000000055
 11
472.9278544576882
 21
1194.223231877313
 31
-0.0000000000000055
  0
LINE
  5
5B9
330
1F
100
AcDbEntity
  8
0
  6
Continuous
100
AcDbLine
 10
478.6687552552175
 20
1129.450392515268
 30
-0.0000000000000055
 11
475.9164188851772
 21
1160.909741179618
 31
-0.0000000000000055
  0
LINE
  5
5BA
330
1F
100
AcDbEntity
  8
0
  6
Continuous
100
AcDbLine
 10
477.2811210889113
 20
1135.645898221067
 30
-0.0000000000000055
 11
475.0552529007292
 21
1161.087688031041
 31
-0.0000000000000055
  0
LINE
  5
5BB
330
1F
100
AcDbEntity
  8
0
  6
Continuous
100
AcDbLine
 10
369.702393198485
 20
1591.037328595787
 30
-0.0000000000000055
 11
369.702393198485
 21
1661.037328595786
 31
-0.0000000000000055
  0
LINE
  5
5BC
330
1F
100
AcDbEntity
  8
0
  6
Continuous
100
AcDbLine
 10
388.5440237588282
 20
1599.371852374942
 30
-0.0000000000000055
 11
411.8785475379836
 21
1622.706376154098
 31
-0.0000000000000055
  0
LINE
  5
5BD
330
1F
100
AcDbEntity
  8
0
  6
Continuous
100
AcDbLine
 10
449.7554415256908
 20
1531.26346498841
 30
-0.0000000000000055
 11
416.7554415256908
 21
1531.26346498841
 31
-0.0000000000000055
  0
LINE
  5
5BE
330
1F
100
AcDbEntity
  8
0
  6
Continuous
100
AcDbLine
 10
417.2554434533476
 20
1530.76346498841
 30
-0.0000000000000055
 11
417.2554415256908
 21
1530.76346498841
 31
-0.0000000000000055
  0
LINE
  5
5BF
330
1F
100
AcDbEntity
  8
0
  6
Continuous
100
AcDbLine
 10
449.2554415256909
 20
1530.76346498841
 30
-0.0000000000000055
 11
417.2554415256908
 21
1530.76346498841
 31
-0.0000000000000055
  0
LINE
  5
5C0
330
1F
100
AcDbEntity
  8
0
  6
Continuous
100
AcDbLine
 10
477.4518738880568
 20
1232.776506247326
 30
-0.0000000000000055
 11
456.5662638741504
 21
1211.89089623342
 31
-0.0000000000000055
  0
LINE
  5
5C1
330
1F
100
AcDbEntity
  8
0
  6
Continuous
100
AcDbLine
 10
456.867613959699
 20
1207.420316309965
 30
-0.0000000000000055
 11
478.8337423435278
 21
1229.386444693795
 31
-0.0000000000000055
  0
LINE
  5
5C2
330
1F
100
AcDbEntity
  8
0
  6
Continuous
100
AcDbLine
 10
473.059009163323
 20
1195.398150944248
 30
-0.0000000000000055
 11
493.9446191772295
 21
1216.283760958154
 31
-0.0000000000000055
  0
LINE
  5
5C3
330
1F
100
AcDbEntity
  8
0
  6
Continuous
100
AcDbLine
 10
490.5545576237171
 20
1217.665629413642
 30
-0.0000000000000055
 11
468.5884292398696
 21
1195.699501029794
 31
-0.0000000000000055
  0
LINE
  5
5C4
330
1F
100
AcDbEntity
  8
0
  6
Continuous
100
AcDbLine
 10
494.0946191772289
 20
1216.133760958154
 30
-0.0000000000000055
 11
493.9446191772295
 21
1216.283760958154
 31
-0.0000000000000055
  0
LINE
  5
5C5
330
1F
100
AcDbEntity
  8
0
  6
Continuous
100
AcDbLine
 10
477.4518738880568
 20
1232.776506247326
 30
-0.0000000000000055
 11
477.3018738880573
 21
1232.926506247326
 31
-0.0000000000000055
  0
LINE
  5
5C6
330
1F
100
AcDbEntity
  8
0
  6
Continuous
100
AcDbLine
 10
494.0946191772289
 20
1216.133760958154
 30
-0.0000000000000055
 11
473.2090091633225
 21
1195.248150944247
 31
-0.0000000000000055
  0
LINE
  5
5C7
330
1F
100
AcDbEntity
  8
0
  6
Continuous
100
AcDbLine
 10
473.2090091633225
 20
1195.248150944247
 30
-0.0000000000000055
 11
473.059009163323
 21
1195.398150944248
 31
-0.0000000000000055
  0
LINE
  5
5C8
330
1F
100
AcDbEntity
  8
0
  6
Continuous
100
AcDbLine
 10
456.5662638741504
 20
1211.89089623342
 30
-0.0000000000000055
 11
456.4162638741508
 21
1212.040896233419
 31
-0.0000000000000055
  0
LINE
  5
5C9
330
1F
100
AcDbEntity
  8
0
  6
Continuous
100
AcDbLine
 10
456.4162638741508
 20
1212.040896233419
 30
-0.0000000000000055
 11
477.3018738880573
 21
1232.926506247326
 31
-0.0000000000000055
  0
LINE
  5
5CA
330
1F
100
AcDbEntity
  8
0
  6
Continuous
100
AcDbLine
 10
468.5884292398696
 20
1195.699501029794
 30
-0.0000000000000055
 11
468.5262972055133
 21
1195.76163306415
 31
-0.0000000000000055
  0
LINE
  5
5CB
330
1F
100
AcDbEntity
  8
0
  6
Continuous
100
AcDbLine
 10
468.5262972055133
 20
1195.761633064151
 30
-0.0000000000000055
 11
484.864561608274
 21
1212.099897466912
 31
-0.0000000000000055
  0
LINE
  5
5CC
330
1F
100
AcDbEntity
  8
0
  6
Continuous
100
AcDbLine
 10
473.2680103968158
 20
1223.696448678372
 30
-0.0000000000000055
 11
456.9297459940544
 21
1207.35818427561
 31
-0.0000000000000055
  0
LINE
  5
5CD
330
1F
100
AcDbEntity
  8
0
  6
Continuous
100
AcDbLine
 10
452.9054415256905
 20
1127.587328595787
 30
-0.0000000000000055
 11
413.6054415256904
 21
1127.587328595787
 31
-0.0000000000000055
  0
LINE
  5
5CE
330
1F
100
AcDbEntity
  8
0
  6
Continuous
100
AcDbLine
 10
456.867613959699
 20
1207.420316309965
 30
-0.0000000000000055
 11
456.9297459940544
 21
1207.35818427561
 31
-0.0000000000000055
  0
LINE
  5
5D0
330
1F
100
AcDbEntity
  8
0
  6
Continuous
100
AcDbLine
 10
484.6558798366877
 20
1161.927634050679
 30
-0.0000000000000055
 11
486.881748024869
 21
1136.485844240704
 31
-0.0000000000000055
  0
LINE
  5
5D1
330
1F
100
AcDbEntity
  8
0
  6
Continuous
100
AcDbLine
 10
449.7554415256908
 20
445.0829828463211
 30
-0.0000000000000055
 11
416.7554415256908
 21
445.0829828463211
 31
-0.0000000000000055
  0
LINE
  5
5D2
330
1F
100
AcDbEntity
  8
0
  6
Continuous
100
AcDbLine
 10
371.7023931984859
 20
1593.037328595787
 30
-0.0000000000000055
 11
371.7023931984859
 21
1659.037328595786
 31
-0.0000000000000055
  0
LINE
  5
5D3
330
1F
100
AcDbEntity
  8
0
  6
Continuous
100
AcDbLine
 10
371.9554415256907
 20
409.0373285957865
 30
-0.0000000000000055
 11
371.9554415256907
 21
343.0373285957867
 31
-0.0000000000000055
  0
LINE
  5
5D4
330
1F
100
AcDbEntity
  8
0
  6
Continuous
100
AcDbLine
 10
433.2554415256908
 20
1230.037328595787
 30
-0.0000000000000055
 11
463.1890626156773
 21
1230.037328595787
 31
-0.0000000000000055
  0
LINE
  5
5D5
330
1F
100
AcDbEntity
  8
0
  6
Continuous
100
AcDbLine
 10
466.4351524147823
 20
1232.037328595787
 30
-0.0000000000000055
 11
433.2554415256908
 21
1232.037328595787
 31
-0.0000000000000055
  0
LINE
  5
5D6
330
1F
100
AcDbEntity
  8
0
  6
Continuous
100
AcDbLine
 10
408.55544152569
 20
1232.037328595787
 30
-0.0000000000000055
 11
433.2554415256908
 21
1232.037328595787
 31
-0.0000000000000055
  0
LINE
  5
5D7
330
1F
100
AcDbEntity
  8
0
  6
Continuous
100
AcDbLine
 10
406.5554415256901
 20
1198.137328595787
 30
-0.0000000000000055
 11
433.2554415256908
 21
1198.137328595787
 31
-0.0000000000000055
  0
LINE
  5
5D8
330
1F
100
AcDbEntity
  8
0
  6
Continuous
100
AcDbLine
 10
406.5554415256901
 20
1230.037328595787
 30
-0.0000000000000055
 11
433.2554415256908
 21
1230.037328595787
 31
-0.0000000000000055
  0
LINE
  5
5D9
330
1F
100
AcDbEntity
  8
0
  6
Continuous
100
AcDbLine
 10
449.7554415256908
 20
1530.217810737875
 30
-0.0000000000000055
 11
416.7554415256908
 21
1530.217810737875
 31
-0.0000000000000055
  0
LINE
  5
5DA
330
1F
100
AcDbEntity
  8
0
  6
Continuous
100
AcDbLine
 10
482.7194161101106
 20
1163.768534108681
 30
-0.0000000000000055
 11
480.0165618156752
 21
1194.662300060819
 31
-0.0000000000000055
  0
LINE
  5
5DB
330
1F
100
AcDbEntity
  8
0
  6
Continuous
100
AcDbLine
 10
480.9970315122318
 20
1194.929193393569
 30
-0.0000000000000055
 11
483.9360182700966
 21
1161.33642103405
 31
-0.0000000000000055
  0
LINE
  5
5DC
330
1F
100
AcDbEntity
  8
0
  6
Continuous
100
AcDbLine
 10
473.9397741573148
 20
1194.130650030059
 30
-0.0000000000000055
 11
476.6426284517492
 21
1163.236884077928
 31
-0.0000000000000055
  0
LINE
  5
5DD
330
1F
100
AcDbEntity
  8
0
  6
Continuous
100
AcDbLine
 10
486.5910334150848
 20
1130.143502043555
 30
-0.0000000000000055
 11
483.8386970450446
 21
1161.602850707905
 31
-0.0000000000000055
  0
LINE
  5
5DE
330
1F
100
AcDbEntity
  8
0
  6
Continuous
100
AcDbLine
 10
416.6554415256905
 20
444.5373285957867
 30
-0.0000000000000055
 11
449.8554415256903
 21
444.5373285957867
 31
-0.0000000000000055
  0
LINE
  5
5DF
330
1F
100
AcDbEntity
  8
0
  6
Continuous
100
AcDbLine
 10
241.3114209404266
 20
1531.26346498841
 30
-0.0000000000000055
 11
241.3114209404266
 21
1553.763464988411
 31
-0.0000000000000055
  0
LINE
  5
5E0
330
1F
100
AcDbEntity
  8
0
  6
Continuous
100
AcDbLine
 10
208.3114209404266
 20
1553.763464988411
 30
-0.0000000000000055
 11
208.3114209404266
 21
1531.26346498841
 31
-0.0000000000000055
  0
LINE
  5
5E1
330
1F
100
AcDbEntity
  8
0
  6
Continuous
100
AcDbLine
 10
241.3114209404266
 20
1595.129211687823
 30
-0.0000000000000055
 11
241.3114209404266
 21
1611.03911426452
 31
-0.0000000000000055
  0
LINE
  5
5E2
330
1F
100
AcDbEntity
  8
0
  6
Continuous
100
AcDbLine
 10
208.3114209404266
 20
1611.03911426452
 30
-0.0000000000000055
 11
208.3114209404266
 21
1595.129211687823
 31
-0.0000000000000055
  0
LINE
  5
5E3
330
1F
100
AcDbEntity
  8
0
  6
Continuous
100
AcDbLine
 10
192.1114209404268
 20
1234.037328595787
 30
-0.0000000000000055
 11
166.8114209404275
 21
1234.037328595787
 31
-0.0000000000000055
  0
LINE
  5
5E4
330
1F
100
AcDbEntity
  8
0
  6
Continuous
100
AcDbLine
 10
166.8114209404275
 20
1194.137328595787
 30
-0.0000000000000055
 11
192.1114209404268
 21
1194.137328595787
 31
-0.0000000000000055
  0
LINE
  5
5E5
330
1F
100
AcDbEntity
  8
0
  6
Continuous
100
AcDbLine
 10
200.8121631279273
 20
1221.987328595786
 30
-0.0000000000000055
 11
200.511928752926
 21
1221.987328595786
 31
-0.0000000000000055
  0
LINE
  5
5E6
330
1F
100
AcDbEntity
  8
0
  6
Continuous
100
AcDbLine
 10
200.511928752926
 20
1206.187328595787
 30
-0.0000000000000055
 11
200.8121631279273
 21
1206.187328595787
 31
-0.0000000000000055
  0
LINE
  5
5E7
330
1F
100
AcDbEntity
  8
0
  6
Continuous
100
AcDbLine
 10
257.5114209404264
 20
1193.987328595787
 30
-0.0000000000000055
 11
266.8114209404275
 21
1193.987328595787
 31
-0.0000000000000055
  0
LINE
  5
5E8
330
1F
100
AcDbEntity
  8
0
  6
Continuous
100
AcDbLine
 10
266.8114209404275
 20
1234.187328595787
 30
-0.0000000000000055
 11
257.5114209404264
 21
1234.187328595787
 31
-0.0000000000000055
  0
LINE
  5
5E9
330
1F
100
AcDbEntity
  8
0
  6
Continuous
100
AcDbLine
 10
248.8115225029269
 20
1206.187328595787
 30
-0.0000000000000055
 11
249.1115459404264
 21
1206.187328595787
 31
-0.0000000000000055
  0
LINE
  5
5EA
330
1F
100
AcDbEntity
  8
0
  6
Continuous
100
AcDbLine
 10
249.1115459404264
 20
1221.987328595786
 30
-0.0000000000000055
 11
248.8115225029269
 21
1221.987328595786
 31
-0.0000000000000055
  0
LINE
  5
5EB
330
1F
100
AcDbEntity
  8
0
  6
Continuous
100
AcDbLine
 10
266.8114209404275
 20
1194.087328595787
 30
-0.0000000000000055
 11
267.1545578691621
 21
1194.087328595787
 31
-0.0000000000000055
  0
LINE
  5
5EC
330
1F
100
AcDbEntity
  8
0
  6
Continuous
100
AcDbLine
 10
267.1545578691621
 20
1234.087328595787
 30
-0.0000000000000055
 11
266.8114209404275
 21
1234.087328595787
 31
-0.0000000000000055
  0
LINE
  5
5ED
330
1F
100
AcDbEntity
  8
0
  6
Continuous
100
AcDbLine
 10
237.3114209404266
 20
444.5447348457864
 30
-0.0000000000000055
 11
237.3114209404266
 21
444.588961408287
 31
-0.0000000000000055
  0
LINE
  5
5EE
330
1F
100
AcDbEntity
  8
0
  6
Continuous
100
AcDbLine
 10
237.3114209404266
 20
1530.711832175911
 30
-0.0000000000000055
 11
237.3114209404266
 21
1530.75605873841
 31
-0.0000000000000055
  0
LINE
  5
5EF
330
1F
100
AcDbEntity
  8
0
  6
Continuous
100
AcDbLine
 10
212.3114209404266
 20
1530.75605873841
 30
-0.0000000000000055
 11
212.3114209404266
 21
1530.711832175911
 31
-0.0000000000000055
  0
LINE
  5
5F0
330
1F
100
AcDbEntity
  8
0
  6
Continuous
100
AcDbLine
 10
212.3114209404266
 20
444.588961408287
 30
-0.0000000000000055
 11
212.3114209404266
 21
444.5447348457864
 31
-0.0000000000000055
  0
LINE
  5
5F1
330
1F
100
AcDbEntity
  8
0
  6
Continuous
100
AcDbLine
 10
241.3114209404266
 20
445.0829828463211
 30
-0.0000000000000055
 11
241.3114209404266
 21
1126.086203738918
 31
-0.0000000000000055
  0
LINE
  5
5F2
330
1F
100
AcDbEntity
  8
0
  6
Continuous
100
AcDbLine
 10
241.3114209404266
 20
1234.080462363194
 30
-0.0000000000000055
 11
241.3114209404266
 21
1530.217810737875
 31
-0.0000000000000055
  0
LINE
  5
5F3
330
1F
100
AcDbEntity
  8
0
  6
Continuous
100
AcDbLine
 10
208.3114209404266
 20
1530.217810737875
 30
-0.0000000000000055
 11
208.3114209404266
 21
1234.080462363194
 31
-0.0000000000000055
  0
LINE
  5
5F4
330
1F
100
AcDbEntity
  8
0
  6
Continuous
100
AcDbLine
 10
208.3114209404266
 20
1126.086203738918
 30
-0.0000000000000055
 11
208.3114209404266
 21
445.0829828463211
 31
-0.0000000000000055
  0
LINE
  5
5F5
330
1F
100
AcDbEntity
  8
0
  6
Continuous
100
AcDbLine
 10
257.3114209404266
 20
1234.087328595787
 30
-0.0000000000000055
 11
249.1114209404268
 21
1234.087328595787
 31
-0.0000000000000055
  0
LINE
  5
5F6
330
1F
100
AcDbEntity
  8
0
  6
Continuous
100
AcDbLine
 10
249.1114209404268
 20
1194.087328595787
 30
-0.0000000000000055
 11
257.3114209404266
 21
1194.087328595787
 31
-0.0000000000000055
  0
LINE
  5
5F7
330
1F
100
AcDbEntity
  8
0
  6
Continuous
100
AcDbLine
 10
192.3114209404266
 20
1194.087328595787
 30
-0.0000000000000055
 11
200.5114209404273
 21
1194.087328595787
 31
-0.0000000000000055
  0
LINE
  5
5F8
330
1F
100
AcDbEntity
  8
0
  6
Continuous
100
AcDbLine
 10
200.5114209404273
 20
1234.087328595787
 30
-0.0000000000000055
 11
192.3114209404266
 21
1234.087328595787
 31
-0.0000000000000055
  0
LINE
  5
5F9
330
1F
100
AcDbEntity
  8
0
  6
Continuous
100
AcDbLine
 10
205.1614209404261
 20
1194.087255158286
 30
-0.0000000000000055
 11
205.1614209404261
 21
1159.414879377037
 31
-0.0000000000000055
  0
LINE
  5
5FA
330
1F
100
AcDbEntity
  8
0
  6
Continuous
100
AcDbLine
 10
205.1614209404261
 20
1138.178303595787
 30
-0.0000000000000055
 11
205.1614209404261
 21
1127.587328595787
 31
-0.0000000000000055
  0
LINE
  5
5FB
330
1F
100
AcDbEntity
  8
0
  6
Continuous
100
AcDbLine
 10
244.4614209404272
 20
1127.587328595787
 30
-0.0000000000000055
 11
244.4614209404272
 21
1138.174019220786
 31
-0.0000000000000055
  0
LINE
  5
5FC
330
1F
100
AcDbEntity
  8
0
  6
Continuous
100
AcDbLine
 10
244.4614209404272
 20
1159.390244220787
 30
-0.0000000000000055
 11
244.4614209404272
 21
1194.087255158286
 31
-0.0000000000000055
  0
LINE
  5
5FD
330
1F
100
AcDbEntity
  8
0
  6
Continuous
100
AcDbLine
 10
239.8114209404266
 20
1194.087328595787
 30
-0.0000000000000055
 11
248.6114209404268
 21
1194.087328595787
 31
-0.0000000000000055
  0
LINE
  5
5FE
330
1F
100
AcDbEntity
  8
0
  6
Continuous
100
AcDbLine
 10
201.0114209404264
 20
1194.087328595787
 30
-0.0000000000000055
 11
209.8114209404266
 21
1194.087328595787
 31
-0.0000000000000055
  0
LINE
  5
5FF
330
1F
100
AcDbEntity
  8
0
  6
Continuous
100
AcDbLine
 10
248.6114209404268
 20
1234.087328595787
 30
-0.0000000000000055
 11
201.0114209404264
 21
1234.087328595787
 31
-0.0000000000000055
  0
LINE
  5
600
330
1F
100
AcDbEntity
  8
0
  6
Continuous
100
AcDbLine
 10
208.2114209404271
 20
444.5373285957867
 30
-0.0000000000000055
 11
208.2114209404271
 21
424.5373285957867
 31
-0.0000000000000055
  0
LINE
  5
601
330
1F
100
AcDbEntity
  8
0
  6
Continuous
100
AcDbLine
 10
241.4114209404261
 20
424.5373285957867
 30
-0.0000000000000055
 11
241.4114209404261
 21
444.5373285957867
 31
-0.0000000000000055
  0
LINE
  5
602
330
1F
100
AcDbEntity
  8
0
  6
Continuous
100
AcDbLine
 10
218.8114209404266
 20
444.1446723457866
 30
-0.0000000000000055
 11
218.8114209404266
 21
444.2571723457866
 31
-0.0000000000000055
  0
LINE
  5
603
330
1F
100
AcDbEntity
  8
0
  6
Continuous
100
AcDbLine
 10
230.8114209404266
 20
444.1502973457868
 30
-0.0000000000000055
 11
230.8114209404266
 21
444.2642035957868
 31
-0.0000000000000055
  0
LINE
  5
604
330
1F
100
AcDbEntity
  8
0
  6
Continuous
100
AcDbLine
 10
230.8114209404266
 20
1531.15612123841
 30
-0.0000000000000055
 11
230.8114209404266
 21
1531.04362123841
 31
-0.0000000000000055
  0
LINE
  5
605
330
1F
100
AcDbEntity
  8
0
  6
Continuous
100
AcDbLine
 10
218.8114209404266
 20
1531.150496238409
 30
-0.0000000000000055
 11
218.8114209404266
 21
1531.03658998841
 31
-0.0000000000000055
  0
LINE
  5
606
330
1F
100
AcDbEntity
  8
0
  6
Continuous
100
AcDbLine
 10
241.3114209404266
 20
1553.763464988411
 30
-0.0000000000000055
 11
241.3114209404266
 21
1595.129211687823
 31
-0.0000000000000055
  0
LINE
  5
607
330
1F
100
AcDbEntity
  8
0
  6
Continuous
100
AcDbLine
 10
208.3114209404266
 20
1595.129211687823
 30
-0.0000000000000055
 11
208.3114209404266
 21
1553.763464988411
 31
-0.0000000000000055
  0
LINE
  5
608
330
1F
100
AcDbEntity
  8
0
  6
Continuous
100
AcDbLine
 10
208.3114209404266
 20
1626.037328595787
 30
-0.0000000000000055
 11
208.3114209404266
 21
1611.392667655113
 31
-0.0000000000000055
  0
LINE
  5
609
330
1F
100
AcDbEntity
  8
0
  6
Continuous
100
AcDbLine
 10
241.3114209404266
 20
1626.037328595787
 30
-0.0000000000000055
 11
241.3114209404266
 21
1611.392667655113
 31
-0.0000000000000055
  0
LINE
  5
60A
330
1F
100
AcDbEntity
  8
0
  6
Continuous
100
AcDbLine
 10
240.8114209404266
 20
1530.717810737876
 30
-0.0000000000000055
 11
208.8114209404266
 21
1530.717810737876
 31
-0.0000000000000055
  0
LINE
  5
60B
330
1F
100
AcDbEntity
  8
0
  6
Continuous
100
AcDbLine
 10
208.8114209404266
 20
444.582982846321
 30
-0.0000000000000055
 11
240.8114209404266
 21
444.582982846321
 31
-0.0000000000000055
  0
LINE
  5
60C
330
1F
100
AcDbEntity
  8
0
  6
Continuous
100
AcDbLine
 10
208.2114209404271
 20
376.0373285957867
 30
-0.0000000000000055
 11
208.2114209404271
 21
424.5373285957867
 31
-0.0000000000000055
  0
LINE
  5
60D
330
1F
100
AcDbEntity
  8
0
  6
Continuous
100
AcDbLine
 10
241.4114209404261
 20
376.0373285957867
 30
-0.0000000000000055
 11
241.4114209404261
 21
424.5373285957867
 31
-0.0000000000000055
  0
LINE
  5
60E
330
1F
100
AcDbEntity
  8
0
  6
Continuous
100
AcDbLine
 10
200.5114209404273
 20
1234.087328595787
 30
-0.0000000000000055
 11
200.5114209404273
 21
1194.087328595787
 31
-0.0000000000000055
  0
LINE
  5
60F
330
1F
100
AcDbEntity
  8
0
  6
Continuous
100
AcDbLine
 10
268.6428723835934
 20
1195.400459908918
 30
-0.0000000000000055
 11
268.6428723835934
 21
1232.774197282655
 31
-0.0000000000000055
  0
LINE
  5
610
330
1F
100
AcDbEntity
  8
0
  6
Continuous
100
AcDbLine
 10
200.5114209404273
 20
1229.437328595787
 30
-0.0000000000000055
 11
200.8121334404268
 21
1229.437328595787
 31
-0.0000000000000055
  0
LINE
  5
611
330
1F
100
AcDbEntity
  8
0
  6
Continuous
100
AcDbLine
 10
248.8107084404273
 20
1229.437328595787
 30
-0.0000000000000055
 11
249.1114209404268
 21
1229.437328595787
 31
-0.0000000000000055
  0
LINE
  5
612
330
1F
100
AcDbEntity
  8
0
  6
Continuous
100
AcDbLine
 10
200.5114209404273
 20
1196.137328595786
 30
-0.0000000000000055
 11
200.8121334404268
 21
1196.137328595786
 31
-0.0000000000000055
  0
LINE
  5
613
330
1F
100
AcDbEntity
  8
0
  6
Continuous
100
AcDbLine
 10
248.8107084404273
 20
1196.137328595786
 30
-0.0000000000000055
 11
249.1114209404268
 21
1196.137328595786
 31
-0.0000000000000055
  0
LINE
  5
614
330
1F
100
AcDbEntity
  8
0
  6
Continuous
100
AcDbLine
 10
200.5114209404273
 20
1198.737328595787
 30
-0.0000000000000055
 11
200.8121334404268
 21
1198.737328595787
 31
-0.0000000000000055
  0
LINE
  5
615
330
1F
100
AcDbEntity
  8
0
  6
Continuous
100
AcDbLine
 10
248.8107084404273
 20
1198.737328595787
 30
-0.0000000000000055
 11
249.1114209404268
 21
1198.737328595787
 31
-0.0000000000000055
  0
LINE
  5
616
330
1F
100
AcDbEntity
  8
0
  6
Continuous
100
AcDbLine
 10
206.661420940427
 20
1126.087328595786
 30
-0.0000000000000055
 11
242.9614209404272
 21
1126.087328595786
 31
-0.0000000000000055
  0
LINE
  5
617
330
1F
100
AcDbEntity
  8
0
  6
Continuous
100
AcDbLine
 10
210.8114209404266
 20
1194.929193393569
 30
-0.0000000000000055
 11
238.8114209404266
 21
1194.929193393569
 31
-0.0000000000000055
  0
LINE
  5
618
330
1F
100
AcDbEntity
  8
0
  6
Continuous
100
AcDbLine
 10
239.8114209404266
 20
1163.768534108681
 30
-0.0000000000000055
 11
239.8114209404266
 21
1194.662300060819
 31
-0.0000000000000055
  0
LINE
  5
619
330
1F
100
AcDbEntity
  8
0
  6
Continuous
100
AcDbLine
 10
241.3114209404266
 20
1531.26346498841
 30
-0.0000000000000055
 11
224.8114209404266
 21
1531.26346498841
 31
-0.0000000000000055
  0
LINE
  5
61A
330
1F
100
AcDbEntity
  8
0
  6
Continuous
100
AcDbLine
 10
224.8114209404266
 20
1531.26346498841
 30
-0.0000000000000055
 11
208.3114209404266
 21
1531.26346498841
 31
-0.0000000000000055
  0
LINE
  5
61B
330
1F
100
AcDbEntity
  8
0
  6
Continuous
100
AcDbLine
 10
208.8114209404266
 20
1530.76346498841
 30
-0.0000000000000055
 11
240.8114209404266
 21
1530.76346498841
 31
-0.0000000000000055
  0
LINE
  5
61C
330
1F
100
AcDbEntity
  8
0
  6
Continuous
100
AcDbLine
 10
192.1114209404268
 20
1234.037328595787
 30
-0.0000000000000055
 11
192.1114209404268
 21
1194.137328595787
 31
-0.0000000000000055
  0
LINE
  5
61D
330
1F
100
AcDbEntity
  8
0
  6
Continuous
100
AcDbLine
 10
166.8114209404275
 20
1233.713163323298
 30
-0.0000000000000055
 11
166.8114209404275
 21
1234.037328595787
 31
-0.0000000000000055
  0
LINE
  5
61E
330
1F
100
AcDbEntity
  8
0
  6
Continuous
100
AcDbLine
 10
166.8114209404275
 20
1194.137328595787
 30
-0.0000000000000055
 11
166.8114209404275
 21
1217.669103469841
 31
-0.0000000000000055
  0
LINE
  5
61F
330
1F
100
AcDbEntity
  8
0
  6
Continuous
100
AcDbLine
 10
165.8992889060709
 20
1232.776506247326
 30
-0.0000000000000055
 11
165.8992889060709
 21
1216.284053764782
 31
-0.0000000000000055
  0
LINE
  5
620
330
1F
100
AcDbEntity
  8
0
  6
Continuous
100
AcDbLine
 10
169.2735529747824
 20
1220.314090450517
 30
-0.0000000000000055
 11
169.2735529747824
 21
1229.386444693795
 31
-0.0000000000000055
  0
LINE
  5
621
330
1F
100
AcDbEntity
  8
0
  6
Continuous
100
AcDbLine
 10
165.8114209404265
 20
1195.137328595786
 30
-0.0000000000000055
 11
165.8114209404265
 21
1216.133760958154
 31
-0.0000000000000055
  0
LINE
  5
622
330
1F
100
AcDbEntity
  8
0
  6
Continuous
100
AcDbLine
 10
165.8114209404265
 20
1216.133823120832
 30
-0.0000000000000055
 11
165.8114209404265
 21
1232.926506247326
 31
-0.0000000000000055
  0
LINE
  5
623
330
1F
100
AcDbEntity
  8
0
  6
Continuous
100
AcDbLine
 10
169.4856850091391
 20
1223.696448678372
 30
-0.0000000000000055
 11
169.4856850091391
 21
1220.157172152123
 31
-0.0000000000000055
  0
LINE
  5
624
330
1F
100
AcDbEntity
  8
0
  6
Continuous
100
AcDbLine
 10
244.4614209404272
 20
1127.587328595787
 30
-0.0000000000000055
 11
231.7030336602911
 21
1127.587328595787
 31
-0.0000000000000055
  0
LINE
  5
625
330
1F
100
AcDbEntity
  8
0
  6
Continuous
100
AcDbLine
 10
217.775494448706
 20
1127.587328595787
 30
-0.0000000000000055
 11
205.1614209404261
 21
1127.587328595787
 31
-0.0000000000000055
  0
LINE
  5
626
330
1F
100
AcDbEntity
  8
0
  6
Continuous
100
AcDbLine
 10
266.8114209404275
 20
1234.187328595787
 30
-0.0000000000000055
 11
266.8114209404275
 21
1193.987328595787
 31
-0.0000000000000055
  0
LINE
  5
627
330
1F
100
AcDbEntity
  8
0
  6
Continuous
100
AcDbLine
 10
257.5114209404264
 20
1234.187328595787
 30
-0.0000000000000055
 11
257.5114209404264
 21
1193.987328595787
 31
-0.0000000000000055
  0
LINE
  5
628
330
1F
100
AcDbEntity
  8
0
  6
Continuous
100
AcDbLine
 10
267.1545578691621
 20
1234.087328595787
 30
-0.0000000000000055
 11
267.1545578691621
 21
1194.087328595787
 31
-0.0000000000000055
  0
LINE
  5
629
330
1F
100
AcDbEntity
  8
0
  6
Continuous
100
AcDbLine
 10
241.3114209404266
 20
445.0829828463211
 30
-0.0000000000000055
 11
224.8114209404266
 21
445.0829828463211
 31
-0.0000000000000055
  0
LINE
  5
62A
330
1F
100
AcDbEntity
  8
0
  6
Continuous
100
AcDbLine
 10
224.8114209404266
 20
445.0829828463211
 30
-0.0000000000000055
 11
208.3114209404266
 21
445.0829828463211
 31
-0.0000000000000055
  0
LINE
  5
62B
330
1F
100
AcDbEntity
  8
0
  6
Continuous
100
AcDbLine
 10
192.3114209404266
 20
1234.087328595787
 30
-0.0000000000000055
 11
192.3114209404266
 21
1194.087328595787
 31
-0.0000000000000055
  0
LINE
  5
62C
330
1F
100
AcDbEntity
  8
0
  6
Continuous
100
AcDbLine
 10
200.5114209404273
 20
1232.037328595787
 30
-0.0000000000000055
 11
200.8121334404268
 21
1232.037328595787
 31
-0.0000000000000055
  0
LINE
  5
62D
330
1F
100
AcDbEntity
  8
0
  6
Continuous
100
AcDbLine
 10
248.8107084404273
 20
1232.037328595787
 30
-0.0000000000000055
 11
249.1114209404268
 21
1232.037328595787
 31
-0.0000000000000055
  0
LINE
  5
62E
330
1F
100
AcDbEntity
  8
0
  6
Continuous
100
AcDbLine
 10
257.3114209404266
 20
1234.087328595787
 30
-0.0000000000000055
 11
257.3114209404266
 21
1194.087328595787
 31
-0.0000000000000055
  0
LINE
  5
62F
330
1F
100
AcDbEntity
  8
0
  6
Continuous
100
AcDbLine
 10
249.1114209404268
 20
1234.087328595787
 30
-0.0000000000000055
 11
249.1114209404268
 21
1194.087328595787
 31
-0.0000000000000055
  0
LINE
  5
630
330
1F
100
AcDbEntity
  8
0
  6
Continuous
100
AcDbLine
 10
208.3114209404266
 20
1530.217810737875
 30
-0.0000000000000055
 11
241.3114209404266
 21
1530.217810737875
 31
-0.0000000000000055
  0
LINE
  5
631
330
1F
100
AcDbEntity
  8
0
  6
Continuous
100
AcDbLine
 10
201.0114209404264
 20
1194.087328595787
 30
-0.0000000000000055
 11
201.0114209404264
 21
1234.087328595787
 31
-0.0000000000000055
  0
LINE
  5
632
330
1F
100
AcDbEntity
  8
0
  6
Continuous
100
AcDbLine
 10
200.8114209404266
 20
1233.887328595786
 30
-0.0000000000000055
 11
200.8114209404266
 21
1194.287328595787
 31
-0.0000000000000055
  0
LINE
  5
633
330
1F
100
AcDbEntity
  8
0
  6
Continuous
100
AcDbLine
 10
248.6114209404268
 20
1194.087328595787
 30
-0.0000000000000055
 11
248.6114209404268
 21
1234.087328595787
 31
-0.0000000000000055
  0
LINE
  5
634
330
1F
100
AcDbEntity
  8
0
  6
Continuous
100
AcDbLine
 10
248.8114209404266
 20
1233.887328595786
 30
-0.0000000000000055
 11
248.8114209404266
 21
1194.287328595787
 31
-0.0000000000000055
  0
LINE
  5
635
330
1F
100
AcDbEntity
  8
0
  6
Continuous
100
AcDbLine
 10
209.8114209404266
 20
1163.768534108681
 30
-0.0000000000000055
 11
209.8114209404266
 21
1194.662300060819
 31
-0.0000000000000055
  0
LINE
  5
636
330
1F
100
AcDbEntity
  8
0
  6
Continuous
100
AcDbLine
 10
210.8114209404266
 20
1194.929193393569
 30
-0.0000000000000055
 11
210.8114209404266
 21
1161.33642103405
 31
-0.0000000000000055
  0
LINE
  5
637
330
1F
100
AcDbEntity
  8
0
  6
Continuous
100
AcDbLine
 10
238.8114209404266
 20
1194.929193393569
 30
-0.0000000000000055
 11
238.8114209404266
 21
1161.33642103405
 31
-0.0000000000000055
  0
LINE
  5
638
330
1F
100
AcDbEntity
  8
0
  6
Continuous
100
AcDbLine
 10
208.2114209404271
 20
444.5373285957867
 30
-0.0000000000000055
 11
241.4114209404261
 21
444.5373285957867
 31
-0.0000000000000055
  0
LINE
  5
639
330
1F
100
AcDbEntity
  8
0
100
AcDbLine
 10
241.411422378249
 20
153.0110149500174
 30
-0.000000000000004
 11
241.411422378249
 21
165.8107024500173
 31
-0.0000000000000048
  0
LINE
  5
63A
330
1F
100
AcDbEntity
  8
0
100
AcDbLine
 10
208.3114223782477
 20
137.5551708273019
 30
-0.0000000000000031
 11
208.3114223782477
 21
121.6452682506046
 31
-0.0000000000000021
  0
LINE
  5
63B
330
1F
100
AcDbEntity
  8
0
100
AcDbLine
 10
241.3114223782477
 20
121.6452682506046
 30
-0.0000000000000021
 11
241.3114223782477
 21
137.5551708273019
 31
-0.0000000000000031
  0
LINE
  5
63C
330
1F
100
AcDbEntity
  8
0
100
AcDbLine
 10
208.2114223782483
 20
165.8107024500173
 30
-0.0000000000000048
 11
208.2114223782483
 21
153.0110149500174
 31
-0.000000000000004
  0
LINE
  5
63D
330
1F
100
AcDbEntity
  8
0
100
AcDbLine
 10
166.8114223782486
 20
42.56101495001667
 30
0.0000000000000028
 11
192.1114223782478
 21
42.56101495001667
 31
0.0000000000000028
  0
LINE
  5
63E
330
1F
100
AcDbEntity
  8
0
100
AcDbLine
 10
192.1114223782478
 20
82.46101495001722
 30
0.0000000000000003
 11
166.8114223782486
 21
82.46101495001722
 31
0.0000000000000003
  0
LINE
  5
63F
330
1F
100
AcDbEntity
  8
0
100
AcDbLine
 10
200.5119301907489
 20
54.61101495001775
 30
0.000000000000002
 11
200.8121645657484
 21
54.61101495001775
 31
0.000000000000002
  0
LINE
  5
640
330
1F
100
AcDbEntity
  8
0
100
AcDbLine
 10
266.8114223782486
 20
82.61101495001776
 30
0.0000000000000003
 11
257.5114223782475
 21
82.61101495001776
 31
0.0000000000000003
  0
LINE
  5
641
330
1F
100
AcDbEntity
  8
0
100
AcDbLine
 10
257.5114223782475
 20
42.41101495001703
 30
0.0000000000000028
 11
266.8114223782486
 21
42.41101495001703
 31
0.0000000000000028
  0
LINE
  5
642
330
1F
100
AcDbEntity
  8
0
100
AcDbLine
 10
248.811523940748
 20
54.61101495001775
 30
0.000000000000002
 11
249.1115473782475
 21
54.61101495001775
 31
0.000000000000002
  0
LINE
  5
643
330
1F
100
AcDbEntity
  8
0
100
AcDbLine
 10
249.1115473782475
 20
70.41101495001703
 30
0.0000000000000011
 11
248.811523940748
 21
70.41101495001703
 31
0.0000000000000011
  0
LINE
  5
644
330
1F
100
AcDbEntity
  8
0
100
AcDbLine
 10
200.8121645657484
 20
70.41101495001703
 30
0.0000000000000011
 11
200.5119301907489
 21
70.41101495001703
 31
0.0000000000000011
  0
LINE
  5
645
330
1F
100
AcDbEntity
  8
0
100
AcDbLine
 10
267.1545593069832
 20
82.51101495001739
 30
0.0000000000000003
 11
266.8114223782486
 21
82.51101495001739
 31
0.0000000000000003
  0
LINE
  5
646
330
1F
100
AcDbEntity
  8
0
100
AcDbLine
 10
266.8114223782486
 20
42.5110149500174
 30
0.0000000000000028
 11
267.1545593069832
 21
42.5110149500174
 31
0.0000000000000028
  0
LINE
  5
647
330
1F
100
AcDbEntity
  8
0
100
AcDbLine
 10
189.8114223782476
 20
178.0640632772224
 30
-0.0000000000000055
 11
189.8114223782476
 21
168.0640632772224
 31
-0.0000000000000049
  0
LINE
  5
648
330
1F
100
AcDbEntity
  8
0
100
AcDbLine
 10
259.8114223782477
 20
168.0640632772224
 30
-0.0000000000000049
 11
259.8114223782477
 21
178.0640632772224
 31
-0.0000000000000055
  0
LINE
  5
649
330
1F
100
AcDbEntity
  8
0
100
AcDbLine
 10
189.8114223782476
 20
168.0641399500168
 30
-0.0000000000000049
 11
189.8114223782476
 21
167.8110149500176
 31
-0.0000000000000049
  0
LINE
  5
64A
330
1F
100
AcDbEntity
  8
0
100
AcDbLine
 10
259.8114223782477
 20
167.8110149500176
 30
-0.0000000000000049
 11
259.8114223782477
 21
168.0641399500168
 31
-0.0000000000000049
  0
LINE
  5
64B
330
1F
100
AcDbEntity
  8
0
100
AcDbLine
 10
198.1114223782478
 20
82.51101495001739
 30
0.0000000000000003
 11
192.3114223782476
 21
82.51101495001739
 31
0.0000000000000003
  0
LINE
  5
64C
330
1F
100
AcDbEntity
  8
0
100
AcDbLine
 10
192.3114223782476
 20
42.5110149500174
 30
0.0000000000000028
 11
200.5114223782484
 21
42.5110149500174
 31
0.0000000000000028
  0
LINE
  5
64D
330
1F
100
AcDbEntity
  8
0
100
AcDbLine
 10
249.1114223782479
 20
42.5110149500174
 30
0.0000000000000028
 11
257.3114223782477
 21
42.5110149500174
 31
0.0000000000000028
  0
LINE
  5
64E
330
1F
100
AcDbEntity
  8
0
100
AcDbLine
 10
257.3114223782477
 20
82.51101495001739
 30
0.0000000000000003
 11
251.5114223782484
 21
82.51101495001739
 31
0.0000000000000003
  0
LINE
  5
64F
330
1F
100
AcDbEntity
  8
0
100
AcDbLine
 10
201.0114223782475
 20
42.5110149500174
 30
0.0000000000000028
 11
248.6114223782479
 21
42.5110149500174
 31
0.0000000000000028
  0
LINE
  5
650
330
1F
100
AcDbEntity
  8
0
100
AcDbLine
 10
208.3114223782477
 20
121.6452682506046
 30
-0.0000000000000021
 11
208.3114223782477
 21
104.5110149500165
 31
-0.000000000000001
  0
LINE
  5
651
330
1F
100
AcDbEntity
  8
0
100
AcDbLine
 10
241.3114223782477
 20
104.5110149500165
 30
-0.000000000000001
 11
241.3114223782477
 21
121.6452682506046
 31
-0.0000000000000021
  0
LINE
  5
652
330
1F
100
AcDbEntity
  8
0
100
AcDbLine
 10
208.2114223782483
 20
153.0110149500174
 30
-0.000000000000004
 11
208.2114223782483
 21
125.4230363972642
 31
-0.0000000000000023
  0
LINE
  5
653
330
1F
100
AcDbEntity
  8
0
100
AcDbLine
 10
208.2114223782483
 20
107.6812288034093
 30
-0.0000000000000012
 11
208.2114223782483
 21
104.5110149500165
 31
-0.000000000000001
  0
LINE
  5
654
330
1F
100
AcDbEntity
  8
0
100
AcDbLine
 10
241.3114223782477
 20
137.9087242178943
 30
-0.0000000000000031
 11
241.3114223782477
 21
165.8104186783316
 31
-0.0000000000000048
  0
LINE
  5
655
330
1F
100
AcDbEntity
  8
0
100
AcDbLine
 10
208.3114223782477
 20
165.8104186783316
 30
-0.0000000000000048
 11
208.3114223782477
 21
137.9087242178943
 31
-0.0000000000000031
  0
LINE
  5
656
330
1F
100
AcDbEntity
  8
0
100
AcDbLine
 10
241.411422378249
 20
104.5110149500165
 30
-0.000000000000001
 11
241.411422378249
 21
107.6812288034084
 31
-0.0000000000000012
  0
LINE
  5
657
330
1F
100
AcDbEntity
  8
0
100
AcDbLine
 10
241.411422378249
 20
125.4230363972642
 30
-0.0000000000000023
 11
241.411422378249
 21
153.0110149500174
 31
-0.000000000000004
  0
LINE
  5
658
330
1F
100
AcDbEntity
  8
0
100
AcDbLine
 10
200.5114223782484
 20
42.5110149500174
 30
0.0000000000000028
 11
200.5114223782484
 21
71.33130406092504
 31
0.000000000000001
  0
LINE
  5
659
330
1F
100
AcDbEntity
  8
0
100
AcDbLine
 10
259.8114223782477
 20
178.0640632772224
 30
-0.0000000000000055
 11
189.8114223782476
 21
178.0640632772224
 31
-0.0000000000000055
  0
LINE
  5
65A
330
1F
100
AcDbEntity
  8
0
100
AcDbLine
 10
268.6428738214145
 20
81.19788363688575
 30
0.0000000000000004
 11
268.6428738214145
 21
43.82414626314903
 31
0.0000000000000027
  0
LINE
  5
65B
330
1F
100
AcDbEntity
  8
0
100
AcDbLine
 10
251.5114223782484
 20
104.5110149500165
 30
-0.000000000000001
 11
251.5114223782484
 21
74.57739386003005
 31
0.0000000000000008
  0
LINE
  5
65D
330
1F
100
AcDbEntity
  8
0
100
AcDbLine
 10
192.1114223782478
 20
62.5110149500174
 30
0.0000000000000015
 11
192.1114223782478
 21
82.46101495001722
 31
0.0000000000000003
  0
LINE
  5
65E
330
1F
100
AcDbEntity
  8
0
100
AcDbLine
 10
192.1114223782478
 20
62.5110149500174
 30
0.0000000000000015
 11
192.1114223782478
 21
82.46101495001722
 31
0.0000000000000003
  0
LINE
  5
65F
330
1F
100
AcDbEntity
  8
0
100
AcDbLine
 10
166.8114223782486
 20
82.46101495001722
 30
0.0000000000000003
 11
166.8114223782486
 21
58.92924007596275
 31
0.0000000000000018
  0
LINE
  5
660
330
1F
100
AcDbEntity
  8
0
100
AcDbLine
 10
166.8114223782486
 20
42.56101495001757
 30
0.0000000000000028
 11
166.8114223782486
 21
42.88518022250582
 31
0.0000000000000027
  0
LINE
  5
661
330
1F
100
AcDbEntity
  8
0
100
AcDbLine
 10
165.899290343892
 20
60.13219336871269
 30
0.0000000000000017
 11
165.899290343892
 21
43.82183729847792
 31
0.0000000000000027
  0
LINE
  5
662
330
1F
100
AcDbEntity
  8
0
100
AcDbLine
 10
169.2735544126035
 20
47.211898851991
 30
0.0000000000000025
 11
169.2735544126035
 21
56.27704545939969
 31
0.0000000000000019
  0
LINE
  5
663
330
1F
100
AcDbEntity
  8
0
100
AcDbLine
 10
166.5992903438919
 20
58.8331013522652
 30
0.0000000000000018
 11
166.5801855231266
 21
58.79262338979379
 31
0.0000000000000018
  0
LINE
  5
664
330
1F
100
AcDbEntity
  8
0
100
AcDbLine
 10
165.8114223782476
 20
60.46458258765007
 30
0.0000000000000017
 11
165.8114223782476
 21
81.46101495001721
 31
0.0000000000000004
  0
LINE
  5
665
330
1F
100
AcDbEntity
  8
0
100
AcDbLine
 10
165.8114223782476
 20
43.67183729847829
 30
0.0000000000000027
 11
165.8114223782476
 21
60.46452042497231
 31
0.0000000000000017
  0
LINE
  5
666
330
1F
100
AcDbEntity
  8
0
100
AcDbLine
 10
169.4856864469602
 20
56.41691928245791
 30
0.0000000000000019
 11
169.4856864469602
 21
52.90189486743248
 31
0.0000000000000021
  0
LINE
  5
667
330
1F
100
AcDbEntity
  8
0
100
AcDbLine
 10
241.3115315890173
 20
153.0110149500174
 30
-0.000000000000004
 11
241.411422378249
 21
153.0110149500174
 31
-0.000000000000004
  0
LINE
  5
668
330
1F
100
AcDbEntity
  8
0
100
AcDbLine
 10
208.2114223782483
 20
153.0110149500174
 30
-0.000000000000004
 11
208.3113131674781
 21
153.0110149500174
 31
-0.000000000000004
  0
LINE
  5
669
330
1F
100
AcDbEntity
  8
0
100
AcDbLine
 10
266.8114223782486
 20
82.61101495001776
 30
0.0000000000000003
 11
266.8114223782486
 21
62.5110149500174
 31
0.0000000000000015
  0
LINE
  5
66A
330
1F
100
AcDbEntity
  8
0
100
AcDbLine
 10
266.8114223782486
 20
62.5110149500174
 30
0.0000000000000015
 11
266.8114223782486
 21
42.41101495001703
 31
0.0000000000000028
  0
LINE
  5
66B
330
1F
100
AcDbEntity
  8
0
100
AcDbLine
 10
257.5114223782475
 20
42.41101495001703
 30
0.0000000000000028
 11
257.5114223782475
 21
82.61101495001776
 31
0.0000000000000003
  0
LINE
  5
66C
330
1F
100
AcDbEntity
  8
0
100
AcDbLine
 10
259.8114223782477
 20
167.8110149500176
 30
-0.0000000000000049
 11
259.7953188332849
 21
167.8110149500176
 31
-0.0000000000000049
  0
LINE
  5
66D
330
1F
100
AcDbEntity
  8
0
100
AcDbLine
 10
189.8275259232114
 20
167.8110149500176
 30
-0.0000000000000049
 11
189.8114223782476
 21
167.8110149500176
 31
-0.0000000000000049
  0
LINE
  5
66E
330
1F
100
AcDbEntity
  8
0
100
AcDbLine
 10
267.1545593069832
 20
62.5110149500174
 30
0.0000000000000015
 11
267.1545593069832
 21
82.51101495001739
 31
0.0000000000000003
  0
LINE
  5
66F
330
1F
100
AcDbEntity
  8
0
100
AcDbLine
 10
267.1545593069832
 20
42.5110149500174
 30
0.0000000000000028
 11
267.1545593069832
 21
62.5110149500174
 31
0.0000000000000015
  0
LINE
  5
670
330
1F
100
AcDbEntity
  8
0
100
AcDbLine
 10
257.8114223782486
 20
166.0640632772215
 30
-0.0000000000000048
 11
191.8114223782486
 21
166.0640632772215
 31
-0.0000000000000048
  0
LINE
  5
671
330
1F
100
AcDbEntity
  8
0
100
AcDbLine
 10
257.8114223782486
 20
165.8110149500165
 30
-0.0000000000000048
 11
241.4113917326531
 21
165.8110149500165
 31
-0.0000000000000048
  0
LINE
  5
672
330
1F
100
AcDbEntity
  8
0
100
AcDbLine
 10
208.2114530238432
 20
165.8110149500165
 30
-0.0000000000000048
 11
191.8114249227546
 21
165.8110149500165
 31
-0.0000000000000048
  0
LINE
  5
673
330
1F
100
AcDbEntity
  8
0
100
AcDbLine
 10
192.3114223782476
 20
62.5110149500174
 30
0.0000000000000015
 11
192.3114223782476
 21
82.51101495001739
 31
0.0000000000000003
  0
LINE
  5
674
330
1F
100
AcDbEntity
  8
0
100
AcDbLine
 10
192.3114223782476
 20
42.5110149500174
 30
0.0000000000000028
 11
192.3114223782476
 21
62.5110149500174
 31
0.0000000000000015
  0
LINE
  5
675
330
1F
100
AcDbEntity
  8
0
100
AcDbLine
 10
200.5114223782484
 20
71.33130406092504
 30
0.000000000000001
 11
200.1114223782479
 21
71.33130406092504
 31
0.000000000000001
  0
LINE
  5
676
330
1F
100
AcDbEntity
  8
0
100
AcDbLine
 10
198.1114223782478
 20
104.5110149500165
 30
-0.000000000000001
 11
198.1114223782478
 21
74.57739386003005
 31
0.0000000000000008
  0
LINE
  5
677
330
1F
100
AcDbEntity
  8
0
100
AcDbLine
 10
200.1114223782479
 20
71.33130406092504
 30
0.000000000000001
 11
200.1114223782479
 21
104.5110149500165
 31
-0.000000000000001
  0
LINE
  5
678
330
1F
100
AcDbEntity
  8
0
100
AcDbLine
 10
249.5114223782475
 20
71.33130406092504
 30
0.000000000000001
 11
249.5114223782475
 21
104.5110149500165
 31
-0.000000000000001
  0
LINE
  5
679
330
1F
100
AcDbEntity
  8
0
100
AcDbLine
 10
249.1114223782479
 20
71.33130406092504
 30
0.000000000000001
 11
249.5114223782475
 21
71.33130406092504
 31
0.000000000000001
  0
LINE
  5
67A
330
1F
100
AcDbEntity
  8
0
100
AcDbLine
 10
200.5114223782484
 20
71.33130406092504
 30
0.000000000000001
 11
249.1114223782479
 21
71.33130406092504
 31
0.000000000000001
  0
LINE
  5
67B
330
1F
100
AcDbEntity
  8
0
100
AcDbLine
 10
257.3114223782477
 20
62.5110149500174
 30
0.0000000000000015
 11
257.3114223782477
 21
82.51101495001739
 31
0.0000000000000003
  0
LINE
  5
67C
330
1F
100
AcDbEntity
  8
0
100
AcDbLine
 10
257.3114223782477
 20
42.5110149500174
 30
0.0000000000000028
 11
257.3114223782477
 21
62.5110149500174
 31
0.0000000000000015
  0
LINE
  5
67D
330
1F
100
AcDbEntity
  8
0
100
AcDbLine
 10
249.1114223782479
 20
42.5110149500174
 30
0.0000000000000028
 11
249.1114223782479
 21
71.33130406092504
 31
0.000000000000001
  0
LINE
  5
67E
330
1F
100
AcDbEntity
  8
0
100
AcDbLine
 10
201.0114223782475
 20
42.5110149500174
 30
0.0000000000000028
 11
201.0114223782475
 21
71.33095151252883
 31
0.000000000000001
  0
LINE
  5
67F
330
1F
100
AcDbEntity
  8
0
100
AcDbLine
 10
200.8114223782477
 20
62.5110149500174
 30
0.0000000000000015
 11
200.8114223782477
 21
71.331618537954
 31
0.000000000000001
  0
LINE
  5
680
330
1F
100
AcDbEntity
  8
0
100
AcDbLine
 10
200.8114223782477
 20
42.71101495001722
 30
0.0000000000000027
 11
200.8114223782477
 21
62.5110149500174
 31
0.0000000000000015
  0
LINE
  5
681
330
1F
100
AcDbEntity
  8
0
100
AcDbLine
 10
248.6114223782479
 20
42.5110149500174
 30
0.0000000000000028
 11
248.6114223782479
 21
71.33095151252883
 31
0.000000000000001
  0
LINE
  5
682
330
1F
100
AcDbEntity
  8
0
100
AcDbLine
 10
248.8114223782477
 20
62.5110149500174
 30
0.0000000000000015
 11
248.8114223782477
 21
71.331618537954
 31
0.000000000000001
  0
LINE
  5
683
330
1F
100
AcDbEntity
  8
0
100
AcDbLine
 10
248.8114223782477
 20
42.71101495001722
 30
0.0000000000000027
 11
248.8114223782477
 21
62.5110149500174
 31
0.0000000000000015
  0
ARC
  5
686
330
1F
100
AcDbEntity
  8
0
  6
Continuous
100
AcDbCircle
 10
374.7554415256908
 20
1553.763464988411
 30
-0.0000000000000055
 40
75.00000000000001
100
AcDbArc
 50
0.0
 51
45.00000000000023
  0
ARC
  5
687
330
1F
100
AcDbEntity
  8
0
  6
Continuous
100
AcDbCircle
 10
-374.7554415256908
 20
1553.763464988411
 30
0.0000000000000055
 40
42.00000000000001
210
0.0
220
0.0
230
-1.0
100
AcDbArc
 50
134.9999999999997
 51
180.0
  0
ARC
  5
688
330
1F
100
AcDbEntity
  8
0
  6
Continuous
100
AcDbCircle
 10
417.2554415256908
 20
1531.26346498841
 30
-0.0000000000000055
 40
0.5
100
AcDbArc
 50
180.0
 51
270.0
  0
ARC
  5
689
330
1F
100
AcDbEntity
  8
0
  6
Continuous
100
AcDbCircle
 10
449.2554415256909
 20
1531.26346498841
 30
-0.0000000000000055
 40
0.5
100
AcDbArc
 50
270.0
 51
0.0
  0
ARC
  5
68A
330
1F
100
AcDbEntity
  8
0
  6
Continuous
100
AcDbCircle
 10
411.5249941473912
 20
1622.352822763504
 30
-0.0000000000000055
 40
0.5
100
AcDbArc
 50
45.00000000000023
 51
134.9999999999997
  0
ARC
  5
68B
330
1F
100
AcDbEntity
  8
0
  6
Continuous
100
AcDbCircle
 10
388.8975771494216
 20
1599.725405765536
 30
-0.0000000000000055
 40
0.5
100
AcDbArc
 50
134.9999999999997
 51
225.0000000000002
  0
ARC
  5
68C
330
1F
100
AcDbEntity
  8
0
  6
Continuous
100
AcDbCircle
 10
364.5023931984852
 20
1576.037328595786
 30
-0.0000000000000055
 40
66.5
100
AcDbArc
 50
45.00000000000023
 51
83.78366823872729
  0
ARC
  5
68D
330
1F
100
AcDbEntity
  8
0
  6
Continuous
100
AcDbCircle
 10
449.2554415256909
 20
445.0829828463211
 30
-0.0000000000000055
 40
0.5
100
AcDbArc
 50
270.0
 51
0.0
  0
ARC
  5
68E
330
1F
100
AcDbEntity
  8
0
  6
Continuous
100
AcDbCircle
 10
417.2554415256908
 20
445.0829828463211
 30
-0.0000000000000055
 40
0.5
100
AcDbArc
 50
180.0
 51
270.0
  0
ARC
  5
68F
330
1F
100
AcDbEntity
  8
0
  6
Continuous
100
AcDbCircle
 10
449.2554415256909
 20
1530.217810737875
 30
-0.0000000000000055
 40
0.5
100
AcDbArc
 50
0.0
 51
90.0
  0
ARC
  5
690
330
1F
100
AcDbEntity
  8
0
  6
Continuous
100
AcDbCircle
 10
417.2554415256908
 20
1530.217810737875
 30
-0.0000000000000055
 40
0.5
100
AcDbArc
 50
90.0
 51
180.0
  0
ARC
  5
691
330
1F
100
AcDbEntity
  8
0
  6
Continuous
100
AcDbCircle
 10
-364.5023931984852
 20
1576.037328595786
 30
0.0000000000000055
 40
33.5
210
0.0
220
0.0
230
-1.0
100
AcDbArc
 50
102.4115630768172
 51
134.9999999999997
  0
ARC
  5
692
330
1F
100
AcDbEntity
  8
0
  6
Continuous
100
AcDbCircle
 10
369.702393198485
 20
1593.037328595787
 30
-0.0000000000000055
 40
2.0
100
AcDbArc
 50
270.0
 51
0.0
  0
ARC
  5
693
330
1F
100
AcDbEntity
  8
0
  6
Continuous
100
AcDbCircle
 10
369.702393198485
 20
1659.037328595786
 30
-0.0000000000000055
 40
2.0
100
AcDbArc
 50
0.0
 51
90.0
  0
ARC
  5
694
330
1F
100
AcDbEntity
  8
0
  6
Continuous
100
AcDbCircle
 10
369.9554415256899
 20
343.0373285957867
 30
-0.0000000000000055
 40
2.0
100
AcDbArc
 50
270.0
 51
0.0
  0
ARC
  5
695
330
1F
100
AcDbEntity
  8
0
  6
Continuous
100
AcDbCircle
 10
369.9554415256899
 20
409.0373285957865
 30
-0.0000000000000055
 40
2.0
100
AcDbArc
 50
0.0
 51
90.0
  0
ARC
  5
696
330
1F
100
AcDbEntity
  8
0
  6
Continuous
100
AcDbCircle
 10
408.55544152569
 20
1230.037328595787
 30
-0.0000000000000055
 40
2.0
100
AcDbArc
 50
90.0
 51
180.0
  0
ARC
  5
697
330
1F
100
AcDbEntity
  8
0
  6
Continuous
100
AcDbCircle
 10
408.55544152569
 20
1198.137328595787
 30
-0.0000000000000055
 40
2.0
100
AcDbArc
 50
180.0
 51
270.0
  0
ARC
  5
698
330
1F
100
AcDbEntity
  8
0
  6
Continuous
100
AcDbCircle
 10
415.1054415256902
 20
1127.587328595787
 30
-0.0000000000000055
 40
1.5
100
AcDbArc
 50
180.0
 51
270.0
  0
ARC
  5
699
330
1F
100
AcDbEntity
  8
0
  6
Continuous
100
AcDbCircle
 10
451.4054415256905
 20
1127.587328595787
 30
-0.0000000000000055
 40
1.5
100
AcDbArc
 50
270.0
 51
0.0
  0
ARC
  5
69A
330
1F
100
AcDbEntity
  8
0
  6
Continuous
100
AcDbCircle
 10
482.5741350629086
 20
1130.434278677495
 30
-0.0000000000000055
 40
4.027409021014872
100
AcDbArc
 50
194.1403250093994
 51
355.8596749906
  0
ARC
  5
69B
330
1F
100
AcDbEntity
  8
0
  6
Continuous
100
AcDbCircle
 10
595.0327933943043
 20
1158.766098680479
 30
-0.0000000000000055
 40
120.0
100
AcDbArc
 50
176.0840157885573
 51
178.8914535767601
  0
ARC
  5
69C
330
1F
100
AcDbEntity
  8
0
  6
Continuous
100
AcDbCircle
 10
595.0327933943043
 20
1158.766098680479
 30
-0.0000000000000055
 40
120.0
100
AcDbArc
 50
191.108546423236
 51
194.1403250093994
  0
ARC
  5
69D
330
1F
100
AcDbEntity
  8
0
  6
Continuous
100
AcDbCircle
 10
366.9042075312946
 20
1138.807433591266
 30
-0.0000000000000055
 40
120.0
100
AcDbArc
 50
11.10854642323605
 51
13.91598421144989
  0
ARC
  5
69E
330
1F
100
AcDbEntity
  8
0
  6
Continuous
100
AcDbCircle
 10
366.9042075312946
 20
1138.807433591266
 30
-0.0000000000000055
 40
120.0
100
AcDbArc
 50
355.8596749906
 51
358.8914535767667
  0
ARC
  5
69F
330
1F
100
AcDbEntity
  8
0
  6
Continuous
100
AcDbCircle
 10
384.7554415256908
 20
424.5373285957867
 30
-0.0000000000000055
 40
65.10000000000002
100
AcDbArc
 50
270.0
 51
0.0
  0
ARC
  5
6A0
330
1F
100
AcDbEntity
  8
0
  6
Continuous
100
AcDbCircle
 10
-384.7554415256908
 20
424.5373285957867
 30
0.0000000000000055
 40
31.9
210
0.0
220
0.0
230
-1.0
100
AcDbArc
 50
180.0
 51
270.0
  0
ARC
  5
6A1
330
1F
100
AcDbEntity
  8
0
  6
Continuous
100
AcDbCircle
 10
475.2554415188869
 20
1214.087328595669
 30
-0.0000000000000055
 40
19.94999999647132
100
AcDbArc
 50
190.3428267644071
 51
199.3692319177717
  0
ARC
  5
6A2
330
1F
100
AcDbEntity
  8
0
  6
Continuous
100
AcDbCircle
 10
475.2554415257627
 20
1214.087328600152
 30
-0.0000000000000055
 40
19.95000000437748
100
AcDbArc
 50
250.6307680923507
 51
259.6571732408104
  0
ARC
  5
6A3
330
1F
100
AcDbEntity
  8
0
  6
Continuous
100
AcDbCircle
 10
-456.7176139596977
 20
1207.570316309966
 30
0.0000000000000055
 40
0.3
210
0.0
220
0.0
230
-1.0
100
AcDbArc
 50
225.0
 51
340.6307680883875
  0
ARC
  5
6A4
330
1F
100
AcDbEntity
  8
0
  6
Continuous
100
AcDbCircle
 10
-468.7384292398691
 20
1195.549501029794
 30
0.0000000000000055
 40
0.3
210
0.0
220
0.0
230
-1.0
100
AcDbArc
 50
289.3692319116068
 51
45.0
  0
ARC
  5
6A5
330
1F
100
AcDbEntity
  8
0
  6
Continuous
100
AcDbCircle
 10
475.2554415243984
 20
1214.087328595786
 30
-0.0000000000000055
 40
19.95000000129266
100
AcDbArc
 50
10.34282676056681
 51
18.38895663256742
  0
ARC
  5
6A6
330
1F
100
AcDbEntity
  8
0
  6
Continuous
100
AcDbCircle
 10
-475.2554415256908
 20
1214.087328595787
 30
0.0000000000000055
 40
19.95
210
0.0
220
0.0
230
-1.0
100
AcDbArc
 50
349.657173238771
 51
100.342826761235
  0
ARC
  5
6A7
330
1F
100
AcDbEntity
  8
0
  6
Continuous
100
AcDbCircle
 10
-475.2554415256908
 20
1214.087328595787
 30
0.0000000000000055
 40
19.95
210
0.0
220
0.0
230
-1.0
100
AcDbArc
 50
169.657173238771
 51
280.3428267612351
  0
ARC
  5
6A8
330
1F
100
AcDbEntity
  8
0
  6
Continuous
100
AcDbCircle
 10
475.1054415256922
 20
1214.237328595956
 30
-0.0000000000000055
 40
19.65000000017008
100
AcDbArc
 50
250.630768088554
 51
259.6571732388507
  0
ARC
  5
6A9
330
1F
100
AcDbEntity
  8
0
  6
Continuous
100
AcDbCircle
 10
475.2554415256898
 20
1214.087328595787
 30
-0.0000000000000055
 40
18.95
100
AcDbArc
 50
83.80047270573871
 51
186.1995272942549
  0
ARC
  5
6AA
330
1F
100
AcDbEntity
  8
0
  6
Continuous
100
AcDbCircle
 10
475.2554415256898
 20
1214.087328595787
 30
-0.0000000000000055
 40
18.95
100
AcDbArc
 50
263.8004727057387
 51
6.199527294255005
  0
ARC
  5
6AB
330
1F
100
AcDbEntity
  8
0
  6
Continuous
100
AcDbCircle
 10
-475.2554415256898
 20
1214.087328595787
 30
0.0000000000000055
 40
20.10000000000001
210
0.0
220
0.0
230
-1.0
100
AcDbArc
 50
276.6262493101538
 51
284.3268875928
  0
ARC
  5
6AC
330
1F
100
AcDbEntity
  8
0
  6
Continuous
100
AcDbCircle
 10
-475.2554415256898
 20
1214.087328595787
 30
0.0000000000000055
 40
20.10000000000001
210
0.0
220
0.0
230
-1.0
100
AcDbArc
 50
63.25874845454666
 51
90.0
  0
ARC
  5
6AD
330
1F
100
AcDbEntity
  8
0
  6
Continuous
100
AcDbCircle
 10
-475.2554415256898
 20
1214.087328595787
 30
0.0000000000000055
 40
20.10000000000001
210
0.0
220
0.0
230
-1.0
100
AcDbArc
 50
90.0
 51
109.3162601224518
  0
ARC
  5
6AE
330
1F
100
AcDbEntity
  8
0
  6
Continuous
100
AcDbCircle
 10
-475.2554415256898
 20
1214.087328595787
 30
0.0000000000000055
 40
20.10000000000001
210
0.0
220
0.0
230
-1.0
100
AcDbArc
 50
166.117513418146
 51
253.372514899181
  0
ARC
  5
6AF
330
1F
100
AcDbEntity
  8
0
  6
Continuous
100
AcDbCircle
 10
475.2554415256898
 20
1214.087328595787
 30
-0.0000000000000055
 40
20.0
100
AcDbArc
 50
89.99999887612611
 51
194.034380808659
  0
ARC
  5
6B0
330
1F
100
AcDbEntity
  8
0
  6
Continuous
100
AcDbCircle
 10
475.2554415256898
 20
1214.087328595787
 30
-0.0000000000000055
 40
20.0
100
AcDbArc
 50
255.8193705902609
 51
0.0
  0
ARC
  5
6B1
330
1F
100
AcDbEntity
  8
0
  6
Continuous
100
AcDbCircle
 10
475.2554415256898
 20
1214.087328595787
 30
-0.0000000000000055
 40
20.0
100
AcDbArc
 50
0.0
 51
16.24498642167572
  0
ARC
  5
6B2
330
1F
100
AcDbEntity
  8
0
  6
Continuous
100
AcDbCircle
 10
475.2554415256898
 20
1214.087328595787
 30
-0.0000000000000055
 40
20.0
100
AcDbArc
 50
70.66688453025709
 51
89.99999887612611
  0
ARC
  5
6B3
330
1F
100
AcDbEntity
  8
0
  6
Continuous
100
AcDbCircle
 10
240.8114209404266
 20
1531.26346498841
 30
-0.0000000000000055
 40
0.5
100
AcDbArc
 50
270.0
 51
0.0
  0
ARC
  5
6B4
330
1F
100
AcDbEntity
  8
0
  6
Continuous
100
AcDbCircle
 10
208.8114209404266
 20
1531.26346498841
 30
-0.0000000000000055
 40
0.5
100
AcDbArc
 50
180.0
 51
270.0
  0
ARC
  5
6B5
330
1F
100
AcDbEntity
  8
0
  6
Continuous
100
AcDbCircle
 10
166.8114209404275
 20
1195.137328595786
 30
-0.0000000000000055
 40
1.0
100
AcDbArc
 50
180.0
 51
270.0
  0
ARC
  5
6B6
330
1F
100
AcDbEntity
  8
0
  6
Continuous
100
AcDbCircle
 10
166.8114209404275
 20
1233.037328595786
 30
-0.0000000000000055
 40
1.0
100
AcDbArc
 50
90.0
 51
180.0
  0
ARC
  5
6B7
330
1F
100
AcDbEntity
  8
0
  6
Continuous
100
AcDbCircle
 10
267.1545578691621
 20
1195.587328595787
 30
-0.0000000000000055
 40
1.5
100
AcDbArc
 50
270.0
 51
352.8435485856507
  0
ARC
  5
6B8
330
1F
100
AcDbEntity
  8
0
  6
Continuous
100
AcDbCircle
 10
267.1545578691621
 20
1232.587328595787
 30
-0.0000000000000055
 40
1.5
100
AcDbArc
 50
7.156451414349237
 51
90.0
  0
ARC
  5
6B9
330
1F
100
AcDbEntity
  8
0
  6
Continuous
100
AcDbCircle
 10
119.8114209404266
 20
1214.087328595787
 30
-0.0000000000000055
 40
150.0
100
AcDbArc
 50
0.0048670989670395
 51
7.156451414342571
  0
ARC
  5
6BA
330
1F
100
AcDbEntity
  8
0
  6
Continuous
100
AcDbCircle
 10
119.8114209404266
 20
1214.087328595787
 30
-0.0000000000000055
 40
150.0
100
AcDbArc
 50
352.8435485856511
 51
0.0048670989670395
  0
ARC
  5
6BB
330
1F
100
AcDbEntity
  8
0
  6
Continuous
100
AcDbCircle
 10
208.8114209404266
 20
1530.217810737875
 30
-0.0000000000000055
 40
0.5
100
AcDbArc
 50
90.0
 51
180.0
  0
ARC
  5
6BC
330
1F
100
AcDbEntity
  8
0
  6
Continuous
100
AcDbCircle
 10
240.8114209404266
 20
1530.217810737875
 30
-0.0000000000000055
 40
0.5
100
AcDbArc
 50
0.0
 51
90.0
  0
ARC
  5
6BD
330
1F
100
AcDbEntity
  8
0
  6
Continuous
100
AcDbCircle
 10
208.8114209404266
 20
445.0829828463211
 30
-0.0000000000000055
 40
0.5
100
AcDbArc
 50
180.0
 51
270.0
  0
ARC
  5
6BE
330
1F
100
AcDbEntity
  8
0
  6
Continuous
100
AcDbCircle
 10
240.8114209404266
 20
445.0829828463211
 30
-0.0000000000000055
 40
0.5
100
AcDbArc
 50
270.0
 51
0.0
  0
ARC
  5
6BF
330
1F
100
AcDbEntity
  8
0
  6
Continuous
100
AcDbCircle
 10
192.3114209404266
 20
1233.887328595786
 30
-0.0000000000000055
 40
0.2
100
AcDbArc
 50
90.0
 51
180.0
  0
ARC
  5
6C0
330
1F
100
AcDbEntity
  8
0
  6
Continuous
100
AcDbCircle
 10
192.3114209404266
 20
1194.287328595787
 30
-0.0000000000000055
 40
0.2
100
AcDbArc
 50
180.0
 51
270.0
  0
ARC
  5
6C1
330
1F
100
AcDbEntity
  8
0
  6
Continuous
100
AcDbCircle
 10
257.3114209404266
 20
1194.287328595787
 30
-0.0000000000000055
 40
0.2
100
AcDbArc
 50
270.0
 51
0.0
  0
ARC
  5
6C2
330
1F
100
AcDbEntity
  8
0
  6
Continuous
100
AcDbCircle
 10
257.3114209404266
 20
1233.887328595786
 30
-0.0000000000000055
 40
0.2
100
AcDbArc
 50
0.0
 51
90.0
  0
ARC
  5
6C3
330
1F
100
AcDbEntity
  8
0
  6
Continuous
100
AcDbCircle
 10
242.9614209404272
 20
1127.587328595787
 30
-0.0000000000000055
 40
1.5
100
AcDbArc
 50
270.0
 51
0.0
  0
ARC
  5
6C4
330
1F
100
AcDbEntity
  8
0
  6
Continuous
100
AcDbCircle
 10
206.661420940427
 20
1127.587328595787
 30
-0.0000000000000055
 40
1.5
100
AcDbArc
 50
180.0
 51
270.0
  0
ARC
  5
6C5
330
1F
100
AcDbEntity
  8
0
  6
Continuous
100
AcDbCircle
 10
248.6114209404268
 20
1233.887328595786
 30
-0.0000000000000055
 40
0.2
100
AcDbArc
 50
0.0
 51
90.0
  0
ARC
  5
6C6
330
1F
100
AcDbEntity
  8
0
  6
Continuous
100
AcDbCircle
 10
248.6114209404268
 20
1194.287328595787
 30
-0.0000000000000055
 40
0.2
100
AcDbArc
 50
270.0
 51
0.0
  0
ARC
  5
6C7
330
1F
100
AcDbEntity
  8
0
  6
Continuous
100
AcDbCircle
 10
201.0114209404264
 20
1194.287328595787
 30
-0.0000000000000055
 40
0.2
100
AcDbArc
 50
180.0
 51
270.0
  0
ARC
  5
6C8
330
1F
100
AcDbEntity
  8
0
  6
Continuous
100
AcDbCircle
 10
201.0114209404264
 20
1233.887328595786
 30
-0.0000000000000055
 40
0.2
100
AcDbArc
 50
90.0
 51
180.0
  0
ARC
  5
6C9
330
1F
100
AcDbEntity
  8
0
  6
Continuous
100
AcDbCircle
 10
-224.8114209404266
 20
1626.037328595787
 30
0.0000000000000055
 40
16.5
210
0.0
220
0.0
230
-1.0
100
AcDbArc
 50
90.0
 51
180.0000021108607
  0
ARC
  5
6CA
330
1F
100
AcDbEntity
  8
0
  6
Continuous
100
AcDbCircle
 10
-224.8114209404266
 20
1626.037328595787
 30
0.0000000000000055
 40
16.5
210
0.0
220
0.0
230
-1.0
100
AcDbArc
 50
359.9999978891393
 51
90.0
  0
ARC
  5
6CB
330
1F
100
AcDbEntity
  8
0
  6
Continuous
100
AcDbCircle
 10
224.8114209404266
 20
1626.037328595787
 30
-0.0000000000000055
 40
35.0
100
AcDbArc
 50
298.1306328740775
 51
241.8693765409042
  0
ARC
  5
6CC
330
1F
100
AcDbEntity
  8
0
  6
Continuous
100
AcDbCircle
 10
-224.8114209404266
 20
376.0373285957867
 30
0.0000000000000055
 40
16.6
210
0.0
220
0.0
230
-1.0
100
AcDbArc
 50
179.9999932680581
 51
0.0
  0
ARC
  5
6CD
330
1F
100
AcDbEntity
  8
0
  6
Continuous
100
AcDbCircle
 10
224.8114209404266
 20
376.0373285957867
 30
-0.0000000000000055
 40
35.0
100
AcDbArc
 50
270.0000023537464
 51
0.0
  0
ARC
  5
6CE
330
1F
100
AcDbEntity
  8
0
  6
Continuous
100
AcDbCircle
 10
224.8114209404266
 20
376.0373285957867
 30
-0.0000000000000055
 40
35.0
100
AcDbArc
 50
0.0
 51
61.6893672181466
  0
ARC
  5
6CF
330
1F
100
AcDbEntity
  8
0
  6
Continuous
100
AcDbCircle
 10
224.8114209404266
 20
376.0373285957867
 30
-0.0000000000000055
 40
35.0
100
AcDbArc
 50
118.3106211191145
 51
270.0000023537464
  0
ARC
  5
6D0
330
1F
100
AcDbEntity
  8
0
  6
Continuous
100
AcDbCircle
 10
224.8114209404266
 20
1626.037328595787
 30
-0.0000000000000055
 40
33.0
100
AcDbArc
 50
300.0037425293834
 51
239.9962490271703
  0
ARC
  5
6D1
330
1F
100
AcDbEntity
  8
0
  6
Continuous
100
AcDbCircle
 10
-224.8114209404266
 20
1626.037328595787
 30
0.0000000000000055
 40
16.8
210
0.0
220
0.0
230
-1.0
100
AcDbArc
 50
90.0
 51
190.8450055450093
  0
ARC
  5
6D2
330
1F
100
AcDbEntity
  8
0
  6
Continuous
100
AcDbCircle
 10
-224.8114209404266
 20
1626.037328595787
 30
0.0000000000000055
 40
16.8
210
0.0
220
0.0
230
-1.0
100
AcDbArc
 50
349.1549944549907
 51
90.0
  0
ARC
  5
6D8
330
1F
100
AcDbEntity
  8
0
100
AcDbCircle
 10
166.8114223782486
 20
81.46101495001721
 30
0.0000000000000004
 40
1.0
100
AcDbArc
 50
90.0
 51
180.0
  0
ARC
  5
6D9
330
1F
100
AcDbEntity
  8
0
100
AcDbCircle
 10
166.8114223782486
 20
43.56101495001758
 30
0.0000000000000027
 40
1.0
100
AcDbArc
 50
180.0
 51
270.0
  0
ARC
  5
6DA
330
1F
100
AcDbEntity
  8
0
100
AcDbCircle
 10
119.8114223782477
 20
62.5110149500174
 30
0.0000000000000015
 40
150.0
100
AcDbArc
 50
352.8435485856511
 51
0.0048670989670395
  0
ARC
  5
6DB
330
1F
100
AcDbEntity
  8
0
100
AcDbCircle
 10
119.8114223782477
 20
62.5110149500174
 30
0.0000000000000015
 40
150.0
100
AcDbArc
 50
0.0048670989670395
 51
7.156451414342571
  0
ARC
  5
6DC
330
1F
100
AcDbEntity
  8
0
100
AcDbCircle
 10
267.1545593069832
 20
81.0110149500174
 30
0.0000000000000004
 40
1.5
100
AcDbArc
 50
7.156451414349237
 51
90.0
  0
ARC
  5
6DD
330
1F
100
AcDbEntity
  8
0
100
AcDbCircle
 10
267.1545593069832
 20
44.01101495001739
 30
0.0000000000000027
 40
1.5
100
AcDbArc
 50
270.0
 51
352.8435485856507
  0
ARC
  5
6DE
330
1F
100
AcDbEntity
  8
0
100
AcDbCircle
 10
191.8114223782486
 20
168.0640632772224
 30
-0.0000000000000049
 40
2.0
100
AcDbArc
 50
180.0
 51
270.0
  0
ARC
  5
6DF
330
1F
100
AcDbEntity
  8
0
100
AcDbCircle
 10
257.8114223782486
 20
168.0640632772224
 30
-0.0000000000000049
 40
2.0
100
AcDbArc
 50
270.0
 51
0.0
  0
ARC
  5
6E0
330
1F
100
AcDbEntity
  8
0
100
AcDbCircle
 10
191.8114223782486
 20
167.8110149500176
 30
-0.0000000000000049
 40
2.0
100
AcDbArc
 50
180.0
 51
270.0
  0
ARC
  5
6E1
330
1F
100
AcDbEntity
  8
0
100
AcDbCircle
 10
257.8114223782486
 20
167.8110149500176
 30
-0.0000000000000049
 40
2.0
100
AcDbArc
 50
270.0
 51
0.0
  0
ARC
  5
6E2
330
1F
100
AcDbEntity
  8
0
100
AcDbCircle
 10
192.3114223782476
 20
42.71101495001722
 30
0.0000000000000027
 40
0.2
100
AcDbArc
 50
180.0
 51
270.0
  0
ARC
  5
6E3
330
1F
100
AcDbEntity
  8
0
100
AcDbCircle
 10
192.3114223782476
 20
82.31101495001757
 30
0.0000000000000003
 40
0.2
100
AcDbArc
 50
90.0
 51
180.0
  0
ARC
  5
6E4
330
1F
100
AcDbEntity
  8
0
100
AcDbCircle
 10
257.3114223782477
 20
82.31101495001757
 30
0.0000000000000003
 40
0.2
100
AcDbArc
 50
0.0
 51
90.0
  0
ARC
  5
6E5
330
1F
100
AcDbEntity
  8
0
100
AcDbCircle
 10
257.3114223782477
 20
42.71101495001722
 30
0.0000000000000027
 40
0.2
100
AcDbArc
 50
270.0
 51
0.0
  0
ARC
  5
6E6
330
1F
100
AcDbEntity
  8
0
100
AcDbCircle
 10
248.6114223782479
 20
42.71101495001722
 30
0.0000000000000027
 40
0.2
100
AcDbArc
 50
270.0
 51
0.0
  0
ARC
  5
6E7
330
1F
100
AcDbEntity
  8
0
100
AcDbCircle
 10
201.0114223782475
 20
42.71101495001722
 30
0.0000000000000027
 40
0.2
100
AcDbArc
 50
180.0
 51
270.0
  0
ARC
  5
6E8
330
1F
100
AcDbEntity
  8
0
100
AcDbCircle
 10
246.5114223782484
 20
104.5110149500165
 30
-0.000000000000001
 40
4.800000000000001
100
AcDbArc
 50
154.2794808966232
 51
205.7205191033768
  0
ARC
  5
6E9
330
1F
100
AcDbEntity
  8
0
100
AcDbCircle
 10
-224.8114223782477
 20
104.5110149500165
 30
0.000000000000001
 40
17.5
210
0.0
220
0.0
230
-1.0
100
AcDbArc
 50
160.5365469341576
 51
173.1635872659206
  0
ARC
  5
6EA
330
1F
100
AcDbEntity
  8
0
100
AcDbCircle
 10
-224.8114223782477
 20
104.5110149500165
 30
0.000000000000001
 40
17.0
210
0.0
220
0.0
230
-1.0
100
AcDbArc
 50
305.0904672353611
 51
354.9095327646434
  0
ARC
  5
6EB
330
1F
100
AcDbEntity
  8
0
100
AcDbCircle
 10
213.9614223782473
 20
85.71826368789563
 30
0.0000000000000001
 40
5.0
100
AcDbArc
 50
39.66813680260231
 51
80.33186319738858
  0
ARC
  5
6EC
330
1F
100
AcDbEntity
  8
0
100
AcDbCircle
 10
203.1114223782479
 20
104.5110149500165
 30
-0.000000000000001
 40
5.0
100
AcDbArc
 50
339.6681368026028
 51
20.33186319738995
  0
ARC
  5
6ED
330
1F
100
AcDbEntity
  8
0
100
AcDbCircle
 10
224.8114223782477
 20
104.5110149500165
 30
-0.000000000000001
 40
17.0
100
AcDbArc
 50
5.090467235356648
 51
13.93100379383323
  0
ARC
  5
6EE
330
1F
100
AcDbEntity
  8
0
100
AcDbCircle
 10
-246.5114223782484
 20
104.5110149500165
 30
0.000000000000001
 40
5.0
210
0.0
220
0.0
230
-1.0
100
AcDbArc
 50
339.6681368026028
 51
20.33186319738995
  0
ARC
  5
6EF
330
1F
100
AcDbEntity
  8
0
100
AcDbCircle
 10
224.8114223782477
 20
104.5110149500165
 30
-0.000000000000001
 40
16.5
100
AcDbArc
 50
269.9999936674177
 51
359.9999957782785
  0
ARC
  5
6F0
330
1F
100
AcDbEntity
  8
0
100
AcDbCircle
 10
224.8114223782477
 20
104.5110149500165
 30
-0.000000000000001
 40
16.5
100
AcDbArc
 50
180.0
 51
270.0000021108607
  0
ARC
  5
6F1
330
1F
100
AcDbEntity
  8
0
100
AcDbCircle
 10
224.8114223782477
 20
104.5110149500165
 30
-0.000000000000001
 40
24.69999999999999
100
AcDbArc
 50
0.0
 51
48.08811577861352
  0
ARC
  5
6F2
330
1F
100
AcDbEntity
  8
0
100
AcDbCircle
 10
224.8114223782477
 20
104.5110149500165
 30
-0.000000000000001
 40
24.69999999999999
100
AcDbArc
 50
131.9118842213864
 51
180.0
  0
ARC
  5
6F3
330
1F
100
AcDbEntity
  8
0
100
AcDbCircle
 10
224.8114223782477
 20
104.5110149500165
 30
-0.000000000000001
 40
17.5
100
AcDbArc
 50
160.5365469341576
 51
173.1635872659206
  0
ARC
  5
6F4
330
1F
100
AcDbEntity
  8
0
100
AcDbCircle
 10
-203.1114223782479
 20
104.5110149500165
 30
0.000000000000001
 40
4.800000000000001
210
0.0
220
0.0
230
-1.0
100
AcDbArc
 50
154.2794808966232
 51
205.7205191033768
  0
ARC
  5
6F5
330
1F
100
AcDbEntity
  8
0
100
AcDbCircle
 10
224.8114223782477
 20
104.5110149500165
 30
-0.000000000000001
 40
17.5
100
AcDbArc
 50
186.8364127340794
 51
233.1635872659216
  0
ARC
  5
6F6
330
1F
100
AcDbEntity
  8
0
100
AcDbCircle
 10
-213.9614223782473
 20
85.71826368789563
 30
-0.0000000000000001
 40
4.800000000000001
210
0.0
220
0.0
230
-1.0
100
AcDbArc
 50
94.27948089662756
 51
145.7205191033739
  0
ARC
  5
6F7
330
1F
100
AcDbEntity
  8
0
100
AcDbCircle
 10
-224.8114223782477
 20
104.5110149500165
 30
0.000000000000001
 40
17.5
210
0.0
220
0.0
230
-1.0
100
AcDbArc
 50
246.8364127340838
 51
293.1635872659162
  0
ARC
  5
6F8
330
1F
100
AcDbEntity
  8
0
100
AcDbCircle
 10
235.661422378248
 20
85.71826368789563
 30
0.0000000000000001
 40
4.800000000000001
100
AcDbArc
 50
94.27948089662756
 51
145.7205191033739
  0
ARC
  5
6F9
330
1F
100
AcDbEntity
  8
0
100
AcDbCircle
 10
-224.8114223782477
 20
104.5110149500165
 30
0.000000000000001
 40
17.5
210
0.0
220
0.0
230
-1.0
100
AcDbArc
 50
186.8364127340794
 51
233.1635872659216
  0
ARC
  5
6FA
330
1F
100
AcDbEntity
  8
0
100
AcDbCircle
 10
-235.661422378248
 20
85.71826368789563
 30
-0.0000000000000001
 40
5.0
210
0.0
220
0.0
230
-1.0
100
AcDbArc
 50
39.66813680260231
 51
80.33186319738858
  0
ARC
  5
6FB
330
1F
100
AcDbEntity
  8
0
100
AcDbCircle
 10
-224.8114223782477
 20
104.5110149500165
 30
0.000000000000001
 40
26.7
210
0.0
220
0.0
230
-1.0
100
AcDbArc
 50
0.0
 51
51.55875525634697
  0
ARC
  5
6FC
330
1F
100
AcDbEntity
  8
0
100
AcDbCircle
 10
-224.8114223782477
 20
104.5110149500165
 30
0.000000000000001
 40
26.7
210
0.0
220
0.0
230
-1.0
100
AcDbArc
 50
128.441244743653
 51
180.0
  0
ARC
  5
6FD
330
1F
100
AcDbEntity
  8
0
100
AcDbCircle
 10
224.8114223782477
 20
104.5110149500165
 30
-0.000000000000001
 40
17.0
100
AcDbArc
 50
245.0904672353631
 51
294.9095327646369
  0
ARC
  5
6FE
330
1F
100
AcDbEntity
  8
0
100
AcDbCircle
 10
-224.8114223782477
 20
104.5110149500165
 30
0.000000000000001
 40
17.0
210
0.0
220
0.0
230
-1.0
100
AcDbArc
 50
5.090467235356648
 51
13.93100379383323
  0
ARC
  5
6FF
330
1F
100
AcDbEntity
  8
0
100
AcDbCircle
 10
224.8114223782477
 20
104.5110149500165
 30
-0.000000000000001
 40
17.0
100
AcDbArc
 50
305.0904672353611
 51
354.9095327646434
  0
ARC
  5
700
330
1F
100
AcDbEntity
  8
0
100
AcDbCircle
 10
-224.8114223782477
 20
104.5110149500165
 30
0.000000000000001
 40
16.5
210
0.0
220
0.0
230
-1.0
100
AcDbArc
 50
179.9999978891391
 51
270.0
  0
ARC
  5
701
330
1F
100
AcDbEntity
  8
0
100
AcDbCircle
 10
-224.8114223782477
 20
104.5110149500165
 30
0.000000000000001
 40
16.5
210
0.0
220
0.0
230
-1.0
100
AcDbArc
 50
270.0
 51
0.0000021108607603
  0
ARC
  5
702
330
1F
100
AcDbEntity
  8
0
100
AcDbCircle
 10
-224.8114223782477
 20
104.5110149500174
 30
0.000000000000001
 40
16.9
210
0.0
220
0.0
230
-1.0
100
AcDbArc
 50
167.5125053815935
 51
175.8150028613221
  0
ARC
  5
703
330
1F
100
AcDbEntity
  8
0
100
AcDbCircle
 10
-224.8114223782477
 20
104.5110149500174
 30
0.000000000000001
 40
16.9
210
0.0
220
0.0
230
-1.0
100
AcDbArc
 50
184.1906287412927
 51
235.8112443421837
  0
ARC
  5
704
330
1F
100
AcDbEntity
  8
0
100
AcDbCircle
 10
-224.8114223782477
 20
104.5110149500174
 30
0.000000000000001
 40
16.9
210
0.0
220
0.0
230
-1.0
100
AcDbArc
 50
244.1924980916296
 51
295.8074858230499
  0
ARC
  5
705
330
1F
100
AcDbEntity
  8
0
100
AcDbCircle
 10
-224.8114223782477
 20
104.5110149500174
 30
0.000000000000001
 40
16.9
210
0.0
220
0.0
230
-1.0
100
AcDbArc
 50
304.1887395724943
 51
355.8093551733922
  0
ARC
  5
706
330
1F
100
AcDbEntity
  8
0
100
AcDbCircle
 10
-224.8114223782477
 20
104.5110149500174
 30
0.000000000000001
 40
16.9
210
0.0
220
0.0
230
-1.0
100
AcDbArc
 50
4.185014956190476
 51
12.48751243591492
  0
ARC
  5
707
330
1F
100
AcDbEntity
  8
0
100
AcDbCircle
 10
-224.8114223782477
 20
104.5110149500165
 30
0.000000000000001
 40
16.6
210
0.0
220
0.0
230
-1.0
100
AcDbArc
 50
173.7112637335513
 51
0.0
  0
ARC
  5
708
330
1F
100
AcDbEntity
  8
0
100
AcDbCircle
 10
-224.8114223782477
 20
104.5110149500165
 30
0.000000000000001
 40
16.6
210
0.0
220
0.0
230
-1.0
100
AcDbArc
 50
0.0
 51
6.288764050040896
  0
ELLIPSE
  5
70B
330
1F
100
AcDbEntity
  8
0
  6
Continuous
100
AcDbEllipse
 10
475.2554415259055
 20
1214.087328608947
 30
-0.0000000000000055
 11
19.94999999317117
 21
0.0
 31
0.0
210
0.0
220
0.0
230
1.0
 40
0.9999999996808956
 41
1.249848487427477
 42
1.39027994579655
  0
ELLIPSE
  5
70C
330
1F
100
AcDbEntity
  8
0
  6
Continuous
100
AcDbEllipse
 10
475.4054415258568
 20
1213.937328606846
 30
-0.0000000000000055
 11
19.6499999943123
 21
0.0
 31
0.0
210
0.0
220
0.0
230
1.0
 40
0.9999999997252416
 41
1.238775372538153
 42
1.390279945803744
  0
ELLIPSE
  5
70D
330
1F
100
AcDbEntity
  8
0
  6
Continuous
100
AcDbEllipse
 10
475.4054415158844
 20
1213.9373285956
 30
-0.0000000000000055
 11
0.000000000000023
 21
19.64999999488033
 31
0.0
210
0.0
220
0.0
230
1.0
 40
0.999999999759995
 41
1.751312707779668
 42
1.908853197316288
  0
ELLIPSE
  5
70E
330
1F
100
AcDbEntity
  8
0
  6
Continuous
100
AcDbEllipse
 10
475.1054415142389
 20
1214.237328595584
 30
-0.0000000000000055
 11
19.65000001148513
 21
0.0
 31
0.0
210
0.0
220
0.0
230
1.0
 40
0.9999999997187732
 41
0.1805163809021169
 42
0.3320209540717407
  0
ELLIPSE
  5
70F
330
1F
100
AcDbEntity
  8
0
  6
Continuous
100
AcDbEllipse
 10
478.7833551234442
 20
1233.41803798905
 30
-0.0000000000000055
 11
0.0538612763015622
 21
0.2951253342482932
 31
0.0
210
0.0
220
0.0
230
1.0
 40
0.6352653269024859
 41
4.298572310942631
 42
6.283185307179585
  0
ELLIPSE
  5
710
330
1F
100
AcDbEntity
  8
0
  6
Continuous
100
AcDbEllipse
 10
494.5861509189543
 20
1217.61524219354
 30
-0.0000000000000055
 11
0.2951253342482931
 21
0.0538612763015633
 31
0.0
210
0.0
220
0.0
230
1.0
 40
0.6352653269024863
 41
0.0
 42
1.984612996236886
  0
ELLIPSE
  5
711
330
1F
100
AcDbEntity
  8
0
  6
Continuous
100
AcDbEllipse
 10
455.92473213244
 20
1210.55941499803
 30
-0.0000000000000055
 11
0.2951253342482931
 21
0.0538612763015633
 31
0.0
210
0.0
220
0.0
230
1.0
 40
0.6352653269024886
 41
3.141592653589494
 42
5.12620564982669
  0
ELLIPSE
  5
712
330
1F
100
AcDbEntity
  8
0
  6
Continuous
100
AcDbEllipse
 10
456.7176139596994
 20
1207.570316309966
 30
-0.0000000000000055
 11
0.2830202681830878
 21
0.0994963707758882
 31
0.0
210
0.0
220
0.0
230
1.0
 40
0.6696211529796332
 41
3.141592653589933
 42
5.023244392434894
  0
ELLIPSE
  5
713
330
1F
100
AcDbEntity
  8
0
  6
Continuous
100
AcDbEllipse
 10
471.7275279279383
 20
1194.756619202524
 30
-0.0000000000000055
 11
-0.0538612763015638
 21
-0.2951253342482928
 31
0.0
210
0.0
220
0.0
230
1.0
 40
0.6352653269024891
 41
4.298572310942685
 42
6.283185307179362
  0
ELLIPSE
  5
714
330
1F
100
AcDbEntity
  8
0
  6
Continuous
100
AcDbEllipse
 10
468.738429239871
 20
1195.549501029794
 30
-0.0000000000000055
 11
-0.0994963707758913
 21
-0.2830202681830867
 31
0.0
210
0.0
220
0.0
230
1.0
 40
0.6696211529796368
 41
4.401533568334662
 42
6.283185307179585
  0
ELLIPSE
  5
715
330
1F
100
AcDbEntity
  8
0
  6
Continuous
100
AcDbEllipse
 10
224.8114209404275
 20
1611.392667655115
 30
-0.0000000000000055
 11
16.5
 21
0.0
 31
0.0
210
0.0
220
0.0
230
1.0
 40
0.7071067811865488
 41
0.0
 42
3.141592818617966
  0
ELLIPSE
  5
716
330
1F
100
AcDbEntity
  8
0
  6
Continuous
100
AcDbEllipse
 10
224.8114209404275
 20
1611.03911426452
 30
-0.0000000000000055
 11
16.5
 21
0.0
 31
0.0
210
0.0
220
0.0
230
1.0
 40
0.7071067811865481
 41
0.0
 42
3.14159281861797
  0
ELLIPSE
  5
717
330
1F
100
AcDbEntity
  8
0
  6
Continuous
100
AcDbEllipse
 10
177.9856850198875
 20
1214.087328591015
 30
-0.0000000000000055
 11
18.09675253676019
 21
18.48869700350568
 31
0.0
210
0.0
220
0.0
230
1.0
 40
0.4141463328625786
 41
1.634972826112536
 42
1.775404284357606
  0
ELLIPSE
  5
718
330
1F
100
AcDbEntity
  8
0
  6
Continuous
100
AcDbEllipse
 10
177.9856849978559
 20
1214.087328617492
 30
-0.0000000000000055
 11
-18.09675251389249
 21
18.48869697313382
 31
0.0
210
0.0
220
0.0
230
1.0
 40
0.4141463327264566
 41
5.577113129069352
 42
5.717544587466372
  0
ELLIPSE
  5
719
330
1F
100
AcDbEntity
  8
0
  6
Continuous
100
AcDbEllipse
 10
177.7735529690053
 20
1213.937328603851
 30
-0.0000000000000055
 11
-18.1542328059114
 21
18.1542328059114
 31
0.0
210
0.0
220
0.0
230
0.9999999999999998
 40
0.4142135624201785
 41
5.558465271232464
 42
5.70996984450672
  0
ELLIPSE
  5
71A
330
1F
100
AcDbEntity
  8
0
  6
Continuous
100
AcDbEllipse
 10
177.7735529837746
 20
1214.237328586917
 30
-0.0000000000000055
 11
18.15423282474067
 21
18.15423282474067
 31
0.0
210
0.0
220
0.0
230
1.0
 40
0.4142135626165791
 41
1.631474454295275
 42
1.782979027420923
  0
ELLIPSE
  5
71B
330
1F
100
AcDbEntity
  8
0
  6
Continuous
100
AcDbEllipse
 10
166.8114209404275
 20
1233.41803798905
 30
-0.0000000000000055
 11
0.0639732226132626
 21
0.2930996874588472
 31
0.0
210
0.0
220
0.0
230
1.0
 40
0.7597450460191913
 41
0.2797524755110879
 42
2.264365471748009
  0
ELLIPSE
  5
71C
330
1F
100
AcDbEntity
  8
0
  6
Continuous
100
AcDbEllipse
 10
166.8114209404275
 20
1217.61524219354
 30
-0.0000000000000055
 11
0.2301465839913535
 21
-0.1924384313932923
 31
0.0
210
0.0
220
0.0
230
1.0
 40
0.1386557949916842
 41
1.686218878864495
 42
3.670831875101857
  0
ELLIPSE
  5
71D
330
1F
100
AcDbEntity
  8
0
  6
Continuous
100
AcDbEllipse
 10
166.1114209404277
 20
1232.926506247326
 30
-0.0000000000000055
 11
0.3
 21
0.0
 31
0.0
210
0.0
220
0.0
230
1.0
 40
0.7071067811865514
 41
3.141592653589792
 42
3.926990816987249
  0
ELLIPSE
  5
71E
330
1F
100
AcDbEntity
  8
0
  6
Continuous
100
AcDbEllipse
 10
224.8114209404275
 20
1149.206739145692
 30
-0.0000000000000055
 11
-12.76948665693081
 21
0.0
 31
0.0
210
0.0
220
0.0
230
1.0
 40
0.9961946980917455
 41
0.0
 42
6.283185307179585
  0
ELLIPSE
  5
71F
330
1F
100
AcDbEntity
  8
0
  6
Continuous
100
AcDbEllipse
 10
224.8114209404275
 20
1149.139746894001
 30
-0.0000000000000055
 11
-18.5983198165851
 21
0.0
 31
0.0
210
0.0
220
0.0
230
1.0
 40
0.9961946980917455
 41
3.860150060430978
 42
5.5646279003384
  0
ELLIPSE
  5
720
330
1F
100
AcDbEntity
  8
0
  6
Continuous
100
AcDbEllipse
 10
224.8114209404275
 20
1149.133320900017
 30
-0.0000000000000055
 11
19.06235687946999
 21
0.0
 31
0.0
210
0.0
220
0.0
230
1.0
 40
0.9961946980917458
 41
2.42523375737505
 42
6.999544203394329
  0
ELLIPSE
  5
721
330
1F
100
AcDbEntity
  8
0
100
AcDbEllipse
 10
224.8114223782486
 20
137.9087242178943
 30
-0.0000000000000031
 11
16.5
 21
0.0
 31
0.0
210
0.0
220
0.0
230
1.0
 40
0.7071067811865463
 41
3.141592488561562
 42
6.283185307179585
  0
ELLIPSE
  5
722
330
1F
100
AcDbEntity
  8
0
100
AcDbEllipse
 10
224.8114223782486
 20
137.5551708273019
 30
-0.0000000000000031
 11
16.5
 21
0.0
 31
0.0
210
0.0
220
0.0
230
1.0
 40
0.7071067811865471
 41
3.141592488561578
 42
6.283185307179585
  0
ELLIPSE
  5
723
330
1F
100
AcDbEntity
  8
0
100
AcDbEllipse
 10
177.9856864447646
 20
62.51101494562272
 30
0.0000000000000783
 11
18.09675252335246
 21
18.48869699065655
 31
0.0
210
0.0
220
0.0
230
1.0
 40
0.4141463326686141
 41
3.707233373029779
 42
3.847664831364022
  0
ELLIPSE
  5
724
330
1F
100
AcDbEntity
  8
0
100
AcDbEllipse
 10
177.9856864551165
 20
62.51101495407829
 30
0.0000000000000783
 11
18.09675253418795
 21
-18.4886970017958
 31
0.0
210
0.0
220
0.0
230
1.0
 40
0.4141463328200649
 41
4.507781022859512
 42
4.648212481120341
  0
ELLIPSE
  5
725
330
1F
100
AcDbEntity
  8
0
100
AcDbEllipse
 10
177.773554410247
 20
62.361014947694
 30
0.0000000000000783
 11
18.15423281098998
 21
-18.15423281098998
 31
0.0
210
0.0
220
0.0
230
1.0
 40
0.4142135623093719
 41
4.500206279599916
 42
4.651710852843232
  0
ELLIPSE
  5
726
330
1F
100
AcDbEntity
  8
0
100
AcDbEllipse
 10
177.773554416015
 20
62.66101495495377
 30
0.0000000000000783
 11
18.15423281868591
 21
18.15423281868591
 31
0.0
210
0.0
220
0.0
230
1.0
 40
0.414213562348075
 41
3.714808116223521
 42
3.866312689407336
  0
ELLIPSE
  5
727
330
1F
100
AcDbEntity
  8
0
100
AcDbEllipse
 10
166.8114223782486
 20
58.98310135226484
 30
0.0000000000000018
 11
0.2301465839913536
 21
0.1924384313932921
 31
0.0
210
0.0
220
0.0
230
1.0
 40
0.1386557949916811
 41
3.088509994404299
 42
4.596966428315242
  0
ELLIPSE
  5
728
330
1F
100
AcDbEntity
  8
0
100
AcDbEllipse
 10
166.8114223782486
 20
43.18030555675385
 30
0.0000000000000027
 11
0.0639732226132638
 21
-0.2930996874588469
 31
0.0
210
0.0
220
0.0
230
1.0
 40
0.7597450460191905
 41
4.018819835431671
 42
6.003432831668428
  0
ELLIPSE
  5
729
330
1F
100
AcDbEntity
  8
0
100
AcDbEllipse
 10
166.1114223782488
 20
43.67183729847829
 30
0.0000000000000027
 11
-0.3
 21
0.0
 31
0.0
210
0.0
220
0.0
230
1.0
 40
0.7071067811865479
 41
5.497787143782173
 42
6.283185307179585
  0
SPLINE
  5
72A
330
1F
100
AcDbEntity
  8
0
  6
Continuous
100
AcDbSpline
210
0.0
220
0.0
230
1.0
 70
     8
 71
     3
 72
    10
 73
     6
 74
     0
 42
0.0000000001
 43
0.0000000001
 40
0.0
 40
0.0
 40
0.0
 40
0.0
 40
0.5279664909715706
 40
0.5279664909715706
 40
1.0
 40
1.0
 40
1.0
 40
1.0
 10
476.6426284517492
 20
1163.236884077928
 30
-0.0000000000000055
 10
476.445874446008
 20
1162.836625310235
 30
-0.0000000000000055
 10
476.2620830120339
 20
1162.42512100423
 30
-0.0000000000000055
 10
476.0158365754322
 20
1161.652508505222
 30
-0.0000000000000055
 10
475.9397961761242
 20
1161.285299974589
 30
-0.0000000000000055
 10
475.9164188851772
 20
1160.909741179618
 30
-0.0000000000000055
  0
SPLINE
  5
72B
330
1F
100
AcDbEntity
  8
0
  6
Continuous
100
AcDbSpline
210
0.0
220
0.0
230
1.0
 70
     8
 71
     3
 72
    20
 73
    16
 74
     0
 42
0.0000000001
 43
0.0000000001
 40
0.0
 40
0.0
 40
0.0
 40
0.0
 40
0.2981521268298557
 40
0.2981521268298557
 40
0.6012805696226146
 40
0.6012805696226146
 40
0.6837986315574769
 40
0.6837986315574769
 40
0.7469338197044193
 40
0.7469338197044193
 40
0.8105347546770412
 40
0.8105347546770412
 40
0.8844017026328325
 40
0.8844017026328325
 40
1.0
 40
1.0
 40
1.0
 40
1.0
 10
475.9164188851772
 20
1160.909741179618
 30
-0.0000000000000055
 10
475.9129842677483
 20
1160.85456366629
 30
-0.0000000000000055
 10
475.9093523130039
 20
1160.799968588595
 30
-0.0000000000000055
 10
475.9011743779464
 20
1160.694840435786
 30
-0.0000000000000055
 10
475.8966019167528
 20
1160.641666873373
 30
-0.0000000000000055
 10
475.8891059529551
 20
1160.591475152758
 30
-0.0000000000000055
 10
475.8873425882539
 20
1160.581706659268
 30
-0.0000000000000055
 10
475.8840554661882
 20
1160.569261074968
 30
-0.0000000000000055
 10
475.8825418952874
 20
1160.565427241426
 30
-0.0000000000000055
 10
475.8795446359108
 20
1160.562509902155
 30
-0.0000000000000055
 10
475.8780254311859
 20
1160.563470984328
 30
-0.0000000000000055
 10
475.8750088788146
 20
1160.570188407504
 30
-0.0000000000000055
 10
475.8735060449935
 20
1160.576672284177
 30
-0.0000000000000055
 10
475.8700945130384
 20
1160.59704755926
 30
-0.0000000000000055
 10
475.8683508231269
 20
1160.613204624281
 30
-0.0000000000000055
 10
475.8668412155548
 20
1160.630459517794
 30
-0.0000000000000055
  0
SPLINE
  5
72C
330
1F
100
AcDbEntity
  8
0
  6
Continuous
100
AcDbSpline
210
0.0
220
0.0
230
1.0
 70
     8
 71
     3
 72
    14
 73
    10
 74
     0
 42
0.0000000001
 43
0.0000000001
 40
0.0
 40
0.0
 40
0.0
 40
0.0
 40
0.1523436015002017
 40
0.1523436015002017
 40
0.4884184947464634
 40
0.4884184947464634
 40
0.8244933879927247
 40
0.8244933879927247
 40
1.0
 40
1.0
 40
1.0
 40
1.0
 10
481.9652104433242
 20
1232.872610201181
 30
-0.0000000000000055
 10
482.6547008553516
 20
1232.626493839562
 30
-0.0000000000000055
 10
483.4054813781149
 20
1232.31712426594
 30
-0.0000000000000055
 10
485.8823495279628
 20
1231.078569844088
 30
-0.0000000000000055
 10
487.7395161758339
 20
1229.811347249311
 30
-0.0000000000000055
 10
490.9369225467226
 20
1226.624793868871
 30
-0.0000000000000055
 10
492.2097959726889
 20
1224.77874004062
 30
-0.0000000000000055
 10
493.53444821433
 20
1222.143641439932
 30
-0.0000000000000055
 10
493.8796358078525
 20
1221.281639635625
 30
-0.0000000000000055
 10
494.141809197301
 20
1220.511349619679
 30
-0.0000000000000055
  0
SPLINE
  5
72D
330
1F
100
AcDbEntity
  8
0
  6
Continuous
100
AcDbSpline
210
0.0
220
0.0
230
1.0
 70
     8
 71
     3
 72
    18
 73
    14
 74
     0
 42
0.0000000001
 43
0.0000000001
 40
0.0
 40
0.0
 40
0.0
 40
0.0
 40
0.173569010448351
 40
0.173569010448351
 40
0.3483392798692915
 40
0.3483392798692915
 40
0.5231095492902323
 40
0.5231095492902323
 40
0.6978798187111727
 40
0.6978798187111727
 40
0.8726500881321131
 40
0.8726500881321131
 40
1.0
 40
1.0
 40
1.0
 40
1.0
 10
468.6619076416682
 20
1195.258418249552
 30
-0.0000000000000055
 10
469.7660030976647
 20
1194.871647374401
 30
-0.0000000000000055
 10
470.5168480169494
 20
1194.707846098233
 30
-0.0000000000000055
 10
470.7646695590101
 20
1194.648918135419
 30
-0.0000000000000055
 10
470.2184370887788
 20
1194.757181685714
 30
-0.0000000000000055
 10
468.2888148160355
 20
1195.365894207611
 30
-0.0000000000000055
 10
466.9240454105684
 20
1195.885371153978
 30
-0.0000000000000055
 10
464.0476496282853
 20
1197.500924020807
 30
-0.0000000000000055
 10
462.513288408345
 20
1198.617923060307
 30
-0.0000000000000055
 10
459.8048308875295
 20
1201.322392066571
 30
-0.0000000000000055
 10
458.6778381860613
 20
1202.865340553056
 30
-0.0000000000000055
 10
457.2735824392894
 20
1205.362993083539
 30
-0.0000000000000055
 10
456.8377883083567
 20
1206.372746041542
 30
-0.0000000000000055
 10
456.5273760030568
 20
1207.215340069527
 30
-0.0000000000000055
  0
SPLINE
  5
72E
330
1F
100
AcDbEntity
  8
0
  6
Continuous
100
AcDbSpline
210
0.0
220
0.0
230
1.0
 70
     8
 71
     3
 72
    22
 73
    18
 74
     0
 42
0.0000000001
 43
0.0000000001
 40
0.0
 40
0.0
 40
0.0
 40
0.0
 40
0.125252325187303
 40
0.125252325187303
 40
0.2505046503746061
 40
0.2505046503746061
 40
0.3757569755619092
 40
0.3757569755619092
 40
0.5010093007492122
 40
0.5010093007492122
 40
0.6262616259365154
 40
0.6262616259365154
 40
0.7515139511238184
 40
0.7515139511238184
 40
0.8767662763111216
 40
0.8767662763111216
 40
1.0
 40
1.0
 40
1.0
 40
1.0
 10
456.9002288935908
 20
1207.40250797854
 30
-0.0000000000000055
 10
456.5356037100572
 20
1208.479034928955
 30
-0.0000000000000055
 10
456.3858133540198
 20
1209.211251293644
 30
-0.0000000000000055
 10
456.3299664083896
 20
1209.460323207915
 30
-0.0000000000000055
 10
456.4250399735956
 20
1208.943498502292
 30
-0.0000000000000055
 10
456.9797760822711
 20
1207.099292048729
 30
-0.0000000000000055
 10
457.4578450335337
 20
1205.787932996044
 30
-0.0000000000000055
 10
458.9835046215084
 20
1203.007124890182
 30
-0.0000000000000055
 10
460.0529216800368
 20
1201.518026677805
 30
-0.0000000000000055
 10
462.656820554037
 20
1198.908818690302
 30
-0.0000000000000055
 10
464.1590001189997
 20
1197.825476119611
 30
-0.0000000000000055
 10
466.951198667899
 20
1196.291224548932
 30
-0.0000000000000055
 10
468.2629466902326
 20
1195.813342483896
 30
-0.0000000000000055
 10
470.1038991604373
 20
1195.258910837683
 30
-0.0000000000000055
 10
470.6245455882553
 20
1195.162740539164
 30
-0.0000000000000055
 10
470.3895190625399
 20
1195.215409286639
 30
-0.0000000000000055
 10
469.6733396342824
 20
1195.361792951723
 30
-0.0000000000000055
 10
468.6225268885881
 20
1195.714611623387
 30
-0.0000000000000055
  0
SPLINE
  5
72F
330
1F
100
AcDbEntity
  8
0
  6
Continuous
100
AcDbSpline
210
0.0
220
0.0
230
1.0
 70
     8
 71
     3
 72
     8
 73
     4
 74
     0
 42
0.0000000001
 43
0.0000000001
 40
0.0
 40
0.0
 40
0.0
 40
0.0
 40
1.0
 40
1.0
 40
1.0
 40
1.0
 10
478.8337423435278
 20
1229.386444693795
 30
-0.0000000000000055
 10
478.7154021151736
 20
1229.262100873037
 30
-0.0000000000000055
 10
478.5969775409802
 20
1229.137841801311
 30
-0.0000000000000055
 10
478.4784676626877
 20
1229.013669271237
 30
-0.0000000000000055
  0
SPLINE
  5
730
330
1F
100
AcDbEntity
  8
0
  6
Continuous
100
AcDbSpline
210
0.0
220
0.0
230
1.0
 70
     8
 71
     3
 72
     8
 73
     4
 74
     0
 42
0.0000000001
 43
0.0000000001
 40
0.0
 40
0.0
 40
0.0
 40
0.0
 40
1.0
 40
1.0
 40
1.0
 40
1.0
 10
478.8337423435278
 20
1229.386444693795
 30
-0.0000000000000055
 10
479.8259752411631
 20
1230.429015181351
 30
-0.0000000000000055
 10
480.8182088026113
 20
1231.471585067684
 30
-0.0000000000000055
 10
481.8104430013827
 20
1232.514154376783
 30
-0.0000000000000055
  0
SPLINE
  5
731
330
1F
100
AcDbEntity
  8
0
  6
Continuous
100
AcDbSpline
210
0.0
220
0.0
230
1.0
 70
     8
 71
     3
 72
     8
 73
     4
 74
     0
 42
0.0000000001
 43
0.0000000001
 40
0.0
 40
0.0
 40
0.0
 40
0.0
 40
1.0
 40
1.0
 40
1.0
 40
1.0
 10
481.8135076849157
 20
1232.517403842186
 30
-0.0000000000000055
 10
481.8124909440457
 20
1232.516315983488
 30
-0.0000000000000055
 10
481.8114693364786
 20
1232.515232776897
 30
-0.0000000000000055
 10
481.8104430013827
 20
1232.514154376783
 30
-0.0000000000000055
  0
SPLINE
  5
732
330
1F
100
AcDbEntity
  8
0
  6
Continuous
100
AcDbSpline
210
0.0
220
0.0
230
1.0
 70
     8
 71
     3
 72
    18
 73
    14
 74
     0
 42
0.0000000001
 43
0.0000000001
 40
0.0
 40
0.0
 40
0.0
 40
0.0
 40
0.116471858592008
 40
0.116471858592008
 40
0.2931774868736064
 40
0.2931774868736064
 40
0.4698831151552049
 40
0.4698831151552049
 40
0.6465887434368032
 40
0.6465887434368032
 40
0.8232943717184014
 40
0.8232943717184014
 40
1.0
 40
1.0
 40
1.0
 40
1.0
 10
493.9201185040145
 20
1219.88032618456
 30
-0.0000000000000055
 10
493.668589755698
 20
1220.75591943945
 30
-0.0000000000000055
 10
493.3010980514026
 20
1221.802972142853
 30
-0.0000000000000055
 10
491.9670793154036
 20
1224.565091377409
 30
-0.0000000000000055
 10
490.7469303603948
 20
1226.393333251571
 30
-0.0000000000000055
 10
487.6231918610192
 20
1229.530175452901
 30
-0.0000000000000055
 10
485.7981726840517
 20
1230.762415415752
 30
-0.0000000000000055
 10
482.4215204654674
 20
1232.403455813228
 30
-0.0000000000000055
 10
480.8929151237024
 20
1232.827241391735
 30
-0.0000000000000055
 10
478.8496299844227
 20
1233.27232691364
 30
-0.0000000000000055
 10
478.4163778177908
 20
1233.312275256436
 30
-0.0000000000000055
 10
479.2029081912986
 20
1233.187113118522
 30
-0.0000000000000055
 10
480.3450889584818
 20
1233.005177265924
 30
-0.0000000000000055
 10
481.8135076849157
 20
1232.517403842186
 30
-0.0000000000000055
  0
SPLINE
  5
733
330
1F
100
AcDbEntity
  8
0
  6
Continuous
100
AcDbSpline
210
0.0
220
0.0
230
1.0
 70
     8
 71
     3
 72
     8
 73
     4
 74
     0
 42
0.0000000001
 43
0.0000000001
 40
0.0
 40
0.0
 40
0.0
 40
0.0
 40
1.0
 40
1.0
 40
1.0
 40
1.0
 10
493.6822673066643
 20
1220.642330071458
 30
-0.0000000000000055
 10
493.6833457067851
 20
1220.643356406561
 30
-0.0000000000000055
 10
493.6844289133841
 20
1220.644378014135
 30
-0.0000000000000055
 10
493.6855167720905
 20
1220.645394755011
 30
-0.0000000000000055
  0
SPLINE
  5
734
330
1F
100
AcDbEntity
  8
0
  6
Continuous
100
AcDbSpline
210
0.0
220
0.0
230
1.0
 70
     8
 71
     3
 72
     8
 73
     4
 74
     0
 42
0.0000000001
 43
0.0000000001
 40
0.0
 40
0.0
 40
0.0
 40
0.0
 40
1.0
 40
1.0
 40
1.0
 40
1.0
 10
493.6822673066643
 20
1220.642330071458
 30
-0.0000000000000055
 10
492.6396979975796
 20
1219.6500958727
 30
-0.0000000000000055
 10
491.5971281112605
 20
1218.657862311264
 30
-0.0000000000000055
 10
490.5545576237171
 20
1217.665629413643
 30
-0.0000000000000055
  0
SPLINE
  5
735
330
1F
100
AcDbEntity
  8
0
  6
Continuous
100
AcDbSpline
210
0.0
220
0.0
230
1.0
 70
     8
 71
     3
 72
     8
 73
     4
 74
     0
 42
0.0000000001
 43
0.0000000001
 40
0.0
 40
0.0
 40
0.0
 40
0.0
 40
1.0
 40
1.0
 40
1.0
 40
1.0
 10
490.1817822011397
 20
1217.310354732784
 30
-0.0000000000000055
 10
490.3059547312205
 20
1217.428864611082
 30
-0.0000000000000055
 10
490.4302138029541
 20
1217.547289185282
 30
-0.0000000000000055
 10
490.5545576237171
 20
1217.665629413643
 30
-0.0000000000000055
  0
SPLINE
  5
736
330
1F
100
AcDbEntity
  8
0
  6
Continuous
100
AcDbSpline
210
0.0
220
0.0
230
1.0
 70
     8
 71
     3
 72
    22
 73
    18
 74
     0
 42
0.0000000001
 43
0.0000000001
 40
0.0
 40
0.0
 40
0.0
 40
0.0
 40
0.0051803074801227
 40
0.0051803074801227
 40
0.0395086193947705
 40
0.0395086193947705
 40
0.3202353099680399
 40
0.3202353099680399
 40
0.5286721987772869
 40
0.5286721987772869
 40
0.6780849300125251
 40
0.6780849300125251
 40
0.7831239638204285
 40
0.7831239638204285
 40
0.8917357318733184
 40
0.8917357318733184
 40
1.0
 40
1.0
 40
1.0
 40
1.0
 10
494.186731347897
 20
1220.380878124284
 30
-0.0000000000000055
 10
494.186365927123
 20
1220.381977326978
 30
-0.0000000000000055
 10
494.185997340518
 20
1220.383075479262
 30
-0.0000000000000055
 10
494.1831502114181
 20
1220.391477834702
 30
-0.0000000000000055
 10
494.1805342846391
 20
1220.398737115587
 30
-0.0000000000000055
 10
494.1555479273938
 20
1220.464114158034
 30
-0.0000000000000055
 10
494.1239337909482
 20
1220.519759408339
 30
-0.0000000000000055
 10
494.0541731702133
 20
1220.603106754413
 30
-0.0000000000000055
 10
494.0189671990319
 20
1220.635175291321
 30
-0.0000000000000055
 10
493.9509801353942
 20
1220.676883296316
 30
-0.0000000000000055
 10
493.9195973610893
 20
1220.690612245961
 30
-0.0000000000000055
 10
493.8640923626008
 20
1220.703229583425
 30
-0.0000000000000055
 10
493.8401023861588
 20
1220.705347415322
 30
-0.0000000000000055
 10
493.792383627544
 20
1220.70180013238
 30
-0.0000000000000055
 10
493.7681040139096
 20
1220.695763813649
 30
-0.0000000000000055
 10
493.7238143167441
 20
1220.675935886109
 30
-0.0000000000000055
 10
493.7032213944283
 20
1220.661941952864
 30
-0.0000000000000055
 10
493.6855167720905
 20
1220.645394755011
 30
-0.0000000000000055
  0
SPLINE
  5
737
330
1F
100
AcDbEntity
  8
0
  6
Continuous
100
AcDbSpline
210
0.0
220
0.0
230
1.0
 70
     8
 71
     3
 72
    22
 73
    18
 74
     0
 42
0.0000000001
 43
0.0000000001
 40
0.0
 40
0.0
 40
0.0
 40
0.0
 40
0.0051800448168245
 40
0.0051800448168245
 40
0.0407819771487276
 40
0.0407819771487276
 40
0.3212635310319727
 40
0.3212635310319727
 40
0.5294032780932727
 40
0.5294032780932727
 40
0.6786281095789915
 40
0.6786281095789915
 40
0.7836516423984543
 40
0.7836516423984543
 40
0.891998910638555
 40
0.891998910638555
 40
1.0
 40
1.0
 40
1.0
 40
1.0
 10
481.5489910541873
 20
1233.018618417993
 30
-0.0000000000000055
 10
481.550090256881
 20
1233.018252997218
 30
-0.0000000000000055
 10
481.5511884091646
 20
1233.017884410615
 30
-0.0000000000000055
 10
481.5598615384314
 20
1233.014945530095
 30
-0.0000000000000055
 10
481.567388174295
 20
1233.012227221928
 30
-0.0000000000000055
 10
481.6329451761129
 20
1232.987065104453
 30
-0.0000000000000055
 10
481.6884994728178
 20
1232.955406405692
 30
-0.0000000000000055
 10
481.7716582197663
 20
1232.885609912293
 30
-0.0000000000000055
 10
481.8036334419848
 20
1232.850411394848
 30
-0.0000000000000055
 10
481.8451921808281
 20
1232.782460524302
 30
-0.0000000000000055
 10
481.858859945295
 20
1232.751098323381
 30
-0.0000000000000055
 10
481.8713902700729
 20
1232.695621249461
 30
-0.0000000000000055
 10
481.8734713495103
 20
1232.671631531714
 30
-0.0000000000000055
 10
481.8698522247141
 20
1232.623980436199
 30
-0.0000000000000055
 10
481.8637997699324
 20
1232.599769676005
 30
-0.0000000000000055
 10
481.8439821122137
 20
1232.555602112689
 30
-0.0000000000000055
 10
481.8300154953275
 20
1232.535066322056
 30
-0.0000000000000055
 10
481.8135076849157
 20
1232.517403842186
 30
-0.0000000000000055
  0
SPLINE
  5
738
330
1F
100
AcDbEntity
  8
0
  6
Continuous
100
AcDbSpline
210
0.0
220
0.0
230
1.0
 70
     8
 71
     3
 72
    14
 73
    10
 74
     0
 42
0.0000000001
 43
0.0000000001
 40
0.0
 40
0.0
 40
0.0
 40
0.0
 40
0.1994873613136685
 40
0.1994873613136685
 40
0.5114141603593005
 40
0.5114141603593005
 40
0.8382895692932535
 40
0.8382895692932535
 40
1.0
 40
1.0
 40
1.0
 40
1.0
 10
456.5662638741504
 20
1211.89089623342
 30
-0.0000000000000055
 10
456.4824277681045
 20
1211.807060127374
 30
-0.0000000000000055
 10
456.4107389161645
 20
1211.710192505955
 30
-0.0000000000000055
 10
456.2564863555043
 20
1211.458283708325
 30
-0.0000000000000055
 10
456.1864121481603
 20
1211.294970683018
 30
-0.0000000000000055
 10
456.087128048888
 20
1210.967284349056
 30
-0.0000000000000055
 10
456.0588341634656
 20
1210.798390123371
 30
-0.0000000000000055
 10
456.0557846426664
 20
1210.560275252217
 30
-0.0000000000000055
 10
456.0613356176571
 20
1210.48281932803
 30
-0.0000000000000055
 10
456.0747321324269
 20
1210.409414998034
 30
-0.0000000000000055
  0
SPLINE
  5
739
330
1F
100
AcDbEntity
  8
0
  6
Continuous
100
AcDbSpline
210
0.0
220
0.0
230
1.0
 70
     8
 71
     3
 72
    14
 73
    10
 74
     0
 42
0.0000000001
 43
0.0000000001
 40
0.0
 40
0.0
 40
0.0
 40
0.0
 40
0.3225419345819156
 40
0.3225419345819156
 40
0.6604170385934233
 40
0.6604170385934233
 40
0.8968719953967191
 40
0.8968719953967191
 40
1.0
 40
1.0
 40
1.0
 40
1.0
 10
478.9333551234431
 20
1233.26803798905
 30
-0.0000000000000055
 10
478.7881808194815
 20
1233.294532743618
 30
-0.0000000000000055
 10
478.6269397228078
 20
1233.290826556142
 30
-0.0000000000000055
 10
478.2935535550121
 20
1233.236925666238
 30
-0.0000000000000055
 10
478.1161319777857
 20
1233.18370269714
 30
-0.0000000000000055
 10
477.8234737355041
 20
1233.050257817434
 30
-0.0000000000000055
 10
477.7027747867913
 20
1232.98164859418
 30
-0.0000000000000055
 10
477.542923724146
 20
1232.860575263805
 30
-0.0000000000000055
 10
477.4955873539493
 20
1232.820219713216
 30
-0.0000000000000055
 10
477.4518738880579
 20
1232.776506247326
 30
-0.0000000000000055
  0
SPLINE
  5
73A
330
1F
100
AcDbEntity
  8
0
  6
Continuous
100
AcDbSpline
210
0.0
220
0.0
230
1.0
 70
     8
 71
     3
 72
    14
 73
    10
 74
     0
 42
0.0000000001
 43
0.0000000001
 40
0.0
 40
0.0
 40
0.0
 40
0.0
 40
0.1994873613136681
 40
0.1994873613136681
 40
0.5114141603592976
 40
0.5114141603592976
 40
0.8382895692932525
 40
0.8382895692932525
 40
1.0
 40
1.0
 40
1.0
 40
1.0
 10
493.9446191772295
 20
1216.283760958154
 30
-0.0000000000000055
 10
494.0284552832762
 20
1216.3675970642
 30
-0.0000000000000055
 10
494.1001441352162
 20
1216.464464685619
 30
-0.0000000000000055
 10
494.2543966958774
 20
1216.716373483249
 30
-0.0000000000000055
 10
494.3244709032196
 20
1216.879686508555
 30
-0.0000000000000055
 10
494.4237550024936
 20
1217.207372842518
 30
-0.0000000000000055
 10
494.4520488879142
 20
1217.376267068203
 30
-0.0000000000000055
 10
494.4550984087145
 20
1217.614381939357
 30
-0.0000000000000055
 10
494.4495474337253
 20
1217.691837863543
 30
-0.0000000000000055
 10
494.436150918953
 20
1217.765242193539
 30
-0.0000000000000055
  0
SPLINE
  5
73B
330
1F
100
AcDbEntity
  8
0
  6
Continuous
100
AcDbSpline
210
0.0
220
0.0
230
1.0
 70
     8
 71
     3
 72
    14
 73
    10
 74
     0
 42
0.0000000001
 43
0.0000000001
 40
0.0
 40
0.0
 40
0.0
 40
0.0
 40
0.3225419345819179
 40
0.3225419345819179
 40
0.6604170385934279
 40
0.6604170385934279
 40
0.8968719953967369
 40
0.8968719953967369
 40
1.0
 40
1.0
 40
1.0
 40
1.0
 10
471.5775279279377
 20
1194.906619202524
 30
-0.0000000000000055
 10
471.7227022318993
 20
1194.880124447956
 30
-0.0000000000000055
 10
471.8839433285737
 20
1194.883830635433
 30
-0.0000000000000055
 10
472.2173294963694
 20
1194.937731525337
 30
-0.0000000000000055
 10
472.394751073596
 20
1194.990954494435
 30
-0.0000000000000055
 10
472.6874093158767
 20
1195.124399374139
 30
-0.0000000000000055
 10
472.8081082645894
 20
1195.193008597394
 30
-0.0000000000000055
 10
472.9679593272338
 20
1195.314081927769
 30
-0.0000000000000055
 10
473.0152956974325
 20
1195.354437478357
 30
-0.0000000000000055
 10
473.059009163323
 20
1195.398150944248
 30
-0.0000000000000055
  0
SPLINE
  5
73C
330
1F
100
AcDbEntity
  8
0
  6
Continuous
100
AcDbSpline
210
0.0
220
0.0
230
1.0
 70
     8
 71
     3
 72
    14
 73
    10
 74
     0
 42
0.0000000001
 43
0.0000000001
 40
0.0
 40
0.0
 40
0.0
 40
0.0
 40
0.2683570512618139
 40
0.2683570512618139
 40
0.5354551442217744
 40
0.5354551442217744
 40
0.8460152445641135
 40
0.8460152445641135
 40
1.0
 40
1.0
 40
1.0
 40
1.0
 10
494.8812762532025
 20
1217.66910346984
 30
-0.0000000000000055
 10
494.9034543692386
 20
1217.54758158329
 30
-0.0000000000000055
 10
494.8961237166495
 20
1217.410164025193
 30
-0.0000000000000055
 10
494.8336321263376
 20
1217.128838844633
 30
-0.0000000000000055
 10
494.7779031697883
 20
1216.981359184606
 30
-0.0000000000000055
 10
494.6114759104038
 20
1216.668687796499
 30
-0.0000000000000055
 10
494.4901819872093
 20
1216.49811052379
 30
-0.0000000000000055
 10
494.2666586106652
 20
1216.270155510782
 30
-0.0000000000000055
 10
494.1835103146313
 20
1216.197333622657
 30
-0.0000000000000055
 10
494.0946191772289
 20
1216.133760958155
 30
-0.0000000000000055
  0
SPLINE
  5
73D
330
1F
100
AcDbEntity
  8
0
  6
Continuous
100
AcDbSpline
210
0.0
220
0.0
230
1.0
 70
     8
 71
     3
 72
    14
 73
    10
 74
     0
 42
0.0000000001
 43
0.0000000001
 40
0.0
 40
0.0
 40
0.0
 40
0.0
 40
0.187244905451812
 40
0.187244905451812
 40
0.4456250355650491
 40
0.4456250355650491
 40
0.7099114192102566
 40
0.7099114192102566
 40
1.0
 40
1.0
 40
1.0
 40
1.0
 10
477.3018738880573
 20
1232.926506247326
 30
-0.0000000000000055
 10
477.3787706877573
 20
1233.034027994941
 30
-0.0000000000000055
 10
477.4692333583498
 20
1233.133181420848
 30
-0.0000000000000055
 10
477.6931773303458
 20
1233.338962930771
 30
-0.0000000000000055
 10
477.8342093463196
 20
1233.43860297424
 30
-0.0000000000000055
 10
478.117634450269
 20
1233.595643438393
 30
-0.0000000000000055
 10
478.2638081554059
 20
1233.654108318514
 30
-0.0000000000000055
 10
478.5564756260428
 20
1233.726678597006
 30
-0.0000000000000055
 10
478.7061327532973
 20
1233.737086489766
 30
-0.0000000000000055
 10
478.8372163997446
 20
1233.713163323298
 30
-0.0000000000000055
  0
SPLINE
  5
73E
330
1F
100
AcDbEntity
  8
0
  6
Continuous
100
AcDbSpline
210
0.0
220
0.0
230
1.0
 70
     8
 71
     3
 72
    14
 73
    10
 74
     0
 42
0.0000000001
 43
0.0000000001
 40
0.0
 40
0.0
 40
0.0
 40
0.0
 40
0.2683570512618117
 40
0.2683570512618117
 40
0.5354551442217704
 40
0.5354551442217704
 40
0.8460152445641103
 40
0.8460152445641103
 40
1.0
 40
1.0
 40
1.0
 40
1.0
 10
455.6296067981784
 20
1210.505553721733
 30
-0.0000000000000055
 10
455.6074286821422
 20
1210.627075608284
 30
-0.0000000000000055
 10
455.6147593347303
 20
1210.76449316638
 30
-0.0000000000000055
 10
455.6772509250421
 20
1211.045818346941
 30
-0.0000000000000055
 10
455.7329798815926
 20
1211.193298006968
 30
-0.0000000000000055
 10
455.8994071409778
 20
1211.505969395074
 30
-0.0000000000000055
 10
456.0207010641716
 20
1211.676546667784
 30
-0.0000000000000055
 10
456.2442244407174
 20
1211.904501680792
 30
-0.0000000000000055
 10
456.3273727367494
 20
1211.977323568916
 30
-0.0000000000000055
 10
456.4162638741508
 20
1212.040896233419
 30
-0.0000000000000055
  0
SPLINE
  5
73F
330
1F
100
AcDbEntity
  8
0
  6
Continuous
100
AcDbSpline
210
0.0
220
0.0
230
1.0
 70
     8
 71
     3
 72
    14
 73
    10
 74
     0
 42
0.0000000001
 43
0.0000000001
 40
0.0
 40
0.0
 40
0.0
 40
0.0
 40
0.1872449054518282
 40
0.1872449054518282
 40
0.4456250355650722
 40
0.4456250355650722
 40
0.7099114192102875
 40
0.7099114192102875
 40
1.0
 40
1.0
 40
1.0
 40
1.0
 10
473.2090091633225
 20
1195.248150944248
 30
-0.0000000000000055
 10
473.1321123636226
 20
1195.140629196631
 30
-0.0000000000000055
 10
473.0416496930318
 20
1195.041475770726
 30
-0.0000000000000055
 10
472.8177057210358
 20
1194.835694260803
 30
-0.0000000000000055
 10
472.6766737050621
 20
1194.736054217334
 30
-0.0000000000000055
 10
472.3932486011126
 20
1194.579013753181
 30
-0.0000000000000055
 10
472.2470748959757
 20
1194.52054887306
 30
-0.0000000000000055
 10
471.9544074253398
 20
1194.447978594568
 30
-0.0000000000000055
 10
471.8047502980843
 20
1194.437570701809
 30
-0.0000000000000055
 10
471.6736666516371
 20
1194.461493868276
 30
-0.0000000000000055
  0
SPLINE
  5
740
330
1F
100
AcDbEntity
  8
0
  6
Continuous
100
AcDbSpline
210
0.0
220
0.0
230
1.0
 70
     8
 71
     3
 72
    14
 73
    10
 74
     0
 42
0.0000000001
 43
0.0000000001
 40
0.0
 40
0.0
 40
0.0
 40
0.0
 40
0.0571542436372594
 40
0.0571542436372594
 40
0.2857739047200525
 40
0.2857739047200525
 40
0.9980034801808987
 40
0.9980034801808987
 40
1.0
 40
1.0
 40
1.0
 40
1.0
 10
490.1817822011397
 20
1217.310354732784
 30
-0.0000000000000055
 10
490.079176413381
 20
1217.212428086593
 30
-0.0000000000000055
 10
489.9766831857313
 20
1217.114383518257
 30
-0.0000000000000055
 10
489.4647150870451
 20
1216.623637587926
 30
-0.0000000000000055
 10
489.0567051524276
 20
1216.229406589796
 30
-0.0000000000000055
 10
487.3822228112904
 20
1214.602347843239
 30
-0.0000000000000055
 10
486.1248640797476
 20
1213.360108223615
 30
-0.0000000000000055
 10
484.8715684481758
 20
1212.106904178788
 30
-0.0000000000000055
 10
484.8680649962607
 20
1212.103400854898
 30
-0.0000000000000055
 10
484.864561608274
 20
1212.099897466912
 30
-0.0000000000000055
  0
SPLINE
  5
741
330
1F
100
AcDbEntity
  8
0
  6
Continuous
100
AcDbSpline
210
0.0
220
0.0
230
1.0
 70
     8
 71
     3
 72
    14
 73
    10
 74
     0
 42
0.0000000001
 43
0.0000000001
 40
0.0
 40
0.0
 40
0.0
 40
0.0
 40
0.0805643909997563
 40
0.0805643909997563
 40
0.4028283177367001
 40
0.4028283177367001
 40
0.9980034695038991
 40
0.9980034695038991
 40
1.0
 40
1.0
 40
1.0
 40
1.0
 10
478.4784676626877
 20
1229.013669271237
 30
-0.0000000000000055
 10
478.3404313958388
 20
1228.869037340601
 30
-0.0000000000000055
 10
478.202161334102
 20
1228.724628518638
 30
-0.0000000000000055
 10
477.5098196371454
 20
1228.003528348589
 30
-0.0000000000000055
 10
476.9528874929401
 20
1227.429580533515
 30
-0.0000000000000055
 10
475.3617748618943
 20
1225.801185908067
 30
-0.0000000000000055
 10
474.322838389161
 20
1224.75135337569
 30
-0.0000000000000055
 10
473.2750171086889
 20
1223.703455518271
 30
-0.0000000000000055
 10
473.2715137848008
 20
1223.699952066356
 30
-0.0000000000000055
 10
473.2680103968158
 20
1223.696448678372
 30
-0.0000000000000055
  0
SPLINE
  5
742
330
1F
100
AcDbEntity
  8
0
  6
Continuous
100
AcDbSpline
210
0.0
220
0.0
230
1.0
 70
     8
 71
     3
 72
     8
 73
     4
 74
     0
 42
0.0000000001
 43
0.0000000001
 40
0.0
 40
0.0
 40
0.0
 40
0.0
 40
1.0
 40
1.0
 40
1.0
 40
1.0
 10
483.8386970450446
 20
1161.602850707905
 30
-0.0000000000000055
 10
483.6504028056062
 20
1162.383437964187
 30
-0.0000000000000055
 10
483.2254752723184
 20
1163.076514539701
 30
-0.0000000000000055
 10
482.7194161101106
 20
1163.768534108681
 30
-0.0000000000000055
  0
SPLINE
  5
743
330
1F
100
AcDbEntity
  8
0
  6
Continuous
100
AcDbSpline
210
0.0
220
0.0
230
1.0
 70
     8
 71
     3
 72
    20
 73
    16
 74
     0
 42
0.0000000001
 43
0.0000000001
 40
0.0
 40
0.0
 40
0.0
 40
0.0
 40
0.0969972264410024
 40
0.0969972264410024
 40
0.1773232481440821
 40
0.1773232481440821
 40
0.2372682236124971
 40
0.2372682236124971
 40
0.2972809865359386
 40
0.2972809865359386
 40
0.3794248125842293
 40
0.3794248125842293
 40
0.5311630064830962
 40
0.5311630064830962
 40
1.0
 40
1.0
 40
1.0
 40
1.0
 10
483.9360182700983
 20
1161.336421034051
 30
-0.0000000000000055
 10
483.9372862323515
 20
1161.321928159162
 30
-0.0000000000000055
 10
483.9382477696108
 20
1161.308242598575
 30
-0.0000000000000055
 10
483.9388843492716
 20
1161.287238351604
 30
-0.0000000000000055
 10
483.9387431320118
 20
1161.279095342338
 30
-0.0000000000000055
 10
483.9372876607485
 20
1161.270152760699
 30
-0.0000000000000055
 10
483.9362502790335
 20
1161.268010596455
 30
-0.0000000000000055
 10
483.9333885330987
 20
1161.268029274194
 30
-0.0000000000000055
 10
483.9315324417183
 20
1161.270191432819
 30
-0.0000000000000055
 10
483.9266174668046
 20
1161.279214437676
 30
-0.0000000000000055
 10
483.9233102173729
 20
1161.287515749806
 30
-0.0000000000000055
 10
483.913657046447
 20
1161.314969590852
 30
-0.0000000000000055
 10
483.9069168478418
 20
1161.337632568034
 30
-0.0000000000000055
 10
483.8797786992918
 20
1161.434030419842
 30
-0.0000000000000055
 10
483.8590147491848
 20
1161.518622210112
 30
-0.0000000000000055
 10
483.8386970450446
 20
1161.602850707896
 30
-0.0000000000000055
  0
SPLINE
  5
744
330
1F
100
AcDbEntity
  8
0
  6
Continuous
100
AcDbSpline
210
0.0
220
0.0
230
1.0
 70
     8
 71
     3
 72
    12
 73
     8
 74
     0
 42
0.0000000001
 43
0.0000000001
 40
0.0
 40
0.0
 40
0.0
 40
0.0
 40
0.5000000000000002
 40
0.5000000000000002
 40
0.7500000000000001
 40
0.7500000000000001
 40
1.0
 40
1.0
 40
1.0
 40
1.0
 10
476.6426284517538
 20
1163.236884077928
 30
-0.0000000000000055
 10
477.1949797038359
 20
1164.360538108043
 30
-0.0000000000000055
 10
478.2635016784352
 20
1165.316660453817
 30
-0.0000000000000055
 10
480.1350979347771
 20
1165.481334903227
 30
-0.0000000000000055
 10
480.7808542133742
 20
1165.327602803682
 30
-0.0000000000000055
 10
481.8825526905157
 20
1164.720250723734
 30
-0.0000000000000055
 10
482.3484096801885
 20
1164.275873425694
 30
-0.0000000000000055
 10
482.7194161101106
 20
1163.768534108681
 30
-0.0000000000000055
  0
SPLINE
  5
745
330
1F
100
AcDbEntity
  8
0
  6
Continuous
100
AcDbSpline
210
0.0
220
0.0
230
1.0
 70
     8
 71
     3
 72
    33
 73
    29
 74
     0
 42
0.0000000001
 43
0.0000000001
 40
0.0
 40
0.0
 40
0.0
 40
0.0
 40
0.0169783050639839
 40
0.0575660142674012
 40
0.0981918770585314
 40
0.1388106037644922
 40
0.1794230693270868
 40
0.2200312776746668
 40
0.2606373418673142
 40
0.3012439336550034
 40
0.3418539450082705
 40
0.3824697185136357
 40
0.4230926991531958
 40
0.4637232378764479
 40
0.5043605627060709
 40
0.5450029077538236
 40
0.5856472633415489
 40
0.6262904939473497
 40
0.6669299395898735
 40
0.7075634821959912
 40
0.7481898763508097
 40
0.7888089610538609
 40
0.8294217058146195
 40
0.870030071337675
 40
0.9106361902435578
 40
0.9512426819589522
 40
0.9918524549705024
 40
1.0
 40
1.0
 40
1.0
 40
1.0
 10
209.7898073476781
 20
1165.4184487975
 30
-0.0000000000000055
 10
209.334860445987
 20
1165.010146303341
 30
-0.0000000000000055
 10
207.8553685006873
 20
1163.569495067867
 30
-0.0000000000000055
 10
205.6741338028205
 20
1160.760022517059
 30
-0.0000000000000055
 10
203.7051571114753
 20
1156.823751766961
 30
-0.0000000000000055
 10
202.5398413476141
 20
1152.577536824705
 30
-0.0000000000000055
 10
202.2256699436894
 20
1148.187526360713
 30
-0.0000000000000055
 10
202.7736915265486
 20
1143.820750428198
 30
-0.0000000000000055
 10
204.1628997396247
 20
1139.644000989016
 30
-0.0000000000000055
 10
206.3400502547365
 20
1135.816471249366
 30
-0.0000000000000055
 10
209.2220495776191
 20
1132.48402121107
 30
-0.0000000000000055
 10
212.6990485792066
 20
1129.773653909695
 30
-0.0000000000000055
 10
216.6385822431166
 20
1127.78877861718
 30
-0.0000000000000055
 10
220.890518647574
 20
1126.605285132024
 30
-0.0000000000000055
 10
225.2926926416058
 20
1126.268614159687
 30
-0.0000000000000055
 10
229.6770142072392
 20
1126.791937494828
 30
-0.0000000000000055
 10
233.8758888398215
 20
1128.155534239695
 30
-0.0000000000000055
 10
237.72869185525
 20
1130.307451289763
 30
-0.0000000000000055
 10
241.0880116949956
 20
1133.16546608261
 30
-0.0000000000000055
 10
243.8253634068451
 20
1136.620250056956
 30
-0.0000000000000055
 10
245.8361485767755
 20
1140.539606108061
 30
-0.0000000000000055
 10
247.0436910444687
 20
1144.773592373032
 30
-0.0000000000000055
 10
247.4020665581975
 20
1149.160397589228
 30
-0.0000000000000055
 10
246.8980288466728
 20
1153.532337994962
 30
-0.0000000000000055
 10
245.5505106516048
 20
1157.723100647634
 30
-0.0000000000000055
 10
243.4132718072834
 20
1161.570990513948
 30
-0.0000000000000055
 10
241.3203086350622
 20
1164.039623693055
 30
-0.0000000000000055
 10
240.0397632453014
 20
1165.233334332939
 30
-0.0000000000000055
 10
239.8216855195069
 20
1165.428778913242
 30
-0.0000000000000055
  0
SPLINE
  5
746
330
1F
100
AcDbEntity
  8
0
  6
Continuous
100
AcDbSpline
210
0.0
220
0.0
230
1.0
 70
     8
 71
     3
 72
    14
 73
    10
 74
     0
 42
0.0000000001
 43
0.0000000001
 40
0.0
 40
0.0
 40
0.0
 40
0.0
 40
0.0448075592297563
 40
0.0448075592297563
 40
0.2286389468975031
 40
0.2286389468975031
 40
0.9639653076976619
 40
0.9639653076976619
 40
1.0
 40
1.0
 40
1.0
 40
1.0
 10
169.2866959654601
 20
1229.013669271237
 30
-0.0000000000000055
 10
169.2968040862597
 20
1228.875877881387
 30
-0.0000000000000055
 10
169.3069233613987
 20
1228.738086730202
 30
-0.0000000000000055
 10
169.3586164750204
 20
1228.03498288547
 30
-0.0000000000000055
 10
169.4003690363843
 20
1227.469674034475
 30
-0.0000000000000055
 10
169.6101320617535
 20
1224.643151000522
 30
-0.0000000000000055
 10
169.7811229117278
 20
1222.382001536559
 30
-0.0000000000000055
 10
169.96465571323
 20
1220.010152915307
 30
-0.0000000000000055
 10
169.973238783512
 20
1219.899350827477
 30
-0.0000000000000055
 10
169.9818312422003
 20
1219.788548961909
 30
-0.0000000000000055
  0
SPLINE
  5
747
330
1F
100
AcDbEntity
  8
0
  6
Continuous
100
AcDbSpline
210
0.0
220
0.0
230
1.0
 70
     8
 71
     3
 72
    10
 73
     6
 74
     0
 42
0.0000000001
 43
0.0000000001
 40
0.0
 40
0.0
 40
0.0
 40
0.0
 40
0.5192369412907323
 40
0.5192369412907323
 40
1.0
 40
1.0
 40
1.0
 40
1.0
 10
169.7784720997288
 20
1219.933964030921
 30
-0.0000000000000055
 10
169.7271646199697
 20
1220.585145701941
 30
-0.0000000000000055
 10
169.6762019544876
 20
1221.236340468301
 30
-0.0000000000000055
 10
169.5786538363272
 20
1222.490503243829
 30
-0.0000000000000055
 10
169.5320370695217
 20
1223.093470890365
 30
-0.0000000000000055
 10
169.4856850091391
 20
1223.696448678372
 30
-0.0000000000000055
  0
SPLINE
  5
748
330
1F
100
AcDbEntity
  8
0
  6
Continuous
100
AcDbSpline
210
0.0
220
0.0
230
1.0
 70
     8
 71
     3
 72
    16
 73
    12
 74
     0
 42
0.0000000001
 43
0.0000000001
 40
0.0
 40
0.0
 40
0.0
 40
0.0
 40
0.2186396241431151
 40
0.2186396241431151
 40
0.4372897194545124
 40
0.4372897194545124
 40
0.6555869541566382
 40
0.6555869541566382
 40
0.87084418301464
 40
0.87084418301464
 40
1.0
 40
1.0
 40
1.0
 40
1.0
 10
239.8114209404275
 20
1194.662300060819
 30
-0.0000000000000055
 10
239.8114209404275
 20
1194.689613737214
 30
-0.0000000000000055
 10
239.7916040782138
 20
1194.718314176792
 30
-0.0000000000000055
 10
239.7157378763341
 20
1194.773431100386
 30
-0.0000000000000055
 10
239.6586319639018
 20
1194.800600639235
 30
-0.0000000000000055
 10
239.5153981171306
 20
1194.848760638578
 30
-0.0000000000000055
 10
239.4272818638064
 20
1194.870413119773
 30
-0.0000000000000055
 10
239.2338063220086
 20
1194.903901355439
 30
-0.0000000000000055
 10
239.1259669869678
 20
1194.916310114327
 30
-0.0000000000000055
 10
238.9486005581148
 20
1194.927108528123
 30
-0.0000000000000055
 10
238.8798255905385
 20
1194.92919339357
 30
-0.0000000000000055
 10
238.8114209404266
 20
1194.92919339357
 30
-0.0000000000000055
  0
SPLINE
  5
749
330
1F
100
AcDbEntity
  8
0
  6
Continuous
100
AcDbSpline
210
0.0
220
0.0
230
1.0
 70
     8
 71
     3
 72
    16
 73
    12
 74
     0
 42
0.0000000001
 43
0.0000000001
 40
0.0
 40
0.0
 40
0.0
 40
0.0
 40
0.2186396241431151
 40
0.2186396241431151
 40
0.4372897194545124
 40
0.4372897194545124
 40
0.6555869541566382
 40
0.6555869541566382
 40
0.87084418301464
 40
0.87084418301464
 40
1.0
 40
1.0
 40
1.0
 40
1.0
 10
209.8114209404266
 20
1194.662300060819
 30
-0.0000000000000055
 10
209.8114209404266
 20
1194.689613737214
 30
-0.0000000000000055
 10
209.8312378026394
 20
1194.718314176792
 30
-0.0000000000000055
 10
209.907104004521
 20
1194.773431100386
 30
-0.0000000000000055
 10
209.9642099169514
 20
1194.800600639235
 30
-0.0000000000000055
 10
210.1074437637226
 20
1194.848760638578
 30
-0.0000000000000055
 10
210.1955600170486
 20
1194.870413119773
 30
-0.0000000000000055
 10
210.3890355588446
 20
1194.903901355439
 30
-0.0000000000000055
 10
210.4968748938854
 20
1194.916310114327
 30
-0.0000000000000055
 10
210.6742413227384
 20
1194.927108528123
 30
-0.0000000000000055
 10
210.7430162903156
 20
1194.92919339357
 30
-0.0000000000000055
 10
210.8114209404266
 20
1194.92919339357
 30
-0.0000000000000055
  0
SPLINE
  5
74A
330
1F
100
AcDbEntity
  8
0
  6
Continuous
100
AcDbSpline
210
0.0
220
0.0
230
1.0
 70
     8
 71
     3
 72
    22
 73
    18
 74
     0
 42
0.0000000001
 43
0.0000000001
 40
0.0
 40
0.0
 40
0.0
 40
0.0
 40
0.125
 40
0.125
 40
0.25
 40
0.25
 40
0.375
 40
0.375
 40
0.5
 40
0.5
 40
0.625
 40
0.625
 40
0.75
 40
0.75
 40
0.875
 40
0.875
 40
1.0
 40
1.0
 40
1.0
 40
1.0
 10
169.1838325750576
 20
1233.018618417993
 30
-0.0000000000000055
 10
170.8353250067466
 20
1233.506689393156
 30
-0.0000000000000055
 10
172.8716068151343
 20
1233.692391531612
 30
-0.0000000000000055
 10
177.2809386057806
 20
1233.814034201859
 30
-0.0000000000000055
 10
179.6155161733704
 20
1233.761417380418
 30
-0.0000000000000055
 10
183.5384680208308
 20
1233.260787710847
 30
-0.0000000000000055
 10
185.1930650065496
 20
1232.783038653441
 30
-0.0000000000000055
 10
187.5134386235004
 20
1231.078569844088
 30
-0.0000000000000055
 10
188.1945385616354
 20
1229.811347249311
 30
-0.0000000000000055
 10
188.2076183131939
 20
1226.624793868871
 30
-0.0000000000000055
 10
187.5487515068153
 20
1224.77874004062
 30
-0.0000000000000055
 10
185.2089254679959
 20
1221.316572343682
 30
-0.0000000000000055
 10
183.5763746390093
 20
1219.739540845708
 30
-0.0000000000000055
 10
179.673770777712
 20
1217.591499927969
 30
-0.0000000000000055
 10
177.3388781156218
 20
1217.087674880751
 30
-0.0000000000000055
 10
172.9090160982132
 20
1217.781646496601
 30
-0.0000000000000055
 10
170.8396328705885
 20
1218.908908325354
 30
-0.0000000000000055
 10
169.1838325750576
 20
1220.380878124284
 30
-0.0000000000000055
  0
SPLINE
  5
74B
330
1F
100
AcDbEntity
  8
0
  6
Continuous
100
AcDbSpline
210
0.0
220
0.0
230
1.0
 70
     8
 71
     3
 72
     8
 73
     4
 74
     0
 42
0.0000000001
 43
0.0000000001
 40
0.0
 40
0.0
 40
0.0
 40
0.0
 40
1.0
 40
1.0
 40
1.0
 40
1.0
 10
169.2735529747851
 20
1229.386444693795
 30
-0.0000000000000055
 10
169.2777981556837
 20
1229.262100873037
 30
-0.0000000000000055
 10
169.2821783897479
 20
1229.137841801311
 30
-0.0000000000000055
 10
169.2866959654601
 20
1229.013669271237
 30
-0.0000000000000055
  0
SPLINE
  5
74C
330
1F
100
AcDbEntity
  8
0
  6
Continuous
100
AcDbSpline
210
0.0
220
0.0
230
1.0
 70
     8
 71
     3
 72
     8
 73
     4
 74
     0
 42
0.0000000001
 43
0.0000000001
 40
0.0
 40
0.0
 40
0.0
 40
0.0
 40
1.0
 40
1.0
 40
1.0
 40
1.0
 10
169.2735529747851
 20
1229.386444693795
 30
-0.0000000000000055
 10
169.2379589236016
 20
1230.429015181351
 30
-0.0000000000000055
 10
169.2023657669388
 20
1231.471585067684
 30
-0.0000000000000055
 10
169.1667734690909
 20
1232.514154376783
 30
-0.0000000000000055
  0
SPLINE
  5
74D
330
1F
100
AcDbEntity
  8
0
  6
Continuous
100
AcDbSpline
210
0.0
220
0.0
230
1.0
 70
     8
 71
     3
 72
     8
 73
     4
 74
     0
 42
0.0000000001
 43
0.0000000001
 40
0.0
 40
0.0
 40
0.0
 40
0.0
 40
1.0
 40
1.0
 40
1.0
 40
1.0
 10
169.1666858180542
 20
1232.517403842186
 30
-0.0000000000000055
 10
169.1667074369225
 20
1232.516315983488
 30
-0.0000000000000055
 10
169.1667366535639
 20
1232.515232776897
 30
-0.0000000000000055
 10
169.1667734690909
 20
1232.514154376783
 30
-0.0000000000000055
  0
SPLINE
  5
74E
330
1F
100
AcDbEntity
  8
0
  6
Continuous
100
AcDbSpline
210
0.0
220
0.0
230
1.0
 70
     8
 71
     3
 72
    22
 73
    18
 74
     0
 42
0.0000000001
 43
0.0000000001
 40
0.0
 40
0.0
 40
0.0
 40
0.0
 40
0.125
 40
0.125
 40
0.25
 40
0.25
 40
0.375
 40
0.375
 40
0.5
 40
0.5
 40
0.625
 40
0.625
 40
0.75
 40
0.75
 40
0.875
 40
0.875
 40
1.0
 40
1.0
 40
1.0
 40
1.0
 10
169.1666858180542
 20
1220.645394755011
 30
-0.0000000000000055
 10
170.7585160953795
 20
1219.181042505087
 30
-0.0000000000000055
 10
172.7317507244488
 20
1218.051561659138
 30
-0.0000000000000055
 10
177.026862102738
 20
1217.249481013355
 30
-0.0000000000000055
 10
179.3295945369727
 20
1217.666031163279
 30
-0.0000000000000055
 10
183.2143628523163
 20
1219.68639009201
 30
-0.0000000000000055
 10
184.8676984577441
 20
1221.235490459304
 30
-0.0000000000000055
 10
187.1988784328232
 20
1224.565091377409
 30
-0.0000000000000055
 10
187.8934279535488
 20
1226.393333251571
 30
-0.0000000000000055
 10
187.9090549276261
 20
1229.530175452901
 30
-0.0000000000000055
 10
187.2346713202031
 20
1230.762415415752
 30
-0.0000000000000055
 10
184.8897015672546
 20
1232.403455813228
 30
-0.0000000000000055
 10
183.2643841553408
 20
1232.827241391735
 30
-0.0000000000000055
 10
179.3825849672639
 20
1233.27232691364
 30
-0.0000000000000055
 10
177.0957271217821
 20
1233.312275256436
 30
-0.0000000000000055
 10
172.7605709718364
 20
1233.187113118522
 30
-0.0000000000000055
 10
170.7629365757848
 20
1233.005177265924
 30
-0.0000000000000055
 10
169.1666858180542
 20
1232.517403842186
 30
-0.0000000000000055
  0
SPLINE
  5
74F
330
1F
100
AcDbEntity
  8
0
  6
Continuous
100
AcDbSpline
210
0.0
220
0.0
230
1.0
 70
     8
 71
     3
 72
    22
 73
    18
 74
     0
 42
0.0000000001
 43
0.0000000001
 40
0.0
 40
0.0
 40
0.0
 40
0.0
 40
0.0051803074801227
 40
0.0051803074801227
 40
0.0395086193947705
 40
0.0395086193947705
 40
0.3202353099680399
 40
0.3202353099680399
 40
0.5286721987772869
 40
0.5286721987772869
 40
0.6780849300125251
 40
0.6780849300125251
 40
0.7831239638204285
 40
0.7831239638204285
 40
0.8917357318733184
 40
0.8917357318733184
 40
1.0
 40
1.0
 40
1.0
 40
1.0
 10
169.1838325750576
 20
1220.380878124284
 30
-0.0000000000000055
 10
169.1837773978304
 20
1220.381977326978
 30
-0.0000000000000055
 10
169.1837221604965
 20
1220.383075479262
 30
-0.0000000000000055
 10
169.1833000338811
 20
1220.391477834702
 30
-0.0000000000000055
 10
169.1829356530688
 20
1220.398737115587
 30
-0.0000000000000055
 10
169.1796567745286
 20
1220.464114158034
 30
-0.0000000000000055
 10
169.1768949153002
 20
1220.519759408339
 30
-0.0000000000000055
 10
169.1726962685434
 20
1220.603106754413
 30
-0.0000000000000055
 10
169.1710567034443
 20
1220.635175291321
 30
-0.0000000000000055
 10
169.1687297509515
 20
1220.676883296316
 30
-0.0000000000000055
 10
169.1678833897804
 20
1220.690612245961
 30
-0.0000000000000055
 10
169.1668068543868
 20
1220.703229583425
 30
-0.0000000000000055
 10
169.1664610702082
 20
1220.705347415322
 30
-0.0000000000000055
 10
169.1660328539347
 20
1220.70180013238
 30
-0.0000000000000055
 10
169.1659559655227
 20
1220.695763813649
 30
-0.0000000000000055
 10
169.1661063606789
 20
1220.675935886109
 30
-0.0000000000000055
 10
169.1663339764881
 20
1220.661941952864
 30
-0.0000000000000055
 10
169.1666858180542
 20
1220.645394755011
 30
-0.0000000000000055
  0
SPLINE
  5
750
330
1F
100
AcDbEntity
  8
0
  6
Continuous
100
AcDbSpline
210
0.0
220
0.0
230
1.0
 70
     8
 71
     3
 72
    22
 73
    18
 74
     0
 42
0.0000000001
 43
0.0000000001
 40
0.0
 40
0.0
 40
0.0
 40
0.0
 40
0.0051800448168245
 40
0.0051800448168245
 40
0.0407819771487276
 40
0.0407819771487276
 40
0.3212635310319727
 40
0.3212635310319727
 40
0.5294032780932727
 40
0.5294032780932727
 40
0.6786281095789915
 40
0.6786281095789915
 40
0.7836516423984543
 40
0.7836516423984543
 40
0.891998910638555
 40
0.891998910638555
 40
1.0
 40
1.0
 40
1.0
 40
1.0
 10
169.1838325750576
 20
1233.018618417993
 30
-0.0000000000000055
 10
169.1837773978304
 20
1233.018252997218
 30
-0.0000000000000055
 10
169.1837221604965
 20
1233.017884410615
 30
-0.0000000000000055
 10
169.1832864304515
 20
1233.014945530095
 30
-0.0000000000000055
 10
169.182908642194
 20
1233.012227221928
 30
-0.0000000000000055
 10
169.1796209412741
 20
1232.987065104453
 30
-0.0000000000000055
 10
169.1768637007353
 20
1232.955406405692
 30
-0.0000000000000055
 10
169.1726738925399
 20
1232.885609912293
 30
-0.0000000000000055
 10
169.1710385250044
 20
1232.850411394848
 30
-0.0000000000000055
 10
169.1687180306717
 20
1232.782460524302
 30
-0.0000000000000055
 10
169.1678742134691
 20
1232.751098323381
 30
-0.0000000000000055
 10
169.1668011161473
 20
1232.695621249461
 30
-0.0000000000000055
 10
169.1664565977653
 20
1232.671631531714
 30
-0.0000000000000055
 10
169.1660315649796
 20
1232.623980436199
 30
-0.0000000000000055
 10
169.1659559833979
 20
1232.599769676005
 30
-0.0000000000000055
 10
169.1661074354651
 20
1232.555602112689
 30
-0.0000000000000055
 10
169.16633481398
 20
1232.535066322056
 30
-0.0000000000000055
 10
169.1666858180542
 20
1232.517403842186
 30
-0.0000000000000055
  0
SPLINE
  5
751
330
1F
100
AcDbEntity
  8
0
  6
Continuous
100
AcDbSpline
210
0.0
220
0.0
230
1.0
 70
     8
 71
     3
 72
    14
 73
    10
 74
     0
 42
0.0000000001
 43
0.0000000001
 40
0.0
 40
0.0
 40
0.0
 40
0.0
 40
0.3225419345819156
 40
0.3225419345819156
 40
0.6604170385934233
 40
0.6604170385934233
 40
0.8968719953967191
 40
0.8968719953967191
 40
1.0
 40
1.0
 40
1.0
 40
1.0
 10
166.5992889060708
 20
1233.26803798905
 30
-0.0000000000000055
 10
166.4779005506652
 20
1233.294532743618
 30
-0.0000000000000055
 10
166.3665065480991
 20
1233.290826556142
 30
-0.0000000000000055
 10
166.1688806128586
 20
1233.236925666238
 30
-0.0000000000000055
 10
166.0810589348375
 20
1233.18370269714
 30
-0.0000000000000055
 10
165.9684780865036
 20
1233.050257817434
 30
-0.0000000000000055
 10
165.9316450884025
 20
1232.98164859418
 30
-0.0000000000000055
 10
165.9042250909542
 20
1232.860575263805
 30
-0.0000000000000055
 10
165.8992889060709
 20
1232.820219713216
 30
-0.0000000000000055
 10
165.8992889060709
 20
1232.776506247326
 30
-0.0000000000000055
  0
SPLINE
  5
752
330
1F
100
AcDbEntity
  8
0
  6
Continuous
100
AcDbSpline
210
0.0
220
0.0
230
1.0
 70
     8
 71
     3
 72
    14
 73
    10
 74
     0
 42
0.0000000001
 43
0.0000000001
 40
0.0
 40
0.0
 40
0.0
 40
0.0
 40
0.0251518953538994
 40
0.0251518953538994
 40
0.4050100439235015
 40
0.4050100439235015
 40
0.8030723073471081
 40
0.8030723073471081
 40
1.0
 40
1.0
 40
1.0
 40
1.0
 10
165.9360041306418
 20
1216.532404481652
 30
-0.0000000000000055
 10
165.938591965215
 20
1216.542551459825
 30
-0.0000000000000055
 10
165.9412878246339
 20
1216.552728176588
 30
-0.0000000000000055
 10
165.9861463720963
 20
1216.716373483249
 30
-0.0000000000000055
 10
166.0520761725484
 20
1216.879686508555
 30
-0.0000000000000055
 10
166.2135809415349
 20
1217.207372842518
 30
-0.0000000000000055
 10
166.313000395573
 20
1217.376267068203
 30
-0.0000000000000055
 10
166.47921669883
 20
1217.614381939357
 30
-0.0000000000000055
 10
166.537911440123
 20
1217.691837863543
 30
-0.0000000000000055
 10
166.5992889060708
 20
1217.765242193539
 30
-0.0000000000000055
  0
SPLINE
  5
753
330
1F
100
AcDbEntity
  8
0
  6
Continuous
100
AcDbSpline
210
0.0
220
0.0
230
1.0
 70
     8
 71
     3
 72
    14
 73
    10
 74
     0
 42
0.0000000001
 43
0.0000000001
 40
0.0
 40
0.0
 40
0.0
 40
0.0
 40
0.2683570512618139
 40
0.2683570512618139
 40
0.5354551442217744
 40
0.5354551442217744
 40
0.8460152445641135
 40
0.8460152445641135
 40
1.0
 40
1.0
 40
1.0
 40
1.0
 10
166.8114209404275
 20
1217.66910346984
 30
-0.0000000000000055
 10
166.6684448581136
 20
1217.54758158329
 30
-0.0000000000000055
 10
166.5319000339796
 20
1217.410164025193
 30
-0.0000000000000055
 10
166.2883856728222
 20
1217.128838844633
 30
-0.0000000000000055
 10
166.1781494909883
 20
1216.981359184606
 30
-0.0000000000000055
 10
165.9801256359151
 20
1216.668687796499
 30
-0.0000000000000055
 10
165.8946184806455
 20
1216.49811052379
 30
-0.0000000000000055
 10
165.8250809366473
 20
1216.270155510782
 30
-0.0000000000000055
 10
165.8114209404275
 20
1216.197333622657
 30
-0.0000000000000055
 10
165.8114209404275
 20
1216.133760958155
 30
-0.0000000000000055
  0
SPLINE
  5
754
330
1F
100
AcDbEntity
  8
0
  6
Continuous
100
AcDbSpline
210
0.0
220
0.0
230
1.0
 70
     8
 71
     3
 72
    14
 73
    10
 74
     0
 42
0.0000000001
 43
0.0000000001
 40
0.0
 40
0.0
 40
0.0
 40
0.0
 40
0.187244905451812
 40
0.187244905451812
 40
0.4456250355650491
 40
0.4456250355650491
 40
0.7099114192102566
 40
0.7099114192102566
 40
1.0
 40
1.0
 40
1.0
 40
1.0
 10
165.8114209404275
 20
1232.926506247326
 30
-0.0000000000000055
 10
165.8114209404275
 20
1233.034027994941
 30
-0.0000000000000055
 10
165.8314108975946
 20
1233.133181420848
 30
-0.0000000000000055
 10
165.9097946170104
 20
1233.338962930771
 30
-0.0000000000000055
 10
165.9809827214622
 20
1233.43860297424
 30
-0.0000000000000055
 10
166.1559170145656
 20
1233.595643438393
 30
-0.0000000000000055
 10
166.262765314993
 20
1233.654108318514
 30
-0.0000000000000055
 10
166.510368172625
 20
1233.726678597006
 30
-0.0000000000000055
 10
166.6571950083225
 20
1233.737086489766
 30
-0.0000000000000055
 10
166.8114209404275
 20
1233.713163323298
 30
-0.0000000000000055
  0
SPLINE
  5
755
330
1F
100
AcDbEntity
  8
0
  6
Continuous
100
AcDbSpline
210
0.0
220
0.0
230
1.0
 70
     8
 71
     3
 72
    14
 73
    10
 74
     0
 42
0.0000000001
 43
0.0000000001
 40
0.0
 40
0.0
 40
0.0
 40
0.0
 40
0.0805643909997563
 40
0.0805643909997563
 40
0.4028283177367001
 40
0.4028283177367001
 40
0.9980034695038991
 40
0.9980034695038991
 40
1.0
 40
1.0
 40
1.0
 40
1.0
 10
169.2866959654601
 20
1229.013669271237
 30
-0.0000000000000055
 10
169.291957883669
 20
1228.869037340601
 30
-0.0000000000000055
 10
169.2972261788172
 20
1228.724628518638
 30
-0.0000000000000055
 10
169.3235998257423
 20
1228.003528348589
 30
-0.0000000000000055
 10
169.3448011925684
 20
1227.429580533515
 30
-0.0000000000000055
 10
169.4054594755098
 20
1225.801185908067
 30
-0.0000000000000055
 10
169.4451727891164
 20
1224.75135337569
 30
-0.0000000000000055
 10
169.4854159000842
 20
1223.703455518271
 30
-0.0000000000000055
 10
169.4855504568422
 20
1223.699952066356
 30
-0.0000000000000055
 10
169.4856850091391
 20
1223.696448678372
 30
-0.0000000000000055
  0
SPLINE
  5
756
330
1F
100
AcDbEntity
  8
0
  6
Continuous
100
AcDbSpline
210
0.0
220
0.0
230
1.0
 70
     8
 71
     3
 72
     8
 73
     4
 74
     0
 42
0.0000000001
 43
0.0000000001
 40
0.0
 40
0.0
 40
0.0
 40
0.0
 40
1.0
 40
1.0
 40
1.0
 40
1.0
 10
239.1882815378303
 20
1161.602850707905
 30
-0.0000000000000055
 10
239.4821063708341
 20
1162.383437964187
 30
-0.0000000000000055
 10
239.8114209404275
 20
1163.076514539701
 30
-0.0000000000000055
 10
239.8114209404275
 20
1163.768534108681
 30
-0.0000000000000055
  0
SPLINE
  5
757
330
1F
100
AcDbEntity
  8
0
  6
Continuous
100
AcDbSpline
210
0.0
220
0.0
230
1.0
 70
     8
 71
     3
 72
     8
 73
     4
 74
     0
 42
0.0000000001
 43
0.0000000001
 40
0.0
 40
0.0
 40
0.0
 40
0.0
 40
1.0
 40
1.0
 40
1.0
 40
1.0
 10
210.4345603430229
 20
1161.602850707905
 30
-0.0000000000000055
 10
210.1407355100191
 20
1162.383437964187
 30
-0.0000000000000055
 10
209.8114209404266
 20
1163.076514539701
 30
-0.0000000000000055
 10
209.8114209404266
 20
1163.768534108681
 30
-0.0000000000000055
  0
SPLINE
  5
758
330
1F
100
AcDbEntity
  8
0
  6
Continuous
100
AcDbSpline
210
0.0
220
0.0
230
1.0
 70
     8
 71
     3
 72
    20
 73
    16
 74
     0
 42
0.0000000001
 43
0.0000000001
 40
0.0
 40
0.0
 40
0.0
 40
0.0
 40
0.0969972264410024
 40
0.0969972264410024
 40
0.1773232481440821
 40
0.1773232481440821
 40
0.2372682236124971
 40
0.2372682236124971
 40
0.2972809865359386
 40
0.2972809865359386
 40
0.3794248125842293
 40
0.3794248125842293
 40
0.5311630064830962
 40
0.5311630064830962
 40
1.0
 40
1.0
 40
1.0
 40
1.0
 10
210.8114209404266
 20
1161.336421034051
 30
-0.0000000000000055
 10
210.7986982348712
 20
1161.321928159162
 30
-0.0000000000000055
 10
210.7847537300322
 20
1161.308242598575
 30
-0.0000000000000055
 10
210.7564198935151
 20
1161.287238351604
 30
-0.0000000000000055
 10
210.7422294480365
 20
1161.279095342338
 30
-0.0000000000000055
 10
210.7158703979258
 20
1161.270152760699
 30
-0.0000000000000055
 10
210.7038487519349
 20
1161.268010596455
 30
-0.0000000000000055
 10
210.6801585001394
 20
1161.268029274194
 30
-0.0000000000000055
 10
210.6682290445651
 20
1161.270191432819
 30
-0.0000000000000055
 10
210.6419147918859
 20
1161.279214437676
 30
-0.0000000000000055
 10
210.6277761793871
 20
1161.287515749806
 30
-0.0000000000000055
 10
210.5917004858093
 20
1161.314969590852
 30
-0.0000000000000055
 10
210.5721425502161
 20
1161.337632568034
 30
-0.0000000000000055
 10
210.5019353338048
 20
1161.434030419842
 30
-0.0000000000000055
 10
210.4662652217367
 20
1161.518622210112
 30
-0.0000000000000055
 10
210.4345603430111
 20
1161.602850707896
 30
-0.0000000000000055
  0
SPLINE
  5
759
330
1F
100
AcDbEntity
  8
0
  6
Continuous
100
AcDbSpline
210
0.0
220
0.0
230
1.0
 70
     8
 71
     3
 72
    20
 73
    16
 74
     0
 42
0.0000000001
 43
0.0000000001
 40
0.0
 40
0.0
 40
0.0
 40
0.0
 40
0.0969972264410024
 40
0.0969972264410024
 40
0.1773232481440821
 40
0.1773232481440821
 40
0.2372682236124971
 40
0.2372682236124971
 40
0.2972809865359386
 40
0.2972809865359386
 40
0.3794248125842293
 40
0.3794248125842293
 40
0.5311630064830962
 40
0.5311630064830962
 40
1.0
 40
1.0
 40
1.0
 40
1.0
 10
238.8114209404266
 20
1161.336421034051
 30
-0.0000000000000055
 10
238.8241436459821
 20
1161.321928159162
 30
-0.0000000000000055
 10
238.8380881508228
 20
1161.308242598575
 30
-0.0000000000000055
 10
238.8664219873381
 20
1161.287238351604
 30
-0.0000000000000055
 10
238.8806124328166
 20
1161.279095342338
 30
-0.0000000000000055
 10
238.9069714829302
 20
1161.270152760699
 30
-0.0000000000000055
 10
238.9189931289184
 20
1161.268010596455
 30
-0.0000000000000055
 10
238.9426833807147
 20
1161.268029274194
 30
-0.0000000000000055
 10
238.9546128362881
 20
1161.270191432819
 30
-0.0000000000000055
 10
238.9809270889682
 20
1161.279214437676
 30
-0.0000000000000055
 10
238.9950657014661
 20
1161.287515749806
 30
-0.0000000000000055
 10
239.0311413950449
 20
1161.314969590852
 30
-0.0000000000000055
 10
239.0506993306372
 20
1161.337632568034
 30
-0.0000000000000055
 10
239.1209065470493
 20
1161.434030419842
 30
-0.0000000000000055
 10
239.1565766591193
 20
1161.518622210112
 30
-0.0000000000000055
 10
239.188281537844
 20
1161.602850707896
 30
-0.0000000000000055
  0
SPLINE
  5
75A
330
1F
100
AcDbEntity
  8
0
100
AcDbSpline
210
0.0
220
0.0
230
1.0
 70
     8
 71
     3
 72
     8
 73
     4
 74
     0
 42
0.0000000001
 43
0.0000000001
 40
0.0
 40
0.0
 40
0.0
 40
0.0
 40
1.0
 40
1.0
 40
1.0
 40
1.0
 10
169.976925734747
 20
56.74697578578662
 30
0.0000000000000019
 10
169.740144325744
 20
53.6930402144776
 30
0.0000000000000021
 10
169.5107504601719
 20
50.63890984632918
 30
0.0000000000000023
 10
169.2866974032813
 20
47.58467427456753
 30
0.0000000000000025
  0
SPLINE
  5
75B
330
1F
100
AcDbEntity
  8
0
100
AcDbSpline
210
0.0
220
0.0
230
1.0
 70
     8
 71
     3
 72
     8
 73
     4
 74
     0
 42
0.0000000001
 43
0.0000000001
 40
0.0
 40
0.0
 40
0.0
 40
0.0
 40
1.0
 40
1.0
 40
1.0
 40
1.0
 10
169.4856864469602
 20
52.90189486743338
 30
0.0000000000000021
 10
169.5809155835523
 20
54.14069749371583
 30
0.000000000000002
 10
169.6771964626159
 20
55.379462970684
 30
0.000000000000002
 10
169.7747431900643
 20
56.61817970174752
 30
0.0000000000000019
  0
SPLINE
  5
75C
330
1F
100
AcDbEntity
  8
0
100
AcDbSpline
210
0.0000000000000077
220
0.000000000000009
230
1.0
 70
     8
 71
     3
 72
    14
 73
    10
 74
     0
 42
0.0000000001
 43
0.0000000001
 40
0.0
 40
0.0
 40
0.0
 40
0.0
 40
0.3632181937745955
 40
0.3632181937745955
 40
0.7449959145475076
 40
0.7449959145475076
 40
0.9870599436575
 40
0.9870599436575
 40
1.0
 40
1.0
 40
1.0
 40
1.0
 10
207.7999016409203
 20
106.2483008227177
 30
-0.0000000000000011
 10
207.7796818472143
 20
106.302868746729
 30
-0.0000000000000011
 10
207.7498971005562
 20
106.3533067542835
 30
-0.0000000000000011
 10
207.6695188879648
 20
106.4444939950467
 30
-0.0000000000000012
 10
207.616755449335
 20
106.4861096620047
 30
-0.0000000000000012
 10
207.5217775825377
 20
106.5468820434203
 30
-0.0000000000000012
 10
207.4820880850939
 20
106.5692388768461
 30
-0.0000000000000012
 10
207.4400847264515
 20
106.5918532354303
 30
-0.0000000000000012
 10
207.4379649726252
 20
106.5929893124162
 30
-0.0000000000000012
 10
207.4358463413819
 20
106.5941273778703
 30
-0.0000000000000012
  0
SPLINE
  5
75D
330
1F
100
AcDbEntity
  8
0
100
AcDbSpline
210
0.0
220
0.0
230
1.0
 70
     8
 71
     3
 72
    14
 73
    10
 74
     0
 42
0.0000000001
 43
0.0000000001
 40
0.0
 40
0.0
 40
0.0
 40
0.0
 40
0.0129400563425263
 40
0.0129400563425263
 40
0.2550040854532342
 40
0.2550040854532342
 40
0.6367818062244695
 40
0.6367818062244695
 40
1.0
 40
1.0
 40
1.0
 40
1.0
 10
242.1869984151144
 20
102.4279025221644
 30
-0.0000000000000009
 10
242.1848797838702
 20
102.4290405876186
 30
-0.0000000000000009
 10
242.1827600300439
 20
102.4301766646044
 30
-0.0000000000000009
 10
242.1407566714051
 20
102.4527910231886
 30
-0.0000000000000009
 10
242.1010671739578
 20
102.4751478566145
 30
-0.0000000000000009
 10
242.0060893071604
 20
102.53592023803
 30
-0.0000000000000009
 10
241.9533258685342
 20
102.5775359049871
 30
-0.0000000000000009
 10
241.8729476559402
 20
102.6687231457513
 30
-0.0000000000000009
 10
241.843162909282
 20
102.7191611533048
 30
-0.0000000000000009
 10
241.8229431155751
 20
102.773729077317
 30
-0.0000000000000009
  0
SPLINE
  5
75E
330
1F
100
AcDbEntity
  8
0
100
AcDbSpline
210
0.0000000000000077
220
-0.000000000000009
230
-1.0
 70
     8
 71
     3
 72
    14
 73
    10
 74
     0
 42
0.0000000001
 43
0.0000000001
 40
0.0
 40
0.0
 40
0.0
 40
0.0
 40
0.3632181937745955
 40
0.3632181937745955
 40
0.7449959145475076
 40
0.7449959145475076
 40
0.9870599436575
 40
0.9870599436575
 40
1.0
 40
1.0
 40
1.0
 40
1.0
 10
241.8229431155751
 20
106.2483008227177
 30
-0.0000000000000011
 10
241.843162909282
 20
106.302868746729
 30
-0.0000000000000011
 10
241.8729476559392
 20
106.3533067542835
 30
-0.0000000000000011
 10
241.9533258685333
 20
106.4444939950467
 30
-0.0000000000000012
 10
242.0060893071604
 20
106.4861096620047
 30
-0.0000000000000012
 10
242.1010671739578
 20
106.5468820434203
 30
-0.0000000000000012
 10
242.1407566714051
 20
106.5692388768461
 30
-0.0000000000000012
 10
242.1827600300439
 20
106.5918532354303
 30
-0.0000000000000012
 10
242.1848797838702
 20
106.5929893124162
 30
-0.0000000000000012
 10
242.1869984151144
 20
106.5941273778703
 30
-0.0000000000000012
  0
SPLINE
  5
75F
330
1F
100
AcDbEntity
  8
0
100
AcDbSpline
210
0.0
220
0.0
230
1.0
 70
     8
 71
     3
 72
    22
 73
    18
 74
     0
 42
0.0000000001
 43
0.0000000001
 40
0.0
 40
0.0
 40
0.0
 40
0.0
 40
0.125
 40
0.125
 40
0.25
 40
0.25
 40
0.375
 40
0.375
 40
0.5
 40
0.5
 40
0.625
 40
0.625
 40
0.75
 40
0.75
 40
0.875
 40
0.875
 40
1.0
 40
1.0
 40
1.0
 40
1.0
 10
169.1838340128788
 20
56.21746542152004
 30
0.0000000000000019
 10
170.8353264445676
 20
57.68560562488119
 30
0.0000000000000018
 10
172.8716082529554
 20
58.79957117309686
 30
0.0000000000000018
 10
177.2809400436017
 20
59.51261645109889
 30
0.0000000000000017
 10
179.6155176111914
 20
59.02729232620322
 30
0.0000000000000017
 10
183.5384694586519
 20
56.89100085854943
 30
0.0000000000000019
 10
185.1930664443706
 20
55.29271332935832
 30
0.000000000000002
 10
187.5134400613215
 20
51.88410694774439
 30
0.0000000000000022
 10
188.1945399994565
 20
50.02694029987332
 30
0.0000000000000023
 10
188.207619751015
 20
46.8295339289857
 30
0.0000000000000025
 10
187.5487529446363
 20
45.55666050301852
 30
0.0000000000000026
 10
185.2089269058169
 20
43.81624433814113
 30
0.0000000000000027
 10
183.5763760768304
 20
43.34665634035218
 30
0.0000000000000027
 10
179.673772215533
 20
42.84020084605298
 30
0.0000000000000027
 10
177.3388795534429
 20
42.78478092008163
 30
0.0000000000000027
 10
172.9090175360343
 20
42.90289413028539
 30
0.0000000000000027
 10
170.8396343084096
 20
43.09038103551711
 30
0.0000000000000027
 10
169.1838340128788
 20
43.57972512781225
 30
0.0000000000000027
  0
SPLINE
  5
760
330
1F
100
AcDbEntity
  8
0
100
AcDbSpline
210
0.0
220
0.0
230
1.0
 70
     8
 71
     3
 72
    22
 73
    18
 74
     0
 42
0.0000000001
 43
0.0000000001
 40
0.0
 40
0.0
 40
0.0
 40
0.0
 40
0.125
 40
0.125
 40
0.25
 40
0.25
 40
0.375
 40
0.375
 40
0.5
 40
0.5
 40
0.625
 40
0.625
 40
0.75
 40
0.75
 40
0.875
 40
0.875
 40
1.0
 40
1.0
 40
1.0
 40
1.0
 10
169.1666872558753
 20
44.0809397036187
 30
0.0000000000000027
 10
170.7585175332005
 20
43.5945170656846
 30
0.0000000000000027
 10
172.7317521622699
 20
43.4140967009339
 30
0.0000000000000027
 10
177.026863540559
 20
43.28606800453463
 30
0.0000000000000027
 10
179.3295959747938
 20
43.32419661317771
 30
0.0000000000000027
 10
183.2143642901374
 20
43.76122255796917
 30
0.0000000000000027
 10
184.8676998955651
 20
44.19128220459742
 30
0.0000000000000027
 10
187.1988798706443
 20
45.79937716030371
 30
0.0000000000000026
 10
187.8934293913698
 20
47.0195261153126
 30
0.0000000000000025
 10
187.9090563654472
 20
50.14326461468818
 30
0.0000000000000023
 10
187.2346727580243
 20
51.96828379165754
 30
0.0000000000000022
 10
184.8897030050757
 20
55.34493601023996
 30
0.000000000000002
 10
183.2643855931618
 20
56.87354135200485
 30
0.0000000000000019
 10
179.382586405085
 20
58.91682649128461
 30
0.0000000000000018
 10
177.0957285596032
 20
59.35007865791749
 30
0.0000000000000017
 10
172.7605724096575
 20
58.56354828441046
 30
0.0000000000000018
 10
170.7629380136059
 20
57.42136751722727
 30
0.0000000000000018
 10
169.1666872558753
 20
55.95294879079256
 30
0.0000000000000019
  0
SPLINE
  5
761
330
1F
100
AcDbEntity
  8
0
100
AcDbSpline
210
0.0
220
0.0
230
1.0
 70
     8
 71
     3
 72
     8
 73
     4
 74
     0
 42
0.0000000001
 43
0.0000000001
 40
0.0
 40
0.0
 40
0.0
 40
0.0
 40
1.0
 40
1.0
 40
1.0
 40
1.0
 10
169.166774906912
 20
44.08418916904382
 30
0.0000000000000027
 10
169.1667380913859
 20
44.08311076892231
 30
0.0000000000000027
 10
169.1667088747454
 20
44.08202756232322
 30
0.0000000000000027
 10
169.1666872558753
 20
44.0809397036187
 30
0.0000000000000027
  0
SPLINE
  5
762
330
1F
100
AcDbEntity
  8
0
100
AcDbSpline
210
0.0
220
0.0
230
1.0
 70
     8
 71
     3
 72
     8
 73
     4
 74
     0
 42
0.0000000001
 43
0.0000000001
 40
0.0
 40
0.0
 40
0.0
 40
0.0
 40
1.0
 40
1.0
 40
1.0
 40
1.0
 10
169.166774906912
 20
44.08418916904382
 30
0.0000000000000027
 10
169.2023672047598
 20
45.12675847813034
 30
0.0000000000000026
 10
169.2379603614226
 20
46.16932836444856
 30
0.0000000000000025
 10
169.2735544126044
 20
47.211898851991
 30
0.0000000000000025
  0
SPLINE
  5
763
330
1F
100
AcDbEntity
  8
0
100
AcDbSpline
210
0.0
220
0.0
230
1.0
 70
     8
 71
     3
 72
     8
 73
     4
 74
     0
 42
0.0000000001
 43
0.0000000001
 40
0.0
 40
0.0
 40
0.0
 40
0.0
 40
1.0
 40
1.0
 40
1.0
 40
1.0
 10
169.2866974032813
 20
47.58467427456753
 30
0.0000000000000025
 10
169.282179827569
 20
47.46050174448693
 30
0.0000000000000025
 10
169.2777995935048
 20
47.3362426727549
 30
0.0000000000000025
 10
169.2735544126044
 20
47.211898851991
 30
0.0000000000000025
  0
SPLINE
  5
764
330
1F
100
AcDbEntity
  8
0
100
AcDbSpline
210
0.0
220
0.0
230
1.0
 70
     8
 71
     3
 72
    22
 73
    18
 74
     0
 42
0.0000000001
 43
0.0000000001
 40
0.0
 40
0.0
 40
0.0
 40
0.0
 40
0.0051803074801227
 40
0.0051803074801227
 40
0.0395086193947705
 40
0.0395086193947705
 40
0.3202353099680399
 40
0.3202353099680399
 40
0.5286721987772869
 40
0.5286721987772869
 40
0.6780849300125251
 40
0.6780849300125251
 40
0.7831239638204285
 40
0.7831239638204285
 40
0.8917357318733184
 40
0.8917357318733184
 40
1.0
 40
1.0
 40
1.0
 40
1.0
 10
169.1838340128788
 20
43.57972512781225
 30
0.0000000000000027
 10
169.1837788356514
 20
43.5800905485862
 30
0.0000000000000027
 10
169.1837235983184
 20
43.58045913519027
 30
0.0000000000000027
 10
169.1833014717022
 20
43.58330626429096
 30
0.0000000000000027
 10
169.1829370908899
 20
43.58592219106911
 30
0.0000000000000027
 10
169.1796582123497
 20
43.61090854831445
 30
0.0000000000000027
 10
169.1768963531212
 20
43.64252268476002
 30
0.0000000000000027
 10
169.1726977063645
 20
43.712283305495
 30
0.0000000000000027
 10
169.1710581412653
 20
43.74748927667633
 30
0.0000000000000027
 10
169.1687311887726
 20
43.81547634031313
 30
0.0000000000000027
 10
169.1678848276015
 20
43.84685911461882
 30
0.0000000000000027
 10
169.1668082922078
 20
43.90236411310661
 30
0.0000000000000027
 10
169.1664625080293
 20
43.92635408954856
 30
0.0000000000000027
 10
169.1660342917557
 20
43.97407284816425
 30
0.0000000000000027
 10
169.1659574033438
 20
43.99835246179963
 30
0.0000000000000027
 10
169.1661077985
 20
44.0426421589659
 30
0.0000000000000027
 10
169.1663354143093
 20
44.0632350812807
 30
0.0000000000000027
 10
169.1666872558753
 20
44.0809397036187
 30
0.0000000000000027
  0
SPLINE
  5
765
330
1F
100
AcDbEntity
  8
0
100
AcDbSpline
210
0.0
220
0.0
230
1.0
 70
     8
 71
     3
 72
    22
 73
    18
 74
     0
 42
0.0000000001
 43
0.0000000001
 40
0.0
 40
0.0
 40
0.0
 40
0.0
 40
0.0051800448168245
 40
0.0051800448168245
 40
0.0407819771487276
 40
0.0407819771487276
 40
0.3212635310319727
 40
0.3212635310319727
 40
0.5294032780932727
 40
0.5294032780932727
 40
0.6786281095789915
 40
0.6786281095789915
 40
0.7836516423984543
 40
0.7836516423984543
 40
0.891998910638555
 40
0.891998910638555
 40
1.0
 40
1.0
 40
1.0
 40
1.0
 10
169.1838340128788
 20
56.21746542152004
 30
0.0000000000000019
 10
169.1837788356514
 20
56.21636621882635
 30
0.0000000000000019
 10
169.1837235983184
 20
56.21526806654264
 30
0.0000000000000019
 10
169.1832878682726
 20
56.20659493727679
 30
0.0000000000000019
 10
169.182910080015
 20
56.19906830141417
 30
0.0000000000000019
 10
169.1796223790961
 20
56.13351129959529
 30
0.0000000000000019
 10
169.1768651385564
 20
56.07795700289216
 30
0.0000000000000019
 10
169.1726753303628
 20
55.9947982559429
 30
0.0000000000000019
 10
169.1710399628264
 20
55.96282303372436
 30
0.0000000000000019
 10
169.1687194684928
 20
55.92126429487915
 30
0.0000000000000019
 10
169.1678756512901
 20
55.90759653041232
 30
0.0000000000000019
 10
169.1668025539684
 20
55.89506620563453
 30
0.0000000000000019
 10
169.1664580355864
 20
55.89298512619779
 30
0.0000000000000019
 10
169.1660330028007
 20
55.89660425099419
 30
0.0000000000000019
 10
169.165957421219
 20
55.90265670577583
 30
0.0000000000000019
 10
169.1661088732862
 20
55.92247436349361
 30
0.0000000000000019
 10
169.1663362518011
 20
55.93644098037975
 30
0.0000000000000019
 10
169.1666872558753
 20
55.95294879079256
 30
0.0000000000000019
  0
SPLINE
  5
766
330
1F
100
AcDbEntity
  8
0
100
AcDbSpline
210
0.0
220
0.0
230
1.0
 70
     8
 71
     3
 72
    14
 73
    10
 74
     0
 42
0.0000000001
 43
0.0000000001
 40
0.0
 40
0.0
 40
0.0
 40
0.0
 40
0.1994873613136681
 40
0.1994873613136681
 40
0.5114141603592976
 40
0.5114141603592976
 40
0.8382895692932525
 40
0.8382895692932525
 40
1.0
 40
1.0
 40
1.0
 40
1.0
 10
165.899290343892
 20
43.82183729847792
 30
0.0000000000000027
 10
165.899290343892
 20
43.73800119243196
 30
0.0000000000000027
 10
165.9170944225316
 20
43.666312340491
 30
0.0000000000000027
 10
165.9861478099174
 20
43.51205977983091
 30
0.0000000000000027
 10
166.0520776103694
 20
43.44198557248683
 30
0.0000000000000027
 10
166.213582379356
 20
43.34270147321467
 30
0.0000000000000027
 10
166.3130018333941
 20
43.31440758779307
 30
0.0000000000000027
 10
166.479218136651
 20
43.31135806699376
 30
0.0000000000000027
 10
166.5379128779441
 20
43.31690904198193
 30
0.0000000000000027
 10
166.5992903438919
 20
43.33030555675441
 30
0.0000000000000027
  0
SPLINE
  5
767
330
1F
100
AcDbEntity
  8
0
100
AcDbSpline
210
0.0
220
0.0
230
1.0
 70
     8
 71
     3
 72
    14
 73
    10
 74
     0
 42
0.0000000001
 43
0.0000000001
 40
0.0
 40
0.0
 40
0.0
 40
0.0
 40
0.2683570512618139
 40
0.2683570512618139
 40
0.5354551442217744
 40
0.5354551442217744
 40
0.8460152445641135
 40
0.8460152445641135
 40
1.0
 40
1.0
 40
1.0
 40
1.0
 10
166.8114223782486
 20
42.88518022250582
 30
0.0000000000000027
 10
166.6684462959347
 20
42.86300210646959
 30
0.0000000000000027
 10
166.5319014718006
 20
42.87033275905787
 30
0.0000000000000027
 10
166.2883871106432
 20
42.93282434936964
 30
0.0000000000000027
 10
166.1781509288094
 20
42.98855330591914
 30
0.0000000000000027
 10
165.9801270737362
 20
43.1549805653044
 30
0.0000000000000027
 10
165.8946199184665
 20
43.27627448849898
 30
0.0000000000000027
 10
165.8250823744683
 20
43.499797865044
 30
0.0000000000000027
 10
165.8114223782486
 20
43.58294616107605
 30
0.0000000000000027
 10
165.8114223782486
 20
43.67183729847829
 30
0.0000000000000027
  0
SPLINE
  5
768
330
1F
100
AcDbEntity
  8
0
100
AcDbSpline
210
0.0
220
0.0
230
1.0
 70
     8
 71
     3
 72
    14
 73
    10
 74
     0
 42
0.0000000001
 43
0.0000000001
 40
0.0
 40
0.0
 40
0.0
 40
0.0
 40
0.187244905451812
 40
0.187244905451812
 40
0.4456250355650491
 40
0.4456250355650491
 40
0.7099114192102566
 40
0.7099114192102566
 40
1.0
 40
1.0
 40
1.0
 40
1.0
 10
165.8114223782486
 20
60.46458258765007
 30
0.0000000000000017
 10
165.8114223782486
 20
60.38768578794996
 30
0.0000000000000017
 10
165.8314123354156
 20
60.2972231173585
 30
0.0000000000000017
 10
165.9097960548315
 20
60.07327914536245
 30
0.0000000000000017
 10
165.9809841592831
 20
59.93224712938946
 30
0.0000000000000017
 10
166.1559184523867
 20
59.64882202543913
 30
0.0000000000000017
 10
166.262766752814
 20
59.50264832030415
 30
0.0000000000000017
 10
166.510369610446
 20
59.2099808496655
 30
0.0000000000000017
 10
166.6571964461436
 20
59.06032372240997
 30
0.0000000000000017
 10
166.8114223782486
 20
58.92924007596366
 30
0.0000000000000018
  0
SPLINE
  5
769
330
1F
100
AcDbEntity
  8
0
100
AcDbSpline
210
0.0
220
0.0
230
1.0
 70
     8
 71
     3
 72
    14
 73
    10
 74
     0
 42
0.0000000001
 43
0.0000000001
 40
0.0
 40
0.0
 40
0.0
 40
0.0
 40
0.0571542436372594
 40
0.0571542436372594
 40
0.2857739047200525
 40
0.2857739047200525
 40
0.9980034801808987
 40
0.9980034801808987
 40
1.0
 40
1.0
 40
1.0
 40
1.0
 10
169.2866974032813
 20
47.58467427456753
 30
0.0000000000000025
 10
169.2904303498089
 20
47.6872800623264
 30
0.0000000000000024
 10
169.2941665054786
 20
47.78977328997689
 30
0.0000000000000024
 10
169.312863438543
 20
48.30174138866232
 30
0.0000000000000024
 10
169.3278724794891
 20
48.70975132328067
 30
0.0000000000000024
 10
169.3898548899196
 20
50.38423366441884
 30
0.0000000000000023
 10
169.4372862009986
 20
51.64159239595982
 30
0.0000000000000022
 10
169.4854173379053
 20
52.89488802753249
 30
0.0000000000000021
 10
169.4855518944814
 20
52.89839147944757
 30
0.0000000000000021
 10
169.4856864466865
 20
52.90189486743338
 30
0.0000000000000021
  0
SPLINE
  5
76A
330
1F
100
AcDbEntity
  8
0
100
AcDbSpline
210
0.0
220
0.0
230
1.0
 70
     8
 71
     3
 72
    12
 73
     8
 74
     0
 42
0.0000000001
 43
0.0000000001
 40
0.0
 40
0.0
 40
0.0
 40
0.0
 40
0.4999999999999975
 40
0.4999999999999975
 40
0.7499999999999987
 40
0.7499999999999987
 40
1.0
 40
1.0
 40
1.0
 40
1.0
 10
198.1114223782478
 20
74.57739386003095
 30
0.0000000000000008
 10
198.1114223782478
 20
73.95770418848633
 30
0.0000000000000008
 10
198.2610707450467
 20
73.3216558103154
 30
0.0000000000000009
 10
198.7015651575475
 20
72.40015965169141
 30
0.0000000000000009
 10
198.8858335134973
 20
72.0967148620134
 30
0.0000000000000009
 10
199.3803411242443
 20
71.57030656902179
 30
0.000000000000001
 10
199.7186598981343
 20
71.33130406092594
 30
0.000000000000001
 10
200.1114223782479
 20
71.33130406092594
 30
0.000000000000001
  0
SPLINE
  5
76B
330
1F
100
AcDbEntity
  8
0
100
AcDbSpline
210
0.0
220
0.0
230
1.0
 70
     8
 71
     3
 72
    14
 73
    10
 74
     0
 42
0.0000000001
 43
0.0000000001
 40
0.0
 40
0.0
 40
0.0
 40
0.0
 40
0.3632181937746163
 40
0.3632181937746163
 40
0.7449959145474498
 40
0.7449959145474498
 40
0.9870599436574966
 40
0.9870599436574966
 40
1.0
 40
1.0
 40
1.0
 40
1.0
 10
234.8217164463058
 20
90.64724877083746
 30
-0.0000000000000002
 10
234.8790835515865
 20
90.65702187783379
 30
-0.0000000000000002
 10
234.9376565207712
 20
90.65644653435949
 30
-0.0000000000000002
 10
235.0568160940711
 20
90.6324305807252
 30
-0.0000000000000002
 10
235.1192380381653
 20
90.60754393596059
 30
-0.0000000000000002
 10
235.2193573977193
 20
90.55567688122527
 30
-0.0000000000000002
 10
235.2585637321363
 20
90.53248318488613
 30
-0.0000000000000002
 10
235.2991500204816
 20
90.50741438855174
 30
-0.0000000000000002
 10
235.3011937689243
 20
90.5061466663815
 30
-0.0000000000000002
 10
235.3032386781415
 20
90.50488091062971
 30
-0.0000000000000002
  0
SPLINE
  5
76C
330
1F
100
AcDbEntity
  8
0
100
AcDbSpline
210
0.0
220
0.0
230
1.0
 70
     8
 71
     3
 72
    12
 73
     8
 74
     0
 42
0.0000000001
 43
0.0000000001
 40
0.0
 40
0.0
 40
0.0
 40
0.0
 40
0.4999999999999975
 40
0.4999999999999975
 40
0.7499999999999987
 40
0.7499999999999987
 40
1.0
 40
1.0
 40
1.0
 40
1.0
 10
251.5114223782484
 20
74.57739386003095
 30
0.0000000000000008
 10
251.5114223782484
 20
73.95770418848633
 30
0.0000000000000008
 10
251.3617740114496
 20
73.3216558103154
 30
0.0000000000000009
 10
250.9212795989497
 20
72.40015965169141
 30
0.0000000000000009
 10
250.737011242999
 20
72.0967148620134
 30
0.0000000000000009
 10
250.2425036322511
 20
71.57030656902179
 30
0.000000000000001
 10
249.904184858362
 20
71.33130406092594
 30
0.000000000000001
 10
249.5114223782475
 20
71.33130406092594
 30
0.000000000000001
  0
SPLINE
  5
76D
330
1F
100
AcDbEntity
  8
0
100
AcDbSpline
210
0.0
220
0.0
230
1.0
 70
     8
 71
     3
 72
    14
 73
    10
 74
     0
 42
0.0000000001
 43
0.0000000001
 40
0.0
 40
0.0
 40
0.0
 40
0.0
 40
0.3632181937746163
 40
0.3632181937746163
 40
0.7449959145474498
 40
0.7449959145474498
 40
0.9870599436574966
 40
0.9870599436574966
 40
1.0
 40
1.0
 40
1.0
 40
1.0
 10
214.8011283101914
 20
90.64724877083746
 30
-0.0000000000000002
 10
214.7437612049125
 20
90.65702187783379
 30
-0.0000000000000002
 10
214.6851882357241
 20
90.65644653435949
 30
-0.0000000000000002
 10
214.5660286624252
 20
90.6324305807252
 30
-0.0000000000000002
 10
214.50360671833
 20
90.60754393596059
 30
-0.0000000000000002
 10
214.4034873587771
 20
90.55567688122527
 30
-0.0000000000000002
 10
214.36428102436
 20
90.53248318488613
 30
-0.0000000000000002
 10
214.3236947360147
 20
90.50741438855174
 30
-0.0000000000000002
 10
214.321650987572
 20
90.5061466663815
 30
-0.0000000000000002
 10
214.3196060783556
 20
90.50488091062971
 30
-0.0000000000000002
  0
SPLINE
  5
76E
330
1F
100
AcDbEntity
  8
0
100
AcDbSpline
210
0.0
220
0.0
230
1.0
 70
     8
 71
     3
 72
    14
 73
    10
 74
     0
 42
0.0000000001
 43
0.0000000001
 40
0.0
 40
0.0
 40
0.0
 40
0.0
 40
0.0129400563425263
 40
0.0129400563425263
 40
0.2550040854532342
 40
0.2550040854532342
 40
0.6367818062244695
 40
0.6367818062244695
 40
1.0
 40
1.0
 40
1.0
 40
1.0
 10
207.4358463413819
 20
102.4279025221644
 30
-0.0000000000000009
 10
207.4379649726252
 20
102.4290405876186
 30
-0.0000000000000009
 10
207.4400847264515
 20
102.4301766646044
 30
-0.0000000000000009
 10
207.4820880850939
 20
102.4527910231886
 30
-0.0000000000000009
 10
207.5217775825386
 20
102.4751478566145
 30
-0.0000000000000009
 10
207.616755449335
 20
102.53592023803
 30
-0.0000000000000009
 10
207.6695188879648
 20
102.5775359049871
 30
-0.0000000000000009
 10
207.7498971005562
 20
102.6687231457513
 30
-0.0000000000000009
 10
207.7796818472143
 20
102.7191611533048
 30
-0.0000000000000009
 10
207.7999016409203
 20
102.773729077317
 30
-0.0000000000000009
  0
ENDSEC
  0
SECTION
  2
OBJECTS
  0
DICTIONARY
  5
C
330
0
100
AcDbDictionary
281
     1
  3
ACAD_CIP_PREVIOUS_PRODUCT_INFO
350
86B
  3
ACAD_COLOR
350
301
  3
ACAD_DETAILVIEWSTYLE
350
867
  3
ACAD_GROUP
350
D
  3
ACAD_LAYOUT
350
304
  3
ACAD_MATERIAL
350
2EC
  3
ACAD_MLEADERSTYLE
350
862
  3
ACAD_MLINESTYLE
350
17
  3
ACAD_PLOTSETTINGS
350
19
  3
ACAD_PLOTSTYLENAME
350
198
  3
ACAD_SCALELIST
350
850
  3
ACAD_SECTIONVIEWSTYLE
350
864
  3
ACAD_TABLESTYLE
350
302
  3
ACAD_VISUALSTYLE
350
2F0
  3
ACDB_RECOMPOSE_DATA
350
89F
  3
AcDbVariableDictionary
350
831
  0
DICTIONARY
  5
87D
330
10
100
AcDbDictionary
280
     1
281
     1
  3
ADSK_XREC_LAYER_RECONCILED
360
87E
  0
DICTIONARY
  5
87F
330
AD
100
AcDbDictionary
280
     1
281
     1
  3
ADSK_XREC_LAYER_RECONCILED
360
880
  0
DICTIONARY
  5
192
330
1F
100
AcDbDictionary
280
     1
281
     1
  3
ACAD_LAYOUTSELFREF
360
2E9
  3
ACAD_SORTENTS
360
87C
  0
DICTIONARY
  5
190
330
1B
100
AcDbDictionary
280
     1
281
     1
  3
ACAD_LAYOUTSELFREF
360
2E8
  0
XRECORD
  5
86B
102
{ACAD_REACTORS
330
C
102
}
330
C
100
AcDbXrecord
280
     1
300
ACDLT
300
2013
300
ACDLT_F_S
  0
DICTIONARY
  5
301
102
{ACAD_REACTORS
330
C
102
}
330
C
100
AcDbDictionary
281
     1
  0
DICTIONARY
  5
867
102
{ACAD_REACTORS
330
C
102
}
330
C
100
AcDbDictionary
281
     1
  3
Imperial24
350
868
  0
DICTIONARY
  5
D
102
{ACAD_REACTORS
330
C
102
}
330
C
100
AcDbDictionary
281
     1
  0
DICTIONARY
  5
304
102
{ACAD_REACTORS
330
C
102
}
330
C
100
AcDbDictionary
281
     1
  3
Layout1
350
306
  3
Model
350
305
  0
DICTIONARY
  5
2EC
102
{ACAD_REACTORS
330
C
102
}
330
C
100
AcDbDictionary
281
     1
  3
ByBlock
350
2EE
  3
ByLayer
350
2ED
  3
Global
350
2EF
  0
DICTIONARY
  5
862
102
{ACAD_REACTORS
330
C
102
}
330
C
100
AcDbDictionary
281
     1
  3
Standard
350
863
  0
DICTIONARY
  5
17
102
{ACAD_REACTORS
330
C
102
}
330
C
100
AcDbDictionary
281
     1
  3
STANDARD
350
18
  0
DICTIONARY
  5
19
102
{ACAD_REACTORS
330
C
102
}
330
C
100
AcDbDictionary
281
     1
  0
ACDBDICTIONARYWDFLT
  5
198
102
{ACAD_REACTORS
330
C
102
}
330
C
100
AcDbDictionary
281
     1
  3
Normal
350
199
100
AcDbDictionaryWithDefault
340
199
  0
DICTIONARY
  5
850
102
{ACAD_REACTORS
330
C
102
}
330
C
100
AcDbDictionary
281
     1
  3
A0
350
851
  3
A1
350
852
  3
A2
350
853
  3
A3
350
854
  3
A4
350
855
  3
A5
350
856
  3
A6
350
857
  3
A7
350
858
  3
A8
350
859
  3
A9
350
85A
  3
B0
350
85B
  3
B1
350
85C
  3
B2
350
85D
  3
B3
350
85E
  3
B4
350
85F
  3
B5
350
860
  3
B6
350
861
  0
DICTIONARY
  5
864
102
{ACAD_REACTORS
330
C
102
}
330
C
100
AcDbDictionary
281
     1
  3
Imperial24
350
866
  0
DICTIONARY
  5
302
102
{ACAD_REACTORS
330
C
102
}
330
C
100
AcDbDictionary
281
     1
  3
Standard
350
303
  0
DICTIONARY
  5
2F0
102
{ACAD_REACTORS
330
C
102
}
330
C
100
AcDbDictionary
281
     1
  3
2dWireframe
350
2F6
  3
3D Hidden
350
2F8
  3
3dWireframe
350
2F7
  3
Basic
350
2F5
  3
Brighten
350
2FC
  3
ColorChange
350
300
  3
Conceptual
350
2F9
  3
Dim
350
2FB
  3
EdgeColorOff
350
84F
  3
Facepattern
350
2FF
  3
Flat
350
2F1
  3
FlatWithEdges
350
2F2
  3
Gouraud
350
2F3
  3
GouraudWithEdges
350
2F4
  3
Hidden
350
847
  3
JitterOff
350
84D
  3
Linepattern
350
2FE
  3
OverhangOff
350
84E
  3
Realistic
350
2FA
  3
Shaded
350
84C
  3
Shaded with edges
350
84B
  3
Shades of Gray
350
848
  3
Sketchy
350
849
  3
Thicken
350
2FD
  3
Wireframe
350
846
  3
X-Ray
350
84A
  0
XRECORD
  5
89F
102
{ACAD_REACTORS
330
C
102
}
330
C
100
AcDbXrecord
280
     1
 90
        1
330
303
  0
DICTIONARY
  5
831
102
{ACAD_REACTORS
330
C
102
}
330
C
100
AcDbDictionary
281
     1
  3
CANNOSCALE
350
886
  3
CMLEADERSTYLE
350
882
  3
CTABLESTYLE
350
832
  3
CVIEWDETAILSTYLE
350
883
  3
CVIEWSECTIONSTYLE
350
884
  3
DIMASSOC
350
835
  3
INDEXCTL
350
834
  3
LAYEREVAL
350
888
  3
LAYERNOTIFY
350
889
  3
LIGHTINGUNITS
350
887
  3
MSLTSCALE
350
885
  3
SORTENTS
350
833
  3
XCLIPFRAME
350
89C
  0
XRECORD
  5
87E
102
{ACAD_REACTORS
330
87D
102
}
330
87D
100
AcDbXrecord
280
     1
290
     1
  0
XRECORD
  5
880
102
{ACAD_REACTORS
330
87F
102
}
330
87F
100
AcDbXrecord
280
     1
290
     1
  0
XRECORD
  5
2E9
102
{ACAD_REACTORS
330
192
102
}
330
192
100
AcDbXrecord
280
     1
340
1F
  0
SORTENTSTABLE
  5
87C
102
{ACAD_REACTORS
330
192
102
}
330
192
100
AcDbSortentsTable
330
1F
331
59F
  5
59F
331
5DE
  5
5DE
331
59B
  5
59B
331
6CE
  5
6CE
331
654
  5
654
331
5DA
  5
5DA
331
5D6
  5
5D6
331
650
  5
650
331
68F
  5
68F
331
615
  5
615
331
6CA
  5
6CA
331
744
  5
744
331
5D2
  5
5D2
331
64C
  5
64C
331
68B
  5
68B
331
611
  5
611
331
740
  5
740
331
6C6
  5
6C6
331
705
  5
705
331
701
  5
701
331
648
  5
648
331
73C
  5
73C
331
6C2
  5
6C2
331
738
  5
738
331
597
  5
597
331
5CE
  5
5CE
331
687
  5
687
331
60D
  5
60D
331
609
  5
609
331
683
  5
683
331
6BE
  5
6BE
331
6FD
  5
6FD
331
644
  5
644
331
5CA
  5
5CA
331
5C6
  5
5C6
331
67F
  5
67F
331
605
  5
605
331
6BA
  5
6BA
331
6F9
  5
6F9
331
734
  5
734
331
640
  5
640
331
5C2
  5
5C2
331
63C
  5
63C
331
67B
  5
67B
331
601
  5
601
331
730
  5
730
331
6B6
  5
6B6
331
6F5
  5
6F5
331
6F1
  5
6F1
331
638
  5
638
331
72C
  5
72C
331
76B
  5
76B
331
6B2
  5
6B2
331
728
  5
728
331
5BE
  5
5BE
331
677
  5
677
331
5FD
  5
5FD
331
5F9
  5
5F9
331
5BA
  5
5BA
331
6AE
  5
6AE
331
6ED
  5
6ED
331
634
  5
634
331
767
  5
767
331
673
  5
673
331
5F5
  5
5F5
331
66F
  5
66F
331
5B6
  5
5B6
331
763
  5
763
331
6AA
  5
6AA
331
6E9
  5
6E9
331
724
  5
724
331
630
  5
630
331
5B2
  5
5B2
331
62C
  5
62C
331
66B
  5
66B
331
5F1
  5
5F1
331
720
  5
720
331
75F
  5
75F
331
6A6
  5
6A6
331
6E5
  5
6E5
331
6E1
  5
6E1
331
628
  5
628
331
71C
  5
71C
331
75B
  5
75B
331
6A2
  5
6A2
331
718
  5
718
331
5AE
  5
5AE
331
667
  5
667
331
5ED
  5
5ED
331
5AA
  5
5AA
331
6DD
  5
6DD
331
69E
  5
69E
331
624
  5
624
331
757
  5
757
331
663
  5
663
331
5E9
  5
5E9
331
5E5
  5
5E5
331
65F
  5
65F
331
6D9
  5
6D9
331
753
  5
753
331
714
  5
714
331
69A
  5
69A
331
620
  5
620
331
5A6
  5
5A6
331
5A2
  5
5A2
331
65B
  5
65B
331
5E1
  5
5E1
331
74F
  5
74F
331
710
  5
710
331
696
  5
696
331
61C
  5
61C
331
6D1
  5
6D1
331
692
  5
692
331
618
  5
618
331
74B
  5
74B
331
70C
  5
70C
331
708
  5
708
331
59E
  5
59E
331
657
  5
657
331
5DD
  5
5DD
331
59A
  5
59A
331
6CD
  5
6CD
331
747
  5
747
331
653
  5
653
331
5D9
  5
5D9
331
5D5
  5
5D5
331
64F
  5
64F
331
68E
  5
68E
331
614
  5
614
331
6C9
  5
6C9
331
743
  5
743
331
5D1
  5
5D1
331
704
  5
704
331
64B
  5
64B
331
68A
  5
68A
331
610
  5
610
331
73F
  5
73F
331
6C5
  5
6C5
331
700
  5
700
331
73B
  5
73B
331
6C1
  5
6C1
331
5CD
  5
5CD
331
647
  5
647
331
686
  5
686
331
60C
  5
60C
331
608
  5
608
331
682
  5
682
331
6BD
  5
6BD
331
6FC
  5
6FC
331
737
  5
737
331
643
  5
643
331
5C9
  5
5C9
331
5C5
  5
5C5
331
63F
  5
63F
331
67E
  5
67E
331
604
  5
604
331
6B9
  5
6B9
331
6F8
  5
6F8
331
733
  5
733
331
5C1
  5
5C1
331
63B
  5
63B
331
67A
  5
67A
331
600
  5
600
331
72F
  5
72F
331
76E
  5
76E
331
6B5
  5
6B5
331
6F4
  5
6F4
331
6F0
  5
6F0
331
72B
  5
72B
331
76A
  5
76A
331
6B1
  5
6B1
331
5BD
  5
5BD
331
637
  5
637
331
676
  5
676
331
5FC
  5
5FC
331
5F8
  5
5F8
331
672
  5
672
331
6AD
  5
6AD
331
6EC
  5
6EC
331
633
  5
633
331
5B9
  5
5B9
331
727
  5
727
331
766
  5
766
331
5F4
  5
5F4
331
66E
  5
66E
331
5B5
  5
5B5
331
762
  5
762
331
6A9
  5
6A9
331
6E8
  5
6E8
331
723
  5
723
331
62F
  5
62F
331
5B1
  5
5B1
331
62B
  5
62B
331
66A
  5
66A
331
5F0
  5
5F0
331
71F
  5
71F
331
75E
  5
75E
331
6A5
  5
6A5
331
6E4
  5
6E4
331
6E0
  5
6E0
331
71B
  5
71B
331
75A
  5
75A
331
6A1
  5
6A1
331
5AD
  5
5AD
331
627
  5
627
331
666
  5
666
331
5EC
  5
5EC
331
5E8
  5
5E8
331
5A9
  5
5A9
331
6DC
  5
6DC
331
69D
  5
69D
331
623
  5
623
331
756
  5
756
331
717
  5
717
331
662
  5
662
331
5E4
  5
5E4
331
65E
  5
65E
331
6D8
  5
6D8
331
752
  5
752
331
713
  5
713
331
699
  5
699
331
61F
  5
61F
331
5A5
  5
5A5
331
5A1
  5
5A1
331
61B
  5
61B
331
65A
  5
65A
331
5E0
  5
5E0
331
74E
  5
74E
331
70F
  5
70F
331
695
  5
695
331
6D0
  5
6D0
331
691
  5
691
331
74A
  5
74A
331
70B
  5
70B
331
59D
  5
59D
331
656
  5
656
331
5DC
  5
5DC
331
617
  5
617
331
599
  5
599
331
6CC
  5
6CC
331
746
  5
746
331
652
  5
652
331
5D8
  5
5D8
331
5D4
  5
5D4
331
64E
  5
64E
331
68D
  5
68D
331
613
  5
613
331
742
  5
742
331
6C8
  5
6C8
331
707
  5
707
331
5D0
  5
5D0
331
703
  5
703
331
64A
  5
64A
331
689
  5
689
331
73E
  5
73E
331
6C4
  5
6C4
331
6C0
  5
6C0
331
73A
  5
73A
331
60F
  5
60F
331
6FF
  5
6FF
331
646
  5
646
331
5CC
  5
5CC
331
60B
  5
60B
331
607
  5
607
331
681
  5
681
331
6BC
  5
6BC
331
6FB
  5
6FB
331
736
  5
736
331
642
  5
642
331
5C8
  5
5C8
331
5C4
  5
5C4
331
63E
  5
63E
331
67D
  5
67D
331
603
  5
603
331
6B8
  5
6B8
331
6F7
  5
6F7
331
732
  5
732
331
5C0
  5
5C0
331
6F3
  5
6F3
331
63A
  5
63A
331
679
  5
679
331
72E
  5
72E
331
76D
  5
76D
331
6B4
  5
6B4
331
72A
  5
72A
331
769
  5
769
331
6B0
  5
6B0
331
5FF
  5
5FF
331
5BC
  5
5BC
331
6EF
  5
6EF
331
636
  5
636
331
675
  5
675
331
5FB
  5
5FB
331
5F7
  5
5F7
331
671
  5
671
331
6AC
  5
6AC
331
6EB
  5
6EB
331
632
  5
632
331
5B8
  5
5B8
331
726
  5
726
331
765
  5
765
331
5B4
  5
5B4
331
62E
  5
62E
331
66D
  5
66D
331
5F3
  5
5F3
331
761
  5
761
331
6A8
  5
6A8
331
6E7
  5
6E7
331
722
  5
722
331
5B0
  5
5B0
331
62A
  5
62A
331
669
  5
669
331
71E
  5
71E
331
75D
  5
75D
331
6A4
  5
6A4
331
6E3
  5
6E3
331
71A
  5
71A
331
759
  5
759
331
6A0
  5
6A0
331
5EF
  5
5EF
331
5AC
  5
5AC
331
6DF
  5
6DF
331
626
  5
626
331
665
  5
665
331
5EB
  5
5EB
331
5E7
  5
5E7
331
661
  5
661
331
6DB
  5
6DB
331
69C
  5
69C
331
622
  5
622
331
5A8
  5
5A8
331
755
  5
755
331
716
  5
716
331
5E3
  5
5E3
331
65D
  5
65D
331
751
  5
751
331
712
  5
712
331
698
  5
698
331
61E
  5
61E
331
5A4
  5
5A4
331
5A0
  5
5A0
331
694
  5
694
331
61A
  5
61A
331
74D
  5
74D
331
70E
  5
70E
331
659
  5
659
331
690
  5
690
331
749
  5
749
331
5DF
  5
5DF
331
59C
  5
59C
331
6CF
  5
6CF
331
655
  5
655
331
5DB
  5
5DB
331
5D7
  5
5D7
331
616
  5
616
331
598
  5
598
331
6CB
  5
6CB
331
745
  5
745
331
651
  5
651
331
5D3
  5
5D3
331
64D
  5
64D
331
68C
  5
68C
331
612
  5
612
331
741
  5
741
331
6C7
  5
6C7
331
706
  5
706
331
702
  5
702
331
649
  5
649
331
688
  5
688
331
73D
  5
73D
331
6C3
  5
6C3
331
739
  5
739
331
60E
  5
60E
331
60A
  5
60A
331
6BF
  5
6BF
331
6FE
  5
6FE
331
645
  5
645
331
5CB
  5
5CB
331
606
  5
606
331
680
  5
680
331
6BB
  5
6BB
331
6FA
  5
6FA
331
735
  5
735
331
641
  5
641
331
5C7
  5
5C7
331
5C3
  5
5C3
331
63D
  5
63D
331
67C
  5
67C
331
602
  5
602
331
731
  5
731
331
6B7
  5
6B7
331
6F6
  5
6F6
331
6F2
  5
6F2
331
639
  5
639
331
678
  5
678
331
72D
  5
72D
331
76C
  5
76C
331
6B3
  5
6B3
331
729
  5
729
331
768
  5
768
331
5BF
  5
5BF
331
5FE
  5
5FE
331
5BB
  5
5BB
331
6AF
  5
6AF
331
6EE
  5
6EE
331
635
  5
635
331
674
  5
674
331
5FA
  5
5FA
331
5F6
  5
5F6
331
670
  5
670
331
5B7
  5
5B7
331
764
  5
764
331
6AB
  5
6AB
331
6EA
  5
6EA
331
725
  5
725
331
631
  5
631
331
5B3
  5
5B3
331
62D
  5
62D
331
66C
  5
66C
331
5F2
  5
5F2
331
760
  5
760
331
6A7
  5
6A7
331
6E6
  5
6E6
331
721
  5
721
331
6E2
  5
6E2
331
629
  5
629
331
668
  5
668
331
71D
  5
71D
331
75C
  5
75C
331
6A3
  5
6A3
331
719
  5
719
331
758
  5
758
331
5AF
  5
5AF
331
5EE
  5
5EE
331
5AB
  5
5AB
331
6DE
  5
6DE
331
69F
  5
69F
331
625
  5
625
331
664
  5
664
331
5EA
  5
5EA
331
5E6
  5
5E6
331
660
  5
660
331
6DA
  5
6DA
331
69B
  5
69B
331
621
  5
621
331
5A7
  5
5A7
331
715
  5
715
331
754
  5
754
331
5A3
  5
5A3
331
5E2
  5
5E2
331
750
  5
750
331
711
  5
711
331
697
  5
697
331
61D
  5
61D
331
619
  5
619
331
658
  5
658
331
693
  5
693
331
74C
  5
74C
331
70D
  5
70D
331
6D2
  5
6D2
331
748
  5
748
  0
XRECORD
  5
2E8
102
{ACAD_REACTORS
330
190
102
}
330
190
100
AcDbXrecord
280
     1
340
1B
  0
ACDBDETAILVIEWSTYLE
  5
868
102
{ACAD_REACTORS
330
867
102
}
330
867
100
AcDbModelDocViewStyle
 70
     0
  3
Imperial24
290
     0
100
AcDbDetailViewStyle
 70
     0
 71
     0
 90
        3
 71
     1
340
11
 62
   256
 40
0.24
340
0
 62
   256
 40
0.24
300

 40
0.36
280
     3
 71
     2
340
16
 90
       25
 62
   256
 71
     3
340
11
 62
   256
 40
0.24
 90
        1
 40
0.75
 90
        1
300
%<\AcVar ViewType \f "%tc1">% %<\AcVar ViewDetailId>%\PVARIA %<\AcVar ViewScale \f "%sn">%
 71
     4
340
16
 90
       25
 62
   256
340
16
 90
       25
 62
   256
280
     0
  0
LAYOUT
  5
306
102
{ACAD_REACTORS
330
304
102
}
330
304
100
AcDbPlotSettings
  1

  2
\\druckserv1\AROBBE04
  4

  6

 40
0.0
 41
0.0
 42
0.0
 43
0.0
 44
0.0
 45
0.0
 46
0.0
 47
0.0
 48
0.0
 49
0.0
140
0.0
141
0.0
142
1.0
143
1.0
 70
   688
 72
     0
 73
     0
 74
     5
  7

 75
    16
147
1.0
 76
     0
 77
     2
 78
   300
148
0.0
149
0.0
100
AcDbLayout
  1
Layout1
 70
     1
 71
     1
 10
0.0
 20
0.0
 11
12.0
 21
9.0
 12
0.0
 22
0.0
 32
0.0
 14
1.000000000000000E+20
 24
1.000000000000000E+20
 34
1.000000000000000E+20
 15
-1.000000000000000E+20
 25
-1.000000000000000E+20
 35
-1.000000000000000E+20
146
0.0
 13
0.0
 23
0.0
 33
0.0
 16
1.0
 26
0.0
 36
0.0
 17
0.0
 27
1.0
 37
0.0
 76
     0
330
1B
  0
LAYOUT
  5
305
102
{ACAD_REACTORS
330
304
102
}
330
304
100
AcDbPlotSettings
  1

  2
\\druckserv1\AROBBE04
  4

  6

 40
0.0
 41
0.0
 42
0.0
 43
0.0
 44
0.0
 45
0.0
 46
0.0
 47
0.0
 48
0.0
 49
0.0
140
0.0
141
0.0
142
1.0
143
1.0
 70
  1712
 72
     0
 73
     0
 74
     0
  7

 75
     0
147
1.0
 76
     0
 77
     2
 78
   300
148
0.0
149
0.0
100
AcDbLayout
  1
Model
 70
     1
 71
     0
 10
0.0
 20
0.0
 11
12.0
 21
9.0
 12
0.0
 22
0.0
 32
0.0
 14
0.0
 24
0.0
 34
0.0
 15
0.0
 25
0.0
 35
0.0
146
0.0
 13
0.0
 23
0.0
 33
0.0
 16
1.0
 26
0.0
 36
0.0
 17
0.0
 27
1.0
 37
0.0
 76
     0
330
1F
331
2C7
  0
MATERIAL
  5
2EE
102
{ACAD_XDICTIONARY
360
839
102
}
102
{ACAD_REACTORS
330
2EC
102
}
330
2EC
100
AcDbMaterial
  1
ByBlock
  0
MATERIAL
  5
2ED
102
{ACAD_XDICTIONARY
360
837
102
}
102
{ACAD_REACTORS
330
2EC
102
}
330
2EC
100
AcDbMaterial
  1
ByLayer
  0
MATERIAL
  5
2EF
102
{ACAD_XDICTIONARY
360
83B
102
}
102
{ACAD_REACTORS
330
2EC
102
}
330
2EC
100
AcDbMaterial
  1
Global
  0
MLEADERSTYLE
  5
863
102
{ACAD_REACTORS
330
862
102
}
330
862
100
AcDbMLeaderStyle
170
     2
171
     1
172
     0
 90
        2
 40
0.0
 41
0.0
173
     1
 91
-1056964608
340
14
 92
       -2
290
     1
 42
0.09
291
     1
 43
0.36
  3
Standard
 44
0.18
300

342
11
174
     1
178
     6
175
     1
176
     0
 93
-1056964608
 45
0.18
292
     0
297
     0
 46
0.18
 94
-1056964608
 47
1.0
 49
1.0
140
1.0
293
     1
141
0.0
294
     1
177
     0
142
1.0
295
     0
296
     0
143
0.125
1001
ACAD_MLEADERVER
1070
     2
  0
MLINESTYLE
  5
18
102
{ACAD_REACTORS
330
17
102
}
330
17
100
AcDbMlineStyle
  2
STANDARD
 70
     0
  3

 62
   256
 51
90.0
 52
90.0
 71
     2
 49
0.5
 62
   256
  6
BYLAYER
 49
-0.5
 62
   256
  6
BYLAYER
  0
ACDBPLACEHOLDER
  5
199
102
{ACAD_REACTORS
330
198
102
}
330
198
  0
SCALE
  5
851
102
{ACAD_REACTORS
330
850
102
}
330
850
100
AcDbScale
 70
     0
300
1:1
140
1.0
141
1.0
290
     1
  0
SCALE
  5
852
102
{ACAD_REACTORS
330
850
102
}
330
850
100
AcDbScale
 70
     0
300
1/128" = 1'-0"
140
0.0078125
141
12.0
290
     0
  0
SCALE
  5
853
102
{ACAD_REACTORS
330
850
102
}
330
850
100
AcDbScale
 70
     0
300
1/64" = 1'-0"
140
0.015625
141
12.0
290
     0
  0
SCALE
  5
854
102
{ACAD_REACTORS
330
850
102
}
330
850
100
AcDbScale
 70
     0
300
1/32" = 1'-0"
140
0.03125
141
12.0
290
     0
  0
SCALE
  5
855
102
{ACAD_REACTORS
330
850
102
}
330
850
100
AcDbScale
 70
     0
300
1/16" = 1'-0"
140
0.0625
141
12.0
290
     0
  0
SCALE
  5
856
102
{ACAD_REACTORS
330
850
102
}
330
850
100
AcDbScale
 70
     0
300
3/32" = 1'-0"
140
0.09375
141
12.0
290
     0
  0
SCALE
  5
857
102
{ACAD_REACTORS
330
850
102
}
330
850
100
AcDbScale
 70
     0
300
1/8" = 1'-0"
140
0.125
141
12.0
290
     0
  0
SCALE
  5
858
102
{ACAD_REACTORS
330
850
102
}
330
850
100
AcDbScale
 70
     0
300
3/16" = 1'-0"
140
0.1875
141
12.0
290
     0
  0
SCALE
  5
859
102
{ACAD_REACTORS
330
850
102
}
330
850
100
AcDbScale
 70
     0
300
1/4" = 1'-0"
140
0.25
141
12.0
290
     0
  0
SCALE
  5
85A
102
{ACAD_REACTORS
330
850
102
}
330
850
100
AcDbScale
 70
     0
300
3/8" = 1'-0"
140
0.375
141
12.0
290
     0
  0
SCALE
  5
85B
102
{ACAD_REACTORS
330
850
102
}
330
850
100
AcDbScale
 70
     0
300
1/2" = 1'-0"
140
0.5
141
12.0
290
     0
  0
SCALE
  5
85C
102
{ACAD_REACTORS
330
850
102
}
330
850
100
AcDbScale
 70
     0
300
3/4" = 1'-0"
140
0.75
141
12.0
290
     0
  0
SCALE
  5
85D
102
{ACAD_REACTORS
330
850
102
}
330
850
100
AcDbScale
 70
     0
300
1" = 1'-0"
140
1.0
141
12.0
290
     0
  0
SCALE
  5
85E
102
{ACAD_REACTORS
330
850
102
}
330
850
100
AcDbScale
 70
     0
300
1-1/2" = 1'-0"
140
1.5
141
12.0
290
     0
  0
SCALE
  5
85F
102
{ACAD_REACTORS
330
850
102
}
330
850
100
AcDbScale
 70
     0
300
3" = 1'-0"
140
3.0
141
12.0
290
     0
  0
SCALE
  5
860
102
{ACAD_REACTORS
330
850
102
}
330
850
100
AcDbScale
 70
     0
300
6" = 1'-0"
140
6.0
141
12.0
290
     0
  0
SCALE
  5
861
102
{ACAD_REACTORS
330
850
102
}
330
850
100
AcDbScale
 70
     0
300
1'-0" = 1'-0"
140
12.0
141
12.0
290
     0
  0
ACDBSECTIONVIEWSTYLE
  5
866
102
{ACAD_REACTORS
330
864
102
}
330
864
100
AcDbModelDocViewStyle
 70
     0
  3
Imperial24
290
     0
100
AcDbSectionViewStyle
 70
     0
 71
     0
 90
       78
 71
     1
340
11
 62
   256
 40
0.24
340
0
340
0
 62
   256
 40
0.24
300
I, O, Q, S, X, Z
 40
0.48
 90
        3
 40
0.18
 90
        1
 71
     2
340
865
 90
       25
 62
   256
340
16
 90
       50
 62
   256
 40
0.24
 40
0.0
 40
0.24
 71
     3
340
11
 62
   256
 40
0.24
 90
        1
 40
0.75
 90
        1
300
%<\AcVar ViewType \f "%tc1">% %<\AcVar ViewSectionStartId>%-%<\AcVar ViewSectionEndId>%\PVARIA %<\AcVar ViewScale \f "%sn">%
 71
     4
 62
   256
 62
   257
300
ANSI31
 40
1.0
 90
        0
290
     0
290
     0
 90
        6
 40
0.0
 40
1.570796326794896
 40
0.2617993877991494
 40
1.308996938995747
 40
-0.2617993877991494
 40
1.832595714594046
  0
TABLESTYLE
  5
303
102
{ACAD_XDICTIONARY
360
89D
102
}
102
{ACAD_REACTORS
330
302
102
}
330
302
100
AcDbTableStyle
  3
Standard
 70
     0
 71
     0
 40
0.06
 41
0.06
280
     0
281
     0
  7
STANDARD
140
0.18
170
     2
 62
     0
 63
     7
283
     0
274
    -2
284
     1
 64
     0
275
    -2
285
     1
 65
     0
276
    -2
286
     1
 66
     0
277
    -2
287
     1
 67
     0
278
    -2
288
     1
 68
     0
279
    -2
289
     1
 69
     0
  7
STANDARD
140
0.25
170
     5
 62
     0
 63
     7
283
     0
274
    -2
284
     1
 64
     0
275
    -2
285
     1
 65
     0
276
    -2
286
     1
 66
     0
277
    -2
287
     1
 67
     0
278
    -2
288
     1
 68
     0
279
    -2
289
     1
 69
     0
  7
STANDARD
140
0.18
170
     5
 62
     0
 63
     7
283
     0
274
    -2
284
     1
 64
     0
275
    -2
285
     1
 65
     0
276
    -2
286
     1
 66
     0
277
    -2
287
     1
 67
     0
278
    -2
288
     1
 68
     0
279
    -2
289
     1
 69
     0
  0
VISUALSTYLE
  5
2F6
102
{ACAD_XDICTIONARY
360
8AA
102
}
102
{ACAD_REACTORS
330
2F0
102
}
330
2F0
100
AcDbVisualStyle
  2

 70
     4
 71
     0
 72
     2
 73
     0
 90
        0
 40
-0.6
 41
-30.0
 62
     5
 63
     7
 74
     1
 91
        4
 64
     7
 65
   257
 75
     1
175
     1
 42
1.0
 92
        0
 66
   257
 43
1.0
 76
     1
 77
     6
 78
     2
 67
     7
 79
     5
170
     0
171
     0
290
     0
174
     0
 93
        1
 44
0.0
173
     0
291
     0
 45
0.0
1001
ACAD
1000
AcDbSavedByObjectVersion
1070
     0
  0
VISUALSTYLE
  5
2F8
102
{ACAD_XDICTIONARY
360
8AE
102
}
102
{ACAD_REACTORS
330
2F0
102
}
330
2F0
100
AcDbVisualStyle
  2

 70
     6
 71
     1
 72
     2
 73
     2
 90
        0
 40
-0.6
 41
-30.0
 62
     5
 63
     7
 74
     2
 91
        2
 64
     7
 65
   257
 75
     2
175
     1
 42
40.0
 92
        0
 66
   257
 43
1.0
 76
     1
 77
     6
 78
     2
 67
     7
 79
     3
170
     0
171
     0
290
     0
174
     0
 93
        1
 44
0.0
173
     0
291
     0
 45
0.0
1001
ACAD
1000
AcDbSavedByObjectVersion
1070
     0
  0
VISUALSTYLE
  5
2F7
102
{ACAD_XDICTIONARY
360
8AC
102
}
102
{ACAD_REACTORS
330
2F0
102
}
330
2F0
100
AcDbVisualStyle
  2

 70
     5
 71
     0
 72
     2
 73
     0
 90
        0
 40
-0.6
 41
-30.0
 62
     5
 63
     7
 74
     1
 91
        4
 64
     7
 65
   257
 75
     1
175
     1
 42
1.0
 92
        0
 66
   257
 43
1.0
 76
     1
 77
     6
 78
     2
 67
     7
 79
     5
170
     0
171
     0
290
     0
174
     0
 93
        1
 44
0.0
173
     0
291
     0
 45
0.0
1001
ACAD
1000
AcDbSavedByObjectVersion
1070
     0
  0
VISUALSTYLE
  5
2F5
102
{ACAD_XDICTIONARY
360
8A8
102
}
102
{ACAD_REACTORS
330
2F0
102
}
330
2F0
100
AcDbVisualStyle
  2

 70
     7
 71
     1
 72
     0
 73
     1
 90
        0
 40
-0.6
 41
-30.0
 62
     5
 63
     7
 74
     0
 91
        4
 64
     7
 65
   257
 75
     1
175
     1
 42
1.0
 92
        8
 66
     7
 43
1.0
 76
     1
 77
     6
 78
     2
 67
     7
 79
     5
170
     0
171
     0
290
     0
174
     0
 93
        1
 44
0.0
173
     0
291
     1
 45
0.0
1001
ACAD
1000
AcDbSavedByObjectVersion
1070
     0
  0
VISUALSTYLE
  5
2FC
102
{ACAD_XDICTIONARY
360
8B6
102
}
102
{ACAD_REACTORS
330
2F0
102
}
330
2F0
100
AcDbVisualStyle
  2

 70
    12
 71
     2
 72
     2
 73
     0
 90
        0
 40
-0.6
 41
-30.0
 62
     5
 63
     7
 74
     1
 91
        4
 64
     7
 65
   257
 75
     1
175
     1
 42
1.0
 92
        8
 66
     7
 43
1.0
 76
     1
 77
     6
 78
     2
 67
     7
 79
     5
170
     0
171
     0
290
     0
174
     0
 93
        1
 44
50.0
173
     0
291
     1
 45
0.0
1001
ACAD
1000
AcDbSavedByObjectVersion
1070
     0
  0
VISUALSTYLE
  5
300
102
{ACAD_XDICTIONARY
360
8BE
102
}
102
{ACAD_REACTORS
330
2F0
102
}
330
2F0
100
AcDbVisualStyle
  2

 70
    16
 71
     2
 72
     2
 73
     3
 90
        0
 40
-0.6
 41
-30.0
 62
     5
 63
     8
 74
     1
 91
        4
 64
     7
 65
   257
 75
     1
175
     1
 42
1.0
 92
        8
 66
     8
 43
1.0
 76
     1
 77
     6
 78
     2
 67
     7
 79
     5
170
     0
171
     0
290
     0
174
     0
 93
        1
 44
0.0
173
     0
291
     1
 45
0.0
1001
ACAD
1000
AcDbSavedByObjectVersion
1070
     0
  0
VISUALSTYLE
  5
2F9
102
{ACAD_XDICTIONARY
360
8B0
102
}
102
{ACAD_REACTORS
330
2F0
102
}
330
2F0
100
AcDbVisualStyle
  2

 70
     9
 71
     3
 72
     2
 73
     0
 90
        0
 40
-0.6
 41
-30.0
 62
     5
 63
     7
 74
     2
 91
        2
 64
     7
 65
   257
 75
     1
175
     1
 42
40.0
 92
        8
 66
     7
 43
1.0
 76
     1
 77
     6
 78
     2
 67
     7
 79
     3
170
     0
171
     0
290
     0
174
     0
 93
        1
 44
0.0
173
     0
291
     0
 45
0.0
1001
ACAD
1000
AcDbSavedByObjectVersion
1070
     0
  0
VISUALSTYLE
  5
2FB
102
{ACAD_XDICTIONARY
360
8B4
102
}
102
{ACAD_REACTORS
330
2F0
102
}
330
2F0
100
AcDbVisualStyle
  2

 70
    11
 71
     2
 72
     2
 73
     0
 90
        0
 40
-0.6
 41
-30.0
 62
     5
 63
     7
 74
     1
 91
        4
 64
     7
 65
   257
 75
     1
175
     1
 42
1.0
 92
        8
 66
     7
 43
1.0
 76
     1
 77
     6
 78
     2
 67
     7
 79
     5
170
     0
171
     0
290
     0
174
     0
 93
        1
 44
-50.0
173
     0
291
     1
 45
0.0
1001
ACAD
1000
AcDbSavedByObjectVersion
1070
     0
  0
VISUALSTYLE
  5
84F
102
{ACAD_XDICTIONARY
360
8D3
102
}
102
{ACAD_REACTORS
330
2F0
102
}
330
2F0
100
AcDbVisualStyle
  2
EdgeColorOff
 70
    22
 71
     2
 72
     2
 73
     0
 90
        0
 40
-0.6
 41
-30.0
 62
     5
 63
     7
421
 16777215
 74
     1
 91
        4
 64
     7
 65
   257
 75
     1
175
     1
 42
1.0
 92
        8
 66
     7
 43
1.0
 76
     1
 77
     6
 78
     2
 67
     7
 79
     5
170
     0
171
     0
290
     0
174
     0
 93
        1
 44
0.0
173
     0
291
     1
 45
0.0
1001
ACAD
1000
AcDbSavedByObjectVersion
1070
     0
  0
VISUALSTYLE
  5
2FF
102
{ACAD_XDICTIONARY
360
8BC
102
}
102
{ACAD_REACTORS
330
2F0
102
}
330
2F0
100
AcDbVisualStyle
  2

 70
    15
 71
     2
 72
     2
 73
     0
 90
        0
 40
-0.6
 41
-30.0
 62
     5
 63
     7
 74
     1
 91
        4
 64
     7
 65
   257
 75
     1
175
     1
 42
1.0
 92
        8
 66
     7
 43
1.0
 76
     1
 77
     6
 78
     2
 67
     7
 79
     5
170
     0
171
     0
290
     0
174
     0
 93
        1
 44
0.0
173
     0
291
     1
 45
0.0
1001
ACAD
1000
AcDbSavedByObjectVersion
1070
     0
  0
VISUALSTYLE
  5
2F1
102
{ACAD_XDICTIONARY
360
8A0
102
}
102
{ACAD_REACTORS
330
2F0
102
}
330
2F0
100
AcDbVisualStyle
  2

 70
     0
 71
     2
 72
     1
 73
     1
 90
        2
 40
-0.6
 41
30.0
 62
     5
 63
     7
 74
     0
 91
        4
 64
     7
 65
   257
 75
     1
175
     1
 42
1.0
 92
        8
 66
     7
 43
1.0
 76
     1
 77
     6
 78
     2
 67
     7
 79
     5
170
     0
171
     0
290
     0
174
     0
 93
       13
 44
0.0
173
     0
291
     1
 45
0.0
1001
ACAD
1000
AcDbSavedByObjectVersion
1070
     0
  0
VISUALSTYLE
  5
2F2
102
{ACAD_XDICTIONARY
360
8A2
102
}
102
{ACAD_REACTORS
330
2F0
102
}
330
2F0
100
AcDbVisualStyle
  2

 70
     1
 71
     2
 72
     1
 73
     1
 90
        2
 40
-0.6
 41
30.0
 62
     5
 63
     7
 74
     1
 91
        4
 64
     7
 65
   257
 75
     1
175
     1
 42
1.0
 92
        0
 66
   257
 43
1.0
 76
     1
 77
     6
 78
     2
 67
     7
 79
     5
170
     0
171
     0
290
     0
174
     0
 93
       13
 44
0.0
173
     0
291
     1
 45
0.0
1001
ACAD
1000
AcDbSavedByObjectVersion
1070
     0
  0
VISUALSTYLE
  5
2F3
102
{ACAD_XDICTIONARY
360
8A4
102
}
102
{ACAD_REACTORS
330
2F0
102
}
330
2F0
100
AcDbVisualStyle
  2

 70
     2
 71
     2
 72
     2
 73
     1
 90
        2
 40
-0.6
 41
30.0
 62
     5
 63
     7
 74
     0
 91
        4
 64
     7
 65
   257
 75
     1
175
     1
 42
1.0
 92
        0
 66
     7
 43
1.0
 76
     1
 77
     6
 78
     2
 67
     7
 79
     5
170
     0
171
     0
290
     0
174
     0
 93
       13
 44
0.0
173
     0
291
     1
 45
0.0
1001
ACAD
1000
AcDbSavedByObjectVersion
1070
     0
  0
VISUALSTYLE
  5
2F4
102
{ACAD_XDICTIONARY
360
8A6
102
}
102
{ACAD_REACTORS
330
2F0
102
}
330
2F0
100
AcDbVisualStyle
  2

 70
     3
 71
     2
 72
     2
 73
     1
 90
        2
 40
-0.6
 41
30.0
 62
     5
 63
     7
 74
     1
 91
        4
 64
     7
 65
   257
 75
     1
175
     1
 42
1.0
 92
        0
 66
   257
 43
1.0
 76
     1
 77
     6
 78
     2
 67
     7
 79
     5
170
     0
171
     0
290
     0
174
     0
 93
       13
 44
0.0
173
     0
291
     1
 45
0.0
1001
ACAD
1000
AcDbSavedByObjectVersion
1070
     0
  0
VISUALSTYLE
  5
847
102
{ACAD_XDICTIONARY
360
8C3
102
}
102
{ACAD_REACTORS
330
2F0
102
}
330
2F0
100
AcDbVisualStyle
  2
Hidden
 70
     6
 71
     1
 72
     2
 73
     2
 90
        0
 40
-0.6
 41
-30.0
 62
     5
 63
     7
421
 16777215
 74
     2
 91
        2
 64
     7
 65
   257
 75
     2
175
     1
 42
40.0
 92
        0
 66
   257
 43
1.0
 76
     1
 77
     6
 78
     2
 67
     7
 79
     3
170
     0
171
     0
290
     0
174
     0
 93
        1
 44
0.0
173
     0
291
     0
 45
0.0
1001
ACAD
1000
AcDbSavedByObjectVersion
1070
     0
  0
VISUALSTYLE
  5
84D
102
{ACAD_XDICTIONARY
360
8CF
102
}
102
{ACAD_REACTORS
330
2F0
102
}
330
2F0
100
AcDbVisualStyle
  2
JitterOff
 70
    20
 71
     2
 72
     2
 73
     0
 90
        0
 40
-0.6
 41
-30.0
 62
     5
 63
     7
421
 16777215
 74
     1
 91
        4
 64
     7
 65
   257
 75
     1
175
     1
 42
1.0
 92
       10
 66
     7
 43
1.0
 76
     1
 77
     6
 78
     2
 67
     7
 79
     5
170
     0
171
     0
290
     0
174
     0
 93
        1
 44
0.0
173
     0
291
     1
 45
0.0
1001
ACAD
1000
AcDbSavedByObjectVersion
1070
     0
  0
VISUALSTYLE
  5
2FE
102
{ACAD_XDICTIONARY
360
8BA
102
}
102
{ACAD_REACTORS
330
2F0
102
}
330
2F0
100
AcDbVisualStyle
  2

 70
    14
 71
     2
 72
     2
 73
     0
 90
        0
 40
-0.6
 41
-30.0
 62
     5
 63
     7
 74
     1
 91
        4
 64
     7
 65
   257
 75
     7
175
     7
 42
1.0
 92
        8
 66
     7
 43
1.0
 76
     1
 77
     6
 78
     2
 67
     7
 79
     5
170
     0
171
     0
290
     0
174
     0
 93
        1
 44
0.0
173
     0
291
     1
 45
0.0
1001
ACAD
1000
AcDbSavedByObjectVersion
1070
     0
  0
VISUALSTYLE
  5
84E
102
{ACAD_XDICTIONARY
360
8D1
102
}
102
{ACAD_REACTORS
330
2F0
102
}
330
2F0
100
AcDbVisualStyle
  2
OverhangOff
 70
    21
 71
     2
 72
     2
 73
     0
 90
        0
 40
-0.6
 41
-30.0
 62
     5
 63
     7
421
 16777215
 74
     1
 91
        4
 64
     7
 65
   257
 75
     1
175
     1
 42
1.0
 92
        9
 66
     7
 43
1.0
 76
     1
 77
     6
 78
     2
 67
     7
 79
     5
170
     0
171
     0
290
     0
174
     0
 93
        1
 44
0.0
173
     0
291
     1
 45
0.0
1001
ACAD
1000
AcDbSavedByObjectVersion
1070
     0
  0
VISUALSTYLE
  5
2FA
102
{ACAD_XDICTIONARY
360
8B2
102
}
102
{ACAD_REACTORS
330
2F0
102
}
330
2F0
100
AcDbVisualStyle
  2

 70
     8
 71
     2
 72
     2
 73
     0
 90
        0
 40
-0.6
 41
-30.0
 62
     5
 63
     7
 74
     1
 91
        0
 64
     7
 65
   257
 75
     1
175
     1
 42
1.0
 92
        8
 66
     8
 43
1.0
 76
     1
 77
     6
 78
     2
 67
     7
 79
     5
170
     0
171
     0
290
     0
174
     0
 93
       13
 44
0.0
173
     0
291
     0
 45
0.0
1001
ACAD
1000
AcDbSavedByObjectVersion
1070
     0
  0
VISUALSTYLE
  5
84C
102
{ACAD_XDICTIONARY
360
8CD
102
}
102
{ACAD_REACTORS
330
2F0
102
}
330
2F0
100
AcDbVisualStyle
  2
Shaded
 70
    27
 71
     2
 72
     2
 73
     1
 90
        2
 40
-0.6
 41
30.0
 62
     5
 63
     7
421
 16777215
 74
     0
 91
        4
 64
     7
 65
   257
 75
     1
175
     1
 42
1.0
 92
        8
 66
   257
 43
1.0
 76
     1
 77
     6
 78
     2
 67
     8
425
  7895160
 79
     3
170
     0
171
     0
290
     0
174
     0
 93
        5
 44
0.0
173
     0
291
     0
 45
0.0
1001
ACAD
1000
AcDbSavedByObjectVersion
1070
     0
  0
VISUALSTYLE
  5
84B
102
{ACAD_XDICTIONARY
360
8CB
102
}
102
{ACAD_REACTORS
330
2F0
102
}
330
2F0
100
AcDbVisualStyle
  2
Shaded with edges
 70
    26
 71
     2
 72
     2
 73
     1
 90
        2
 40
-0.6
 41
30.0
 62
     5
 63
     7
421
 16777215
 74
     1
 91
       10
 64
     7
 65
   257
 75
     2
175
     1
 42
1.0
 92
        8
 66
   257
 43
1.0
 76
     1
 77
     6
 78
     2
 67
     7
 79
     3
170
     0
171
     0
290
     0
174
     0
 93
        5
 44
0.0
173
     0
291
     0
 45
0.0
1001
ACAD
1000
AcDbSavedByObjectVersion
1070
     0
  0
VISUALSTYLE
  5
848
102
{ACAD_XDICTIONARY
360
8C5
102
}
102
{ACAD_REACTORS
330
2F0
102
}
330
2F0
100
AcDbVisualStyle
  2
Shades of Gray
 70
    23
 71
     2
 72
     2
 73
     3
 90
        0
 40
-0.6
 41
-30.0
 62
     5
 63
     7
421
 16777215
 74
     2
 91
        2
 64
     7
 65
     7
 75
     1
175
     1
 42
40.0
 92
        8
 66
     7
 43
1.0
 76
     1
 77
     6
 78
     2
 67
     7
 79
     3
170
     0
171
     0
290
     0
174
     0
 93
        1
 44
0.0
173
     0
291
     0
 45
0.0
1001
ACAD
1000
AcDbSavedByObjectVersion
1070
     0
  0
VISUALSTYLE
  5
849
102
{ACAD_XDICTIONARY
360
8C7
102
}
102
{ACAD_REACTORS
330
2F0
102
}
330
2F0
100
AcDbVisualStyle
  2
Sketchy
 70
    24
 71
     1
 72
     2
 73
     2
 90
        0
 40
-0.6
 41
-30.0
 62
     5
 63
     7
421
 16777215
 74
     2
 91
        2
 64
     7
 65
     7
 75
     1
175
     1
 42
40.0
 92
       11
 66
     7
 43
1.0
 76
     1
 77
     6
 78
     2
 67
     7
 79
     6
170
     0
171
     0
290
     0
174
     0
 93
        1
 44
0.0
173
     0
291
     0
 45
0.0
1001
ACAD
1000
AcDbSavedByObjectVersion
1070
     0
  0
VISUALSTYLE
  5
2FD
102
{ACAD_XDICTIONARY
360
8B8
102
}
102
{ACAD_REACTORS
330
2F0
102
}
330
2F0
100
AcDbVisualStyle
  2

 70
    13
 71
     2
 72
     2
 73
     0
 90
        0
 40
-0.6
 41
-30.0
 62
     5
 63
     7
 74
     1
 91
        4
 64
     7
 65
   257
 75
     1
175
     1
 42
1.0
 92
       12
 66
     7
 43
1.0
 76
     1
 77
     6
 78
     2
 67
     7
 79
     5
170
     0
171
     0
290
     0
174
     0
 93
        1
 44
0.0
173
     0
291
     1
 45
0.0
1001
ACAD
1000
AcDbSavedByObjectVersion
1070
     0
  0
VISUALSTYLE
  5
846
102
{ACAD_XDICTIONARY
360
8C1
102
}
102
{ACAD_REACTORS
330
2F0
102
}
330
2F0
100
AcDbVisualStyle
  2
Wireframe
 70
     5
 71
     0
 72
     2
 73
     0
 90
        0
 40
-0.6
 41
-30.0
 62
     5
 63
     7
421
 16777215
 74
     1
 91
        4
 64
     7
 65
   257
 75
     1
175
     1
 42
1.0
 92
        0
 66
   257
 43
1.0
 76
     1
 77
     6
 78
     2
 67
     7
 79
     3
170
     0
171
     0
290
     0
174
     0
 93
        1
 44
0.0
173
     0
291
     0
 45
0.0
1001
ACAD
1000
AcDbSavedByObjectVersion
1070
     0
  0
VISUALSTYLE
  5
84A
102
{ACAD_XDICTIONARY
360
8C9
102
}
102
{ACAD_REACTORS
330
2F0
102
}
330
2F0
100
AcDbVisualStyle
  2
X-Ray
 70
    25
 71
     2
 72
     2
 73
     1
 90
        1
 40
0.5
 41
-30.0
 62
     5
 63
     7
421
 16777215
 74
     1
 91
        0
 64
     7
 65
   257
 75
     1
175
     1
 42
1.0
 92
        8
 66
     7
 43
1.0
 76
     1
 77
     6
 78
     2
 67
     7
 79
     3
170
     0
171
     0
290
     0
174
     0
 93
       13
 44
0.0
173
     0
291
     0
 45
0.0
1001
ACAD
1000
AcDbSavedByObjectVersion
1070
     0
  0
DICTIONARYVAR
  5
886
102
{ACAD_REACTORS
330
831
102
}
330
831
100
DictionaryVariables
280
     0
  1
1:1
  0
DICTIONARYVAR
  5
882
102
{ACAD_REACTORS
330
831
102
}
330
831
100
DictionaryVariables
280
     0
  1
STANDARD
  0
DICTIONARYVAR
  5
832
102
{ACAD_REACTORS
330
831
102
}
330
831
100
DictionaryVariables
280
     0
  1
STANDARD
  0
DICTIONARYVAR
  5
883
102
{ACAD_REACTORS
330
831
102
}
330
831
100
DictionaryVariables
280
     0
  1
Imperial24
  0
DICTIONARYVAR
  5
884
102
{ACAD_REACTORS
330
831
102
}
330
831
100
DictionaryVariables
280
     0
  1
Imperial24
  0
DICTIONARYVAR
  5
835
102
{ACAD_REACTORS
330
831
102
}
330
831
100
DictionaryVariables
280
     0
  1
1
  0
DICTIONARYVAR
  5
834
102
{ACAD_REACTORS
330
831
102
}
330
831
100
DictionaryVariables
280
     0
  1
0
  0
DICTIONARYVAR
  5
888
102
{ACAD_REACTORS
330
831
102
}
330
831
100
DictionaryVariables
280
     0
  1
1
  0
DICTIONARYVAR
  5
889
102
{ACAD_REACTORS
330
831
102
}
330
831
100
DictionaryVariables
280
     0
  1
15
  0
DICTIONARYVAR
  5
887
102
{ACAD_REACTORS
330
831
102
}
330
831
100
DictionaryVariables
280
     0
  1
0
  0
DICTIONARYVAR
  5
885
102
{ACAD_REACTORS
330
831
102
}
330
831
100
DictionaryVariables
280
     0
  1
0
  0
DICTIONARYVAR
  5
833
102
{ACAD_REACTORS
330
831
102
}
330
831
100
DictionaryVariables
280
     0
  1
127
  0
DICTIONARYVAR
  5
89C
102
{ACAD_REACTORS
330
831
102
}
330
831
100
DictionaryVariables
280
     0
  1
2
  0
DICTIONARY
  5
839
330
2EE
100
AcDbDictionary
280
     1
281
     1
  3
ACAD_XREC_ROUNDTRIP
360
83A
  0
DICTIONARY
  5
837
330
2ED
100
AcDbDictionary
280
     1
281
     1
  3
ACAD_XREC_ROUNDTRIP
360
838
  0
DICTIONARY
  5
83B
330
2EF
100
AcDbDictionary
280
     1
281
     1
  3
ACAD_XREC_ROUNDTRIP
360
83C
  0
DICTIONARY
  5
89D
330
303
100
AcDbDictionary
280
     1
281
     1
  3
ACAD_ROUNDTRIP_2008_TABLESTYLE_CELLSTYLEMAP
360
89E
  3
ACAD_XREC_ROUNDTRIP
360
8C0
  0
DICTIONARY
  5
8AA
330
2F6
100
AcDbDictionary
280
     1
281
     1
  3
ACAD_XREC_ROUNDTRIP
360
8AB
  0
DICTIONARY
  5
8AE
330
2F8
100
AcDbDictionary
280
     1
281
     1
  3
ACAD_XREC_ROUNDTRIP
360
8AF
  0
DICTIONARY
  5
8AC
330
2F7
100
AcDbDictionary
280
     1
281
     1
  3
ACAD_XREC_ROUNDTRIP
360
8AD
  0
DICTIONARY
  5
8A8
330
2F5
100
AcDbDictionary
280
     1
281
     1
  3
ACAD_XREC_ROUNDTRIP
360
8A9
  0
DICTIONARY
  5
8B6
330
2FC
100
AcDbDictionary
280
     1
281
     1
  3
ACAD_XREC_ROUNDTRIP
360
8B7
  0
DICTIONARY
  5
8BE
330
300
100
AcDbDictionary
280
     1
281
     1
  3
ACAD_XREC_ROUNDTRIP
360
8BF
  0
DICTIONARY
  5
8B0
330
2F9
100
AcDbDictionary
280
     1
281
     1
  3
ACAD_XREC_ROUNDTRIP
360
8B1
  0
DICTIONARY
  5
8B4
330
2FB
100
AcDbDictionary
280
     1
281
     1
  3
ACAD_XREC_ROUNDTRIP
360
8B5
  0
DICTIONARY
  5
8D3
330
84F
100
AcDbDictionary
280
     1
281
     1
  3
ACAD_XREC_ROUNDTRIP
360
8D4
  0
DICTIONARY
  5
8BC
330
2FF
100
AcDbDictionary
280
     1
281
     1
  3
ACAD_XREC_ROUNDTRIP
360
8BD
  0
DICTIONARY
  5
8A0
330
2F1
100
AcDbDictionary
280
     1
281
     1
  3
ACAD_XREC_ROUNDTRIP
360
8A1
  0
DICTIONARY
  5
8A2
330
2F2
100
AcDbDictionary
280
     1
281
     1
  3
ACAD_XREC_ROUNDTRIP
360
8A3
  0
DICTIONARY
  5
8A4
330
2F3
100
AcDbDictionary
280
     1
281
     1
  3
ACAD_XREC_ROUNDTRIP
360
8A5
  0
DICTIONARY
  5
8A6
330
2F4
100
AcDbDictionary
280
     1
281
     1
  3
ACAD_XREC_ROUNDTRIP
360
8A7
  0
DICTIONARY
  5
8C3
330
847
100
AcDbDictionary
280
     1
281
     1
  3
ACAD_XREC_ROUNDTRIP
360
8C4
  0
DICTIONARY
  5
8CF
330
84D
100
AcDbDictionary
280
     1
281
     1
  3
ACAD_XREC_ROUNDTRIP
360
8D0
  0
DICTIONARY
  5
8BA
330
2FE
100
AcDbDictionary
280
     1
281
     1
  3
ACAD_XREC_ROUNDTRIP
360
8BB
  0
DICTIONARY
  5
8D1
330
84E
100
AcDbDictionary
280
     1
281
     1
  3
ACAD_XREC_ROUNDTRIP
360
8D2
  0
DICTIONARY
  5
8B2
330
2FA
100
AcDbDictionary
280
     1
281
     1
  3
ACAD_XREC_ROUNDTRIP
360
8B3
  0
DICTIONARY
  5
8CD
330
84C
100
AcDbDictionary
280
     1
281
     1
  3
ACAD_XREC_ROUNDTRIP
360
8CE
  0
DICTIONARY
  5
8CB
330
84B
100
AcDbDictionary
280
     1
281
     1
  3
ACAD_XREC_ROUNDTRIP
360
8CC
  0
DICTIONARY
  5
8C5
330
848
100
AcDbDictionary
280
     1
281
     1
  3
ACAD_XREC_ROUNDTRIP
360
8C6
  0
DICTIONARY
  5
8C7
330
849
100
AcDbDictionary
280
     1
281
     1
  3
ACAD_XREC_ROUNDTRIP
360
8C8
  0
DICTIONARY
  5
8B8
330
2FD
100
AcDbDictionary
280
     1
281
     1
  3
ACAD_XREC_ROUNDTRIP
360
8B9
  0
DICTIONARY
  5
8C1
330
846
100
AcDbDictionary
280
     1
281
     1
  3
ACAD_XREC_ROUNDTRIP
360
8C2
  0
DICTIONARY
  5
8C9
330
84A
100
AcDbDictionary
280
     1
281
     1
  3
ACAD_XREC_ROUNDTRIP
360
8CA
  0
XRECORD
  5
83A
102
{ACAD_REACTORS
330
839
102
}
330
839
100
AcDbXrecord
280
     1
102
MATERIAL
148
0.0
149
0.0
149
0.0
 93
        0
 94
      127
282
     0
 72
     1
 77
     1
171
     1
175
     1
179
     1
273
     0
  0
XRECORD
  5
838
102
{ACAD_REACTORS
330
837
102
}
330
837
100
AcDbXrecord
280
     1
102
MATERIAL
148
0.0
149
0.0
149
0.0
 93
        0
 94
      127
282
     0
 72
     1
 77
     1
171
     1
175
     1
179
     1
273
     0
  0
XRECORD
  5
83C
102
{ACAD_REACTORS
330
83B
102
}
330
83B
100
AcDbXrecord
280
     1
102
MATERIAL
148
0.0
149
0.0
149
0.0
 93
        0
 94
      127
282
     0
 72
     1
 77
     1
171
     1
175
     1
179
     1
273
     0
  0
CELLSTYLEMAP
  5
89E
102
{ACAD_REACTORS
330
89D
102
}
330
89D
100
AcDbCellStyleMap
 90
        3
300
CELLSTYLE
  1
TABLEFORMAT_BEGIN
 90
        5
170
     1
 91
        0
 92
    32768
 62
   257
 93
        1
300
CONTENTFORMAT
  1
CONTENTFORMAT_BEGIN
 90
        0
 91
        0
 92
      512
 93
        0
300

 40
0.0
140
1.0
 94
        5
 62
     0
340
11
144
0.25
309
CONTENTFORMAT_END
171
     0
 94
        6
 95
        1
302
GRIDFORMAT
  1
GRIDFORMAT_BEGIN
 90
        0
 91
        1
 62
     0
 92
       -2
340
0
 93
        0
 40
0.045
309
GRIDFORMAT_END
 95
        2
302
GRIDFORMAT
  1
GRIDFORMAT_BEGIN
 90
        0
 91
        1
 62
     0
 92
       -2
340
0
 93
        0
 40
0.045
309
GRIDFORMAT_END
 95
        4
302
GRIDFORMAT
  1
GRIDFORMAT_BEGIN
 90
        0
 91
        1
 62
     0
 92
       -2
340
0
 93
        0
 40
0.045
309
GRIDFORMAT_END
 95
        8
302
GRIDFORMAT
  1
GRIDFORMAT_BEGIN
 90
        0
 91
        1
 62
     0
 92
       -2
340
0
 93
        0
 40
0.045
309
GRIDFORMAT_END
 95
       16
302
GRIDFORMAT
  1
GRIDFORMAT_BEGIN
 90
        0
 91
        1
 62
     0
 92
       -2
340
0
 93
        0
 40
0.045
309
GRIDFORMAT_END
 95
       32
302
GRIDFORMAT
  1
GRIDFORMAT_BEGIN
 90
        0
 91
        1
 62
     0
 92
       -2
340
0
 93
        0
 40
0.045
309
GRIDFORMAT_END
309
TABLEFORMAT_END
  1
CELLSTYLE_BEGIN
 90
        1
 91
        1
300
_TITLE
309
CELLSTYLE_END
300
CELLSTYLE
  1
TABLEFORMAT_BEGIN
 90
        5
170
     1
 91
        0
 92
        0
 62
   257
 93
        1
300
CONTENTFORMAT
  1
CONTENTFORMAT_BEGIN
 90
        0
 91
        0
 92
      512
 93
        0
300

 40
0.0
140
1.0
 94
        5
 62
     0
340
11
144
0.18
309
CONTENTFORMAT_END
171
     0
 94
        6
 95
        1
302
GRIDFORMAT
  1
GRIDFORMAT_BEGIN
 90
        0
 91
        1
 62
     0
 92
       -2
340
0
 93
        0
 40
0.045
309
GRIDFORMAT_END
 95
        2
302
GRIDFORMAT
  1
GRIDFORMAT_BEGIN
 90
        0
 91
        1
 62
     0
 92
       -2
340
0
 93
        0
 40
0.045
309
GRIDFORMAT_END
 95
        4
302
GRIDFORMAT
  1
GRIDFORMAT_BEGIN
 90
        0
 91
        1
 62
     0
 92
       -2
340
0
 93
        0
 40
0.045
309
GRIDFORMAT_END
 95
        8
302
GRIDFORMAT
  1
GRIDFORMAT_BEGIN
 90
        0
 91
        1
 62
     0
 92
       -2
340
0
 93
        0
 40
0.045
309
GRIDFORMAT_END
 95
       16
302
GRIDFORMAT
  1
GRIDFORMAT_BEGIN
 90
        0
 91
        1
 62
     0
 92
       -2
340
0
 93
        0
 40
0.045
309
GRIDFORMAT_END
 95
       32
302
GRIDFORMAT
  1
GRIDFORMAT_BEGIN
 90
        0
 91
        1
 62
     0
 92
       -2
340
0
 93
        0
 40
0.045
309
GRIDFORMAT_END
309
TABLEFORMAT_END
  1
CELLSTYLE_BEGIN
 90
        2
 91
        1
300
_HEADER
309
CELLSTYLE_END
300
CELLSTYLE
  1
TABLEFORMAT_BEGIN
 90
        5
170
     1
 91
        0
 92
        0
 62
   257
 93
        1
300
CONTENTFORMAT
  1
CONTENTFORMAT_BEGIN
 90
        0
 91
        0
 92
      512
 93
        0
300

 40
0.0
140
1.0
 94
        2
 62
     0
340
11
144
0.18
309
CONTENTFORMAT_END
171
     0
 94
        6
 95
        1
302
GRIDFORMAT
  1
GRIDFORMAT_BEGIN
 90
        0
 91
        1
 62
     0
 92
       -2
340
0
 93
        0
 40
0.045
309
GRIDFORMAT_END
 95
        2
302
GRIDFORMAT
  1
GRIDFORMAT_BEGIN
 90
        0
 91
        1
 62
     0
 92
       -2
340
0
 93
        0
 40
0.045
309
GRIDFORMAT_END
 95
        4
302
GRIDFORMAT
  1
GRIDFORMAT_BEGIN
 90
        0
 91
        1
 62
     0
 92
       -2
340
0
 93
        0
 40
0.045
309
GRIDFORMAT_END
 95
        8
302
GRIDFORMAT
  1
GRIDFORMAT_BEGIN
 90
        0
 91
        1
 62
     0
 92
       -2
340
0
 93
        0
 40
0.045
309
GRIDFORMAT_END
 95
       16
302
GRIDFORMAT
  1
GRIDFORMAT_BEGIN
 90
        0
 91
        1
 62
     0
 92
       -2
340
0
 93
        0
 40
0.045
309
GRIDFORMAT_END
 95
       32
302
GRIDFORMAT
  1
GRIDFORMAT_BEGIN
 90
        0
 91
        1
 62
     0
 92
       -2
340
0
 93
        0
 40
0.045
309
GRIDFORMAT_END
309
TABLEFORMAT_END
  1
CELLSTYLE_BEGIN
 90
        3
 91
        2
300
_DATA
309
CELLSTYLE_END
  0
XRECORD
  5
8C0
102
{ACAD_REACTORS
330
89D
102
}
330
89D
100
AcDbXrecord
280
     1
102
ACAD_ROUNDTRIP_PRE2007_TABLESTYLE
 90
      512
 91
        0
  1

 92
      512
 93
        0
  2

 94
      512
 95
        0
  3

  0
XRECORD
  5
8AB
102
{ACAD_REACTORS
330
8AA
102
}
330
8AA
100
AcDbXrecord
280
     1
102
RTVSPost2010Prop28
280
     1
102
RTVSPost2010PropOp28
 70
     1
102
RTVSPost2010Prop29
280
     1
102
RTVSPost2010PropOp29
 70
     1
102
RTVSPost2010Prop30
280
     0
102
RTVSPost2010PropOp30
 70
     1
102
RTVSPost2010Prop31
280
     0
102
RTVSPost2010PropOp31
 70
     1
102
RTVSPost2010Prop32
280
     0
102
RTVSPost2010PropOp32
 70
     1
102
RTVSPost2010Prop33
280
     0
102
RTVSPost2010PropOp33
 70
     1
102
RTVSPost2010Prop34
280
     0
102
RTVSPost2010PropOp34
 70
     1
102
RTVSPost2010Prop35
280
     0
102
RTVSPost2010PropOp35
 70
     1
102
RTVSPost2010Prop36
280
     0
102
RTVSPost2010PropOp36
 70
     1
102
RTVSPost2010Prop37
 90
       50
102
RTVSPost2010PropOp37
 70
     1
102
RTVSPost2010Prop38
140
0.0
102
RTVSPost2010PropOp38
 70
     1
102
RTVSPost2010Prop39
140
1.0
102
RTVSPost2010PropOp39
 70
     1
102
RTVSPost2010Prop40
 90
        0
102
RTVSPost2010PropOp40
 70
     1
102
RTVSPost2010Prop41ColorIndex
 90
       18
102
RTVSPost2010Prop41ColorRGB
 90
        0
102
RTVSPost2010PropOp41
 70
     1
102
RTVSPost2010Prop42
 90
       50
102
RTVSPost2010PropOp42
 70
     1
102
RTVSPost2010Prop43
 90
        3
102
RTVSPost2010PropOp43
 70
     1
102
RTVSPost2010Prop44ColorIndex
 90
        5
102
RTVSPost2010Prop44ColorRGB
 90
      255
102
RTVSPost2010PropOp44
 70
     1
102
RTVSPost2010Prop45
280
     0
102
RTVSPost2010PropOp45
 70
     1
102
RTVSPost2010Prop46
 90
       50
102
RTVSPost2010PropOp46
 70
     1
102
RTVSPost2010Prop47
 90
       50
102
RTVSPost2010PropOp47
 70
     1
102
RTVSPost2010Prop48
 90
       50
102
RTVSPost2010PropOp48
 70
     1
102
RTVSPost2010Prop49
280
     0
102
RTVSPost2010PropOp49
 70
     1
102
RTVSPost2010Prop50
 90
       50
102
RTVSPost2010PropOp50
 70
     1
102
RTVSPost2010Prop51ColorIndex
 90
      256
102
RTVSPost2010Prop51ColorRGB
 90
-16777216
102
RTVSPost2010PropOp51
 70
     0
102
RTVSPost2010Prop52
140
1.0
102
RTVSPost2010PropOp52
 70
     0
102
RTVSPost2010Prop53
 90
        2
102
RTVSPost2010PropOp53
 70
     1
102
RTVSPost2010Prop54
  1
strokes_ogs.tif
102
RTVSPost2010PropOp54
 70
     1
102
RTVSPost2010Prop55
280
     0
102
RTVSPost2010PropOp55
 70
     1
102
RTVSPost2010Prop56
140
1.0
102
RTVSPost2010PropOp56
 70
     1
102
RTVSPost2010Prop57
140
1.0
102
RTVSPost2010PropOp57
 70
     1
102
RTVSPropertyOp0
 70
     1
102
RTVSPropertyOp1
 70
     1
102
RTVSPropertyOp2
 70
     1
102
RTVSPropertyOp3
 70
     1
102
RTVSPropertyOp4
 70
     1
102
RTVSPropertyOp5
 70
     1
102
RTVSPropertyOp6
 70
     1
102
RTVSPropertyOp7
 70
     1
102
RTVSPropertyOp8
 70
     1
102
RTVSPropertyOp9
 70
     1
102
RTVSPropertyOp10
 70
     1
102
RTVSPropertyOp11
 70
     1
102
RTVSPropertyOp12
 70
     1
102
RTVSPropertyOp13
 70
     1
102
RTVSPropertyOp14
 70
     1
102
RTVSPropertyOp15
 70
     1
102
RTVSPropertyOp16
 70
     1
102
RTVSPropertyOp17
 70
     1
102
RTVSPropertyOp18
 70
     1
102
RTVSPropertyOp19
 70
     1
102
RTVSPropertyOp20
 70
     1
102
RTVSPropertyOp21
 70
     1
102
RTVSPropertyOp22
 70
     1
102
RTVSPropertyOp23
 70
     1
102
RTVSPropertyOp24
 70
     1
102
RTVSPropertyOp25
 70
     1
102
RTVSPropertyOp26
 70
     1
102
RTVSPropertyOp27
 70
     1
102
RTVSPropertyOp28
 70
     1
102
RTVSPropertyOp29
 70
     1
102
RTVSPropertyOp30
 70
     1
102
RTVSPropertyOp31
 70
     1
102
RTVSPropertyOp32
 70
     1
102
RTVSPropertyOp33
 70
     1
102
RTVSPropertyOp34
 70
     1
102
RTVSPropertyOp35
 70
     1
102
RTVSPropertyOp36
 70
     1
102
RTVSPropertyOp37
 70
     1
102
RTVSPropertyOp38
 70
     1
102
RTVSPropertyOp39
 70
     1
102
RTVSPropertyOp40
 70
     1
102
RTVSPropertyOp41
 70
     1
102
RTVSPropertyOp42
 70
     1
102
RTVSPropertyOp43
 70
     1
102
RTVSPropertyOp44
 70
     1
102
RTVSPropertyOp45
 70
     1
102
RTVSPropertyOp46
 70
     1
102
RTVSPropertyOp47
 70
     1
102
RTVSPropertyOp48
 70
     1
102
RTVSPropertyOp49
 70
     1
102
RTVSPropertyOp50
 70
     1
102
RTVSPropertyOp51
 70
     0
102
RTVSPropertyOp52
 70
     0
102
RTVSPropertyOp53
 70
     1
102
RTVSPropertyOp54
 70
     1
102
RTVSPropertyOp55
 70
     1
102
RTVSPropertyOp56
 70
     1
102
RTVSPropertyOp57
 70
     1
102
RTVSPropertyOp58
 70
     1
102
RTVSPropertyOp59
 70
     1
102
RTVSPropertyOp60
 70
     1
102
RTVSPropertyOp61
 70
     1
102
RTVSPropertyOp62
 70
     1
  0
XRECORD
  5
8AF
102
{ACAD_REACTORS
330
8AE
102
}
330
8AE
100
AcDbXrecord
280
     1
102
RTVSPost2010Prop28
280
     0
102
RTVSPost2010PropOp28
 70
     1
102
RTVSPost2010Prop29
280
     1
102
RTVSPost2010PropOp29
 70
     1
102
RTVSPost2010Prop30
280
     1
102
RTVSPost2010PropOp30
 70
     1
102
RTVSPost2010Prop31
280
     0
102
RTVSPost2010PropOp31
 70
     1
102
RTVSPost2010Prop32
280
     0
102
RTVSPost2010PropOp32
 70
     1
102
RTVSPost2010Prop33
280
     0
102
RTVSPost2010PropOp33
 70
     1
102
RTVSPost2010Prop34
280
     0
102
RTVSPost2010PropOp34
 70
     1
102
RTVSPost2010Prop35
280
     0
102
RTVSPost2010PropOp35
 70
     1
102
RTVSPost2010Prop36
280
     0
102
RTVSPost2010PropOp36
 70
     1
102
RTVSPost2010Prop37
 90
       50
102
RTVSPost2010PropOp37
 70
     1
102
RTVSPost2010Prop38
140
0.0
102
RTVSPost2010PropOp38
 70
     1
102
RTVSPost2010Prop39
140
1.0
102
RTVSPost2010PropOp39
 70
     1
102
RTVSPost2010Prop40
 90
        0
102
RTVSPost2010PropOp40
 70
     1
102
RTVSPost2010Prop41ColorIndex
 90
       18
102
RTVSPost2010Prop41ColorRGB
 90
        0
102
RTVSPost2010PropOp41
 70
     1
102
RTVSPost2010Prop42
 90
       50
102
RTVSPost2010PropOp42
 70
     1
102
RTVSPost2010Prop43
 90
        3
102
RTVSPost2010PropOp43
 70
     1
102
RTVSPost2010Prop44ColorIndex
 90
        5
102
RTVSPost2010Prop44ColorRGB
 90
      255
102
RTVSPost2010PropOp44
 70
     1
102
RTVSPost2010Prop45
280
     0
102
RTVSPost2010PropOp45
 70
     1
102
RTVSPost2010Prop46
 90
       50
102
RTVSPost2010PropOp46
 70
     1
102
RTVSPost2010Prop47
 90
       50
102
RTVSPost2010PropOp47
 70
     1
102
RTVSPost2010Prop48
 90
       50
102
RTVSPost2010PropOp48
 70
     1
102
RTVSPost2010Prop49
280
     0
102
RTVSPost2010PropOp49
 70
     1
102
RTVSPost2010Prop50
 90
       50
102
RTVSPost2010PropOp50
 70
     1
102
RTVSPost2010Prop51ColorIndex
 90
      256
102
RTVSPost2010Prop51ColorRGB
 90
-16777216
102
RTVSPost2010PropOp51
 70
     0
102
RTVSPost2010Prop52
140
1.0
102
RTVSPost2010PropOp52
 70
     0
102
RTVSPost2010Prop53
 90
        2
102
RTVSPost2010PropOp53
 70
     1
102
RTVSPost2010Prop54
  1
strokes_ogs.tif
102
RTVSPost2010PropOp54
 70
     1
102
RTVSPost2010Prop55
280
     0
102
RTVSPost2010PropOp55
 70
     1
102
RTVSPost2010Prop56
140
1.0
102
RTVSPost2010PropOp56
 70
     1
102
RTVSPost2010Prop57
140
1.0
102
RTVSPost2010PropOp57
 70
     1
102
RTVSPropertyOp0
 70
     1
102
RTVSPropertyOp1
 70
     1
102
RTVSPropertyOp2
 70
     1
102
RTVSPropertyOp3
 70
     1
102
RTVSPropertyOp4
 70
     1
102
RTVSPropertyOp5
 70
     1
102
RTVSPropertyOp6
 70
     1
102
RTVSPropertyOp7
 70
     1
102
RTVSPropertyOp8
 70
     1
102
RTVSPropertyOp9
 70
     1
102
RTVSPropertyOp10
 70
     1
102
RTVSPropertyOp11
 70
     1
102
RTVSPropertyOp12
 70
     1
102
RTVSPropertyOp13
 70
     1
102
RTVSPropertyOp14
 70
     1
102
RTVSPropertyOp15
 70
     1
102
RTVSPropertyOp16
 70
     1
102
RTVSPropertyOp17
 70
     1
102
RTVSPropertyOp18
 70
     1
102
RTVSPropertyOp19
 70
     1
102
RTVSPropertyOp20
 70
     1
102
RTVSPropertyOp21
 70
     1
102
RTVSPropertyOp22
 70
     1
102
RTVSPropertyOp23
 70
     1
102
RTVSPropertyOp24
 70
     1
102
RTVSPropertyOp25
 70
     1
102
RTVSPropertyOp26
 70
     1
102
RTVSPropertyOp27
 70
     1
102
RTVSPropertyOp28
 70
     1
102
RTVSPropertyOp29
 70
     1
102
RTVSPropertyOp30
 70
     1
102
RTVSPropertyOp31
 70
     1
102
RTVSPropertyOp32
 70
     1
102
RTVSPropertyOp33
 70
     1
102
RTVSPropertyOp34
 70
     1
102
RTVSPropertyOp35
 70
     1
102
RTVSPropertyOp36
 70
     1
102
RTVSPropertyOp37
 70
     1
102
RTVSPropertyOp38
 70
     1
102
RTVSPropertyOp39
 70
     1
102
RTVSPropertyOp40
 70
     1
102
RTVSPropertyOp41
 70
     1
102
RTVSPropertyOp42
 70
     1
102
RTVSPropertyOp43
 70
     1
102
RTVSPropertyOp44
 70
     1
102
RTVSPropertyOp45
 70
     1
102
RTVSPropertyOp46
 70
     1
102
RTVSPropertyOp47
 70
     1
102
RTVSPropertyOp48
 70
     1
102
RTVSPropertyOp49
 70
     1
102
RTVSPropertyOp50
 70
     1
102
RTVSPropertyOp51
 70
     0
102
RTVSPropertyOp52
 70
     0
102
RTVSPropertyOp53
 70
     1
102
RTVSPropertyOp54
 70
     1
102
RTVSPropertyOp55
 70
     1
102
RTVSPropertyOp56
 70
     1
102
RTVSPropertyOp57
 70
     1
102
RTVSPropertyOp58
 70
     1
102
RTVSPropertyOp59
 70
     1
102
RTVSPropertyOp60
 70
     1
102
RTVSPropertyOp61
 70
     1
102
RTVSPropertyOp62
 70
     1
  0
XRECORD
  5
8AD
102
{ACAD_REACTORS
330
8AC
102
}
330
8AC
100
AcDbXrecord
280
     1
102
RTVSPost2010Prop28
280
     0
102
RTVSPost2010PropOp28
 70
     1
102
RTVSPost2010Prop29
280
     1
102
RTVSPost2010PropOp29
 70
     1
102
RTVSPost2010Prop30
280
     1
102
RTVSPost2010PropOp30
 70
     1
102
RTVSPost2010Prop31
280
     0
102
RTVSPost2010PropOp31
 70
     1
102
RTVSPost2010Prop32
280
     0
102
RTVSPost2010PropOp32
 70
     1
102
RTVSPost2010Prop33
280
     0
102
RTVSPost2010PropOp33
 70
     1
102
RTVSPost2010Prop34
280
     0
102
RTVSPost2010PropOp34
 70
     1
102
RTVSPost2010Prop35
280
     0
102
RTVSPost2010PropOp35
 70
     1
102
RTVSPost2010Prop36
280
     0
102
RTVSPost2010PropOp36
 70
     1
102
RTVSPost2010Prop37
 90
       50
102
RTVSPost2010PropOp37
 70
     1
102
RTVSPost2010Prop38
140
0.0
102
RTVSPost2010PropOp38
 70
     1
102
RTVSPost2010Prop39
140
1.0
102
RTVSPost2010PropOp39
 70
     1
102
RTVSPost2010Prop40
 90
        0
102
RTVSPost2010PropOp40
 70
     1
102
RTVSPost2010Prop41ColorIndex
 90
       18
102
RTVSPost2010Prop41ColorRGB
 90
        0
102
RTVSPost2010PropOp41
 70
     1
102
RTVSPost2010Prop42
 90
       50
102
RTVSPost2010PropOp42
 70
     1
102
RTVSPost2010Prop43
 90
        3
102
RTVSPost2010PropOp43
 70
     1
102
RTVSPost2010Prop44ColorIndex
 90
        5
102
RTVSPost2010Prop44ColorRGB
 90
      255
102
RTVSPost2010PropOp44
 70
     1
102
RTVSPost2010Prop45
280
     0
102
RTVSPost2010PropOp45
 70
     1
102
RTVSPost2010Prop46
 90
       50
102
RTVSPost2010PropOp46
 70
     1
102
RTVSPost2010Prop47
 90
       50
102
RTVSPost2010PropOp47
 70
     1
102
RTVSPost2010Prop48
 90
       50
102
RTVSPost2010PropOp48
 70
     1
102
RTVSPost2010Prop49
280
     0
102
RTVSPost2010PropOp49
 70
     1
102
RTVSPost2010Prop50
 90
       50
102
RTVSPost2010PropOp50
 70
     1
102
RTVSPost2010Prop51ColorIndex
 90
      256
102
RTVSPost2010Prop51ColorRGB
 90
-16777216
102
RTVSPost2010PropOp51
 70
     0
102
RTVSPost2010Prop52
140
1.0
102
RTVSPost2010PropOp52
 70
     0
102
RTVSPost2010Prop53
 90
        2
102
RTVSPost2010PropOp53
 70
     1
102
RTVSPost2010Prop54
  1
strokes_ogs.tif
102
RTVSPost2010PropOp54
 70
     1
102
RTVSPost2010Prop55
280
     0
102
RTVSPost2010PropOp55
 70
     1
102
RTVSPost2010Prop56
140
1.0
102
RTVSPost2010PropOp56
 70
     1
102
RTVSPost2010Prop57
140
1.0
102
RTVSPost2010PropOp57
 70
     1
102
RTVSPropertyOp0
 70
     1
102
RTVSPropertyOp1
 70
     1
102
RTVSPropertyOp2
 70
     1
102
RTVSPropertyOp3
 70
     1
102
RTVSPropertyOp4
 70
     1
102
RTVSPropertyOp5
 70
     1
102
RTVSPropertyOp6
 70
     1
102
RTVSPropertyOp7
 70
     1
102
RTVSPropertyOp8
 70
     1
102
RTVSPropertyOp9
 70
     1
102
RTVSPropertyOp10
 70
     1
102
RTVSPropertyOp11
 70
     1
102
RTVSPropertyOp12
 70
     1
102
RTVSPropertyOp13
 70
     1
102
RTVSPropertyOp14
 70
     1
102
RTVSPropertyOp15
 70
     1
102
RTVSPropertyOp16
 70
     1
102
RTVSPropertyOp17
 70
     1
102
RTVSPropertyOp18
 70
     1
102
RTVSPropertyOp19
 70
     1
102
RTVSPropertyOp20
 70
     1
102
RTVSPropertyOp21
 70
     1
102
RTVSPropertyOp22
 70
     1
102
RTVSPropertyOp23
 70
     1
102
RTVSPropertyOp24
 70
     1
102
RTVSPropertyOp25
 70
     1
102
RTVSPropertyOp26
 70
     1
102
RTVSPropertyOp27
 70
     1
102
RTVSPropertyOp28
 70
     1
102
RTVSPropertyOp29
 70
     1
102
RTVSPropertyOp30
 70
     1
102
RTVSPropertyOp31
 70
     1
102
RTVSPropertyOp32
 70
     1
102
RTVSPropertyOp33
 70
     1
102
RTVSPropertyOp34
 70
     1
102
RTVSPropertyOp35
 70
     1
102
RTVSPropertyOp36
 70
     1
102
RTVSPropertyOp37
 70
     1
102
RTVSPropertyOp38
 70
     1
102
RTVSPropertyOp39
 70
     1
102
RTVSPropertyOp40
 70
     1
102
RTVSPropertyOp41
 70
     1
102
RTVSPropertyOp42
 70
     1
102
RTVSPropertyOp43
 70
     1
102
RTVSPropertyOp44
 70
     1
102
RTVSPropertyOp45
 70
     1
102
RTVSPropertyOp46
 70
     1
102
RTVSPropertyOp47
 70
     1
102
RTVSPropertyOp48
 70
     1
102
RTVSPropertyOp49
 70
     1
102
RTVSPropertyOp50
 70
     1
102
RTVSPropertyOp51
 70
     0
102
RTVSPropertyOp52
 70
     0
102
RTVSPropertyOp53
 70
     1
102
RTVSPropertyOp54
 70
     1
102
RTVSPropertyOp55
 70
     1
102
RTVSPropertyOp56
 70
     1
102
RTVSPropertyOp57
 70
     1
102
RTVSPropertyOp58
 70
     1
102
RTVSPropertyOp59
 70
     1
102
RTVSPropertyOp60
 70
     1
102
RTVSPropertyOp61
 70
     1
102
RTVSPropertyOp62
 70
     1
  0
XRECORD
  5
8A9
102
{ACAD_REACTORS
330
8A8
102
}
330
8A8
100
AcDbXrecord
280
     1
102
RTVSPost2010Prop28
280
     0
102
RTVSPost2010PropOp28
 70
     1
102
RTVSPost2010Prop29
280
     1
102
RTVSPost2010PropOp29
 70
     1
102
RTVSPost2010Prop30
280
     1
102
RTVSPost2010PropOp30
 70
     1
102
RTVSPost2010Prop31
280
     0
102
RTVSPost2010PropOp31
 70
     1
102
RTVSPost2010Prop32
280
     0
102
RTVSPost2010PropOp32
 70
     1
102
RTVSPost2010Prop33
280
     0
102
RTVSPost2010PropOp33
 70
     1
102
RTVSPost2010Prop34
280
     0
102
RTVSPost2010PropOp34
 70
     1
102
RTVSPost2010Prop35
280
     0
102
RTVSPost2010PropOp35
 70
     1
102
RTVSPost2010Prop36
280
     0
102
RTVSPost2010PropOp36
 70
     1
102
RTVSPost2010Prop37
 90
       50
102
RTVSPost2010PropOp37
 70
     1
102
RTVSPost2010Prop38
140
0.0
102
RTVSPost2010PropOp38
 70
     1
102
RTVSPost2010Prop39
140
1.0
102
RTVSPost2010PropOp39
 70
     1
102
RTVSPost2010Prop40
 90
        0
102
RTVSPost2010PropOp40
 70
     1
102
RTVSPost2010Prop41ColorIndex
 90
       18
102
RTVSPost2010Prop41ColorRGB
 90
        0
102
RTVSPost2010PropOp41
 70
     1
102
RTVSPost2010Prop42
 90
       50
102
RTVSPost2010PropOp42
 70
     1
102
RTVSPost2010Prop43
 90
        3
102
RTVSPost2010PropOp43
 70
     1
102
RTVSPost2010Prop44ColorIndex
 90
        5
102
RTVSPost2010Prop44ColorRGB
 90
      255
102
RTVSPost2010PropOp44
 70
     1
102
RTVSPost2010Prop45
280
     0
102
RTVSPost2010PropOp45
 70
     1
102
RTVSPost2010Prop46
 90
       50
102
RTVSPost2010PropOp46
 70
     1
102
RTVSPost2010Prop47
 90
       50
102
RTVSPost2010PropOp47
 70
     1
102
RTVSPost2010Prop48
 90
       50
102
RTVSPost2010PropOp48
 70
     1
102
RTVSPost2010Prop49
280
     0
102
RTVSPost2010PropOp49
 70
     1
102
RTVSPost2010Prop50
 90
       50
102
RTVSPost2010PropOp50
 70
     1
102
RTVSPost2010Prop51ColorIndex
 90
      256
102
RTVSPost2010Prop51ColorRGB
 90
-16777216
102
RTVSPost2010PropOp51
 70
     0
102
RTVSPost2010Prop52
140
1.0
102
RTVSPost2010PropOp52
 70
     0
102
RTVSPost2010Prop53
 90
        2
102
RTVSPost2010PropOp53
 70
     1
102
RTVSPost2010Prop54
  1
strokes_ogs.tif
102
RTVSPost2010PropOp54
 70
     1
102
RTVSPost2010Prop55
280
     0
102
RTVSPost2010PropOp55
 70
     1
102
RTVSPost2010Prop56
140
1.0
102
RTVSPost2010PropOp56
 70
     1
102
RTVSPost2010Prop57
140
1.0
102
RTVSPost2010PropOp57
 70
     1
102
RTVSPropertyOp0
 70
     1
102
RTVSPropertyOp1
 70
     1
102
RTVSPropertyOp2
 70
     1
102
RTVSPropertyOp3
 70
     1
102
RTVSPropertyOp4
 70
     1
102
RTVSPropertyOp5
 70
     1
102
RTVSPropertyOp6
 70
     1
102
RTVSPropertyOp7
 70
     1
102
RTVSPropertyOp8
 70
     1
102
RTVSPropertyOp9
 70
     1
102
RTVSPropertyOp10
 70
     1
102
RTVSPropertyOp11
 70
     1
102
RTVSPropertyOp12
 70
     1
102
RTVSPropertyOp13
 70
     1
102
RTVSPropertyOp14
 70
     1
102
RTVSPropertyOp15
 70
     1
102
RTVSPropertyOp16
 70
     1
102
RTVSPropertyOp17
 70
     1
102
RTVSPropertyOp18
 70
     1
102
RTVSPropertyOp19
 70
     1
102
RTVSPropertyOp20
 70
     1
102
RTVSPropertyOp21
 70
     1
102
RTVSPropertyOp22
 70
     1
102
RTVSPropertyOp23
 70
     1
102
RTVSPropertyOp24
 70
     1
102
RTVSPropertyOp25
 70
     1
102
RTVSPropertyOp26
 70
     1
102
RTVSPropertyOp27
 70
     1
102
RTVSPropertyOp28
 70
     1
102
RTVSPropertyOp29
 70
     1
102
RTVSPropertyOp30
 70
     1
102
RTVSPropertyOp31
 70
     1
102
RTVSPropertyOp32
 70
     1
102
RTVSPropertyOp33
 70
     1
102
RTVSPropertyOp34
 70
     1
102
RTVSPropertyOp35
 70
     1
102
RTVSPropertyOp36
 70
     1
102
RTVSPropertyOp37
 70
     1
102
RTVSPropertyOp38
 70
     1
102
RTVSPropertyOp39
 70
     1
102
RTVSPropertyOp40
 70
     1
102
RTVSPropertyOp41
 70
     1
102
RTVSPropertyOp42
 70
     1
102
RTVSPropertyOp43
 70
     1
102
RTVSPropertyOp44
 70
     1
102
RTVSPropertyOp45
 70
     1
102
RTVSPropertyOp46
 70
     1
102
RTVSPropertyOp47
 70
     1
102
RTVSPropertyOp48
 70
     1
102
RTVSPropertyOp49
 70
     1
102
RTVSPropertyOp50
 70
     1
102
RTVSPropertyOp51
 70
     0
102
RTVSPropertyOp52
 70
     0
102
RTVSPropertyOp53
 70
     1
102
RTVSPropertyOp54
 70
     1
102
RTVSPropertyOp55
 70
     1
102
RTVSPropertyOp56
 70
     1
102
RTVSPropertyOp57
 70
     1
102
RTVSPropertyOp58
 70
     1
102
RTVSPropertyOp59
 70
     1
102
RTVSPropertyOp60
 70
     1
102
RTVSPropertyOp61
 70
     1
102
RTVSPropertyOp62
 70
     1
  0
XRECORD
  5
8B7
102
{ACAD_REACTORS
330
8B6
102
}
330
8B6
100
AcDbXrecord
280
     1
102
RTVSPost2010Prop28
280
     0
102
RTVSPost2010PropOp28
 70
     1
102
RTVSPost2010Prop29
280
     1
102
RTVSPost2010PropOp29
 70
     1
102
RTVSPost2010Prop30
280
     1
102
RTVSPost2010PropOp30
 70
     1
102
RTVSPost2010Prop31
280
     0
102
RTVSPost2010PropOp31
 70
     1
102
RTVSPost2010Prop32
280
     0
102
RTVSPost2010PropOp32
 70
     1
102
RTVSPost2010Prop33
280
     0
102
RTVSPost2010PropOp33
 70
     1
102
RTVSPost2010Prop34
280
     0
102
RTVSPost2010PropOp34
 70
     1
102
RTVSPost2010Prop35
280
     0
102
RTVSPost2010PropOp35
 70
     1
102
RTVSPost2010Prop36
280
     0
102
RTVSPost2010PropOp36
 70
     1
102
RTVSPost2010Prop37
 90
       50
102
RTVSPost2010PropOp37
 70
     1
102
RTVSPost2010Prop38
140
0.0
102
RTVSPost2010PropOp38
 70
     1
102
RTVSPost2010Prop39
140
1.0
102
RTVSPost2010PropOp39
 70
     1
102
RTVSPost2010Prop40
 90
        0
102
RTVSPost2010PropOp40
 70
     1
102
RTVSPost2010Prop41ColorIndex
 90
       18
102
RTVSPost2010Prop41ColorRGB
 90
        0
102
RTVSPost2010PropOp41
 70
     1
102
RTVSPost2010Prop42
 90
       50
102
RTVSPost2010PropOp42
 70
     1
102
RTVSPost2010Prop43
 90
        3
102
RTVSPost2010PropOp43
 70
     1
102
RTVSPost2010Prop44ColorIndex
 90
        5
102
RTVSPost2010Prop44ColorRGB
 90
      255
102
RTVSPost2010PropOp44
 70
     1
102
RTVSPost2010Prop45
280
     0
102
RTVSPost2010PropOp45
 70
     1
102
RTVSPost2010Prop46
 90
       50
102
RTVSPost2010PropOp46
 70
     1
102
RTVSPost2010Prop47
 90
       50
102
RTVSPost2010PropOp47
 70
     1
102
RTVSPost2010Prop48
 90
       50
102
RTVSPost2010PropOp48
 70
     1
102
RTVSPost2010Prop49
280
     0
102
RTVSPost2010PropOp49
 70
     1
102
RTVSPost2010Prop50
 90
       50
102
RTVSPost2010PropOp50
 70
     1
102
RTVSPost2010Prop51ColorIndex
 90
      256
102
RTVSPost2010Prop51ColorRGB
 90
-16777216
102
RTVSPost2010PropOp51
 70
     0
102
RTVSPost2010Prop52
140
1.0
102
RTVSPost2010PropOp52
 70
     0
102
RTVSPost2010Prop53
 90
        2
102
RTVSPost2010PropOp53
 70
     1
102
RTVSPost2010Prop54
  1
strokes_ogs.tif
102
RTVSPost2010PropOp54
 70
     1
102
RTVSPost2010Prop55
280
     0
102
RTVSPost2010PropOp55
 70
     1
102
RTVSPost2010Prop56
140
1.0
102
RTVSPost2010PropOp56
 70
     1
102
RTVSPost2010Prop57
140
1.0
102
RTVSPost2010PropOp57
 70
     1
102
RTVSPropertyOp0
 70
     1
102
RTVSPropertyOp1
 70
     1
102
RTVSPropertyOp2
 70
     1
102
RTVSPropertyOp3
 70
     1
102
RTVSPropertyOp4
 70
     1
102
RTVSPropertyOp5
 70
     1
102
RTVSPropertyOp6
 70
     1
102
RTVSPropertyOp7
 70
     1
102
RTVSPropertyOp8
 70
     1
102
RTVSPropertyOp9
 70
     1
102
RTVSPropertyOp10
 70
     1
102
RTVSPropertyOp11
 70
     1
102
RTVSPropertyOp12
 70
     1
102
RTVSPropertyOp13
 70
     1
102
RTVSPropertyOp14
 70
     1
102
RTVSPropertyOp15
 70
     1
102
RTVSPropertyOp16
 70
     1
102
RTVSPropertyOp17
 70
     1
102
RTVSPropertyOp18
 70
     1
102
RTVSPropertyOp19
 70
     1
102
RTVSPropertyOp20
 70
     1
102
RTVSPropertyOp21
 70
     1
102
RTVSPropertyOp22
 70
     1
102
RTVSPropertyOp23
 70
     1
102
RTVSPropertyOp24
 70
     1
102
RTVSPropertyOp25
 70
     1
102
RTVSPropertyOp26
 70
     1
102
RTVSPropertyOp27
 70
     1
102
RTVSPropertyOp28
 70
     1
102
RTVSPropertyOp29
 70
     1
102
RTVSPropertyOp30
 70
     1
102
RTVSPropertyOp31
 70
     1
102
RTVSPropertyOp32
 70
     1
102
RTVSPropertyOp33
 70
     1
102
RTVSPropertyOp34
 70
     1
102
RTVSPropertyOp35
 70
     1
102
RTVSPropertyOp36
 70
     1
102
RTVSPropertyOp37
 70
     1
102
RTVSPropertyOp38
 70
     1
102
RTVSPropertyOp39
 70
     1
102
RTVSPropertyOp40
 70
     1
102
RTVSPropertyOp41
 70
     1
102
RTVSPropertyOp42
 70
     1
102
RTVSPropertyOp43
 70
     1
102
RTVSPropertyOp44
 70
     1
102
RTVSPropertyOp45
 70
     1
102
RTVSPropertyOp46
 70
     1
102
RTVSPropertyOp47
 70
     1
102
RTVSPropertyOp48
 70
     1
102
RTVSPropertyOp49
 70
     1
102
RTVSPropertyOp50
 70
     1
102
RTVSPropertyOp51
 70
     0
102
RTVSPropertyOp52
 70
     0
102
RTVSPropertyOp53
 70
     1
102
RTVSPropertyOp54
 70
     1
102
RTVSPropertyOp55
 70
     1
102
RTVSPropertyOp56
 70
     1
102
RTVSPropertyOp57
 70
     1
102
RTVSPropertyOp58
 70
     1
102
RTVSPropertyOp59
 70
     1
102
RTVSPropertyOp60
 70
     1
102
RTVSPropertyOp61
 70
     1
102
RTVSPropertyOp62
 70
     1
  0
XRECORD
  5
8BF
102
{ACAD_REACTORS
330
8BE
102
}
330
8BE
100
AcDbXrecord
280
     1
102
RTVSPost2010Prop28
280
     0
102
RTVSPost2010PropOp28
 70
     1
102
RTVSPost2010Prop29
280
     1
102
RTVSPost2010PropOp29
 70
     1
102
RTVSPost2010Prop30
280
     1
102
RTVSPost2010PropOp30
 70
     1
102
RTVSPost2010Prop31
280
     0
102
RTVSPost2010PropOp31
 70
     1
102
RTVSPost2010Prop32
280
     0
102
RTVSPost2010PropOp32
 70
     1
102
RTVSPost2010Prop33
280
     0
102
RTVSPost2010PropOp33
 70
     1
102
RTVSPost2010Prop34
280
     0
102
RTVSPost2010PropOp34
 70
     1
102
RTVSPost2010Prop35
280
     0
102
RTVSPost2010PropOp35
 70
     1
102
RTVSPost2010Prop36
280
     0
102
RTVSPost2010PropOp36
 70
     1
102
RTVSPost2010Prop37
 90
       50
102
RTVSPost2010PropOp37
 70
     1
102
RTVSPost2010Prop38
140
0.0
102
RTVSPost2010PropOp38
 70
     1
102
RTVSPost2010Prop39
140
1.0
102
RTVSPost2010PropOp39
 70
     1
102
RTVSPost2010Prop40
 90
        0
102
RTVSPost2010PropOp40
 70
     1
102
RTVSPost2010Prop41ColorIndex
 90
       18
102
RTVSPost2010Prop41ColorRGB
 90
        0
102
RTVSPost2010PropOp41
 70
     1
102
RTVSPost2010Prop42
 90
       50
102
RTVSPost2010PropOp42
 70
     1
102
RTVSPost2010Prop43
 90
        3
102
RTVSPost2010PropOp43
 70
     1
102
RTVSPost2010Prop44ColorIndex
 90
        5
102
RTVSPost2010Prop44ColorRGB
 90
      255
102
RTVSPost2010PropOp44
 70
     1
102
RTVSPost2010Prop45
280
     0
102
RTVSPost2010PropOp45
 70
     1
102
RTVSPost2010Prop46
 90
       50
102
RTVSPost2010PropOp46
 70
     1
102
RTVSPost2010Prop47
 90
       50
102
RTVSPost2010PropOp47
 70
     1
102
RTVSPost2010Prop48
 90
       50
102
RTVSPost2010PropOp48
 70
     1
102
RTVSPost2010Prop49
280
     0
102
RTVSPost2010PropOp49
 70
     1
102
RTVSPost2010Prop50
 90
       50
102
RTVSPost2010PropOp50
 70
     1
102
RTVSPost2010Prop51ColorIndex
 90
      256
102
RTVSPost2010Prop51ColorRGB
 90
-16777216
102
RTVSPost2010PropOp51
 70
     0
102
RTVSPost2010Prop52
140
1.0
102
RTVSPost2010PropOp52
 70
     0
102
RTVSPost2010Prop53
 90
        2
102
RTVSPost2010PropOp53
 70
     1
102
RTVSPost2010Prop54
  1
strokes_ogs.tif
102
RTVSPost2010PropOp54
 70
     1
102
RTVSPost2010Prop55
280
     0
102
RTVSPost2010PropOp55
 70
     1
102
RTVSPost2010Prop56
140
1.0
102
RTVSPost2010PropOp56
 70
     1
102
RTVSPost2010Prop57
140
1.0
102
RTVSPost2010PropOp57
 70
     1
102
RTVSPropertyOp0
 70
     1
102
RTVSPropertyOp1
 70
     1
102
RTVSPropertyOp2
 70
     1
102
RTVSPropertyOp3
 70
     1
102
RTVSPropertyOp4
 70
     1
102
RTVSPropertyOp5
 70
     1
102
RTVSPropertyOp6
 70
     1
102
RTVSPropertyOp7
 70
     1
102
RTVSPropertyOp8
 70
     1
102
RTVSPropertyOp9
 70
     1
102
RTVSPropertyOp10
 70
     1
102
RTVSPropertyOp11
 70
     1
102
RTVSPropertyOp12
 70
     1
102
RTVSPropertyOp13
 70
     1
102
RTVSPropertyOp14
 70
     1
102
RTVSPropertyOp15
 70
     1
102
RTVSPropertyOp16
 70
     1
102
RTVSPropertyOp17
 70
     1
102
RTVSPropertyOp18
 70
     1
102
RTVSPropertyOp19
 70
     1
102
RTVSPropertyOp20
 70
     1
102
RTVSPropertyOp21
 70
     1
102
RTVSPropertyOp22
 70
     1
102
RTVSPropertyOp23
 70
     1
102
RTVSPropertyOp24
 70
     1
102
RTVSPropertyOp25
 70
     1
102
RTVSPropertyOp26
 70
     1
102
RTVSPropertyOp27
 70
     1
102
RTVSPropertyOp28
 70
     1
102
RTVSPropertyOp29
 70
     1
102
RTVSPropertyOp30
 70
     1
102
RTVSPropertyOp31
 70
     1
102
RTVSPropertyOp32
 70
     1
102
RTVSPropertyOp33
 70
     1
102
RTVSPropertyOp34
 70
     1
102
RTVSPropertyOp35
 70
     1
102
RTVSPropertyOp36
 70
     1
102
RTVSPropertyOp37
 70
     1
102
RTVSPropertyOp38
 70
     1
102
RTVSPropertyOp39
 70
     1
102
RTVSPropertyOp40
 70
     1
102
RTVSPropertyOp41
 70
     1
102
RTVSPropertyOp42
 70
     1
102
RTVSPropertyOp43
 70
     1
102
RTVSPropertyOp44
 70
     1
102
RTVSPropertyOp45
 70
     1
102
RTVSPropertyOp46
 70
     1
102
RTVSPropertyOp47
 70
     1
102
RTVSPropertyOp48
 70
     1
102
RTVSPropertyOp49
 70
     1
102
RTVSPropertyOp50
 70
     1
102
RTVSPropertyOp51
 70
     0
102
RTVSPropertyOp52
 70
     0
102
RTVSPropertyOp53
 70
     1
102
RTVSPropertyOp54
 70
     1
102
RTVSPropertyOp55
 70
     1
102
RTVSPropertyOp56
 70
     1
102
RTVSPropertyOp57
 70
     1
102
RTVSPropertyOp58
 70
     1
102
RTVSPropertyOp59
 70
     1
102
RTVSPropertyOp60
 70
     1
102
RTVSPropertyOp61
 70
     1
102
RTVSPropertyOp62
 70
     1
  0
XRECORD
  5
8B1
102
{ACAD_REACTORS
330
8B0
102
}
330
8B0
100
AcDbXrecord
280
     1
102
RTVSPost2010Prop28
280
     0
102
RTVSPost2010PropOp28
 70
     1
102
RTVSPost2010Prop29
280
     1
102
RTVSPost2010PropOp29
 70
     1
102
RTVSPost2010Prop30
280
     1
102
RTVSPost2010PropOp30
 70
     1
102
RTVSPost2010Prop31
280
     0
102
RTVSPost2010PropOp31
 70
     1
102
RTVSPost2010Prop32
280
     0
102
RTVSPost2010PropOp32
 70
     1
102
RTVSPost2010Prop33
280
     0
102
RTVSPost2010PropOp33
 70
     1
102
RTVSPost2010Prop34
280
     0
102
RTVSPost2010PropOp34
 70
     1
102
RTVSPost2010Prop35
280
     0
102
RTVSPost2010PropOp35
 70
     1
102
RTVSPost2010Prop36
280
     0
102
RTVSPost2010PropOp36
 70
     1
102
RTVSPost2010Prop37
 90
       50
102
RTVSPost2010PropOp37
 70
     1
102
RTVSPost2010Prop38
140
0.0
102
RTVSPost2010PropOp38
 70
     1
102
RTVSPost2010Prop39
140
1.0
102
RTVSPost2010PropOp39
 70
     1
102
RTVSPost2010Prop40
 90
        0
102
RTVSPost2010PropOp40
 70
     1
102
RTVSPost2010Prop41ColorIndex
 90
       18
102
RTVSPost2010Prop41ColorRGB
 90
        0
102
RTVSPost2010PropOp41
 70
     1
102
RTVSPost2010Prop42
 90
       50
102
RTVSPost2010PropOp42
 70
     1
102
RTVSPost2010Prop43
 90
        3
102
RTVSPost2010PropOp43
 70
     1
102
RTVSPost2010Prop44ColorIndex
 90
        5
102
RTVSPost2010Prop44ColorRGB
 90
      255
102
RTVSPost2010PropOp44
 70
     1
102
RTVSPost2010Prop45
280
     0
102
RTVSPost2010PropOp45
 70
     1
102
RTVSPost2010Prop46
 90
       50
102
RTVSPost2010PropOp46
 70
     1
102
RTVSPost2010Prop47
 90
       50
102
RTVSPost2010PropOp47
 70
     1
102
RTVSPost2010Prop48
 90
       50
102
RTVSPost2010PropOp48
 70
     1
102
RTVSPost2010Prop49
280
     0
102
RTVSPost2010PropOp49
 70
     1
102
RTVSPost2010Prop50
 90
       50
102
RTVSPost2010PropOp50
 70
     1
102
RTVSPost2010Prop51ColorIndex
 90
      256
102
RTVSPost2010Prop51ColorRGB
 90
-16777216
102
RTVSPost2010PropOp51
 70
     0
102
RTVSPost2010Prop52
140
1.0
102
RTVSPost2010PropOp52
 70
     0
102
RTVSPost2010Prop53
 90
        2
102
RTVSPost2010PropOp53
 70
     1
102
RTVSPost2010Prop54
  1
strokes_ogs.tif
102
RTVSPost2010PropOp54
 70
     1
102
RTVSPost2010Prop55
280
     0
102
RTVSPost2010PropOp55
 70
     1
102
RTVSPost2010Prop56
140
1.0
102
RTVSPost2010PropOp56
 70
     1
102
RTVSPost2010Prop57
140
1.0
102
RTVSPost2010PropOp57
 70
     1
102
RTVSPropertyOp0
 70
     1
102
RTVSPropertyOp1
 70
     1
102
RTVSPropertyOp2
 70
     1
102
RTVSPropertyOp3
 70
     1
102
RTVSPropertyOp4
 70
     1
102
RTVSPropertyOp5
 70
     1
102
RTVSPropertyOp6
 70
     1
102
RTVSPropertyOp7
 70
     1
102
RTVSPropertyOp8
 70
     1
102
RTVSPropertyOp9
 70
     1
102
RTVSPropertyOp10
 70
     1
102
RTVSPropertyOp11
 70
     1
102
RTVSPropertyOp12
 70
     1
102
RTVSPropertyOp13
 70
     1
102
RTVSPropertyOp14
 70
     1
102
RTVSPropertyOp15
 70
     1
102
RTVSPropertyOp16
 70
     1
102
RTVSPropertyOp17
 70
     1
102
RTVSPropertyOp18
 70
     1
102
RTVSPropertyOp19
 70
     1
102
RTVSPropertyOp20
 70
     1
102
RTVSPropertyOp21
 70
     1
102
RTVSPropertyOp22
 70
     1
102
RTVSPropertyOp23
 70
     1
102
RTVSPropertyOp24
 70
     1
102
RTVSPropertyOp25
 70
     1
102
RTVSPropertyOp26
 70
     1
102
RTVSPropertyOp27
 70
     1
102
RTVSPropertyOp28
 70
     1
102
RTVSPropertyOp29
 70
     1
102
RTVSPropertyOp30
 70
     1
102
RTVSPropertyOp31
 70
     1
102
RTVSPropertyOp32
 70
     1
102
RTVSPropertyOp33
 70
     1
102
RTVSPropertyOp34
 70
     1
102
RTVSPropertyOp35
 70
     1
102
RTVSPropertyOp36
 70
     1
102
RTVSPropertyOp37
 70
     1
102
RTVSPropertyOp38
 70
     1
102
RTVSPropertyOp39
 70
     1
102
RTVSPropertyOp40
 70
     1
102
RTVSPropertyOp41
 70
     1
102
RTVSPropertyOp42
 70
     1
102
RTVSPropertyOp43
 70
     1
102
RTVSPropertyOp44
 70
     1
102
RTVSPropertyOp45
 70
     1
102
RTVSPropertyOp46
 70
     1
102
RTVSPropertyOp47
 70
     1
102
RTVSPropertyOp48
 70
     1
102
RTVSPropertyOp49
 70
     1
102
RTVSPropertyOp50
 70
     1
102
RTVSPropertyOp51
 70
     0
102
RTVSPropertyOp52
 70
     0
102
RTVSPropertyOp53
 70
     1
102
RTVSPropertyOp54
 70
     1
102
RTVSPropertyOp55
 70
     1
102
RTVSPropertyOp56
 70
     1
102
RTVSPropertyOp57
 70
     1
102
RTVSPropertyOp58
 70
     1
102
RTVSPropertyOp59
 70
     1
102
RTVSPropertyOp60
 70
     1
102
RTVSPropertyOp61
 70
     1
102
RTVSPropertyOp62
 70
     1
  0
XRECORD
  5
8B5
102
{ACAD_REACTORS
330
8B4
102
}
330
8B4
100
AcDbXrecord
280
     1
102
RTVSPost2010Prop28
280
     0
102
RTVSPost2010PropOp28
 70
     1
102
RTVSPost2010Prop29
280
     1
102
RTVSPost2010PropOp29
 70
     1
102
RTVSPost2010Prop30
280
     1
102
RTVSPost2010PropOp30
 70
     1
102
RTVSPost2010Prop31
280
     0
102
RTVSPost2010PropOp31
 70
     1
102
RTVSPost2010Prop32
280
     0
102
RTVSPost2010PropOp32
 70
     1
102
RTVSPost2010Prop33
280
     0
102
RTVSPost2010PropOp33
 70
     1
102
RTVSPost2010Prop34
280
     0
102
RTVSPost2010PropOp34
 70
     1
102
RTVSPost2010Prop35
280
     0
102
RTVSPost2010PropOp35
 70
     1
102
RTVSPost2010Prop36
280
     0
102
RTVSPost2010PropOp36
 70
     1
102
RTVSPost2010Prop37
 90
       50
102
RTVSPost2010PropOp37
 70
     1
102
RTVSPost2010Prop38
140
0.0
102
RTVSPost2010PropOp38
 70
     1
102
RTVSPost2010Prop39
140
1.0
102
RTVSPost2010PropOp39
 70
     1
102
RTVSPost2010Prop40
 90
        0
102
RTVSPost2010PropOp40
 70
     1
102
RTVSPost2010Prop41ColorIndex
 90
       18
102
RTVSPost2010Prop41ColorRGB
 90
        0
102
RTVSPost2010PropOp41
 70
     1
102
RTVSPost2010Prop42
 90
       50
102
RTVSPost2010PropOp42
 70
     1
102
RTVSPost2010Prop43
 90
        3
102
RTVSPost2010PropOp43
 70
     1
102
RTVSPost2010Prop44ColorIndex
 90
        5
102
RTVSPost2010Prop44ColorRGB
 90
      255
102
RTVSPost2010PropOp44
 70
     1
102
RTVSPost2010Prop45
280
     0
102
RTVSPost2010PropOp45
 70
     1
102
RTVSPost2010Prop46
 90
       50
102
RTVSPost2010PropOp46
 70
     1
102
RTVSPost2010Prop47
 90
       50
102
RTVSPost2010PropOp47
 70
     1
102
RTVSPost2010Prop48
 90
       50
102
RTVSPost2010PropOp48
 70
     1
102
RTVSPost2010Prop49
280
     0
102
RTVSPost2010PropOp49
 70
     1
102
RTVSPost2010Prop50
 90
       50
102
RTVSPost2010PropOp50
 70
     1
102
RTVSPost2010Prop51ColorIndex
 90
      256
102
RTVSPost2010Prop51ColorRGB
 90
-16777216
102
RTVSPost2010PropOp51
 70
     0
102
RTVSPost2010Prop52
140
1.0
102
RTVSPost2010PropOp52
 70
     0
102
RTVSPost2010Prop53
 90
        2
102
RTVSPost2010PropOp53
 70
     1
102
RTVSPost2010Prop54
  1
strokes_ogs.tif
102
RTVSPost2010PropOp54
 70
     1
102
RTVSPost2010Prop55
280
     0
102
RTVSPost2010PropOp55
 70
     1
102
RTVSPost2010Prop56
140
1.0
102
RTVSPost2010PropOp56
 70
     1
102
RTVSPost2010Prop57
140
1.0
102
RTVSPost2010PropOp57
 70
     1
102
RTVSPropertyOp0
 70
     1
102
RTVSPropertyOp1
 70
     1
102
RTVSPropertyOp2
 70
     1
102
RTVSPropertyOp3
 70
     1
102
RTVSPropertyOp4
 70
     1
102
RTVSPropertyOp5
 70
     1
102
RTVSPropertyOp6
 70
     1
102
RTVSPropertyOp7
 70
     1
102
RTVSPropertyOp8
 70
     1
102
RTVSPropertyOp9
 70
     1
102
RTVSPropertyOp10
 70
     1
102
RTVSPropertyOp11
 70
     1
102
RTVSPropertyOp12
 70
     1
102
RTVSPropertyOp13
 70
     1
102
RTVSPropertyOp14
 70
     1
102
RTVSPropertyOp15
 70
     1
102
RTVSPropertyOp16
 70
     1
102
RTVSPropertyOp17
 70
     1
102
RTVSPropertyOp18
 70
     1
102
RTVSPropertyOp19
 70
     1
102
RTVSPropertyOp20
 70
     1
102
RTVSPropertyOp21
 70
     1
102
RTVSPropertyOp22
 70
     1
102
RTVSPropertyOp23
 70
     1
102
RTVSPropertyOp24
 70
     1
102
RTVSPropertyOp25
 70
     1
102
RTVSPropertyOp26
 70
     1
102
RTVSPropertyOp27
 70
     1
102
RTVSPropertyOp28
 70
     1
102
RTVSPropertyOp29
 70
     1
102
RTVSPropertyOp30
 70
     1
102
RTVSPropertyOp31
 70
     1
102
RTVSPropertyOp32
 70
     1
102
RTVSPropertyOp33
 70
     1
102
RTVSPropertyOp34
 70
     1
102
RTVSPropertyOp35
 70
     1
102
RTVSPropertyOp36
 70
     1
102
RTVSPropertyOp37
 70
     1
102
RTVSPropertyOp38
 70
     1
102
RTVSPropertyOp39
 70
     1
102
RTVSPropertyOp40
 70
     1
102
RTVSPropertyOp41
 70
     1
102
RTVSPropertyOp42
 70
     1
102
RTVSPropertyOp43
 70
     1
102
RTVSPropertyOp44
 70
     1
102
RTVSPropertyOp45
 70
     1
102
RTVSPropertyOp46
 70
     1
102
RTVSPropertyOp47
 70
     1
102
RTVSPropertyOp48
 70
     1
102
RTVSPropertyOp49
 70
     1
102
RTVSPropertyOp50
 70
     1
102
RTVSPropertyOp51
 70
     0
102
RTVSPropertyOp52
 70
     0
102
RTVSPropertyOp53
 70
     1
102
RTVSPropertyOp54
 70
     1
102
RTVSPropertyOp55
 70
     1
102
RTVSPropertyOp56
 70
     1
102
RTVSPropertyOp57
 70
     1
102
RTVSPropertyOp58
 70
     1
102
RTVSPropertyOp59
 70
     1
102
RTVSPropertyOp60
 70
     1
102
RTVSPropertyOp61
 70
     1
102
RTVSPropertyOp62
 70
     1
  0
XRECORD
  5
8D4
102
{ACAD_REACTORS
330
8D3
102
}
330
8D3
100
AcDbXrecord
280
     1
102
RTVSPost2010Prop28
280
     0
102
RTVSPost2010PropOp28
 70
     1
102
RTVSPost2010Prop29
280
     1
102
RTVSPost2010PropOp29
 70
     1
102
RTVSPost2010Prop30
280
     1
102
RTVSPost2010PropOp30
 70
     1
102
RTVSPost2010Prop31
280
     0
102
RTVSPost2010PropOp31
 70
     1
102
RTVSPost2010Prop32
280
     0
102
RTVSPost2010PropOp32
 70
     1
102
RTVSPost2010Prop33
280
     0
102
RTVSPost2010PropOp33
 70
     1
102
RTVSPost2010Prop34
280
     0
102
RTVSPost2010PropOp34
 70
     1
102
RTVSPost2010Prop35
280
     0
102
RTVSPost2010PropOp35
 70
     1
102
RTVSPost2010Prop36
280
     0
102
RTVSPost2010PropOp36
 70
     1
102
RTVSPost2010Prop37
 90
       50
102
RTVSPost2010PropOp37
 70
     0
102
RTVSPost2010Prop38
140
0.0
102
RTVSPost2010PropOp38
 70
     0
102
RTVSPost2010Prop39
140
1.0
102
RTVSPost2010PropOp39
 70
     0
102
RTVSPost2010Prop40
 90
        0
102
RTVSPost2010PropOp40
 70
     0
102
RTVSPost2010Prop41ColorIndex
 90
       18
102
RTVSPost2010Prop41ColorRGB
 90
        0
102
RTVSPost2010PropOp41
 70
     0
102
RTVSPost2010Prop42
 90
       50
102
RTVSPost2010PropOp42
 70
     0
102
RTVSPost2010Prop43
 90
        3
102
RTVSPost2010PropOp43
 70
     0
102
RTVSPost2010Prop44ColorIndex
 90
        5
102
RTVSPost2010Prop44ColorRGB
 90
      255
102
RTVSPost2010PropOp44
 70
     0
102
RTVSPost2010Prop45
280
     0
102
RTVSPost2010PropOp45
 70
     1
102
RTVSPost2010Prop46
 90
       50
102
RTVSPost2010PropOp46
 70
     0
102
RTVSPost2010Prop47
 90
       50
102
RTVSPost2010PropOp47
 70
     0
102
RTVSPost2010Prop48
 90
       50
102
RTVSPost2010PropOp48
 70
     0
102
RTVSPost2010Prop49
280
     0
102
RTVSPost2010PropOp49
 70
     1
102
RTVSPost2010Prop50
 90
       50
102
RTVSPost2010PropOp50
 70
     0
102
RTVSPost2010Prop51ColorIndex
 90
      256
102
RTVSPost2010Prop51ColorRGB
 90
-16777216
102
RTVSPost2010PropOp51
 70
     0
102
RTVSPost2010Prop52
140
1.0
102
RTVSPost2010PropOp52
 70
     0
102
RTVSPost2010Prop53
 90
        2
102
RTVSPost2010PropOp53
 70
     0
102
RTVSPost2010Prop54
  1
strokes_ogs.tif
102
RTVSPost2010PropOp54
 70
     0
102
RTVSPost2010Prop55
280
     0
102
RTVSPost2010PropOp55
 70
     1
102
RTVSPost2010Prop56
140
1.0
102
RTVSPost2010PropOp56
 70
     0
102
RTVSPost2010Prop57
140
1.0
102
RTVSPost2010PropOp57
 70
     0
102
RTVSPropertyOp0
 70
     0
102
RTVSPropertyOp1
 70
     0
102
RTVSPropertyOp2
 70
     0
102
RTVSPropertyOp3
 70
     0
102
RTVSPropertyOp4
 70
     0
102
RTVSPropertyOp5
 70
     0
102
RTVSPropertyOp6
 70
     0
102
RTVSPropertyOp7
 70
     0
102
RTVSPropertyOp8
 70
     0
102
RTVSPropertyOp9
 70
     0
102
RTVSPropertyOp10
 70
     0
102
RTVSPropertyOp11
 70
     0
102
RTVSPropertyOp12
 70
     0
102
RTVSPropertyOp13
 70
     0
102
RTVSPropertyOp14
 70
     2
102
RTVSPropertyOp15
 70
     0
102
RTVSPropertyOp16
 70
     0
102
RTVSPropertyOp17
 70
     0
102
RTVSPropertyOp18
 70
     0
102
RTVSPropertyOp19
 70
     0
102
RTVSPropertyOp20
 70
     0
102
RTVSPropertyOp21
 70
     0
102
RTVSPropertyOp22
 70
     0
102
RTVSPropertyOp23
 70
     0
102
RTVSPropertyOp24
 70
     0
102
RTVSPropertyOp25
 70
     0
102
RTVSPropertyOp26
 70
     0
102
RTVSPropertyOp27
 70
     0
102
RTVSPropertyOp28
 70
     1
102
RTVSPropertyOp29
 70
     1
102
RTVSPropertyOp30
 70
     1
102
RTVSPropertyOp31
 70
     1
102
RTVSPropertyOp32
 70
     1
102
RTVSPropertyOp33
 70
     1
102
RTVSPropertyOp34
 70
     1
102
RTVSPropertyOp35
 70
     1
102
RTVSPropertyOp36
 70
     1
102
RTVSPropertyOp37
 70
     0
102
RTVSPropertyOp38
 70
     0
102
RTVSPropertyOp39
 70
     0
102
RTVSPropertyOp40
 70
     0
102
RTVSPropertyOp41
 70
     0
102
RTVSPropertyOp42
 70
     0
102
RTVSPropertyOp43
 70
     0
102
RTVSPropertyOp44
 70
     0
102
RTVSPropertyOp45
 70
     1
102
RTVSPropertyOp46
 70
     0
102
RTVSPropertyOp47
 70
     0
102
RTVSPropertyOp48
 70
     0
102
RTVSPropertyOp49
 70
     1
102
RTVSPropertyOp50
 70
     0
102
RTVSPropertyOp51
 70
     0
102
RTVSPropertyOp52
 70
     0
102
RTVSPropertyOp53
 70
     0
102
RTVSPropertyOp54
 70
     0
102
RTVSPropertyOp55
 70
     1
102
RTVSPropertyOp56
 70
     0
102
RTVSPropertyOp57
 70
     0
102
RTVSPropertyOp58
 70
     1
102
RTVSPropertyOp59
 70
     1
102
RTVSPropertyOp60
 70
     1
102
RTVSPropertyOp61
 70
     1
102
RTVSPropertyOp62
 70
     1
  0
XRECORD
  5
8BD
102
{ACAD_REACTORS
330
8BC
102
}
330
8BC
100
AcDbXrecord
280
     1
102
RTVSPost2010Prop28
280
     0
102
RTVSPost2010PropOp28
 70
     1
102
RTVSPost2010Prop29
280
     1
102
RTVSPost2010PropOp29
 70
     1
102
RTVSPost2010Prop30
280
     1
102
RTVSPost2010PropOp30
 70
     1
102
RTVSPost2010Prop31
280
     0
102
RTVSPost2010PropOp31
 70
     1
102
RTVSPost2010Prop32
280
     0
102
RTVSPost2010PropOp32
 70
     1
102
RTVSPost2010Prop33
280
     0
102
RTVSPost2010PropOp33
 70
     1
102
RTVSPost2010Prop34
280
     0
102
RTVSPost2010PropOp34
 70
     1
102
RTVSPost2010Prop35
280
     0
102
RTVSPost2010PropOp35
 70
     1
102
RTVSPost2010Prop36
280
     0
102
RTVSPost2010PropOp36
 70
     1
102
RTVSPost2010Prop37
 90
       50
102
RTVSPost2010PropOp37
 70
     1
102
RTVSPost2010Prop38
140
0.0
102
RTVSPost2010PropOp38
 70
     1
102
RTVSPost2010Prop39
140
1.0
102
RTVSPost2010PropOp39
 70
     1
102
RTVSPost2010Prop40
 90
        0
102
RTVSPost2010PropOp40
 70
     1
102
RTVSPost2010Prop41ColorIndex
 90
       18
102
RTVSPost2010Prop41ColorRGB
 90
        0
102
RTVSPost2010PropOp41
 70
     1
102
RTVSPost2010Prop42
 90
       50
102
RTVSPost2010PropOp42
 70
     1
102
RTVSPost2010Prop43
 90
        3
102
RTVSPost2010PropOp43
 70
     1
102
RTVSPost2010Prop44ColorIndex
 90
        5
102
RTVSPost2010Prop44ColorRGB
 90
      255
102
RTVSPost2010PropOp44
 70
     1
102
RTVSPost2010Prop45
280
     0
102
RTVSPost2010PropOp45
 70
     1
102
RTVSPost2010Prop46
 90
       50
102
RTVSPost2010PropOp46
 70
     1
102
RTVSPost2010Prop47
 90
       50
102
RTVSPost2010PropOp47
 70
     1
102
RTVSPost2010Prop48
 90
       50
102
RTVSPost2010PropOp48
 70
     1
102
RTVSPost2010Prop49
280
     0
102
RTVSPost2010PropOp49
 70
     1
102
RTVSPost2010Prop50
 90
       50
102
RTVSPost2010PropOp50
 70
     1
102
RTVSPost2010Prop51ColorIndex
 90
      256
102
RTVSPost2010Prop51ColorRGB
 90
-16777216
102
RTVSPost2010PropOp51
 70
     0
102
RTVSPost2010Prop52
140
1.0
102
RTVSPost2010PropOp52
 70
     0
102
RTVSPost2010Prop53
 90
        2
102
RTVSPost2010PropOp53
 70
     1
102
RTVSPost2010Prop54
  1
strokes_ogs.tif
102
RTVSPost2010PropOp54
 70
     1
102
RTVSPost2010Prop55
280
     0
102
RTVSPost2010PropOp55
 70
     1
102
RTVSPost2010Prop56
140
1.0
102
RTVSPost2010PropOp56
 70
     1
102
RTVSPost2010Prop57
140
1.0
102
RTVSPost2010PropOp57
 70
     1
102
RTVSPropertyOp0
 70
     1
102
RTVSPropertyOp1
 70
     1
102
RTVSPropertyOp2
 70
     1
102
RTVSPropertyOp3
 70
     1
102
RTVSPropertyOp4
 70
     1
102
RTVSPropertyOp5
 70
     1
102
RTVSPropertyOp6
 70
     1
102
RTVSPropertyOp7
 70
     1
102
RTVSPropertyOp8
 70
     1
102
RTVSPropertyOp9
 70
     1
102
RTVSPropertyOp10
 70
     1
102
RTVSPropertyOp11
 70
     1
102
RTVSPropertyOp12
 70
     1
102
RTVSPropertyOp13
 70
     1
102
RTVSPropertyOp14
 70
     1
102
RTVSPropertyOp15
 70
     1
102
RTVSPropertyOp16
 70
     1
102
RTVSPropertyOp17
 70
     1
102
RTVSPropertyOp18
 70
     1
102
RTVSPropertyOp19
 70
     1
102
RTVSPropertyOp20
 70
     1
102
RTVSPropertyOp21
 70
     1
102
RTVSPropertyOp22
 70
     1
102
RTVSPropertyOp23
 70
     1
102
RTVSPropertyOp24
 70
     1
102
RTVSPropertyOp25
 70
     1
102
RTVSPropertyOp26
 70
     1
102
RTVSPropertyOp27
 70
     1
102
RTVSPropertyOp28
 70
     1
102
RTVSPropertyOp29
 70
     1
102
RTVSPropertyOp30
 70
     1
102
RTVSPropertyOp31
 70
     1
102
RTVSPropertyOp32
 70
     1
102
RTVSPropertyOp33
 70
     1
102
RTVSPropertyOp34
 70
     1
102
RTVSPropertyOp35
 70
     1
102
RTVSPropertyOp36
 70
     1
102
RTVSPropertyOp37
 70
     1
102
RTVSPropertyOp38
 70
     1
102
RTVSPropertyOp39
 70
     1
102
RTVSPropertyOp40
 70
     1
102
RTVSPropertyOp41
 70
     1
102
RTVSPropertyOp42
 70
     1
102
RTVSPropertyOp43
 70
     1
102
RTVSPropertyOp44
 70
     1
102
RTVSPropertyOp45
 70
     1
102
RTVSPropertyOp46
 70
     1
102
RTVSPropertyOp47
 70
     1
102
RTVSPropertyOp48
 70
     1
102
RTVSPropertyOp49
 70
     1
102
RTVSPropertyOp50
 70
     1
102
RTVSPropertyOp51
 70
     0
102
RTVSPropertyOp52
 70
     0
102
RTVSPropertyOp53
 70
     1
102
RTVSPropertyOp54
 70
     1
102
RTVSPropertyOp55
 70
     1
102
RTVSPropertyOp56
 70
     1
102
RTVSPropertyOp57
 70
     1
102
RTVSPropertyOp58
 70
     1
102
RTVSPropertyOp59
 70
     1
102
RTVSPropertyOp60
 70
     1
102
RTVSPropertyOp61
 70
     1
102
RTVSPropertyOp62
 70
     1
  0
XRECORD
  5
8A1
102
{ACAD_REACTORS
330
8A0
102
}
330
8A0
100
AcDbXrecord
280
     1
102
RTVSPost2010Prop28
280
     0
102
RTVSPost2010PropOp28
 70
     1
102
RTVSPost2010Prop29
280
     1
102
RTVSPost2010PropOp29
 70
     1
102
RTVSPost2010Prop30
280
     1
102
RTVSPost2010PropOp30
 70
     1
102
RTVSPost2010Prop31
280
     0
102
RTVSPost2010PropOp31
 70
     1
102
RTVSPost2010Prop32
280
     0
102
RTVSPost2010PropOp32
 70
     1
102
RTVSPost2010Prop33
280
     0
102
RTVSPost2010PropOp33
 70
     1
102
RTVSPost2010Prop34
280
     0
102
RTVSPost2010PropOp34
 70
     1
102
RTVSPost2010Prop35
280
     0
102
RTVSPost2010PropOp35
 70
     1
102
RTVSPost2010Prop36
280
     0
102
RTVSPost2010PropOp36
 70
     1
102
RTVSPost2010Prop37
 90
       50
102
RTVSPost2010PropOp37
 70
     1
102
RTVSPost2010Prop38
140
0.0
102
RTVSPost2010PropOp38
 70
     1
102
RTVSPost2010Prop39
140
1.0
102
RTVSPost2010PropOp39
 70
     1
102
RTVSPost2010Prop40
 90
        0
102
RTVSPost2010PropOp40
 70
     1
102
RTVSPost2010Prop41ColorIndex
 90
       18
102
RTVSPost2010Prop41ColorRGB
 90
        0
102
RTVSPost2010PropOp41
 70
     1
102
RTVSPost2010Prop42
 90
       50
102
RTVSPost2010PropOp42
 70
     1
102
RTVSPost2010Prop43
 90
        3
102
RTVSPost2010PropOp43
 70
     1
102
RTVSPost2010Prop44ColorIndex
 90
        5
102
RTVSPost2010Prop44ColorRGB
 90
      255
102
RTVSPost2010PropOp44
 70
     1
102
RTVSPost2010Prop45
280
     0
102
RTVSPost2010PropOp45
 70
     1
102
RTVSPost2010Prop46
 90
       50
102
RTVSPost2010PropOp46
 70
     1
102
RTVSPost2010Prop47
 90
       50
102
RTVSPost2010PropOp47
 70
     1
102
RTVSPost2010Prop48
 90
       50
102
RTVSPost2010PropOp48
 70
     1
102
RTVSPost2010Prop49
280
     0
102
RTVSPost2010PropOp49
 70
     1
102
RTVSPost2010Prop50
 90
       50
102
RTVSPost2010PropOp50
 70
     1
102
RTVSPost2010Prop51ColorIndex
 90
      256
102
RTVSPost2010Prop51ColorRGB
 90
-16777216
102
RTVSPost2010PropOp51
 70
     0
102
RTVSPost2010Prop52
140
1.0
102
RTVSPost2010PropOp52
 70
     0
102
RTVSPost2010Prop53
 90
        2
102
RTVSPost2010PropOp53
 70
     1
102
RTVSPost2010Prop54
  1
strokes_ogs.tif
102
RTVSPost2010PropOp54
 70
     1
102
RTVSPost2010Prop55
280
     0
102
RTVSPost2010PropOp55
 70
     1
102
RTVSPost2010Prop56
140
1.0
102
RTVSPost2010PropOp56
 70
     1
102
RTVSPost2010Prop57
140
1.0
102
RTVSPost2010PropOp57
 70
     1
102
RTVSPropertyOp0
 70
     1
102
RTVSPropertyOp1
 70
     1
102
RTVSPropertyOp2
 70
     1
102
RTVSPropertyOp3
 70
     1
102
RTVSPropertyOp4
 70
     1
102
RTVSPropertyOp5
 70
     1
102
RTVSPropertyOp6
 70
     1
102
RTVSPropertyOp7
 70
     1
102
RTVSPropertyOp8
 70
     1
102
RTVSPropertyOp9
 70
     1
102
RTVSPropertyOp10
 70
     1
102
RTVSPropertyOp11
 70
     1
102
RTVSPropertyOp12
 70
     1
102
RTVSPropertyOp13
 70
     1
102
RTVSPropertyOp14
 70
     1
102
RTVSPropertyOp15
 70
     1
102
RTVSPropertyOp16
 70
     1
102
RTVSPropertyOp17
 70
     1
102
RTVSPropertyOp18
 70
     1
102
RTVSPropertyOp19
 70
     1
102
RTVSPropertyOp20
 70
     1
102
RTVSPropertyOp21
 70
     1
102
RTVSPropertyOp22
 70
     1
102
RTVSPropertyOp23
 70
     1
102
RTVSPropertyOp24
 70
     1
102
RTVSPropertyOp25
 70
     1
102
RTVSPropertyOp26
 70
     1
102
RTVSPropertyOp27
 70
     1
102
RTVSPropertyOp28
 70
     1
102
RTVSPropertyOp29
 70
     1
102
RTVSPropertyOp30
 70
     1
102
RTVSPropertyOp31
 70
     1
102
RTVSPropertyOp32
 70
     1
102
RTVSPropertyOp33
 70
     1
102
RTVSPropertyOp34
 70
     1
102
RTVSPropertyOp35
 70
     1
102
RTVSPropertyOp36
 70
     1
102
RTVSPropertyOp37
 70
     1
102
RTVSPropertyOp38
 70
     1
102
RTVSPropertyOp39
 70
     1
102
RTVSPropertyOp40
 70
     1
102
RTVSPropertyOp41
 70
     1
102
RTVSPropertyOp42
 70
     1
102
RTVSPropertyOp43
 70
     1
102
RTVSPropertyOp44
 70
     1
102
RTVSPropertyOp45
 70
     1
102
RTVSPropertyOp46
 70
     1
102
RTVSPropertyOp47
 70
     1
102
RTVSPropertyOp48
 70
     1
102
RTVSPropertyOp49
 70
     1
102
RTVSPropertyOp50
 70
     1
102
RTVSPropertyOp51
 70
     0
102
RTVSPropertyOp52
 70
     0
102
RTVSPropertyOp53
 70
     1
102
RTVSPropertyOp54
 70
     1
102
RTVSPropertyOp55
 70
     1
102
RTVSPropertyOp56
 70
     1
102
RTVSPropertyOp57
 70
     1
102
RTVSPropertyOp58
 70
     1
102
RTVSPropertyOp59
 70
     1
102
RTVSPropertyOp60
 70
     1
102
RTVSPropertyOp61
 70
     1
102
RTVSPropertyOp62
 70
     1
  0
XRECORD
  5
8A3
102
{ACAD_REACTORS
330
8A2
102
}
330
8A2
100
AcDbXrecord
280
     1
102
RTVSPost2010Prop28
280
     0
102
RTVSPost2010PropOp28
 70
     1
102
RTVSPost2010Prop29
280
     1
102
RTVSPost2010PropOp29
 70
     1
102
RTVSPost2010Prop30
280
     1
102
RTVSPost2010PropOp30
 70
     1
102
RTVSPost2010Prop31
280
     0
102
RTVSPost2010PropOp31
 70
     1
102
RTVSPost2010Prop32
280
     0
102
RTVSPost2010PropOp32
 70
     1
102
RTVSPost2010Prop33
280
     0
102
RTVSPost2010PropOp33
 70
     1
102
RTVSPost2010Prop34
280
     0
102
RTVSPost2010PropOp34
 70
     1
102
RTVSPost2010Prop35
280
     0
102
RTVSPost2010PropOp35
 70
     1
102
RTVSPost2010Prop36
280
     0
102
RTVSPost2010PropOp36
 70
     1
102
RTVSPost2010Prop37
 90
       50
102
RTVSPost2010PropOp37
 70
     1
102
RTVSPost2010Prop38
140
0.0
102
RTVSPost2010PropOp38
 70
     1
102
RTVSPost2010Prop39
140
1.0
102
RTVSPost2010PropOp39
 70
     1
102
RTVSPost2010Prop40
 90
        0
102
RTVSPost2010PropOp40
 70
     1
102
RTVSPost2010Prop41ColorIndex
 90
       18
102
RTVSPost2010Prop41ColorRGB
 90
        0
102
RTVSPost2010PropOp41
 70
     1
102
RTVSPost2010Prop42
 90
       50
102
RTVSPost2010PropOp42
 70
     1
102
RTVSPost2010Prop43
 90
        3
102
RTVSPost2010PropOp43
 70
     1
102
RTVSPost2010Prop44ColorIndex
 90
        5
102
RTVSPost2010Prop44ColorRGB
 90
      255
102
RTVSPost2010PropOp44
 70
     1
102
RTVSPost2010Prop45
280
     0
102
RTVSPost2010PropOp45
 70
     1
102
RTVSPost2010Prop46
 90
       50
102
RTVSPost2010PropOp46
 70
     1
102
RTVSPost2010Prop47
 90
       50
102
RTVSPost2010PropOp47
 70
     1
102
RTVSPost2010Prop48
 90
       50
102
RTVSPost2010PropOp48
 70
     1
102
RTVSPost2010Prop49
280
     0
102
RTVSPost2010PropOp49
 70
     1
102
RTVSPost2010Prop50
 90
       50
102
RTVSPost2010PropOp50
 70
     1
102
RTVSPost2010Prop51ColorIndex
 90
      256
102
RTVSPost2010Prop51ColorRGB
 90
-16777216
102
RTVSPost2010PropOp51
 70
     0
102
RTVSPost2010Prop52
140
1.0
102
RTVSPost2010PropOp52
 70
     0
102
RTVSPost2010Prop53
 90
        2
102
RTVSPost2010PropOp53
 70
     1
102
RTVSPost2010Prop54
  1
strokes_ogs.tif
102
RTVSPost2010PropOp54
 70
     1
102
RTVSPost2010Prop55
280
     0
102
RTVSPost2010PropOp55
 70
     1
102
RTVSPost2010Prop56
140
1.0
102
RTVSPost2010PropOp56
 70
     1
102
RTVSPost2010Prop57
140
1.0
102
RTVSPost2010PropOp57
 70
     1
102
RTVSPropertyOp0
 70
     1
102
RTVSPropertyOp1
 70
     1
102
RTVSPropertyOp2
 70
     1
102
RTVSPropertyOp3
 70
     1
102
RTVSPropertyOp4
 70
     1
102
RTVSPropertyOp5
 70
     1
102
RTVSPropertyOp6
 70
     1
102
RTVSPropertyOp7
 70
     1
102
RTVSPropertyOp8
 70
     1
102
RTVSPropertyOp9
 70
     1
102
RTVSPropertyOp10
 70
     1
102
RTVSPropertyOp11
 70
     1
102
RTVSPropertyOp12
 70
     1
102
RTVSPropertyOp13
 70
     1
102
RTVSPropertyOp14
 70
     1
102
RTVSPropertyOp15
 70
     1
102
RTVSPropertyOp16
 70
     1
102
RTVSPropertyOp17
 70
     1
102
RTVSPropertyOp18
 70
     1
102
RTVSPropertyOp19
 70
     1
102
RTVSPropertyOp20
 70
     1
102
RTVSPropertyOp21
 70
     1
102
RTVSPropertyOp22
 70
     1
102
RTVSPropertyOp23
 70
     1
102
RTVSPropertyOp24
 70
     1
102
RTVSPropertyOp25
 70
     1
102
RTVSPropertyOp26
 70
     1
102
RTVSPropertyOp27
 70
     1
102
RTVSPropertyOp28
 70
     1
102
RTVSPropertyOp29
 70
     1
102
RTVSPropertyOp30
 70
     1
102
RTVSPropertyOp31
 70
     1
102
RTVSPropertyOp32
 70
     1
102
RTVSPropertyOp33
 70
     1
102
RTVSPropertyOp34
 70
     1
102
RTVSPropertyOp35
 70
     1
102
RTVSPropertyOp36
 70
     1
102
RTVSPropertyOp37
 70
     1
102
RTVSPropertyOp38
 70
     1
102
RTVSPropertyOp39
 70
     1
102
RTVSPropertyOp40
 70
     1
102
RTVSPropertyOp41
 70
     1
102
RTVSPropertyOp42
 70
     1
102
RTVSPropertyOp43
 70
     1
102
RTVSPropertyOp44
 70
     1
102
RTVSPropertyOp45
 70
     1
102
RTVSPropertyOp46
 70
     1
102
RTVSPropertyOp47
 70
     1
102
RTVSPropertyOp48
 70
     1
102
RTVSPropertyOp49
 70
     1
102
RTVSPropertyOp50
 70
     1
102
RTVSPropertyOp51
 70
     0
102
RTVSPropertyOp52
 70
     0
102
RTVSPropertyOp53
 70
     1
102
RTVSPropertyOp54
 70
     1
102
RTVSPropertyOp55
 70
     1
102
RTVSPropertyOp56
 70
     1
102
RTVSPropertyOp57
 70
     1
102
RTVSPropertyOp58
 70
     1
102
RTVSPropertyOp59
 70
     1
102
RTVSPropertyOp60
 70
     1
102
RTVSPropertyOp61
 70
     1
102
RTVSPropertyOp62
 70
     1
  0
XRECORD
  5
8A5
102
{ACAD_REACTORS
330
8A4
102
}
330
8A4
100
AcDbXrecord
280
     1
102
RTVSPost2010Prop28
280
     0
102
RTVSPost2010PropOp28
 70
     1
102
RTVSPost2010Prop29
280
     1
102
RTVSPost2010PropOp29
 70
     1
102
RTVSPost2010Prop30
280
     1
102
RTVSPost2010PropOp30
 70
     1
102
RTVSPost2010Prop31
280
     0
102
RTVSPost2010PropOp31
 70
     1
102
RTVSPost2010Prop32
280
     0
102
RTVSPost2010PropOp32
 70
     1
102
RTVSPost2010Prop33
280
     0
102
RTVSPost2010PropOp33
 70
     1
102
RTVSPost2010Prop34
280
     0
102
RTVSPost2010PropOp34
 70
     1
102
RTVSPost2010Prop35
280
     0
102
RTVSPost2010PropOp35
 70
     1
102
RTVSPost2010Prop36
280
     0
102
RTVSPost2010PropOp36
 70
     1
102
RTVSPost2010Prop37
 90
       50
102
RTVSPost2010PropOp37
 70
     1
102
RTVSPost2010Prop38
140
0.0
102
RTVSPost2010PropOp38
 70
     1
102
RTVSPost2010Prop39
140
1.0
102
RTVSPost2010PropOp39
 70
     1
102
RTVSPost2010Prop40
 90
        0
102
RTVSPost2010PropOp40
 70
     1
102
RTVSPost2010Prop41ColorIndex
 90
       18
102
RTVSPost2010Prop41ColorRGB
 90
        0
102
RTVSPost2010PropOp41
 70
     1
102
RTVSPost2010Prop42
 90
       50
102
RTVSPost2010PropOp42
 70
     1
102
RTVSPost2010Prop43
 90
        3
102
RTVSPost2010PropOp43
 70
     1
102
RTVSPost2010Prop44ColorIndex
 90
        5
102
RTVSPost2010Prop44ColorRGB
 90
      255
102
RTVSPost2010PropOp44
 70
     1
102
RTVSPost2010Prop45
280
     0
102
RTVSPost2010PropOp45
 70
     1
102
RTVSPost2010Prop46
 90
       50
102
RTVSPost2010PropOp46
 70
     1
102
RTVSPost2010Prop47
 90
       50
102
RTVSPost2010PropOp47
 70
     1
102
RTVSPost2010Prop48
 90
       50
102
RTVSPost2010PropOp48
 70
     1
102
RTVSPost2010Prop49
280
     0
102
RTVSPost2010PropOp49
 70
     1
102
RTVSPost2010Prop50
 90
       50
102
RTVSPost2010PropOp50
 70
     1
102
RTVSPost2010Prop51ColorIndex
 90
      256
102
RTVSPost2010Prop51ColorRGB
 90
-16777216
102
RTVSPost2010PropOp51
 70
     0
102
RTVSPost2010Prop52
140
1.0
102
RTVSPost2010PropOp52
 70
     0
102
RTVSPost2010Prop53
 90
        2
102
RTVSPost2010PropOp53
 70
     1
102
RTVSPost2010Prop54
  1
strokes_ogs.tif
102
RTVSPost2010PropOp54
 70
     1
102
RTVSPost2010Prop55
280
     0
102
RTVSPost2010PropOp55
 70
     1
102
RTVSPost2010Prop56
140
1.0
102
RTVSPost2010PropOp56
 70
     1
102
RTVSPost2010Prop57
140
1.0
102
RTVSPost2010PropOp57
 70
     1
102
RTVSPropertyOp0
 70
     1
102
RTVSPropertyOp1
 70
     1
102
RTVSPropertyOp2
 70
     1
102
RTVSPropertyOp3
 70
     1
102
RTVSPropertyOp4
 70
     1
102
RTVSPropertyOp5
 70
     1
102
RTVSPropertyOp6
 70
     1
102
RTVSPropertyOp7
 70
     1
102
RTVSPropertyOp8
 70
     1
102
RTVSPropertyOp9
 70
     1
102
RTVSPropertyOp10
 70
     1
102
RTVSPropertyOp11
 70
     1
102
RTVSPropertyOp12
 70
     1
102
RTVSPropertyOp13
 70
     1
102
RTVSPropertyOp14
 70
     1
102
RTVSPropertyOp15
 70
     1
102
RTVSPropertyOp16
 70
     1
102
RTVSPropertyOp17
 70
     1
102
RTVSPropertyOp18
 70
     1
102
RTVSPropertyOp19
 70
     1
102
RTVSPropertyOp20
 70
     1
102
RTVSPropertyOp21
 70
     1
102
RTVSPropertyOp22
 70
     1
102
RTVSPropertyOp23
 70
     1
102
RTVSPropertyOp24
 70
     1
102
RTVSPropertyOp25
 70
     1
102
RTVSPropertyOp26
 70
     1
102
RTVSPropertyOp27
 70
     1
102
RTVSPropertyOp28
 70
     1
102
RTVSPropertyOp29
 70
     1
102
RTVSPropertyOp30
 70
     1
102
RTVSPropertyOp31
 70
     1
102
RTVSPropertyOp32
 70
     1
102
RTVSPropertyOp33
 70
     1
102
RTVSPropertyOp34
 70
     1
102
RTVSPropertyOp35
 70
     1
102
RTVSPropertyOp36
 70
     1
102
RTVSPropertyOp37
 70
     1
102
RTVSPropertyOp38
 70
     1
102
RTVSPropertyOp39
 70
     1
102
RTVSPropertyOp40
 70
     1
102
RTVSPropertyOp41
 70
     1
102
RTVSPropertyOp42
 70
     1
102
RTVSPropertyOp43
 70
     1
102
RTVSPropertyOp44
 70
     1
102
RTVSPropertyOp45
 70
     1
102
RTVSPropertyOp46
 70
     1
102
RTVSPropertyOp47
 70
     1
102
RTVSPropertyOp48
 70
     1
102
RTVSPropertyOp49
 70
     1
102
RTVSPropertyOp50
 70
     1
102
RTVSPropertyOp51
 70
     0
102
RTVSPropertyOp52
 70
     0
102
RTVSPropertyOp53
 70
     1
102
RTVSPropertyOp54
 70
     1
102
RTVSPropertyOp55
 70
     1
102
RTVSPropertyOp56
 70
     1
102
RTVSPropertyOp57
 70
     1
102
RTVSPropertyOp58
 70
     1
102
RTVSPropertyOp59
 70
     1
102
RTVSPropertyOp60
 70
     1
102
RTVSPropertyOp61
 70
     1
102
RTVSPropertyOp62
 70
     1
  0
XRECORD
  5
8A7
102
{ACAD_REACTORS
330
8A6
102
}
330
8A6
100
AcDbXrecord
280
     1
102
RTVSPost2010Prop28
280
     0
102
RTVSPost2010PropOp28
 70
     1
102
RTVSPost2010Prop29
280
     1
102
RTVSPost2010PropOp29
 70
     1
102
RTVSPost2010Prop30
280
     1
102
RTVSPost2010PropOp30
 70
     1
102
RTVSPost2010Prop31
280
     0
102
RTVSPost2010PropOp31
 70
     1
102
RTVSPost2010Prop32
280
     0
102
RTVSPost2010PropOp32
 70
     1
102
RTVSPost2010Prop33
280
     0
102
RTVSPost2010PropOp33
 70
     1
102
RTVSPost2010Prop34
280
     0
102
RTVSPost2010PropOp34
 70
     1
102
RTVSPost2010Prop35
280
     0
102
RTVSPost2010PropOp35
 70
     1
102
RTVSPost2010Prop36
280
     0
102
RTVSPost2010PropOp36
 70
     1
102
RTVSPost2010Prop37
 90
       50
102
RTVSPost2010PropOp37
 70
     1
102
RTVSPost2010Prop38
140
0.0
102
RTVSPost2010PropOp38
 70
     1
102
RTVSPost2010Prop39
140
1.0
102
RTVSPost2010PropOp39
 70
     1
102
RTVSPost2010Prop40
 90
        0
102
RTVSPost2010PropOp40
 70
     1
102
RTVSPost2010Prop41ColorIndex
 90
       18
102
RTVSPost2010Prop41ColorRGB
 90
        0
102
RTVSPost2010PropOp41
 70
     1
102
RTVSPost2010Prop42
 90
       50
102
RTVSPost2010PropOp42
 70
     1
102
RTVSPost2010Prop43
 90
        3
102
RTVSPost2010PropOp43
 70
     1
102
RTVSPost2010Prop44ColorIndex
 90
        5
102
RTVSPost2010Prop44ColorRGB
 90
      255
102
RTVSPost2010PropOp44
 70
     1
102
RTVSPost2010Prop45
280
     0
102
RTVSPost2010PropOp45
 70
     1
102
RTVSPost2010Prop46
 90
       50
102
RTVSPost2010PropOp46
 70
     1
102
RTVSPost2010Prop47
 90
       50
102
RTVSPost2010PropOp47
 70
     1
102
RTVSPost2010Prop48
 90
       50
102
RTVSPost2010PropOp48
 70
     1
102
RTVSPost2010Prop49
280
     0
102
RTVSPost2010PropOp49
 70
     1
102
RTVSPost2010Prop50
 90
       50
102
RTVSPost2010PropOp50
 70
     1
102
RTVSPost2010Prop51ColorIndex
 90
      256
102
RTVSPost2010Prop51ColorRGB
 90
-16777216
102
RTVSPost2010PropOp51
 70
     0
102
RTVSPost2010Prop52
140
1.0
102
RTVSPost2010PropOp52
 70
     0
102
RTVSPost2010Prop53
 90
        2
102
RTVSPost2010PropOp53
 70
     1
102
RTVSPost2010Prop54
  1
strokes_ogs.tif
102
RTVSPost2010PropOp54
 70
     1
102
RTVSPost2010Prop55
280
     0
102
RTVSPost2010PropOp55
 70
     1
102
RTVSPost2010Prop56
140
1.0
102
RTVSPost2010PropOp56
 70
     1
102
RTVSPost2010Prop57
140
1.0
102
RTVSPost2010PropOp57
 70
     1
102
RTVSPropertyOp0
 70
     1
102
RTVSPropertyOp1
 70
     1
102
RTVSPropertyOp2
 70
     1
102
RTVSPropertyOp3
 70
     1
102
RTVSPropertyOp4
 70
     1
102
RTVSPropertyOp5
 70
     1
102
RTVSPropertyOp6
 70
     1
102
RTVSPropertyOp7
 70
     1
102
RTVSPropertyOp8
 70
     1
102
RTVSPropertyOp9
 70
     1
102
RTVSPropertyOp10
 70
     1
102
RTVSPropertyOp11
 70
     1
102
RTVSPropertyOp12
 70
     1
102
RTVSPropertyOp13
 70
     1
102
RTVSPropertyOp14
 70
     1
102
RTVSPropertyOp15
 70
     1
102
RTVSPropertyOp16
 70
     1
102
RTVSPropertyOp17
 70
     1
102
RTVSPropertyOp18
 70
     1
102
RTVSPropertyOp19
 70
     1
102
RTVSPropertyOp20
 70
     1
102
RTVSPropertyOp21
 70
     1
102
RTVSPropertyOp22
 70
     1
102
RTVSPropertyOp23
 70
     1
102
RTVSPropertyOp24
 70
     1
102
RTVSPropertyOp25
 70
     1
102
RTVSPropertyOp26
 70
     1
102
RTVSPropertyOp27
 70
     1
102
RTVSPropertyOp28
 70
     1
102
RTVSPropertyOp29
 70
     1
102
RTVSPropertyOp30
 70
     1
102
RTVSPropertyOp31
 70
     1
102
RTVSPropertyOp32
 70
     1
102
RTVSPropertyOp33
 70
     1
102
RTVSPropertyOp34
 70
     1
102
RTVSPropertyOp35
 70
     1
102
RTVSPropertyOp36
 70
     1
102
RTVSPropertyOp37
 70
     1
102
RTVSPropertyOp38
 70
     1
102
RTVSPropertyOp39
 70
     1
102
RTVSPropertyOp40
 70
     1
102
RTVSPropertyOp41
 70
     1
102
RTVSPropertyOp42
 70
     1
102
RTVSPropertyOp43
 70
     1
102
RTVSPropertyOp44
 70
     1
102
RTVSPropertyOp45
 70
     1
102
RTVSPropertyOp46
 70
     1
102
RTVSPropertyOp47
 70
     1
102
RTVSPropertyOp48
 70
     1
102
RTVSPropertyOp49
 70
     1
102
RTVSPropertyOp50
 70
     1
102
RTVSPropertyOp51
 70
     0
102
RTVSPropertyOp52
 70
     0
102
RTVSPropertyOp53
 70
     1
102
RTVSPropertyOp54
 70
     1
102
RTVSPropertyOp55
 70
     1
102
RTVSPropertyOp56
 70
     1
102
RTVSPropertyOp57
 70
     1
102
RTVSPropertyOp58
 70
     1
102
RTVSPropertyOp59
 70
     1
102
RTVSPropertyOp60
 70
     1
102
RTVSPropertyOp61
 70
     1
102
RTVSPropertyOp62
 70
     1
  0
XRECORD
  5
8C4
102
{ACAD_REACTORS
330
8C3
102
}
330
8C3
100
AcDbXrecord
280
     1
102
RTVSPost2010Prop28
280
     0
102
RTVSPost2010PropOp28
 70
     1
102
RTVSPost2010Prop29
280
     1
102
RTVSPost2010PropOp29
 70
     1
102
RTVSPost2010Prop30
280
     1
102
RTVSPost2010PropOp30
 70
     1
102
RTVSPost2010Prop31
280
     0
102
RTVSPost2010PropOp31
 70
     1
102
RTVSPost2010Prop32
280
     0
102
RTVSPost2010PropOp32
 70
     1
102
RTVSPost2010Prop33
280
     0
102
RTVSPost2010PropOp33
 70
     1
102
RTVSPost2010Prop34
280
     0
102
RTVSPost2010PropOp34
 70
     1
102
RTVSPost2010Prop35
280
     0
102
RTVSPost2010PropOp35
 70
     1
102
RTVSPost2010Prop36
280
     0
102
RTVSPost2010PropOp36
 70
     1
102
RTVSPost2010Prop37
 90
       50
102
RTVSPost2010PropOp37
 70
     1
102
RTVSPost2010Prop38
140
0.0
102
RTVSPost2010PropOp38
 70
     1
102
RTVSPost2010Prop39
140
1.0
102
RTVSPost2010PropOp39
 70
     1
102
RTVSPost2010Prop40
 90
        0
102
RTVSPost2010PropOp40
 70
     1
102
RTVSPost2010Prop41ColorIndex
 90
       18
102
RTVSPost2010Prop41ColorRGB
 90
        0
102
RTVSPost2010PropOp41
 70
     1
102
RTVSPost2010Prop42
 90
       50
102
RTVSPost2010PropOp42
 70
     1
102
RTVSPost2010Prop43
 90
        3
102
RTVSPost2010PropOp43
 70
     1
102
RTVSPost2010Prop44ColorIndex
 90
        5
102
RTVSPost2010Prop44ColorRGB
 90
      255
102
RTVSPost2010PropOp44
 70
     1
102
RTVSPost2010Prop45
280
     0
102
RTVSPost2010PropOp45
 70
     1
102
RTVSPost2010Prop46
 90
       50
102
RTVSPost2010PropOp46
 70
     1
102
RTVSPost2010Prop47
 90
       50
102
RTVSPost2010PropOp47
 70
     1
102
RTVSPost2010Prop48
 90
       50
102
RTVSPost2010PropOp48
 70
     1
102
RTVSPost2010Prop49
280
     0
102
RTVSPost2010PropOp49
 70
     1
102
RTVSPost2010Prop50
 90
       50
102
RTVSPost2010PropOp50
 70
     1
102
RTVSPost2010Prop51ColorIndex
 90
      256
102
RTVSPost2010Prop51ColorRGB
 90
-16777216
102
RTVSPost2010PropOp51
 70
     0
102
RTVSPost2010Prop52
140
1.0
102
RTVSPost2010PropOp52
 70
     0
102
RTVSPost2010Prop53
 90
        2
102
RTVSPost2010PropOp53
 70
     1
102
RTVSPost2010Prop54
  1
strokes_ogs.tif
102
RTVSPost2010PropOp54
 70
     1
102
RTVSPost2010Prop55
280
     0
102
RTVSPost2010PropOp55
 70
     1
102
RTVSPost2010Prop56
140
1.0
102
RTVSPost2010PropOp56
 70
     1
102
RTVSPost2010Prop57
140
1.0
102
RTVSPost2010PropOp57
 70
     1
102
RTVSPropertyOp0
 70
     1
102
RTVSPropertyOp1
 70
     1
102
RTVSPropertyOp2
 70
     1
102
RTVSPropertyOp3
 70
     1
102
RTVSPropertyOp4
 70
     1
102
RTVSPropertyOp5
 70
     1
102
RTVSPropertyOp6
 70
     1
102
RTVSPropertyOp7
 70
     1
102
RTVSPropertyOp8
 70
     1
102
RTVSPropertyOp9
 70
     1
102
RTVSPropertyOp10
 70
     1
102
RTVSPropertyOp11
 70
     1
102
RTVSPropertyOp12
 70
     1
102
RTVSPropertyOp13
 70
     1
102
RTVSPropertyOp14
 70
     1
102
RTVSPropertyOp15
 70
     1
102
RTVSPropertyOp16
 70
     1
102
RTVSPropertyOp17
 70
     1
102
RTVSPropertyOp18
 70
     1
102
RTVSPropertyOp19
 70
     1
102
RTVSPropertyOp20
 70
     1
102
RTVSPropertyOp21
 70
     1
102
RTVSPropertyOp22
 70
     1
102
RTVSPropertyOp23
 70
     1
102
RTVSPropertyOp24
 70
     1
102
RTVSPropertyOp25
 70
     1
102
RTVSPropertyOp26
 70
     1
102
RTVSPropertyOp27
 70
     1
102
RTVSPropertyOp28
 70
     1
102
RTVSPropertyOp29
 70
     1
102
RTVSPropertyOp30
 70
     1
102
RTVSPropertyOp31
 70
     1
102
RTVSPropertyOp32
 70
     1
102
RTVSPropertyOp33
 70
     1
102
RTVSPropertyOp34
 70
     1
102
RTVSPropertyOp35
 70
     1
102
RTVSPropertyOp36
 70
     1
102
RTVSPropertyOp37
 70
     1
102
RTVSPropertyOp38
 70
     1
102
RTVSPropertyOp39
 70
     1
102
RTVSPropertyOp40
 70
     1
102
RTVSPropertyOp41
 70
     1
102
RTVSPropertyOp42
 70
     1
102
RTVSPropertyOp43
 70
     1
102
RTVSPropertyOp44
 70
     1
102
RTVSPropertyOp45
 70
     1
102
RTVSPropertyOp46
 70
     1
102
RTVSPropertyOp47
 70
     1
102
RTVSPropertyOp48
 70
     1
102
RTVSPropertyOp49
 70
     1
102
RTVSPropertyOp50
 70
     1
102
RTVSPropertyOp51
 70
     0
102
RTVSPropertyOp52
 70
     0
102
RTVSPropertyOp53
 70
     1
102
RTVSPropertyOp54
 70
     1
102
RTVSPropertyOp55
 70
     1
102
RTVSPropertyOp56
 70
     1
102
RTVSPropertyOp57
 70
     1
102
RTVSPropertyOp58
 70
     1
102
RTVSPropertyOp59
 70
     1
102
RTVSPropertyOp60
 70
     1
102
RTVSPropertyOp61
 70
     1
102
RTVSPropertyOp62
 70
     1
  0
XRECORD
  5
8D0
102
{ACAD_REACTORS
330
8CF
102
}
330
8CF
100
AcDbXrecord
280
     1
102
RTVSPost2010Prop28
280
     0
102
RTVSPost2010PropOp28
 70
     1
102
RTVSPost2010Prop29
280
     1
102
RTVSPost2010PropOp29
 70
     1
102
RTVSPost2010Prop30
280
     1
102
RTVSPost2010PropOp30
 70
     1
102
RTVSPost2010Prop31
280
     0
102
RTVSPost2010PropOp31
 70
     1
102
RTVSPost2010Prop32
280
     0
102
RTVSPost2010PropOp32
 70
     1
102
RTVSPost2010Prop33
280
     0
102
RTVSPost2010PropOp33
 70
     1
102
RTVSPost2010Prop34
280
     0
102
RTVSPost2010PropOp34
 70
     1
102
RTVSPost2010Prop35
280
     0
102
RTVSPost2010PropOp35
 70
     1
102
RTVSPost2010Prop36
280
     0
102
RTVSPost2010PropOp36
 70
     1
102
RTVSPost2010Prop37
 90
       50
102
RTVSPost2010PropOp37
 70
     0
102
RTVSPost2010Prop38
140
0.0
102
RTVSPost2010PropOp38
 70
     0
102
RTVSPost2010Prop39
140
1.0
102
RTVSPost2010PropOp39
 70
     0
102
RTVSPost2010Prop40
 90
        0
102
RTVSPost2010PropOp40
 70
     0
102
RTVSPost2010Prop41ColorIndex
 90
       18
102
RTVSPost2010Prop41ColorRGB
 90
        0
102
RTVSPost2010PropOp41
 70
     0
102
RTVSPost2010Prop42
 90
       50
102
RTVSPost2010PropOp42
 70
     0
102
RTVSPost2010Prop43
 90
        3
102
RTVSPost2010PropOp43
 70
     0
102
RTVSPost2010Prop44ColorIndex
 90
        5
102
RTVSPost2010Prop44ColorRGB
 90
      255
102
RTVSPost2010PropOp44
 70
     0
102
RTVSPost2010Prop45
280
     0
102
RTVSPost2010PropOp45
 70
     1
102
RTVSPost2010Prop46
 90
       50
102
RTVSPost2010PropOp46
 70
     0
102
RTVSPost2010Prop47
 90
       50
102
RTVSPost2010PropOp47
 70
     0
102
RTVSPost2010Prop48
 90
       50
102
RTVSPost2010PropOp48
 70
     0
102
RTVSPost2010Prop49
280
     0
102
RTVSPost2010PropOp49
 70
     1
102
RTVSPost2010Prop50
 90
       50
102
RTVSPost2010PropOp50
 70
     0
102
RTVSPost2010Prop51ColorIndex
 90
      256
102
RTVSPost2010Prop51ColorRGB
 90
-16777216
102
RTVSPost2010PropOp51
 70
     0
102
RTVSPost2010Prop52
140
1.0
102
RTVSPost2010PropOp52
 70
     0
102
RTVSPost2010Prop53
 90
        2
102
RTVSPost2010PropOp53
 70
     0
102
RTVSPost2010Prop54
  1
strokes_ogs.tif
102
RTVSPost2010PropOp54
 70
     0
102
RTVSPost2010Prop55
280
     0
102
RTVSPost2010PropOp55
 70
     1
102
RTVSPost2010Prop56
140
1.0
102
RTVSPost2010PropOp56
 70
     0
102
RTVSPost2010Prop57
140
1.0
102
RTVSPost2010PropOp57
 70
     0
102
RTVSPropertyOp0
 70
     0
102
RTVSPropertyOp1
 70
     0
102
RTVSPropertyOp2
 70
     0
102
RTVSPropertyOp3
 70
     0
102
RTVSPropertyOp4
 70
     0
102
RTVSPropertyOp5
 70
     0
102
RTVSPropertyOp6
 70
     0
102
RTVSPropertyOp7
 70
     0
102
RTVSPropertyOp8
 70
     0
102
RTVSPropertyOp9
 70
     0
102
RTVSPropertyOp10
 70
     0
102
RTVSPropertyOp11
 70
     0
102
RTVSPropertyOp12
 70
     0
102
RTVSPropertyOp13
 70
     0
102
RTVSPropertyOp14
 70
     2
102
RTVSPropertyOp15
 70
     0
102
RTVSPropertyOp16
 70
     0
102
RTVSPropertyOp17
 70
     0
102
RTVSPropertyOp18
 70
     0
102
RTVSPropertyOp19
 70
     0
102
RTVSPropertyOp20
 70
     0
102
RTVSPropertyOp21
 70
     0
102
RTVSPropertyOp22
 70
     0
102
RTVSPropertyOp23
 70
     0
102
RTVSPropertyOp24
 70
     0
102
RTVSPropertyOp25
 70
     0
102
RTVSPropertyOp26
 70
     0
102
RTVSPropertyOp27
 70
     0
102
RTVSPropertyOp28
 70
     1
102
RTVSPropertyOp29
 70
     1
102
RTVSPropertyOp30
 70
     1
102
RTVSPropertyOp31
 70
     1
102
RTVSPropertyOp32
 70
     1
102
RTVSPropertyOp33
 70
     1
102
RTVSPropertyOp34
 70
     1
102
RTVSPropertyOp35
 70
     1
102
RTVSPropertyOp36
 70
     1
102
RTVSPropertyOp37
 70
     0
102
RTVSPropertyOp38
 70
     0
102
RTVSPropertyOp39
 70
     0
102
RTVSPropertyOp40
 70
     0
102
RTVSPropertyOp41
 70
     0
102
RTVSPropertyOp42
 70
     0
102
RTVSPropertyOp43
 70
     0
102
RTVSPropertyOp44
 70
     0
102
RTVSPropertyOp45
 70
     1
102
RTVSPropertyOp46
 70
     0
102
RTVSPropertyOp47
 70
     0
102
RTVSPropertyOp48
 70
     0
102
RTVSPropertyOp49
 70
     1
102
RTVSPropertyOp50
 70
     0
102
RTVSPropertyOp51
 70
     0
102
RTVSPropertyOp52
 70
     0
102
RTVSPropertyOp53
 70
     0
102
RTVSPropertyOp54
 70
     0
102
RTVSPropertyOp55
 70
     1
102
RTVSPropertyOp56
 70
     0
102
RTVSPropertyOp57
 70
     0
102
RTVSPropertyOp58
 70
     1
102
RTVSPropertyOp59
 70
     1
102
RTVSPropertyOp60
 70
     1
102
RTVSPropertyOp61
 70
     1
102
RTVSPropertyOp62
 70
     1
  0
XRECORD
  5
8BB
102
{ACAD_REACTORS
330
8BA
102
}
330
8BA
100
AcDbXrecord
280
     1
102
RTVSPost2010Prop28
280
     0
102
RTVSPost2010PropOp28
 70
     1
102
RTVSPost2010Prop29
280
     1
102
RTVSPost2010PropOp29
 70
     1
102
RTVSPost2010Prop30
280
     1
102
RTVSPost2010PropOp30
 70
     1
102
RTVSPost2010Prop31
280
     0
102
RTVSPost2010PropOp31
 70
     1
102
RTVSPost2010Prop32
280
     0
102
RTVSPost2010PropOp32
 70
     1
102
RTVSPost2010Prop33
280
     0
102
RTVSPost2010PropOp33
 70
     1
102
RTVSPost2010Prop34
280
     0
102
RTVSPost2010PropOp34
 70
     1
102
RTVSPost2010Prop35
280
     0
102
RTVSPost2010PropOp35
 70
     1
102
RTVSPost2010Prop36
280
     0
102
RTVSPost2010PropOp36
 70
     1
102
RTVSPost2010Prop37
 90
       50
102
RTVSPost2010PropOp37
 70
     1
102
RTVSPost2010Prop38
140
0.0
102
RTVSPost2010PropOp38
 70
     1
102
RTVSPost2010Prop39
140
1.0
102
RTVSPost2010PropOp39
 70
     1
102
RTVSPost2010Prop40
 90
        0
102
RTVSPost2010PropOp40
 70
     1
102
RTVSPost2010Prop41ColorIndex
 90
       18
102
RTVSPost2010Prop41ColorRGB
 90
        0
102
RTVSPost2010PropOp41
 70
     1
102
RTVSPost2010Prop42
 90
       50
102
RTVSPost2010PropOp42
 70
     1
102
RTVSPost2010Prop43
 90
        3
102
RTVSPost2010PropOp43
 70
     1
102
RTVSPost2010Prop44ColorIndex
 90
        5
102
RTVSPost2010Prop44ColorRGB
 90
      255
102
RTVSPost2010PropOp44
 70
     1
102
RTVSPost2010Prop45
280
     0
102
RTVSPost2010PropOp45
 70
     1
102
RTVSPost2010Prop46
 90
       50
102
RTVSPost2010PropOp46
 70
     1
102
RTVSPost2010Prop47
 90
       50
102
RTVSPost2010PropOp47
 70
     1
102
RTVSPost2010Prop48
 90
       50
102
RTVSPost2010PropOp48
 70
     1
102
RTVSPost2010Prop49
280
     0
102
RTVSPost2010PropOp49
 70
     1
102
RTVSPost2010Prop50
 90
       50
102
RTVSPost2010PropOp50
 70
     1
102
RTVSPost2010Prop51ColorIndex
 90
      256
102
RTVSPost2010Prop51ColorRGB
 90
-16777216
102
RTVSPost2010PropOp51
 70
     0
102
RTVSPost2010Prop52
140
1.0
102
RTVSPost2010PropOp52
 70
     0
102
RTVSPost2010Prop53
 90
        2
102
RTVSPost2010PropOp53
 70
     1
102
RTVSPost2010Prop54
  1
strokes_ogs.tif
102
RTVSPost2010PropOp54
 70
     1
102
RTVSPost2010Prop55
280
     0
102
RTVSPost2010PropOp55
 70
     1
102
RTVSPost2010Prop56
140
1.0
102
RTVSPost2010PropOp56
 70
     1
102
RTVSPost2010Prop57
140
1.0
102
RTVSPost2010PropOp57
 70
     1
102
RTVSPropertyOp0
 70
     1
102
RTVSPropertyOp1
 70
     1
102
RTVSPropertyOp2
 70
     1
102
RTVSPropertyOp3
 70
     1
102
RTVSPropertyOp4
 70
     1
102
RTVSPropertyOp5
 70
     1
102
RTVSPropertyOp6
 70
     1
102
RTVSPropertyOp7
 70
     1
102
RTVSPropertyOp8
 70
     1
102
RTVSPropertyOp9
 70
     1
102
RTVSPropertyOp10
 70
     1
102
RTVSPropertyOp11
 70
     1
102
RTVSPropertyOp12
 70
     1
102
RTVSPropertyOp13
 70
     1
102
RTVSPropertyOp14
 70
     1
102
RTVSPropertyOp15
 70
     1
102
RTVSPropertyOp16
 70
     1
102
RTVSPropertyOp17
 70
     1
102
RTVSPropertyOp18
 70
     1
102
RTVSPropertyOp19
 70
     1
102
RTVSPropertyOp20
 70
     1
102
RTVSPropertyOp21
 70
     1
102
RTVSPropertyOp22
 70
     1
102
RTVSPropertyOp23
 70
     1
102
RTVSPropertyOp24
 70
     1
102
RTVSPropertyOp25
 70
     1
102
RTVSPropertyOp26
 70
     1
102
RTVSPropertyOp27
 70
     1
102
RTVSPropertyOp28
 70
     1
102
RTVSPropertyOp29
 70
     1
102
RTVSPropertyOp30
 70
     1
102
RTVSPropertyOp31
 70
     1
102
RTVSPropertyOp32
 70
     1
102
RTVSPropertyOp33
 70
     1
102
RTVSPropertyOp34
 70
     1
102
RTVSPropertyOp35
 70
     1
102
RTVSPropertyOp36
 70
     1
102
RTVSPropertyOp37
 70
     1
102
RTVSPropertyOp38
 70
     1
102
RTVSPropertyOp39
 70
     1
102
RTVSPropertyOp40
 70
     1
102
RTVSPropertyOp41
 70
     1
102
RTVSPropertyOp42
 70
     1
102
RTVSPropertyOp43
 70
     1
102
RTVSPropertyOp44
 70
     1
102
RTVSPropertyOp45
 70
     1
102
RTVSPropertyOp46
 70
     1
102
RTVSPropertyOp47
 70
     1
102
RTVSPropertyOp48
 70
     1
102
RTVSPropertyOp49
 70
     1
102
RTVSPropertyOp50
 70
     1
102
RTVSPropertyOp51
 70
     0
102
RTVSPropertyOp52
 70
     0
102
RTVSPropertyOp53
 70
     1
102
RTVSPropertyOp54
 70
     1
102
RTVSPropertyOp55
 70
     1
102
RTVSPropertyOp56
 70
     1
102
RTVSPropertyOp57
 70
     1
102
RTVSPropertyOp58
 70
     1
102
RTVSPropertyOp59
 70
     1
102
RTVSPropertyOp60
 70
     1
102
RTVSPropertyOp61
 70
     1
102
RTVSPropertyOp62
 70
     1
  0
XRECORD
  5
8D2
102
{ACAD_REACTORS
330
8D1
102
}
330
8D1
100
AcDbXrecord
280
     1
102
RTVSPost2010Prop28
280
     0
102
RTVSPost2010PropOp28
 70
     1
102
RTVSPost2010Prop29
280
     1
102
RTVSPost2010PropOp29
 70
     1
102
RTVSPost2010Prop30
280
     1
102
RTVSPost2010PropOp30
 70
     1
102
RTVSPost2010Prop31
280
     0
102
RTVSPost2010PropOp31
 70
     1
102
RTVSPost2010Prop32
280
     0
102
RTVSPost2010PropOp32
 70
     1
102
RTVSPost2010Prop33
280
     0
102
RTVSPost2010PropOp33
 70
     1
102
RTVSPost2010Prop34
280
     0
102
RTVSPost2010PropOp34
 70
     1
102
RTVSPost2010Prop35
280
     0
102
RTVSPost2010PropOp35
 70
     1
102
RTVSPost2010Prop36
280
     0
102
RTVSPost2010PropOp36
 70
     1
102
RTVSPost2010Prop37
 90
       50
102
RTVSPost2010PropOp37
 70
     0
102
RTVSPost2010Prop38
140
0.0
102
RTVSPost2010PropOp38
 70
     0
102
RTVSPost2010Prop39
140
1.0
102
RTVSPost2010PropOp39
 70
     0
102
RTVSPost2010Prop40
 90
        0
102
RTVSPost2010PropOp40
 70
     0
102
RTVSPost2010Prop41ColorIndex
 90
       18
102
RTVSPost2010Prop41ColorRGB
 90
        0
102
RTVSPost2010PropOp41
 70
     0
102
RTVSPost2010Prop42
 90
       50
102
RTVSPost2010PropOp42
 70
     0
102
RTVSPost2010Prop43
 90
        3
102
RTVSPost2010PropOp43
 70
     0
102
RTVSPost2010Prop44ColorIndex
 90
        5
102
RTVSPost2010Prop44ColorRGB
 90
      255
102
RTVSPost2010PropOp44
 70
     0
102
RTVSPost2010Prop45
280
     0
102
RTVSPost2010PropOp45
 70
     1
102
RTVSPost2010Prop46
 90
       50
102
RTVSPost2010PropOp46
 70
     0
102
RTVSPost2010Prop47
 90
       50
102
RTVSPost2010PropOp47
 70
     0
102
RTVSPost2010Prop48
 90
       50
102
RTVSPost2010PropOp48
 70
     0
102
RTVSPost2010Prop49
280
     0
102
RTVSPost2010PropOp49
 70
     1
102
RTVSPost2010Prop50
 90
       50
102
RTVSPost2010PropOp50
 70
     0
102
RTVSPost2010Prop51ColorIndex
 90
      256
102
RTVSPost2010Prop51ColorRGB
 90
-16777216
102
RTVSPost2010PropOp51
 70
     0
102
RTVSPost2010Prop52
140
1.0
102
RTVSPost2010PropOp52
 70
     0
102
RTVSPost2010Prop53
 90
        2
102
RTVSPost2010PropOp53
 70
     0
102
RTVSPost2010Prop54
  1
strokes_ogs.tif
102
RTVSPost2010PropOp54
 70
     0
102
RTVSPost2010Prop55
280
     0
102
RTVSPost2010PropOp55
 70
     1
102
RTVSPost2010Prop56
140
1.0
102
RTVSPost2010PropOp56
 70
     0
102
RTVSPost2010Prop57
140
1.0
102
RTVSPost2010PropOp57
 70
     0
102
RTVSPropertyOp0
 70
     0
102
RTVSPropertyOp1
 70
     0
102
RTVSPropertyOp2
 70
     0
102
RTVSPropertyOp3
 70
     0
102
RTVSPropertyOp4
 70
     0
102
RTVSPropertyOp5
 70
     0
102
RTVSPropertyOp6
 70
     0
102
RTVSPropertyOp7
 70
     0
102
RTVSPropertyOp8
 70
     0
102
RTVSPropertyOp9
 70
     0
102
RTVSPropertyOp10
 70
     0
102
RTVSPropertyOp11
 70
     0
102
RTVSPropertyOp12
 70
     0
102
RTVSPropertyOp13
 70
     0
102
RTVSPropertyOp14
 70
     2
102
RTVSPropertyOp15
 70
     0
102
RTVSPropertyOp16
 70
     0
102
RTVSPropertyOp17
 70
     0
102
RTVSPropertyOp18
 70
     0
102
RTVSPropertyOp19
 70
     0
102
RTVSPropertyOp20
 70
     0
102
RTVSPropertyOp21
 70
     0
102
RTVSPropertyOp22
 70
     0
102
RTVSPropertyOp23
 70
     0
102
RTVSPropertyOp24
 70
     0
102
RTVSPropertyOp25
 70
     0
102
RTVSPropertyOp26
 70
     0
102
RTVSPropertyOp27
 70
     0
102
RTVSPropertyOp28
 70
     1
102
RTVSPropertyOp29
 70
     1
102
RTVSPropertyOp30
 70
     1
102
RTVSPropertyOp31
 70
     1
102
RTVSPropertyOp32
 70
     1
102
RTVSPropertyOp33
 70
     1
102
RTVSPropertyOp34
 70
     1
102
RTVSPropertyOp35
 70
     1
102
RTVSPropertyOp36
 70
     1
102
RTVSPropertyOp37
 70
     0
102
RTVSPropertyOp38
 70
     0
102
RTVSPropertyOp39
 70
     0
102
RTVSPropertyOp40
 70
     0
102
RTVSPropertyOp41
 70
     0
102
RTVSPropertyOp42
 70
     0
102
RTVSPropertyOp43
 70
     0
102
RTVSPropertyOp44
 70
     0
102
RTVSPropertyOp45
 70
     1
102
RTVSPropertyOp46
 70
     0
102
RTVSPropertyOp47
 70
     0
102
RTVSPropertyOp48
 70
     0
102
RTVSPropertyOp49
 70
     1
102
RTVSPropertyOp50
 70
     0
102
RTVSPropertyOp51
 70
     0
102
RTVSPropertyOp52
 70
     0
102
RTVSPropertyOp53
 70
     0
102
RTVSPropertyOp54
 70
     0
102
RTVSPropertyOp55
 70
     1
102
RTVSPropertyOp56
 70
     0
102
RTVSPropertyOp57
 70
     0
102
RTVSPropertyOp58
 70
     1
102
RTVSPropertyOp59
 70
     1
102
RTVSPropertyOp60
 70
     1
102
RTVSPropertyOp61
 70
     1
102
RTVSPropertyOp62
 70
     1
  0
XRECORD
  5
8B3
102
{ACAD_REACTORS
330
8B2
102
}
330
8B2
100
AcDbXrecord
280
     1
102
RTVSPost2010Prop28
280
     0
102
RTVSPost2010PropOp28
 70
     1
102
RTVSPost2010Prop29
280
     1
102
RTVSPost2010PropOp29
 70
     1
102
RTVSPost2010Prop30
280
     1
102
RTVSPost2010PropOp30
 70
     1
102
RTVSPost2010Prop31
280
     0
102
RTVSPost2010PropOp31
 70
     1
102
RTVSPost2010Prop32
280
     0
102
RTVSPost2010PropOp32
 70
     1
102
RTVSPost2010Prop33
280
     0
102
RTVSPost2010PropOp33
 70
     1
102
RTVSPost2010Prop34
280
     0
102
RTVSPost2010PropOp34
 70
     1
102
RTVSPost2010Prop35
280
     0
102
RTVSPost2010PropOp35
 70
     1
102
RTVSPost2010Prop36
280
     0
102
RTVSPost2010PropOp36
 70
     1
102
RTVSPost2010Prop37
 90
       50
102
RTVSPost2010PropOp37
 70
     1
102
RTVSPost2010Prop38
140
0.0
102
RTVSPost2010PropOp38
 70
     1
102
RTVSPost2010Prop39
140
1.0
102
RTVSPost2010PropOp39
 70
     1
102
RTVSPost2010Prop40
 90
        0
102
RTVSPost2010PropOp40
 70
     1
102
RTVSPost2010Prop41ColorIndex
 90
       18
102
RTVSPost2010Prop41ColorRGB
 90
        0
102
RTVSPost2010PropOp41
 70
     1
102
RTVSPost2010Prop42
 90
       50
102
RTVSPost2010PropOp42
 70
     1
102
RTVSPost2010Prop43
 90
        3
102
RTVSPost2010PropOp43
 70
     1
102
RTVSPost2010Prop44ColorIndex
 90
        5
102
RTVSPost2010Prop44ColorRGB
 90
      255
102
RTVSPost2010PropOp44
 70
     1
102
RTVSPost2010Prop45
280
     0
102
RTVSPost2010PropOp45
 70
     1
102
RTVSPost2010Prop46
 90
       50
102
RTVSPost2010PropOp46
 70
     1
102
RTVSPost2010Prop47
 90
       50
102
RTVSPost2010PropOp47
 70
     1
102
RTVSPost2010Prop48
 90
       50
102
RTVSPost2010PropOp48
 70
     1
102
RTVSPost2010Prop49
280
     0
102
RTVSPost2010PropOp49
 70
     1
102
RTVSPost2010Prop50
 90
       50
102
RTVSPost2010PropOp50
 70
     1
102
RTVSPost2010Prop51ColorIndex
 90
      256
102
RTVSPost2010Prop51ColorRGB
 90
-16777216
102
RTVSPost2010PropOp51
 70
     0
102
RTVSPost2010Prop52
140
1.0
102
RTVSPost2010PropOp52
 70
     0
102
RTVSPost2010Prop53
 90
        2
102
RTVSPost2010PropOp53
 70
     1
102
RTVSPost2010Prop54
  1
strokes_ogs.tif
102
RTVSPost2010PropOp54
 70
     1
102
RTVSPost2010Prop55
280
     0
102
RTVSPost2010PropOp55
 70
     1
102
RTVSPost2010Prop56
140
1.0
102
RTVSPost2010PropOp56
 70
     1
102
RTVSPost2010Prop57
140
1.0
102
RTVSPost2010PropOp57
 70
     1
102
RTVSPropertyOp0
 70
     1
102
RTVSPropertyOp1
 70
     1
102
RTVSPropertyOp2
 70
     1
102
RTVSPropertyOp3
 70
     1
102
RTVSPropertyOp4
 70
     1
102
RTVSPropertyOp5
 70
     1
102
RTVSPropertyOp6
 70
     1
102
RTVSPropertyOp7
 70
     1
102
RTVSPropertyOp8
 70
     1
102
RTVSPropertyOp9
 70
     1
102
RTVSPropertyOp10
 70
     1
102
RTVSPropertyOp11
 70
     1
102
RTVSPropertyOp12
 70
     1
102
RTVSPropertyOp13
 70
     1
102
RTVSPropertyOp14
 70
     1
102
RTVSPropertyOp15
 70
     1
102
RTVSPropertyOp16
 70
     1
102
RTVSPropertyOp17
 70
     1
102
RTVSPropertyOp18
 70
     1
102
RTVSPropertyOp19
 70
     1
102
RTVSPropertyOp20
 70
     1
102
RTVSPropertyOp21
 70
     1
102
RTVSPropertyOp22
 70
     1
102
RTVSPropertyOp23
 70
     1
102
RTVSPropertyOp24
 70
     1
102
RTVSPropertyOp25
 70
     1
102
RTVSPropertyOp26
 70
     1
102
RTVSPropertyOp27
 70
     1
102
RTVSPropertyOp28
 70
     1
102
RTVSPropertyOp29
 70
     1
102
RTVSPropertyOp30
 70
     1
102
RTVSPropertyOp31
 70
     1
102
RTVSPropertyOp32
 70
     1
102
RTVSPropertyOp33
 70
     1
102
RTVSPropertyOp34
 70
     1
102
RTVSPropertyOp35
 70
     1
102
RTVSPropertyOp36
 70
     1
102
RTVSPropertyOp37
 70
     1
102
RTVSPropertyOp38
 70
     1
102
RTVSPropertyOp39
 70
     1
102
RTVSPropertyOp40
 70
     1
102
RTVSPropertyOp41
 70
     1
102
RTVSPropertyOp42
 70
     1
102
RTVSPropertyOp43
 70
     1
102
RTVSPropertyOp44
 70
     1
102
RTVSPropertyOp45
 70
     1
102
RTVSPropertyOp46
 70
     1
102
RTVSPropertyOp47
 70
     1
102
RTVSPropertyOp48
 70
     1
102
RTVSPropertyOp49
 70
     1
102
RTVSPropertyOp50
 70
     1
102
RTVSPropertyOp51
 70
     0
102
RTVSPropertyOp52
 70
     0
102
RTVSPropertyOp53
 70
     1
102
RTVSPropertyOp54
 70
     1
102
RTVSPropertyOp55
 70
     1
102
RTVSPropertyOp56
 70
     1
102
RTVSPropertyOp57
 70
     1
102
RTVSPropertyOp58
 70
     1
102
RTVSPropertyOp59
 70
     1
102
RTVSPropertyOp60
 70
     1
102
RTVSPropertyOp61
 70
     1
102
RTVSPropertyOp62
 70
     1
  0
XRECORD
  5
8CE
102
{ACAD_REACTORS
330
8CD
102
}
330
8CD
100
AcDbXrecord
280
     1
102
RTVSPost2010Prop28
280
     0
102
RTVSPost2010PropOp28
 70
     1
102
RTVSPost2010Prop29
280
     1
102
RTVSPost2010PropOp29
 70
     1
102
RTVSPost2010Prop30
280
     1
102
RTVSPost2010PropOp30
 70
     1
102
RTVSPost2010Prop31
280
     0
102
RTVSPost2010PropOp31
 70
     1
102
RTVSPost2010Prop32
280
     0
102
RTVSPost2010PropOp32
 70
     1
102
RTVSPost2010Prop33
280
     0
102
RTVSPost2010PropOp33
 70
     1
102
RTVSPost2010Prop34
280
     0
102
RTVSPost2010PropOp34
 70
     1
102
RTVSPost2010Prop35
280
     0
102
RTVSPost2010PropOp35
 70
     1
102
RTVSPost2010Prop36
280
     0
102
RTVSPost2010PropOp36
 70
     1
102
RTVSPost2010Prop37
 90
       50
102
RTVSPost2010PropOp37
 70
     1
102
RTVSPost2010Prop38
140
0.0
102
RTVSPost2010PropOp38
 70
     1
102
RTVSPost2010Prop39
140
1.0
102
RTVSPost2010PropOp39
 70
     1
102
RTVSPost2010Prop40
 90
        0
102
RTVSPost2010PropOp40
 70
     1
102
RTVSPost2010Prop41ColorIndex
 90
       18
102
RTVSPost2010Prop41ColorRGB
 90
        0
102
RTVSPost2010PropOp41
 70
     1
102
RTVSPost2010Prop42
 90
       50
102
RTVSPost2010PropOp42
 70
     1
102
RTVSPost2010Prop43
 90
        3
102
RTVSPost2010PropOp43
 70
     1
102
RTVSPost2010Prop44ColorIndex
 90
        5
102
RTVSPost2010Prop44ColorRGB
 90
      255
102
RTVSPost2010PropOp44
 70
     1
102
RTVSPost2010Prop45
280
     0
102
RTVSPost2010PropOp45
 70
     1
102
RTVSPost2010Prop46
 90
       50
102
RTVSPost2010PropOp46
 70
     1
102
RTVSPost2010Prop47
 90
       50
102
RTVSPost2010PropOp47
 70
     1
102
RTVSPost2010Prop48
 90
       50
102
RTVSPost2010PropOp48
 70
     1
102
RTVSPost2010Prop49
280
     0
102
RTVSPost2010PropOp49
 70
     1
102
RTVSPost2010Prop50
 90
       50
102
RTVSPost2010PropOp50
 70
     1
102
RTVSPost2010Prop51ColorIndex
 90
      256
102
RTVSPost2010Prop51ColorRGB
 90
-16777216
102
RTVSPost2010PropOp51
 70
     0
102
RTVSPost2010Prop52
140
1.0
102
RTVSPost2010PropOp52
 70
     0
102
RTVSPost2010Prop53
 90
        2
102
RTVSPost2010PropOp53
 70
     1
102
RTVSPost2010Prop54
  1
strokes_ogs.tif
102
RTVSPost2010PropOp54
 70
     1
102
RTVSPost2010Prop55
280
     0
102
RTVSPost2010PropOp55
 70
     1
102
RTVSPost2010Prop56
140
1.0
102
RTVSPost2010PropOp56
 70
     1
102
RTVSPost2010Prop57
140
1.0
102
RTVSPost2010PropOp57
 70
     1
102
RTVSPropertyOp0
 70
     1
102
RTVSPropertyOp1
 70
     1
102
RTVSPropertyOp2
 70
     1
102
RTVSPropertyOp3
 70
     1
102
RTVSPropertyOp4
 70
     1
102
RTVSPropertyOp5
 70
     1
102
RTVSPropertyOp6
 70
     1
102
RTVSPropertyOp7
 70
     1
102
RTVSPropertyOp8
 70
     1
102
RTVSPropertyOp9
 70
     1
102
RTVSPropertyOp10
 70
     1
102
RTVSPropertyOp11
 70
     1
102
RTVSPropertyOp12
 70
     1
102
RTVSPropertyOp13
 70
     1
102
RTVSPropertyOp14
 70
     1
102
RTVSPropertyOp15
 70
     1
102
RTVSPropertyOp16
 70
     1
102
RTVSPropertyOp17
 70
     1
102
RTVSPropertyOp18
 70
     1
102
RTVSPropertyOp19
 70
     1
102
RTVSPropertyOp20
 70
     1
102
RTVSPropertyOp21
 70
     1
102
RTVSPropertyOp22
 70
     1
102
RTVSPropertyOp23
 70
     1
102
RTVSPropertyOp24
 70
     1
102
RTVSPropertyOp25
 70
     1
102
RTVSPropertyOp26
 70
     1
102
RTVSPropertyOp27
 70
     1
102
RTVSPropertyOp28
 70
     1
102
RTVSPropertyOp29
 70
     1
102
RTVSPropertyOp30
 70
     1
102
RTVSPropertyOp31
 70
     1
102
RTVSPropertyOp32
 70
     1
102
RTVSPropertyOp33
 70
     1
102
RTVSPropertyOp34
 70
     1
102
RTVSPropertyOp35
 70
     1
102
RTVSPropertyOp36
 70
     1
102
RTVSPropertyOp37
 70
     1
102
RTVSPropertyOp38
 70
     1
102
RTVSPropertyOp39
 70
     1
102
RTVSPropertyOp40
 70
     1
102
RTVSPropertyOp41
 70
     1
102
RTVSPropertyOp42
 70
     1
102
RTVSPropertyOp43
 70
     1
102
RTVSPropertyOp44
 70
     1
102
RTVSPropertyOp45
 70
     1
102
RTVSPropertyOp46
 70
     1
102
RTVSPropertyOp47
 70
     1
102
RTVSPropertyOp48
 70
     1
102
RTVSPropertyOp49
 70
     1
102
RTVSPropertyOp50
 70
     1
102
RTVSPropertyOp51
 70
     0
102
RTVSPropertyOp52
 70
     0
102
RTVSPropertyOp53
 70
     1
102
RTVSPropertyOp54
 70
     1
102
RTVSPropertyOp55
 70
     1
102
RTVSPropertyOp56
 70
     1
102
RTVSPropertyOp57
 70
     1
102
RTVSPropertyOp58
 70
     1
102
RTVSPropertyOp59
 70
     1
102
RTVSPropertyOp60
 70
     1
102
RTVSPropertyOp61
 70
     1
102
RTVSPropertyOp62
 70
     1
  0
XRECORD
  5
8CC
102
{ACAD_REACTORS
330
8CB
102
}
330
8CB
100
AcDbXrecord
280
     1
102
RTVSPost2010Prop28
280
     0
102
RTVSPost2010PropOp28
 70
     1
102
RTVSPost2010Prop29
280
     1
102
RTVSPost2010PropOp29
 70
     1
102
RTVSPost2010Prop30
280
     1
102
RTVSPost2010PropOp30
 70
     1
102
RTVSPost2010Prop31
280
     0
102
RTVSPost2010PropOp31
 70
     1
102
RTVSPost2010Prop32
280
     0
102
RTVSPost2010PropOp32
 70
     1
102
RTVSPost2010Prop33
280
     0
102
RTVSPost2010PropOp33
 70
     1
102
RTVSPost2010Prop34
280
     0
102
RTVSPost2010PropOp34
 70
     1
102
RTVSPost2010Prop35
280
     0
102
RTVSPost2010PropOp35
 70
     1
102
RTVSPost2010Prop36
280
     0
102
RTVSPost2010PropOp36
 70
     1
102
RTVSPost2010Prop37
 90
       50
102
RTVSPost2010PropOp37
 70
     1
102
RTVSPost2010Prop38
140
0.0
102
RTVSPost2010PropOp38
 70
     1
102
RTVSPost2010Prop39
140
1.0
102
RTVSPost2010PropOp39
 70
     1
102
RTVSPost2010Prop40
 90
        0
102
RTVSPost2010PropOp40
 70
     1
102
RTVSPost2010Prop41ColorIndex
 90
       18
102
RTVSPost2010Prop41ColorRGB
 90
        0
102
RTVSPost2010PropOp41
 70
     1
102
RTVSPost2010Prop42
 90
       50
102
RTVSPost2010PropOp42
 70
     1
102
RTVSPost2010Prop43
 90
        3
102
RTVSPost2010PropOp43
 70
     1
102
RTVSPost2010Prop44ColorIndex
 90
        5
102
RTVSPost2010Prop44ColorRGB
 90
      255
102
RTVSPost2010PropOp44
 70
     1
102
RTVSPost2010Prop45
280
     0
102
RTVSPost2010PropOp45
 70
     1
102
RTVSPost2010Prop46
 90
       50
102
RTVSPost2010PropOp46
 70
     1
102
RTVSPost2010Prop47
 90
       50
102
RTVSPost2010PropOp47
 70
     1
102
RTVSPost2010Prop48
 90
       50
102
RTVSPost2010PropOp48
 70
     1
102
RTVSPost2010Prop49
280
     0
102
RTVSPost2010PropOp49
 70
     1
102
RTVSPost2010Prop50
 90
       50
102
RTVSPost2010PropOp50
 70
     1
102
RTVSPost2010Prop51ColorIndex
 90
      256
102
RTVSPost2010Prop51ColorRGB
 90
-16777216
102
RTVSPost2010PropOp51
 70
     0
102
RTVSPost2010Prop52
140
1.0
102
RTVSPost2010PropOp52
 70
     0
102
RTVSPost2010Prop53
 90
        2
102
RTVSPost2010PropOp53
 70
     1
102
RTVSPost2010Prop54
  1
strokes_ogs.tif
102
RTVSPost2010PropOp54
 70
     1
102
RTVSPost2010Prop55
280
     0
102
RTVSPost2010PropOp55
 70
     1
102
RTVSPost2010Prop56
140
1.0
102
RTVSPost2010PropOp56
 70
     1
102
RTVSPost2010Prop57
140
1.0
102
RTVSPost2010PropOp57
 70
     1
102
RTVSPropertyOp0
 70
     1
102
RTVSPropertyOp1
 70
     1
102
RTVSPropertyOp2
 70
     1
102
RTVSPropertyOp3
 70
     1
102
RTVSPropertyOp4
 70
     1
102
RTVSPropertyOp5
 70
     1
102
RTVSPropertyOp6
 70
     1
102
RTVSPropertyOp7
 70
     1
102
RTVSPropertyOp8
 70
     1
102
RTVSPropertyOp9
 70
     1
102
RTVSPropertyOp10
 70
     1
102
RTVSPropertyOp11
 70
     1
102
RTVSPropertyOp12
 70
     1
102
RTVSPropertyOp13
 70
     1
102
RTVSPropertyOp14
 70
     1
102
RTVSPropertyOp15
 70
     1
102
RTVSPropertyOp16
 70
     1
102
RTVSPropertyOp17
 70
     1
102
RTVSPropertyOp18
 70
     1
102
RTVSPropertyOp19
 70
     1
102
RTVSPropertyOp20
 70
     1
102
RTVSPropertyOp21
 70
     1
102
RTVSPropertyOp22
 70
     1
102
RTVSPropertyOp23
 70
     1
102
RTVSPropertyOp24
 70
     1
102
RTVSPropertyOp25
 70
     1
102
RTVSPropertyOp26
 70
     1
102
RTVSPropertyOp27
 70
     1
102
RTVSPropertyOp28
 70
     1
102
RTVSPropertyOp29
 70
     1
102
RTVSPropertyOp30
 70
     1
102
RTVSPropertyOp31
 70
     1
102
RTVSPropertyOp32
 70
     1
102
RTVSPropertyOp33
 70
     1
102
RTVSPropertyOp34
 70
     1
102
RTVSPropertyOp35
 70
     1
102
RTVSPropertyOp36
 70
     1
102
RTVSPropertyOp37
 70
     1
102
RTVSPropertyOp38
 70
     1
102
RTVSPropertyOp39
 70
     1
102
RTVSPropertyOp40
 70
     1
102
RTVSPropertyOp41
 70
     1
102
RTVSPropertyOp42
 70
     1
102
RTVSPropertyOp43
 70
     1
102
RTVSPropertyOp44
 70
     1
102
RTVSPropertyOp45
 70
     1
102
RTVSPropertyOp46
 70
     1
102
RTVSPropertyOp47
 70
     1
102
RTVSPropertyOp48
 70
     1
102
RTVSPropertyOp49
 70
     1
102
RTVSPropertyOp50
 70
     1
102
RTVSPropertyOp51
 70
     0
102
RTVSPropertyOp52
 70
     0
102
RTVSPropertyOp53
 70
     1
102
RTVSPropertyOp54
 70
     1
102
RTVSPropertyOp55
 70
     1
102
RTVSPropertyOp56
 70
     1
102
RTVSPropertyOp57
 70
     1
102
RTVSPropertyOp58
 70
     1
102
RTVSPropertyOp59
 70
     1
102
RTVSPropertyOp60
 70
     1
102
RTVSPropertyOp61
 70
     1
102
RTVSPropertyOp62
 70
     1
  0
XRECORD
  5
8C6
102
{ACAD_REACTORS
330
8C5
102
}
330
8C5
100
AcDbXrecord
280
     1
102
RTVSPost2010Prop28
280
     0
102
RTVSPost2010PropOp28
 70
     1
102
RTVSPost2010Prop29
280
     1
102
RTVSPost2010PropOp29
 70
     1
102
RTVSPost2010Prop30
280
     1
102
RTVSPost2010PropOp30
 70
     1
102
RTVSPost2010Prop31
280
     0
102
RTVSPost2010PropOp31
 70
     1
102
RTVSPost2010Prop32
280
     0
102
RTVSPost2010PropOp32
 70
     1
102
RTVSPost2010Prop33
280
     0
102
RTVSPost2010PropOp33
 70
     1
102
RTVSPost2010Prop34
280
     0
102
RTVSPost2010PropOp34
 70
     1
102
RTVSPost2010Prop35
280
     0
102
RTVSPost2010PropOp35
 70
     1
102
RTVSPost2010Prop36
280
     0
102
RTVSPost2010PropOp36
 70
     1
102
RTVSPost2010Prop37
 90
       50
102
RTVSPost2010PropOp37
 70
     1
102
RTVSPost2010Prop38
140
0.0
102
RTVSPost2010PropOp38
 70
     1
102
RTVSPost2010Prop39
140
1.0
102
RTVSPost2010PropOp39
 70
     1
102
RTVSPost2010Prop40
 90
        0
102
RTVSPost2010PropOp40
 70
     1
102
RTVSPost2010Prop41ColorIndex
 90
       18
102
RTVSPost2010Prop41ColorRGB
 90
        0
102
RTVSPost2010PropOp41
 70
     1
102
RTVSPost2010Prop42
 90
       50
102
RTVSPost2010PropOp42
 70
     1
102
RTVSPost2010Prop43
 90
        3
102
RTVSPost2010PropOp43
 70
     1
102
RTVSPost2010Prop44ColorIndex
 90
        5
102
RTVSPost2010Prop44ColorRGB
 90
      255
102
RTVSPost2010PropOp44
 70
     1
102
RTVSPost2010Prop45
280
     0
102
RTVSPost2010PropOp45
 70
     1
102
RTVSPost2010Prop46
 90
       50
102
RTVSPost2010PropOp46
 70
     1
102
RTVSPost2010Prop47
 90
       50
102
RTVSPost2010PropOp47
 70
     1
102
RTVSPost2010Prop48
 90
       50
102
RTVSPost2010PropOp48
 70
     1
102
RTVSPost2010Prop49
280
     0
102
RTVSPost2010PropOp49
 70
     1
102
RTVSPost2010Prop50
 90
       50
102
RTVSPost2010PropOp50
 70
     1
102
RTVSPost2010Prop51ColorIndex
 90
      256
102
RTVSPost2010Prop51ColorRGB
 90
-16777216
102
RTVSPost2010PropOp51
 70
     0
102
RTVSPost2010Prop52
140
1.0
102
RTVSPost2010PropOp52
 70
     0
102
RTVSPost2010Prop53
 90
        2
102
RTVSPost2010PropOp53
 70
     1
102
RTVSPost2010Prop54
  1
strokes_ogs.tif
102
RTVSPost2010PropOp54
 70
     1
102
RTVSPost2010Prop55
280
     0
102
RTVSPost2010PropOp55
 70
     1
102
RTVSPost2010Prop56
140
1.0
102
RTVSPost2010PropOp56
 70
     1
102
RTVSPost2010Prop57
140
1.0
102
RTVSPost2010PropOp57
 70
     1
102
RTVSPropertyOp0
 70
     1
102
RTVSPropertyOp1
 70
     1
102
RTVSPropertyOp2
 70
     1
102
RTVSPropertyOp3
 70
     1
102
RTVSPropertyOp4
 70
     1
102
RTVSPropertyOp5
 70
     1
102
RTVSPropertyOp6
 70
     1
102
RTVSPropertyOp7
 70
     1
102
RTVSPropertyOp8
 70
     1
102
RTVSPropertyOp9
 70
     1
102
RTVSPropertyOp10
 70
     1
102
RTVSPropertyOp11
 70
     1
102
RTVSPropertyOp12
 70
     1
102
RTVSPropertyOp13
 70
     1
102
RTVSPropertyOp14
 70
     1
102
RTVSPropertyOp15
 70
     1
102
RTVSPropertyOp16
 70
     1
102
RTVSPropertyOp17
 70
     1
102
RTVSPropertyOp18
 70
     1
102
RTVSPropertyOp19
 70
     1
102
RTVSPropertyOp20
 70
     1
102
RTVSPropertyOp21
 70
     1
102
RTVSPropertyOp22
 70
     1
102
RTVSPropertyOp23
 70
     1
102
RTVSPropertyOp24
 70
     1
102
RTVSPropertyOp25
 70
     1
102
RTVSPropertyOp26
 70
     1
102
RTVSPropertyOp27
 70
     1
102
RTVSPropertyOp28
 70
     1
102
RTVSPropertyOp29
 70
     1
102
RTVSPropertyOp30
 70
     1
102
RTVSPropertyOp31
 70
     1
102
RTVSPropertyOp32
 70
     1
102
RTVSPropertyOp33
 70
     1
102
RTVSPropertyOp34
 70
     1
102
RTVSPropertyOp35
 70
     1
102
RTVSPropertyOp36
 70
     1
102
RTVSPropertyOp37
 70
     1
102
RTVSPropertyOp38
 70
     1
102
RTVSPropertyOp39
 70
     1
102
RTVSPropertyOp40
 70
     1
102
RTVSPropertyOp41
 70
     1
102
RTVSPropertyOp42
 70
     1
102
RTVSPropertyOp43
 70
     1
102
RTVSPropertyOp44
 70
     1
102
RTVSPropertyOp45
 70
     1
102
RTVSPropertyOp46
 70
     1
102
RTVSPropertyOp47
 70
     1
102
RTVSPropertyOp48
 70
     1
102
RTVSPropertyOp49
 70
     1
102
RTVSPropertyOp50
 70
     1
102
RTVSPropertyOp51
 70
     0
102
RTVSPropertyOp52
 70
     0
102
RTVSPropertyOp53
 70
     1
102
RTVSPropertyOp54
 70
     1
102
RTVSPropertyOp55
 70
     1
102
RTVSPropertyOp56
 70
     1
102
RTVSPropertyOp57
 70
     1
102
RTVSPropertyOp58
 70
     1
102
RTVSPropertyOp59
 70
     1
102
RTVSPropertyOp60
 70
     1
102
RTVSPropertyOp61
 70
     1
102
RTVSPropertyOp62
 70
     1
  0
XRECORD
  5
8C8
102
{ACAD_REACTORS
330
8C7
102
}
330
8C7
100
AcDbXrecord
280
     1
102
RTVSPost2010Prop28
280
     0
102
RTVSPost2010PropOp28
 70
     1
102
RTVSPost2010Prop29
280
     1
102
RTVSPost2010PropOp29
 70
     1
102
RTVSPost2010Prop30
280
     1
102
RTVSPost2010PropOp30
 70
     1
102
RTVSPost2010Prop31
280
     0
102
RTVSPost2010PropOp31
 70
     1
102
RTVSPost2010Prop32
280
     0
102
RTVSPost2010PropOp32
 70
     1
102
RTVSPost2010Prop33
280
     0
102
RTVSPost2010PropOp33
 70
     1
102
RTVSPost2010Prop34
280
     0
102
RTVSPost2010PropOp34
 70
     1
102
RTVSPost2010Prop35
280
     0
102
RTVSPost2010PropOp35
 70
     1
102
RTVSPost2010Prop36
280
     0
102
RTVSPost2010PropOp36
 70
     1
102
RTVSPost2010Prop37
 90
       50
102
RTVSPost2010PropOp37
 70
     1
102
RTVSPost2010Prop38
140
0.0
102
RTVSPost2010PropOp38
 70
     1
102
RTVSPost2010Prop39
140
1.0
102
RTVSPost2010PropOp39
 70
     1
102
RTVSPost2010Prop40
 90
        0
102
RTVSPost2010PropOp40
 70
     1
102
RTVSPost2010Prop41ColorIndex
 90
       18
102
RTVSPost2010Prop41ColorRGB
 90
        0
102
RTVSPost2010PropOp41
 70
     1
102
RTVSPost2010Prop42
 90
       50
102
RTVSPost2010PropOp42
 70
     1
102
RTVSPost2010Prop43
 90
        3
102
RTVSPost2010PropOp43
 70
     1
102
RTVSPost2010Prop44ColorIndex
 90
        5
102
RTVSPost2010Prop44ColorRGB
 90
      255
102
RTVSPost2010PropOp44
 70
     1
102
RTVSPost2010Prop45
280
     0
102
RTVSPost2010PropOp45
 70
     1
102
RTVSPost2010Prop46
 90
       50
102
RTVSPost2010PropOp46
 70
     1
102
RTVSPost2010Prop47
 90
       50
102
RTVSPost2010PropOp47
 70
     1
102
RTVSPost2010Prop48
 90
       50
102
RTVSPost2010PropOp48
 70
     1
102
RTVSPost2010Prop49
280
     0
102
RTVSPost2010PropOp49
 70
     1
102
RTVSPost2010Prop50
 90
       50
102
RTVSPost2010PropOp50
 70
     1
102
RTVSPost2010Prop51ColorIndex
 90
      256
102
RTVSPost2010Prop51ColorRGB
 90
-16777216
102
RTVSPost2010PropOp51
 70
     0
102
RTVSPost2010Prop52
140
1.0
102
RTVSPost2010PropOp52
 70
     0
102
RTVSPost2010Prop53
 90
        2
102
RTVSPost2010PropOp53
 70
     1
102
RTVSPost2010Prop54
  1
strokes_ogs.tif
102
RTVSPost2010PropOp54
 70
     1
102
RTVSPost2010Prop55
280
     0
102
RTVSPost2010PropOp55
 70
     1
102
RTVSPost2010Prop56
140
1.0
102
RTVSPost2010PropOp56
 70
     1
102
RTVSPost2010Prop57
140
1.0
102
RTVSPost2010PropOp57
 70
     1
102
RTVSPropertyOp0
 70
     1
102
RTVSPropertyOp1
 70
     1
102
RTVSPropertyOp2
 70
     1
102
RTVSPropertyOp3
 70
     1
102
RTVSPropertyOp4
 70
     1
102
RTVSPropertyOp5
 70
     1
102
RTVSPropertyOp6
 70
     1
102
RTVSPropertyOp7
 70
     1
102
RTVSPropertyOp8
 70
     1
102
RTVSPropertyOp9
 70
     1
102
RTVSPropertyOp10
 70
     1
102
RTVSPropertyOp11
 70
     1
102
RTVSPropertyOp12
 70
     1
102
RTVSPropertyOp13
 70
     1
102
RTVSPropertyOp14
 70
     1
102
RTVSPropertyOp15
 70
     1
102
RTVSPropertyOp16
 70
     1
102
RTVSPropertyOp17
 70
     1
102
RTVSPropertyOp18
 70
     1
102
RTVSPropertyOp19
 70
     1
102
RTVSPropertyOp20
 70
     1
102
RTVSPropertyOp21
 70
     1
102
RTVSPropertyOp22
 70
     1
102
RTVSPropertyOp23
 70
     1
102
RTVSPropertyOp24
 70
     1
102
RTVSPropertyOp25
 70
     1
102
RTVSPropertyOp26
 70
     1
102
RTVSPropertyOp27
 70
     1
102
RTVSPropertyOp28
 70
     1
102
RTVSPropertyOp29
 70
     1
102
RTVSPropertyOp30
 70
     1
102
RTVSPropertyOp31
 70
     1
102
RTVSPropertyOp32
 70
     1
102
RTVSPropertyOp33
 70
     1
102
RTVSPropertyOp34
 70
     1
102
RTVSPropertyOp35
 70
     1
102
RTVSPropertyOp36
 70
     1
102
RTVSPropertyOp37
 70
     1
102
RTVSPropertyOp38
 70
     1
102
RTVSPropertyOp39
 70
     1
102
RTVSPropertyOp40
 70
     1
102
RTVSPropertyOp41
 70
     1
102
RTVSPropertyOp42
 70
     1
102
RTVSPropertyOp43
 70
     1
102
RTVSPropertyOp44
 70
     1
102
RTVSPropertyOp45
 70
     1
102
RTVSPropertyOp46
 70
     1
102
RTVSPropertyOp47
 70
     1
102
RTVSPropertyOp48
 70
     1
102
RTVSPropertyOp49
 70
     1
102
RTVSPropertyOp50
 70
     1
102
RTVSPropertyOp51
 70
     0
102
RTVSPropertyOp52
 70
     0
102
RTVSPropertyOp53
 70
     1
102
RTVSPropertyOp54
 70
     1
102
RTVSPropertyOp55
 70
     1
102
RTVSPropertyOp56
 70
     1
102
RTVSPropertyOp57
 70
     1
102
RTVSPropertyOp58
 70
     1
102
RTVSPropertyOp59
 70
     1
102
RTVSPropertyOp60
 70
     1
102
RTVSPropertyOp61
 70
     1
102
RTVSPropertyOp62
 70
     1
  0
XRECORD
  5
8B9
102
{ACAD_REACTORS
330
8B8
102
}
330
8B8
100
AcDbXrecord
280
     1
102
RTVSPost2010Prop28
280
     0
102
RTVSPost2010PropOp28
 70
     1
102
RTVSPost2010Prop29
280
     1
102
RTVSPost2010PropOp29
 70
     1
102
RTVSPost2010Prop30
280
     1
102
RTVSPost2010PropOp30
 70
     1
102
RTVSPost2010Prop31
280
     0
102
RTVSPost2010PropOp31
 70
     1
102
RTVSPost2010Prop32
280
     0
102
RTVSPost2010PropOp32
 70
     1
102
RTVSPost2010Prop33
280
     0
102
RTVSPost2010PropOp33
 70
     1
102
RTVSPost2010Prop34
280
     0
102
RTVSPost2010PropOp34
 70
     1
102
RTVSPost2010Prop35
280
     0
102
RTVSPost2010PropOp35
 70
     1
102
RTVSPost2010Prop36
280
     0
102
RTVSPost2010PropOp36
 70
     1
102
RTVSPost2010Prop37
 90
       50
102
RTVSPost2010PropOp37
 70
     1
102
RTVSPost2010Prop38
140
0.0
102
RTVSPost2010PropOp38
 70
     1
102
RTVSPost2010Prop39
140
1.0
102
RTVSPost2010PropOp39
 70
     1
102
RTVSPost2010Prop40
 90
        0
102
RTVSPost2010PropOp40
 70
     1
102
RTVSPost2010Prop41ColorIndex
 90
       18
102
RTVSPost2010Prop41ColorRGB
 90
        0
102
RTVSPost2010PropOp41
 70
     1
102
RTVSPost2010Prop42
 90
       50
102
RTVSPost2010PropOp42
 70
     1
102
RTVSPost2010Prop43
 90
        3
102
RTVSPost2010PropOp43
 70
     1
102
RTVSPost2010Prop44ColorIndex
 90
        5
102
RTVSPost2010Prop44ColorRGB
 90
      255
102
RTVSPost2010PropOp44
 70
     1
102
RTVSPost2010Prop45
280
     0
102
RTVSPost2010PropOp45
 70
     1
102
RTVSPost2010Prop46
 90
       50
102
RTVSPost2010PropOp46
 70
     1
102
RTVSPost2010Prop47
 90
       50
102
RTVSPost2010PropOp47
 70
     1
102
RTVSPost2010Prop48
 90
       50
102
RTVSPost2010PropOp48
 70
     1
102
RTVSPost2010Prop49
280
     0
102
RTVSPost2010PropOp49
 70
     1
102
RTVSPost2010Prop50
 90
       50
102
RTVSPost2010PropOp50
 70
     1
102
RTVSPost2010Prop51ColorIndex
 90
      256
102
RTVSPost2010Prop51ColorRGB
 90
-16777216
102
RTVSPost2010PropOp51
 70
     0
102
RTVSPost2010Prop52
140
1.0
102
RTVSPost2010PropOp52
 70
     0
102
RTVSPost2010Prop53
 90
        2
102
RTVSPost2010PropOp53
 70
     1
102
RTVSPost2010Prop54
  1
strokes_ogs.tif
102
RTVSPost2010PropOp54
 70
     1
102
RTVSPost2010Prop55
280
     0
102
RTVSPost2010PropOp55
 70
     1
102
RTVSPost2010Prop56
140
1.0
102
RTVSPost2010PropOp56
 70
     1
102
RTVSPost2010Prop57
140
1.0
102
RTVSPost2010PropOp57
 70
     1
102
RTVSPropertyOp0
 70
     1
102
RTVSPropertyOp1
 70
     1
102
RTVSPropertyOp2
 70
     1
102
RTVSPropertyOp3
 70
     1
102
RTVSPropertyOp4
 70
     1
102
RTVSPropertyOp5
 70
     1
102
RTVSPropertyOp6
 70
     1
102
RTVSPropertyOp7
 70
     1
102
RTVSPropertyOp8
 70
     1
102
RTVSPropertyOp9
 70
     1
102
RTVSPropertyOp10
 70
     1
102
RTVSPropertyOp11
 70
     1
102
RTVSPropertyOp12
 70
     1
102
RTVSPropertyOp13
 70
     1
102
RTVSPropertyOp14
 70
     1
102
RTVSPropertyOp15
 70
     1
102
RTVSPropertyOp16
 70
     1
102
RTVSPropertyOp17
 70
     1
102
RTVSPropertyOp18
 70
     1
102
RTVSPropertyOp19
 70
     1
102
RTVSPropertyOp20
 70
     1
102
RTVSPropertyOp21
 70
     1
102
RTVSPropertyOp22
 70
     1
102
RTVSPropertyOp23
 70
     1
102
RTVSPropertyOp24
 70
     1
102
RTVSPropertyOp25
 70
     1
102
RTVSPropertyOp26
 70
     1
102
RTVSPropertyOp27
 70
     1
102
RTVSPropertyOp28
 70
     1
102
RTVSPropertyOp29
 70
     1
102
RTVSPropertyOp30
 70
     1
102
RTVSPropertyOp31
 70
     1
102
RTVSPropertyOp32
 70
     1
102
RTVSPropertyOp33
 70
     1
102
RTVSPropertyOp34
 70
     1
102
RTVSPropertyOp35
 70
     1
102
RTVSPropertyOp36
 70
     1
102
RTVSPropertyOp37
 70
     1
102
RTVSPropertyOp38
 70
     1
102
RTVSPropertyOp39
 70
     1
102
RTVSPropertyOp40
 70
     1
102
RTVSPropertyOp41
 70
     1
102
RTVSPropertyOp42
 70
     1
102
RTVSPropertyOp43
 70
     1
102
RTVSPropertyOp44
 70
     1
102
RTVSPropertyOp45
 70
     1
102
RTVSPropertyOp46
 70
     1
102
RTVSPropertyOp47
 70
     1
102
RTVSPropertyOp48
 70
     1
102
RTVSPropertyOp49
 70
     1
102
RTVSPropertyOp50
 70
     1
102
RTVSPropertyOp51
 70
     0
102
RTVSPropertyOp52
 70
     0
102
RTVSPropertyOp53
 70
     1
102
RTVSPropertyOp54
 70
     1
102
RTVSPropertyOp55
 70
     1
102
RTVSPropertyOp56
 70
     1
102
RTVSPropertyOp57
 70
     1
102
RTVSPropertyOp58
 70
     1
102
RTVSPropertyOp59
 70
     1
102
RTVSPropertyOp60
 70
     1
102
RTVSPropertyOp61
 70
     1
102
RTVSPropertyOp62
 70
     1
  0
XRECORD
  5
8C2
102
{ACAD_REACTORS
330
8C1
102
}
330
8C1
100
AcDbXrecord
280
     1
102
RTVSPost2010Prop28
280
     0
102
RTVSPost2010PropOp28
 70
     1
102
RTVSPost2010Prop29
280
     1
102
RTVSPost2010PropOp29
 70
     1
102
RTVSPost2010Prop30
280
     1
102
RTVSPost2010PropOp30
 70
     1
102
RTVSPost2010Prop31
280
     0
102
RTVSPost2010PropOp31
 70
     1
102
RTVSPost2010Prop32
280
     0
102
RTVSPost2010PropOp32
 70
     1
102
RTVSPost2010Prop33
280
     0
102
RTVSPost2010PropOp33
 70
     1
102
RTVSPost2010Prop34
280
     0
102
RTVSPost2010PropOp34
 70
     1
102
RTVSPost2010Prop35
280
     0
102
RTVSPost2010PropOp35
 70
     1
102
RTVSPost2010Prop36
280
     0
102
RTVSPost2010PropOp36
 70
     1
102
RTVSPost2010Prop37
 90
       50
102
RTVSPost2010PropOp37
 70
     1
102
RTVSPost2010Prop38
140
0.0
102
RTVSPost2010PropOp38
 70
     1
102
RTVSPost2010Prop39
140
1.0
102
RTVSPost2010PropOp39
 70
     1
102
RTVSPost2010Prop40
 90
        0
102
RTVSPost2010PropOp40
 70
     1
102
RTVSPost2010Prop41ColorIndex
 90
       18
102
RTVSPost2010Prop41ColorRGB
 90
        0
102
RTVSPost2010PropOp41
 70
     1
102
RTVSPost2010Prop42
 90
       50
102
RTVSPost2010PropOp42
 70
     1
102
RTVSPost2010Prop43
 90
        3
102
RTVSPost2010PropOp43
 70
     1
102
RTVSPost2010Prop44ColorIndex
 90
        5
102
RTVSPost2010Prop44ColorRGB
 90
      255
102
RTVSPost2010PropOp44
 70
     1
102
RTVSPost2010Prop45
280
     0
102
RTVSPost2010PropOp45
 70
     1
102
RTVSPost2010Prop46
 90
       50
102
RTVSPost2010PropOp46
 70
     1
102
RTVSPost2010Prop47
 90
       50
102
RTVSPost2010PropOp47
 70
     1
102
RTVSPost2010Prop48
 90
       50
102
RTVSPost2010PropOp48
 70
     1
102
RTVSPost2010Prop49
280
     0
102
RTVSPost2010PropOp49
 70
     1
102
RTVSPost2010Prop50
 90
       50
102
RTVSPost2010PropOp50
 70
     1
102
RTVSPost2010Prop51ColorIndex
 90
      256
102
RTVSPost2010Prop51ColorRGB
 90
-16777216
102
RTVSPost2010PropOp51
 70
     0
102
RTVSPost2010Prop52
140
1.0
102
RTVSPost2010PropOp52
 70
     0
102
RTVSPost2010Prop53
 90
        2
102
RTVSPost2010PropOp53
 70
     1
102
RTVSPost2010Prop54
  1
strokes_ogs.tif
102
RTVSPost2010PropOp54
 70
     1
102
RTVSPost2010Prop55
280
     0
102
RTVSPost2010PropOp55
 70
     1
102
RTVSPost2010Prop56
140
1.0
102
RTVSPost2010PropOp56
 70
     1
102
RTVSPost2010Prop57
140
1.0
102
RTVSPost2010PropOp57
 70
     1
102
RTVSPropertyOp0
 70
     1
102
RTVSPropertyOp1
 70
     1
102
RTVSPropertyOp2
 70
     1
102
RTVSPropertyOp3
 70
     1
102
RTVSPropertyOp4
 70
     1
102
RTVSPropertyOp5
 70
     1
102
RTVSPropertyOp6
 70
     1
102
RTVSPropertyOp7
 70
     1
102
RTVSPropertyOp8
 70
     1
102
RTVSPropertyOp9
 70
     1
102
RTVSPropertyOp10
 70
     1
102
RTVSPropertyOp11
 70
     1
102
RTVSPropertyOp12
 70
     1
102
RTVSPropertyOp13
 70
     1
102
RTVSPropertyOp14
 70
     1
102
RTVSPropertyOp15
 70
     1
102
RTVSPropertyOp16
 70
     1
102
RTVSPropertyOp17
 70
     1
102
RTVSPropertyOp18
 70
     1
102
RTVSPropertyOp19
 70
     1
102
RTVSPropertyOp20
 70
     1
102
RTVSPropertyOp21
 70
     1
102
RTVSPropertyOp22
 70
     1
102
RTVSPropertyOp23
 70
     1
102
RTVSPropertyOp24
 70
     1
102
RTVSPropertyOp25
 70
     1
102
RTVSPropertyOp26
 70
     1
102
RTVSPropertyOp27
 70
     1
102
RTVSPropertyOp28
 70
     1
102
RTVSPropertyOp29
 70
     1
102
RTVSPropertyOp30
 70
     1
102
RTVSPropertyOp31
 70
     1
102
RTVSPropertyOp32
 70
     1
102
RTVSPropertyOp33
 70
     1
102
RTVSPropertyOp34
 70
     1
102
RTVSPropertyOp35
 70
     1
102
RTVSPropertyOp36
 70
     1
102
RTVSPropertyOp37
 70
     1
102
RTVSPropertyOp38
 70
     1
102
RTVSPropertyOp39
 70
     1
102
RTVSPropertyOp40
 70
     1
102
RTVSPropertyOp41
 70
     1
102
RTVSPropertyOp42
 70
     1
102
RTVSPropertyOp43
 70
     1
102
RTVSPropertyOp44
 70
     1
102
RTVSPropertyOp45
 70
     1
102
RTVSPropertyOp46
 70
     1
102
RTVSPropertyOp47
 70
     1
102
RTVSPropertyOp48
 70
     1
102
RTVSPropertyOp49
 70
     1
102
RTVSPropertyOp50
 70
     1
102
RTVSPropertyOp51
 70
     0
102
RTVSPropertyOp52
 70
     0
102
RTVSPropertyOp53
 70
     1
102
RTVSPropertyOp54
 70
     1
102
RTVSPropertyOp55
 70
     1
102
RTVSPropertyOp56
 70
     1
102
RTVSPropertyOp57
 70
     1
102
RTVSPropertyOp58
 70
     1
102
RTVSPropertyOp59
 70
     1
102
RTVSPropertyOp60
 70
     1
102
RTVSPropertyOp61
 70
     1
102
RTVSPropertyOp62
 70
     1
  0
XRECORD
  5
8CA
102
{ACAD_REACTORS
330
8C9
102
}
330
8C9
100
AcDbXrecord
280
     1
102
RTVSPost2010Prop28
280
     0
102
RTVSPost2010PropOp28
 70
     1
102
RTVSPost2010Prop29
280
     1
102
RTVSPost2010PropOp29
 70
     1
102
RTVSPost2010Prop30
280
     1
102
RTVSPost2010PropOp30
 70
     1
102
RTVSPost2010Prop31
280
     0
102
RTVSPost2010PropOp31
 70
     1
102
RTVSPost2010Prop32
280
     0
102
RTVSPost2010PropOp32
 70
     1
102
RTVSPost2010Prop33
280
     0
102
RTVSPost2010PropOp33
 70
     1
102
RTVSPost2010Prop34
280
     0
102
RTVSPost2010PropOp34
 70
     1
102
RTVSPost2010Prop35
280
     0
102
RTVSPost2010PropOp35
 70
     1
102
RTVSPost2010Prop36
280
     0
102
RTVSPost2010PropOp36
 70
     1
102
RTVSPost2010Prop37
 90
       50
102
RTVSPost2010PropOp37
 70
     1
102
RTVSPost2010Prop38
140
0.0
102
RTVSPost2010PropOp38
 70
     1
102
RTVSPost2010Prop39
140
1.0
102
RTVSPost2010PropOp39
 70
     1
102
RTVSPost2010Prop40
 90
        0
102
RTVSPost2010PropOp40
 70
     1
102
RTVSPost2010Prop41ColorIndex
 90
       18
102
RTVSPost2010Prop41ColorRGB
 90
        0
102
RTVSPost2010PropOp41
 70
     1
102
RTVSPost2010Prop42
 90
       50
102
RTVSPost2010PropOp42
 70
     1
102
RTVSPost2010Prop43
 90
        3
102
RTVSPost2010PropOp43
 70
     1
102
RTVSPost2010Prop44ColorIndex
 90
        5
102
RTVSPost2010Prop44ColorRGB
 90
      255
102
RTVSPost2010PropOp44
 70
     1
102
RTVSPost2010Prop45
280
     0
102
RTVSPost2010PropOp45
 70
     1
102
RTVSPost2010Prop46
 90
       50
102
RTVSPost2010PropOp46
 70
     1
102
RTVSPost2010Prop47
 90
       50
102
RTVSPost2010PropOp47
 70
     1
102
RTVSPost2010Prop48
 90
       50
102
RTVSPost2010PropOp48
 70
     1
102
RTVSPost2010Prop49
280
     0
102
RTVSPost2010PropOp49
 70
     1
102
RTVSPost2010Prop50
 90
       50
102
RTVSPost2010PropOp50
 70
     1
102
RTVSPost2010Prop51ColorIndex
 90
      256
102
RTVSPost2010Prop51ColorRGB
 90
-16777216
102
RTVSPost2010PropOp51
 70
     0
102
RTVSPost2010Prop52
140
1.0
102
RTVSPost2010PropOp52
 70
     0
102
RTVSPost2010Prop53
 90
        2
102
RTVSPost2010PropOp53
 70
     1
102
RTVSPost2010Prop54
  1
strokes_ogs.tif
102
RTVSPost2010PropOp54
 70
     1
102
RTVSPost2010Prop55
280
     0
102
RTVSPost2010PropOp55
 70
     1
102
RTVSPost2010Prop56
140
1.0
102
RTVSPost2010PropOp56
 70
     1
102
RTVSPost2010Prop57
140
1.0
102
RTVSPost2010PropOp57
 70
     1
102
RTVSPropertyOp0
 70
     1
102
RTVSPropertyOp1
 70
     1
102
RTVSPropertyOp2
 70
     1
102
RTVSPropertyOp3
 70
     1
102
RTVSPropertyOp4
 70
     1
102
RTVSPropertyOp5
 70
     1
102
RTVSPropertyOp6
 70
     1
102
RTVSPropertyOp7
 70
     1
102
RTVSPropertyOp8
 70
     1
102
RTVSPropertyOp9
 70
     1
102
RTVSPropertyOp10
 70
     1
102
RTVSPropertyOp11
 70
     1
102
RTVSPropertyOp12
 70
     1
102
RTVSPropertyOp13
 70
     1
102
RTVSPropertyOp14
 70
     1
102
RTVSPropertyOp15
 70
     1
102
RTVSPropertyOp16
 70
     1
102
RTVSPropertyOp17
 70
     1
102
RTVSPropertyOp18
 70
     1
102
RTVSPropertyOp19
 70
     1
102
RTVSPropertyOp20
 70
     1
102
RTVSPropertyOp21
 70
     1
102
RTVSPropertyOp22
 70
     1
102
RTVSPropertyOp23
 70
     1
102
RTVSPropertyOp24
 70
     1
102
RTVSPropertyOp25
 70
     1
102
RTVSPropertyOp26
 70
     1
102
RTVSPropertyOp27
 70
     1
102
RTVSPropertyOp28
 70
     1
102
RTVSPropertyOp29
 70
     1
102
RTVSPropertyOp30
 70
     1
102
RTVSPropertyOp31
 70
     1
102
RTVSPropertyOp32
 70
     1
102
RTVSPropertyOp33
 70
     1
102
RTVSPropertyOp34
 70
     1
102
RTVSPropertyOp35
 70
     1
102
RTVSPropertyOp36
 70
     1
102
RTVSPropertyOp37
 70
     1
102
RTVSPropertyOp38
 70
     1
102
RTVSPropertyOp39
 70
     1
102
RTVSPropertyOp40
 70
     1
102
RTVSPropertyOp41
 70
     1
102
RTVSPropertyOp42
 70
     1
102
RTVSPropertyOp43
 70
     1
102
RTVSPropertyOp44
 70
     1
102
RTVSPropertyOp45
 70
     1
102
RTVSPropertyOp46
 70
     1
102
RTVSPropertyOp47
 70
     1
102
RTVSPropertyOp48
 70
     1
102
RTVSPropertyOp49
 70
     1
102
RTVSPropertyOp50
 70
     1
102
RTVSPropertyOp51
 70
     0
102
RTVSPropertyOp52
 70
     0
102
RTVSPropertyOp53
 70
     1
102
RTVSPropertyOp54
 70
     1
102
RTVSPropertyOp55
 70
     1
102
RTVSPropertyOp56
 70
     1
102
RTVSPropertyOp57
 70
     1
102
RTVSPropertyOp58
 70
     1
102
RTVSPropertyOp59
 70
     1
102
RTVSPropertyOp60
 70
     1
102
RTVSPropertyOp61
 70
     1
102
RTVSPropertyOp62
 70
     1
  0
ENDSEC
  0
EOF
