  0
SECTION
  2
HEADER
  9
$ACADVER
  1
AC1024
  9
$ACADMAINTVER
 70
   205
  9
$DWGCODEPAGE
  3
ANSI_1252
  9
$LASTSAVEDBY
  1
kaschu
  9
$INSBASE
 10
0.0
 20
0.0
 30
0.0
  9
$EXTMIN
 10
-480.9950225583248
 20
-819.5700225583259
 30
-0.0000000000000561
  9
$EXTMAX
 10
1600.483317005587
 20
1438.1309717319
 30
0.0000000000000656
  9
$LIMMIN
 10
0.0
 20
0.0
  9
$LIMMAX
 10
12.0
 20
9.0
  9
$ORTHOMODE
 70
     0
  9
$REGENMODE
 70
     1
  9
$FILLMODE
 70
     1
  9
$QTEXTMODE
 70
     0
  9
$MIRRTEXT
 70
     1
  9
$LTSCALE
 40
1.0
  9
$ATTMODE
 70
     1
  9
$TEXTSIZE
 40
0.2
  9
$TRACEWID
 40
0.05
  9
$TEXTSTYLE
  7
STANDARD
  9
$CLAYER
  8
0
  9
$CELTYPE
  6
BYLAYER
  9
$CECOLOR
 62
   256
  9
$CELTSCALE
 40
1.0
  9
$DISPSILH
 70
     0
  9
$DIMSCALE
 40
1.0
  9
$DIMASZ
 40
0.18
  9
$DIMEXO
 40
0.0625
  9
$DIMDLI
 40
0.38
  9
$DIMRND
 40
0.0
  9
$DIMDLE
 40
0.0
  9
$DIMEXE
 40
0.18
  9
$DIMTP
 40
0.0
  9
$DIMTM
 40
0.0
  9
$DIMTXT
 40
0.18
  9
$DIMCEN
 40
0.09
  9
$DIMTSZ
 40
0.0
  9
$DIMTOL
 70
     0
  9
$DIMLIM
 70
     0
  9
$DIMTIH
 70
     1
  9
$DIMTOH
 70
     1
  9
$DIMSE1
 70
     0
  9
$DIMSE2
 70
     0
  9
$DIMTAD
 70
     0
  9
$DIMZIN
 70
     0
  9
$DIMBLK
  1

  9
$DIMASO
 70
     1
  9
$DIMSHO
 70
     1
  9
$DIMPOST
  1

  9
$DIMAPOST
  1

  9
$DIMALT
 70
     0
  9
$DIMALTD
 70
     2
  9
$DIMALTF
 40
25.4
  9
$DIMLFAC
 40
1.0
  9
$DIMTOFL
 70
     0
  9
$DIMTVP
 40
0.0
  9
$DIMTIX
 70
     0
  9
$DIMSOXD
 70
     0
  9
$DIMSAH
 70
     0
  9
$DIMBLK1
  1

  9
$DIMBLK2
  1

  9
$DIMSTYLE
  2
STANDARD
  9
$DIMCLRD
 70
     0
  9
$DIMCLRE
 70
     0
  9
$DIMCLRT
 70
     0
  9
$DIMTFAC
 40
1.0
  9
$DIMGAP
 40
0.09
  9
$DIMJUST
 70
     0
  9
$DIMSD1
 70
     0
  9
$DIMSD2
 70
     0
  9
$DIMTOLJ
 70
     1
  9
$DIMTZIN
 70
     0
  9
$DIMALTZ
 70
     0
  9
$DIMALTTZ
 70
     0
  9
$DIMUPT
 70
     0
  9
$DIMDEC
 70
     4
  9
$DIMTDEC
 70
     4
  9
$DIMALTU
 70
     2
  9
$DIMALTTD
 70
     2
  9
$DIMTXSTY
  7
STANDARD
  9
$DIMAUNIT
 70
     0
  9
$DIMADEC
 70
     0
  9
$DIMALTRND
 40
0.0
  9
$DIMAZIN
 70
     0
  9
$DIMDSEP
 70
    46
  9
$DIMATFIT
 70
     3
  9
$DIMFRAC
 70
     0
  9
$DIMLDRBLK
  1

  9
$DIMLUNIT
 70
     2
  9
$DIMLWD
 70
    -2
  9
$DIMLWE
 70
    -2
  9
$DIMTMOVE
 70
     0
  9
$DIMFXL
 40
1.0
  9
$DIMFXLON
 70
     0
  9
$DIMJOGANG
 40
0.7853981633974483
  9
$DIMTFILL
 70
     0
  9
$DIMTFILLCLR
 70
     0
  9
$DIMARCSYM
 70
     0
  9
$DIMLTYPE
  6

  9
$DIMLTEX1
  6

  9
$DIMLTEX2
  6

  9
$DIMTXTDIRECTION
 70
     0
  9
$LUNITS
 70
     2
  9
$LUPREC
 70
     4
  9
$SKETCHINC
 40
0.1
  9
$FILLETRAD
 40
0.5
  9
$AUNITS
 70
     0
  9
$AUPREC
 70
     0
  9
$MENU
  1
.
  9
$ELEVATION
 40
0.0
  9
$PELEVATION
 40
0.0
  9
$THICKNESS
 40
0.0
  9
$LIMCHECK
 70
     0
  9
$CHAMFERA
 40
0.5
  9
$CHAMFERB
 40
0.5
  9
$CHAMFERC
 40
1.0
  9
$CHAMFERD
 40
0.0
  9
$SKPOLY
 70
     0
  9
$TDCREATE
 40
2451762.461079167
  9
$TDUCREATE
 40
2451762.419412500
  9
$TDUPDATE
 40
2458907.493401806
  9
$TDUUPDATE
 40
2458907.451735139
  9
$TDINDWG
 40
0.0046503588
  9
$TDUSRTIMER
 40
0.0046503241
  9
$USRTIMER
 70
     1
  9
$ANGBASE
 50
0.0
  9
$ANGDIR
 70
     0
  9
$PDMODE
 70
     0
  9
$PDSIZE
 40
0.0
  9
$PLINEWID
 40
0.0
  9
$SPLFRAME
 70
     0
  9
$SPLINETYPE
 70
     6
  9
$SPLINESEGS
 70
     8
  9
$HANDSEED
  5
4C0
  9
$SURFTAB1
 70
     6
  9
$SURFTAB2
 70
     6
  9
$SURFTYPE
 70
     6
  9
$SURFU
 70
     6
  9
$SURFV
 70
     6
  9
$UCSBASE
  2

  9
$UCSNAME
  2

  9
$UCSORG
 10
0.0
 20
0.0
 30
0.0
  9
$UCSXDIR
 10
1.0
 20
0.0
 30
0.0
  9
$UCSYDIR
 10
0.0
 20
1.0
 30
0.0
  9
$UCSORTHOREF
  2

  9
$UCSORTHOVIEW
 70
     0
  9
$UCSORGTOP
 10
0.0
 20
0.0
 30
0.0
  9
$UCSORGBOTTOM
 10
0.0
 20
0.0
 30
0.0
  9
$UCSORGLEFT
 10
0.0
 20
0.0
 30
0.0
  9
$UCSORGRIGHT
 10
0.0
 20
0.0
 30
0.0
  9
$UCSORGFRONT
 10
0.0
 20
0.0
 30
0.0
  9
$UCSORGBACK
 10
0.0
 20
0.0
 30
0.0
  9
$PUCSBASE
  2

  9
$PUCSNAME
  2

  9
$PUCSORG
 10
0.0
 20
0.0
 30
0.0
  9
$PUCSXDIR
 10
1.0
 20
0.0
 30
0.0
  9
$PUCSYDIR
 10
0.0
 20
1.0
 30
0.0
  9
$PUCSORTHOREF
  2

  9
$PUCSORTHOVIEW
 70
     0
  9
$PUCSORGTOP
 10
0.0
 20
0.0
 30
0.0
  9
$PUCSORGBOTTOM
 10
0.0
 20
0.0
 30
0.0
  9
$PUCSORGLEFT
 10
0.0
 20
0.0
 30
0.0
  9
$PUCSORGRIGHT
 10
0.0
 20
0.0
 30
0.0
  9
$PUCSORGFRONT
 10
0.0
 20
0.0
 30
0.0
  9
$PUCSORGBACK
 10
0.0
 20
0.0
 30
0.0
  9
$USERI1
 70
     0
  9
$USERI2
 70
     0
  9
$USERI3
 70
     0
  9
$USERI4
 70
     0
  9
$USERI5
 70
     0
  9
$USERR1
 40
0.0
  9
$USERR2
 40
0.0
  9
$USERR3
 40
0.0
  9
$USERR4
 40
0.0
  9
$USERR5
 40
0.0
  9
$WORLDVIEW
 70
     1
  9
$SHADEDGE
 70
     3
  9
$SHADEDIF
 70
    70
  9
$TILEMODE
 70
     1
  9
$MAXACTVP
 70
    64
  9
$PINSBASE
 10
0.0
 20
0.0
 30
0.0
  9
$PLIMCHECK
 70
     0
  9
$PEXTMIN
 10
1.000000000000000E+20
 20
1.000000000000000E+20
 30
1.000000000000000E+20
  9
$PEXTMAX
 10
-1.000000000000000E+20
 20
-1.000000000000000E+20
 30
-1.000000000000000E+20
  9
$PLIMMIN
 10
0.0
 20
0.0
  9
$PLIMMAX
 10
12.0
 20
9.0
  9
$UNITMODE
 70
     0
  9
$VISRETAIN
 70
     1
  9
$PLINEGEN
 70
     0
  9
$PSLTSCALE
 70
     1
  9
$TREEDEPTH
 70
  3020
  9
$CMLSTYLE
  2
STANDARD
  9
$CMLJUST
 70
     0
  9
$CMLSCALE
 40
1.0
  9
$PROXYGRAPHICS
 70
     1
  9
$MEASUREMENT
 70
     0
  9
$CELWEIGHT
370
    -1
  9
$ENDCAPS
280
     0
  9
$JOINSTYLE
280
     0
  9
$LWDISPLAY
290
     0
  9
$INSUNITS
 70
     0
  9
$HYPERLINKBASE
  1

  9
$STYLESHEET
  1

  9
$XEDIT
290
     1
  9
$CEPSNTYPE
380
     0
  9
$PSTYLEMODE
290
     1
  9
$FINGERPRINTGUID
  2
{137A5123-938F-47A0-8ED9-3A372B33EE88}
  9
$VERSIONGUID
  2
{C2FDC7F7-AFB9-4D72-9923-BBFD7A381A1D}
  9
$EXTNAMES
290
     1
  9
$PSVPSCALE
 40
0.0
  9
$OLESTARTUP
290
     0
  9
$SORTENTS
280
   127
  9
$INDEXCTL
280
     0
  9
$HIDETEXT
280
     0
  9
$XCLIPFRAME
280
     2
  9
$HALOGAP
280
     0
  9
$OBSCOLOR
 70
   257
  9
$OBSLTYPE
280
     0
  9
$INTERSECTIONDISPLAY
280
     0
  9
$INTERSECTIONCOLOR
 70
   257
  9
$DIMASSOC
280
     1
  9
$PROJECTNAME
  1

  9
$CAMERADISPLAY
290
     0
  9
$LENSLENGTH
 40
50.0
  9
$CAMERAHEIGHT
 40
0.0
  9
$STEPSPERSEC
 40
2.0
  9
$STEPSIZE
 40
6.0
  9
$3DDWFPREC
 40
2.0
  9
$PSOLWIDTH
 40
0.25
  9
$PSOLHEIGHT
 40
4.0
  9
$LOFTANG1
 40
1.570796326794896
  9
$LOFTANG2
 40
1.570796326794896
  9
$LOFTMAG1
 40
0.0
  9
$LOFTMAG2
 40
0.0
  9
$LOFTPARAM
 70
     7
  9
$LOFTNORMALS
280
     1
  9
$LATITUDE
 40
37.795
  9
$LONGITUDE
 40
-122.394
  9
$NORTHDIRECTION
 40
0.0
  9
$TIMEZONE
 70
 -8000
  9
$LIGHTGLYPHDISPLAY
280
     1
  9
$TILEMODELIGHTSYNCH
280
     1
  9
$CMATERIAL
347
377
  9
$SOLIDHIST
280
     0
  9
$SHOWHIST
280
     1
  9
$DWFFRAME
280
     2
  9
$DGNFRAME
280
     0
  9
$REALWORLDSCALE
290
     1
  9
$INTERFERECOLOR
 62
     1
  9
$INTERFEREOBJVS
345
399
  9
$INTERFEREVPVS
346
396
  9
$CSHADOW
280
     0
  9
$SHADOWPLANELOCATION
 40
0.0
  0
ENDSEC
  0
SECTION
  2
CLASSES
  0
CLASS
  1
ACDBDICTIONARYWDFLT
  2
AcDbDictionaryWithDefault
  3
ObjectDBX Classes
 90
        0
 91
        1
280
     0
281
     0
  0
CLASS
  1
MATERIAL
  2
AcDbMaterial
  3
ObjectDBX Classes
 90
     1153
 91
        3
280
     0
281
     0
  0
CLASS
  1
VISUALSTYLE
  2
AcDbVisualStyle
  3
ObjectDBX Classes
 90
     4095
 91
       24
280
     0
281
     0
  0
CLASS
  1
TABLESTYLE
  2
AcDbTableStyle
  3
ObjectDBX Classes
 90
     4095
 91
        1
280
     0
281
     0
  0
CLASS
  1
SCALE
  2
AcDbScale
  3
ObjectDBX Classes
 90
     1153
 91
       17
280
     0
281
     0
  0
CLASS
  1
MLEADERSTYLE
  2
AcDbMLeaderStyle
  3
ACDB_MLEADERSTYLE_CLASS
 90
     4095
 91
        1
280
     0
281
     0
  0
CLASS
  1
ACDBSECTIONVIEWSTYLE
  2
AcDbSectionViewStyle
  3
ObjectDBX Classes
 90
     1025
 91
        1
280
     0
281
     0
  0
CLASS
  1
ACDBDETAILVIEWSTYLE
  2
AcDbDetailViewStyle
  3
ObjectDBX Classes
 90
     1025
 91
        1
280
     0
281
     0
  0
CLASS
  1
DICTIONARYVAR
  2
AcDbDictionaryVar
  3
ObjectDBX Classes
 90
        0
 91
        9
280
     0
281
     0
  0
CLASS
  1
CELLSTYLEMAP
  2
AcDbCellStyleMap
  3
ObjectDBX Classes
 90
     1152
 91
        3
280
     0
281
     0
  0
ENDSEC
  0
SECTION
  2
TABLES
  0
TABLE
  2
VPORT
  5
8
330
0
100
AcDbSymbolTable
 70
     1
  0
VPORT
  5
351
330
8
100
AcDbSymbolTableRecord
100
AcDbViewportTableRecord
  2
*ACTIVE
 70
     0
 10
0.0
 20
0.0
 11
1.0
 21
1.0
 12
315.5502538633423
 22
633.8930621096832
 13
0.0
 23
0.0
 14
0.5
 24
0.5
 15
0.5
 25
0.5
 16
0.0
 26
0.0
 36
1.0
 17
0.0
 27
0.0
 37
0.0
 40
1840.714327514407
 41
2.153645833333333
 42
50.0
 43
0.0
 44
0.0
 50
0.0
 51
0.0
 71
     0
 72
   100
 73
     1
 74
     3
 75
     0
 76
     0
 77
     0
 78
     0
281
     0
 65
     1
110
0.0
120
0.0
130
0.0
111
1.0
121
0.0
131
0.0
112
0.0
122
1.0
132
0.0
 79
     0
146
0.0
348
395
 60
     3
 61
     5
292
     1
282
     1
141
0.0
142
0.0
 63
   250
421
  3355443
1001
ACAD_NAV_VCDISPLAY
1070
     3
  0
ENDTAB
  0
TABLE
  2
LTYPE
  5
5
330
0
100
AcDbSymbolTable
 70
     2
  0
LTYPE
  5
14
330
5
100
AcDbSymbolTableRecord
100
AcDbLinetypeTableRecord
  2
BYBLOCK
 70
     0
  3

 72
    65
 73
     0
 40
0.0
  0
LTYPE
  5
15
330
5
100
AcDbSymbolTableRecord
100
AcDbLinetypeTableRecord
  2
BYLAYER
 70
     0
  3

 72
    65
 73
     0
 40
0.0
  0
LTYPE
  5
16
330
5
100
AcDbSymbolTableRecord
100
AcDbLinetypeTableRecord
  2
CONTINUOUS
 70
     0
  3
Solid line
 72
    65
 73
     0
 40
0.0
  0
ENDTAB
  0
TABLE
  2
LAYER
  5
2
102
{ACAD_XDICTIONARY
360
435
102
}
330
0
100
AcDbSymbolTable
 70
     3
  0
LAYER
  5
10
102
{ACAD_XDICTIONARY
360
3EC
102
}
330
2
100
AcDbSymbolTableRecord
100
AcDbLayerTableRecord
  2
0
 70
     0
 62
     7
  6
CONTINUOUS
370
    -3
390
1DE
347
387
  0
LAYER
  5
BA
102
{ACAD_XDICTIONARY
360
3EE
102
}
330
2
100
AcDbSymbolTableRecord
100
AcDbLayerTableRecord
  2
PV-174
 70
     2
 62
     7
  6
CONTINUOUS
370
    -3
390
1DE
347
387
  0
LAYER
  5
3D0
330
2
100
AcDbSymbolTableRecord
100
AcDbLayerTableRecord
  2
Defpoints
 70
     0
 62
     7
  6
CONTINUOUS
290
     0
370
    -3
390
1DE
347
387
  0
ENDTAB
  0
TABLE
  2
STYLE
  5
3
330
0
100
AcDbSymbolTable
 70
     1
  0
STYLE
  5
11
330
3
100
AcDbSymbolTableRecord
100
AcDbTextStyleTableRecord
  2
STANDARD
 70
     0
 40
0.0
 41
1.0
 50
0.0
 71
     0
 42
0.2
  3
txt
  4

  0
ENDTAB
  0
TABLE
  2
VIEW
  5
6
330
0
100
AcDbSymbolTable
 70
     2
  0
ENDTAB
  0
TABLE
  2
UCS
  5
7
330
0
100
AcDbSymbolTable
 70
     0
  0
ENDTAB
  0
TABLE
  2
APPID
  5
9
330
0
100
AcDbSymbolTable
 70
     2
  0
APPID
  5
12
330
9
100
AcDbSymbolTableRecord
100
AcDbRegAppTableRecord
  2
ACAD
 70
     0
  0
APPID
  5
3FA
330
9
100
AcDbSymbolTableRecord
100
AcDbRegAppTableRecord
  2
ACAD_NAV_VCDISPLAY
 70
     0
  0
ENDTAB
  0
TABLE
  2
DIMSTYLE
  5
A
330
0
100
AcDbSymbolTable
 70
     2
100
AcDbDimStyleTable
 71
     1
340
27
  0
DIMSTYLE
105
27
330
A
100
AcDbSymbolTableRecord
100
AcDbDimStyleTableRecord
  2
STANDARD
 70
     0
340
11
  0
ENDTAB
  0
TABLE
  2
BLOCK_RECORD
  5
1
330
0
100
AcDbSymbolTable
 70
    11
  0
BLOCK_RECORD
  5
1F
102
{ACAD_XDICTIONARY
360
1D7
102
}
330
1
100
AcDbSymbolTableRecord
100
AcDbBlockTableRecord
  2
*MODEL_SPACE
340
3C3
 70
     0
280
     1
281
     0
  0
BLOCK_RECORD
  5
1B
102
{ACAD_XDICTIONARY
360
1D5
102
}
330
1
100
AcDbSymbolTableRecord
100
AcDbBlockTableRecord
  2
*PAPER_SPACE
340
3C4
 70
     0
280
     1
281
     0
  0
BLOCK_RECORD
  5
48
330
1
100
AcDbSymbolTableRecord
100
AcDbBlockTableRecord
  2
*U0
340
0
102
{BLKREFS
331
BC
102
}
 70
     0
280
     1
281
     0
  0
BLOCK_RECORD
  5
BB
330
1
100
AcDbSymbolTableRecord
100
AcDbBlockTableRecord
  2
FRONT
340
0
 70
     0
280
     1
281
     0
  0
BLOCK_RECORD
  5
C0
330
1
100
AcDbSymbolTableRecord
100
AcDbBlockTableRecord
  2
*U2
340
0
102
{BLKREFS
331
11B
102
}
 70
     0
280
     1
281
     0
  0
BLOCK_RECORD
  5
11A
330
1
100
AcDbSymbolTableRecord
100
AcDbBlockTableRecord
  2
LEFT
340
0
 70
     0
280
     1
281
     0
  0
BLOCK_RECORD
  5
11F
330
1
100
AcDbSymbolTableRecord
100
AcDbBlockTableRecord
  2
*U4
340
0
102
{BLKREFS
331
169
102
}
 70
     0
280
     1
281
     0
  0
BLOCK_RECORD
  5
168
330
1
100
AcDbSymbolTableRecord
100
AcDbBlockTableRecord
  2
RIGHT
340
0
 70
     0
280
     1
281
     0
  0
BLOCK_RECORD
  5
16D
330
1
100
AcDbSymbolTableRecord
100
AcDbBlockTableRecord
  2
*U6
340
0
102
{BLKREFS
331
1D0
102
}
 70
     0
280
     1
281
     0
  0
BLOCK_RECORD
  5
1CF
330
1
100
AcDbSymbolTableRecord
100
AcDbBlockTableRecord
  2
TOP
340
0
 70
     0
280
     1
281
     0
  0
BLOCK_RECORD
  5
3D1
330
1
100
AcDbSymbolTableRecord
100
AcDbBlockTableRecord
  2
*D9
340
0
 70
     0
280
     1
281
     0
  0
BLOCK_RECORD
  5
3DF
330
1
100
AcDbSymbolTableRecord
100
AcDbBlockTableRecord
  2
*D10
340
0
 70
     0
280
     1
281
     0
  0
ENDTAB
  0
ENDSEC
  0
SECTION
  2
BLOCKS
  0
BLOCK
  5
20
330
1F
100
AcDbEntity
  8
0
100
AcDbBlockBegin
  2
*MODEL_SPACE
 70
     0
 10
0.0
 20
0.0
 30
0.0
  3
*MODEL_SPACE
  1

  0
ENDBLK
  5
21
330
1F
100
AcDbEntity
  8
0
100
AcDbBlockEnd
  0
BLOCK
  5
1C
330
1B
100
AcDbEntity
 67
     1
  8
0
100
AcDbBlockBegin
  2
*PAPER_SPACE
 70
     0
 10
0.0
 20
0.0
 30
0.0
  3
*PAPER_SPACE
  1

  0
ENDBLK
  5
1D
330
1B
100
AcDbEntity
 67
     1
  8
0
100
AcDbBlockEnd
  0
BLOCK
  5
B7
330
48
100
AcDbEntity
  8
0
100
AcDbBlockBegin
  2
*U0
 70
     1
 10
0.0
 20
0.0
 30
0.0
  3
*U0
  1
*ANON
  0
ARC
  5
49
330
48
100
AcDbEntity
  8
PV-174
100
AcDbCircle
 10
-399.5
 20
1100.5
 30
0.0
 40
16.5
210
0.0
220
-1.0
230
0.0
100
AcDbArc
 50
0.0000000000007895
 51
180.0000000000015
  0
LINE
  5
4A
330
48
100
AcDbEntity
  8
PV-174
100
AcDbLine
 10
-411.4145831472883
 20
0.0
 30
1051.5
 11
-383.0
 21
0.0
 31
1051.5
  0
ARC
  5
4B
330
48
100
AcDbEntity
  8
PV-174
100
AcDbCircle
 10
0.0
 20
0.0
 30
0.0
 40
16.5
210
0.0
220
-1.0
230
0.0
100
AcDbArc
 50
269.9999999999997
 51
0.0
  0
ARC
  5
4C
330
48
100
AcDbEntity
  8
PV-174
100
AcDbCircle
 10
0.0
 20
0.0
 30
0.0
 40
16.5
210
0.0
220
-1.0
230
0.0
100
AcDbArc
 50
359.9999999999992
 51
89.99999999999941
  0
LINE
  5
4D
330
48
100
AcDbEntity
  8
PV-174
100
AcDbLine
 10
-416.5
 20
0.0
 30
1051.5
 11
-411.4145831472881
 21
0.0
 31
1051.5
  0
LINE
  5
4E
330
48
100
AcDbEntity
  8
PV-174
100
AcDbLine
 10
-457.8499999999983
 20
0.0
 30
752.5000000000224
 11
-457.8499999999983
 21
0.0
 31
752.3845052912356
  0
LINE
  5
4F
330
48
100
AcDbEntity
  8
PV-174
100
AcDbLine
 10
-457.8499999999983
 20
0.0
 30
752.3845052912356
 11
-457.8499999999981
 21
0.0
 31
735.5917600020634
  0
LINE
  5
50
330
48
100
AcDbEntity
  8
PV-174
100
AcDbLine
 10
-457.8499999999983
 20
0.0
 30
735.5917600020634
 11
-457.8499999999981
 21
0.0
 31
714.5000000000224
  0
LINE
  5
51
330
48
100
AcDbEntity
  8
PV-174
100
AcDbLine
 10
-432.3499999999984
 20
0.0
 30
747.6421356237532
 11
-432.3499999999981
 21
0.0
 31
713.5000000000224
  0
LINE
  5
52
330
48
100
AcDbEntity
  8
PV-174
100
AcDbLine
 10
-432.3499999999983
 20
0.0
 30
753.5000000000223
 11
-432.3499999999984
 21
0.0
 31
747.642135623753
  0
ELLIPSE
  5
53
330
48
100
AcDbEntity
  8
PV-174
100
AcDbEllipse
 10
-399.5
 20
0.0
 30
668.6684929172955
 11
12.70449773839052
 21
0.0
 31
0.0
210
0.0
220
-1.0
230
0.0
 40
0.9961946980917455
 41
0.0
 42
6.283185307179585
  0
ELLIPSE
  5
54
330
48
100
AcDbEntity
  8
PV-174
100
AcDbEllipse
 10
-399.5
 20
0.0
 30
668.5978702460024
 11
-18.81828199961667
 21
0.0
 31
0.0
210
0.0
220
-1.0
230
0.0
 40
0.9961946980917455
 41
-2.409769549797641
 42
-0.7318231037921505
  0
SPLINE
  5
55
330
48
100
AcDbEntity
  8
PV-174
100
AcDbSpline
210
0.0
220
1.0
230
0.0
 70
     8
 71
     3
 72
    14
 73
    10
 74
     0
 42
0.000000001
 43
0.0000000001
 40
8.794524056531006
 40
8.794524056531006
 40
8.794524056531006
 40
8.794524056531006
 40
9.579456439527339
 40
9.579456439527339
 40
10.36438882252367
 40
10.36438882252367
 40
11.09774755945768
 40
11.09774755945768
 40
11.18149517898411
 40
11.18149517898411
 40
11.18149517898411
 40
11.18149517898411
 10
-384.5
 20
0.0
 30
683.358454209307
 10
-384.5
 20
0.0
 30
683.1491273006487
 10
-384.5306942317447
 20
0.0
 30
682.9183367455665
 10
-384.6488896239687
 20
0.0
 30
682.4497980671536
 10
-384.7356370455948
 20
0.0
 30
682.2114761096484
 10
-384.9166562715517
 20
0.0
 30
681.7840790240762
 10
-385.0260276863408
 20
0.0
 30
681.555967003418
 10
-385.1570159190878
 20
0.0
 30
681.298885388317
 10
-385.1705384670473
 20
0.0
 30
681.272501647003
 10
-385.1841311339803
 20
0.0
 30
681.2461123509414
  0
SPLINE
  5
56
330
48
100
AcDbEntity
  8
PV-174
100
AcDbSpline
210
0.0
220
1.0
230
0.0
 70
     8
 71
     3
 72
    20
 73
    16
 74
     0
 42
0.000000001
 43
0.0000000001
 40
1.658125044755959
 40
1.658125044755959
 40
1.658125044755959
 40
1.658125044755959
 40
1.696828082632773
 40
1.696828082632773
 40
1.798652902623284
 40
1.798652902623284
 40
1.900477722613793
 40
1.900477722613793
 40
1.93829658602752
 40
1.93829658602752
 40
1.976115449441244
 40
1.976115449441244
 40
2.029036545889155
 40
2.029036545889155
 40
2.081957642337066
 40
2.081957642337066
 40
2.081957642337066
 40
2.081957642337066
 10
-385.1841311339803
 20
0.0
 30
681.2461123509414
 10
-385.1901805871519
 20
0.0
 30
681.2343677233752
 10
-385.1964387265077
 20
0.0
 30
681.2227902675581
 10
-385.2199728574349
 20
0.0
 30
681.1816513229367
 10
-385.2383846036464
 20
0.0
 30
681.1537182049471
 10
-385.2801872209338
 20
0.0
 30
681.1044942705964
 10
-385.3029345420869
 20
0.0
 30
681.0826685452097
 10
-385.3446001318986
 20
0.0
 30
681.0638355969752
 10
-385.3576266919933
 20
0.0
 30
681.0599463573915
 10
-385.3842297115773
 20
0.0
 30
681.057502768006
 10
-385.3978109131479
 20
0.0
 30
681.0589891330231
 10
-385.4269043768715
 20
0.0
 30
681.0670313275046
 10
-385.4436921354066
 20
0.0
 30
681.0759106161047
 10
-385.4743144368695
 20
0.0
 30
681.0983530207053
 10
-385.4882122305017
 20
0.0
 30
681.111830455724
 10
-385.4999999999998
 20
0.0
 30
681.1249041964583
  0
SPLINE
  5
57
330
48
100
AcDbEntity
  8
PV-174
100
AcDbSpline
210
0.0
220
1.0
230
0.0
 70
     8
 71
     3
 72
    20
 73
    16
 74
     0
 42
0.000000001
 43
0.0000000001
 40
-2.081957642337048
 40
-2.081957642337048
 40
-2.081957642337048
 40
-2.081957642337048
 40
-2.029036545889133
 40
-2.029036545889133
 40
-1.976115449441221
 40
-1.976115449441221
 40
-1.9382965860275
 40
-1.9382965860275
 40
-1.900477722613779
 40
-1.900477722613779
 40
-1.79865290262327
 40
-1.79865290262327
 40
-1.696828082632761
 40
-1.696828082632761
 40
-1.658125044755919
 40
-1.658125044755919
 40
-1.658125044755919
 40
-1.658125044755919
 10
-413.4999999999998
 20
0.0
 30
681.1249041964583
 10
-413.5117877694983
 20
0.0
 30
681.111830455724
 10
-413.5256855631303
 20
0.0
 30
681.0983530207053
 10
-413.5563078645933
 20
0.0
 30
681.0759106161047
 10
-413.5730956231284
 20
0.0
 30
681.0670313275046
 10
-413.6021890868518
 20
0.0
 30
681.0589891330231
 10
-413.6157702884226
 20
0.0
 30
681.057502768006
 10
-413.6423733080066
 20
0.0
 30
681.0599463573915
 10
-413.655399868101
 20
0.0
 30
681.0638355969752
 10
-413.6970654579129
 20
0.0
 30
681.0826685452097
 10
-413.7198127790661
 20
0.0
 30
681.1044942705964
 10
-413.7616153963533
 20
0.0
 30
681.1537182049471
 10
-413.780027142565
 20
0.0
 30
681.1816513229367
 10
-413.803561273492
 20
0.0
 30
681.2227902675581
 10
-413.8098194128478
 20
0.0
 30
681.2343677233752
 10
-413.8158688660197
 20
0.0
 30
681.2461123509414
  0
SPLINE
  5
58
330
48
100
AcDbEntity
  8
PV-174
100
AcDbSpline
210
0.0
220
1.0
230
0.0
 70
     8
 71
     3
 72
    14
 73
    10
 74
     0
 42
0.000000001
 43
0.0000000001
 40
0.649611117407552
 40
0.649611117407552
 40
0.649611117407552
 40
0.649611117407552
 40
0.7333587369340008
 40
0.7333587369340008
 40
1.466717473868001
 40
1.466717473868001
 40
2.251649856864295
 40
2.251649856864295
 40
3.036582239860591
 40
3.036582239860591
 40
3.036582239860591
 40
3.036582239860591
 10
-413.8158688660197
 20
0.0
 30
681.2461123509414
 10
-413.8294615329527
 20
0.0
 30
681.272501647003
 10
-413.8429840809121
 20
0.0
 30
681.298885388317
 10
-413.9739723136591
 20
0.0
 30
681.555967003418
 10
-414.0833437284483
 20
0.0
 30
681.7840790240762
 10
-414.2643629544052
 20
0.0
 30
682.2114761096484
 10
-414.3511103760313
 20
0.0
 30
682.4497980671541
 10
-414.4693057682553
 20
0.0
 30
682.9183367455668
 10
-414.5
 20
0.0
 30
683.1491273006487
 10
-414.5
 20
0.0
 30
683.358454209307
  0
LINE
  5
59
330
48
100
AcDbEntity
  8
PV-174
100
AcDbLine
 10
-414.5
 20
0.0
 30
714.0629695536333
 11
-414.5
 21
0.0
 31
683.358454209307
  0
LINE
  5
5A
330
48
100
AcDbEntity
  8
PV-174
100
AcDbLine
 10
-384.5
 20
0.0
 30
714.0629695536333
 11
-384.5
 21
0.0
 31
683.358454209307
  0
LINE
  5
5B
330
48
100
AcDbEntity
  8
PV-174
100
AcDbLine
 10
-385.4999999999998
 20
0.0
 30
714.3272504910376
 11
-413.4999999999998
 21
0.0
 31
714.3272504910376
  0
SPLINE
  5
5C
330
48
100
AcDbEntity
  8
PV-174
100
AcDbSpline
210
0.0
220
1.0
230
0.0
 70
     8
 71
     3
 72
    14
 73
    10
 74
     0
 42
0.000000001
 43
0.0000000001
 40
0.0
 40
0.0
 40
0.0
 40
0.0
 40
0.3766543382939877
 40
0.3766543382939877
 40
0.7533086765879756
 40
0.7533086765879756
 40
1.135751222155823
 40
1.135751222155823
 40
1.51819376772367
 40
1.51819376772367
 40
1.51819376772367
 40
1.51819376772367
 10
-413.4999999999998
 20
0.0
 30
714.3272504910376
 10
-413.6255514460978
 20
0.0
 30
714.3272504910376
 10
-413.759274080372
 20
0.0
 30
714.319907619771
 10
-414.0048530886025
 20
0.0
 30
714.2908204958063
 10
-414.1167225592957
 20
0.0
 30
714.2691532962786
 10
-414.2946101501778
 20
0.0
 30
714.2204955340373
 10
-414.3720452711098
 20
0.0
 30
714.1901383441815
 10
-414.4747405582842
 20
0.0
 30
714.1263598281631
 10
-414.5
 20
0.0
 30
714.0930038759343
 10
-414.5
 20
0.0
 30
714.0629695536333
  0
SPLINE
  5
5D
330
48
100
AcDbEntity
  8
PV-174
100
AcDbSpline
210
0.0
220
1.0
230
0.0
 70
     8
 71
     3
 72
    14
 73
    10
 74
     0
 42
0.000000001
 43
0.0000000001
 40
-1.51819376772367
 40
-1.51819376772367
 40
-1.51819376772367
 40
-1.51819376772367
 40
-1.135751222155821
 40
-1.135751222155821
 40
-0.7533086765879721
 40
-0.7533086765879721
 40
-0.376654338293986
 40
-0.376654338293986
 40
0.0
 40
0.0
 40
0.0
 40
0.0
 10
-384.5
 20
0.0
 30
714.0629695536333
 10
-384.5
 20
0.0
 30
714.0930038759343
 10
-384.5252594417158
 20
0.0
 30
714.1263598281631
 10
-384.62795472889
 20
0.0
 30
714.1901383441815
 10
-384.705389849822
 20
0.0
 30
714.2204955340373
 10
-384.8832774407043
 20
0.0
 30
714.2691532962786
 10
-384.9951469113972
 20
0.0
 30
714.2908204958063
 10
-385.240725919628
 20
0.0
 30
714.319907619771
 10
-385.374448553902
 20
0.0
 30
714.3272504910376
 10
-385.4999999999998
 20
0.0
 30
714.3272504910376
  0
LINE
  5
5E
330
48
100
AcDbEntity
  8
PV-174
100
AcDbLine
 10
-382.0
 20
0.0
 30
713.4999774556954
 11
-382.0
 21
0.0
 31
753.5000225443489
  0
LINE
  5
5F
330
48
100
AcDbEntity
  8
PV-174
100
AcDbLine
 10
-375.4999999999999
 20
0.0
 30
733.5000000000223
 11
-375.4999999999999
 21
0.0
 31
713.5000000000224
  0
LINE
  5
60
330
48
100
AcDbEntity
  8
PV-174
100
AcDbLine
 10
-375.4999999999999
 20
0.0
 30
753.5000000000223
 11
-375.4999999999999
 21
0.0
 31
733.5000000000222
  0
LINE
  5
61
330
48
100
AcDbEntity
  8
PV-174
100
AcDbLine
 10
-417.0
 20
0.0
 30
753.5000225443489
 11
-417.0
 21
0.0
 31
713.4999774556954
  0
LINE
  5
62
330
48
100
AcDbEntity
  8
PV-174
100
AcDbLine
 10
-423.5
 20
0.0
 30
733.5000000000223
 11
-423.5
 21
0.0
 31
713.5000000000224
  0
LINE
  5
63
330
48
100
AcDbEntity
  8
PV-174
100
AcDbLine
 10
-423.5
 20
0.0
 30
753.5000000000223
 11
-423.5
 21
0.0
 31
733.5000000000222
  0
LINE
  5
64
330
48
100
AcDbEntity
  8
PV-174
100
AcDbLine
 10
-380.5000000000014
 20
0.0
 30
645.5000000000223
 11
-418.5000000000004
 21
0.0
 31
645.5000000000223
  0
LINE
  5
65
330
48
100
AcDbEntity
  8
PV-174
100
AcDbLine
 10
-366.8000000000001
 20
0.0
 30
733.5000000000099
 11
-366.8000000000001
 21
0.0
 31
713.5000000000099
  0
LINE
  5
66
330
48
100
AcDbEntity
  8
PV-174
100
AcDbLine
 10
-366.8000000000001
 20
0.0
 30
753.5000000000097
 11
-366.8000000000001
 21
0.0
 31
733.5000000000094
  0
LINE
  5
67
330
48
100
AcDbEntity
  8
PV-174
100
AcDbLine
 10
-375.3000000000001
 20
0.0
 30
713.5000000000099
 11
-375.3000000000001
 21
0.0
 31
753.5000000000097
  0
LINE
  5
68
330
48
100
AcDbEntity
  8
PV-174
100
AcDbLine
 10
-423.6999999999999
 20
0.0
 30
751.5
 11
-423.5
 21
0.0
 31
751.5
  0
LINE
  5
69
330
48
100
AcDbEntity
  8
PV-174
100
AcDbLine
 10
-375.4999999999999
 20
0.0
 30
751.5
 11
-375.3000000000001
 21
0.0
 31
751.5
  0
LINE
  5
6A
330
48
100
AcDbEntity
  8
PV-174
100
AcDbLine
 10
-375.3000000000007
 20
0.0
 30
748.7999999999998
 11
-375.4999999999999
 21
0.0
 31
748.7999999999998
  0
LINE
  5
6B
330
48
100
AcDbEntity
  8
PV-174
100
AcDbLine
 10
-423.5
 20
0.0
 30
748.7999999999998
 11
-423.6999999999991
 21
0.0
 31
748.7999999999998
  0
LINE
  5
6C
330
48
100
AcDbEntity
  8
PV-174
100
AcDbLine
 10
-423.6999999999991
 20
0.0
 30
718.2000000000221
 11
-423.5
 21
0.0
 31
718.2000000000221
  0
LINE
  5
6D
330
48
100
AcDbEntity
  8
PV-174
100
AcDbLine
 10
-375.4999999999999
 20
0.0
 30
718.2000000000221
 11
-375.3000000000007
 21
0.0
 31
718.2000000000221
  0
LINE
  5
6E
330
48
100
AcDbEntity
  8
PV-174
100
AcDbLine
 10
-375.3000000000001
 20
0.0
 30
715.5000000000219
 11
-375.4999999999999
 21
0.0
 31
715.5000000000219
  0
LINE
  5
6F
330
48
100
AcDbEntity
  8
PV-174
100
AcDbLine
 10
-423.5
 20
0.0
 30
715.5000000000219
 11
-423.6999999999999
 21
0.0
 31
715.5000000000219
  0
LINE
  5
70
330
48
100
AcDbEntity
  8
PV-174
100
AcDbLine
 10
-432.1999999999999
 20
0.0
 30
733.5000000000099
 11
-432.1999999999999
 21
0.0
 31
713.5000000000099
  0
LINE
  5
71
330
48
100
AcDbEntity
  8
PV-174
100
AcDbLine
 10
-432.1999999999999
 20
0.0
 30
753.5000000000097
 11
-432.1999999999999
 21
0.0
 31
733.5000000000094
  0
LINE
  5
72
330
48
100
AcDbEntity
  8
PV-174
100
AcDbLine
 10
-423.6999999999999
 20
0.0
 30
713.5000000000099
 11
-423.6999999999999
 21
0.0
 31
753.5000000000097
  0
LINE
  5
73
330
48
100
AcDbEntity
  8
PV-174
100
AcDbLine
 10
-364.6499999999999
 20
0.0
 30
751.5000000000221
 11
-364.65
 21
0.0
 31
715.5000000000223
  0
LINE
  5
74
330
48
100
AcDbEntity
  8
PV-174
100
AcDbLine
 10
-366.6499999999999
 20
0.0
 30
753.5000000000223
 11
-366.65
 21
0.0
 31
713.5000000000221
  0
LINE
  5
75
330
48
100
AcDbEntity
  8
PV-174
100
AcDbLine
 10
-423.6999999999999
 20
0.0
 30
727.8431457505305
 11
-423.5
 21
0.0
 31
727.8431457505305
  0
LINE
  5
76
330
48
100
AcDbEntity
  8
PV-174
100
AcDbLine
 10
-423.6999999999999
 20
0.0
 30
727.7044450422877
 11
-423.5
 21
0.0
 31
727.7044450422877
  0
LINE
  5
77
330
48
100
AcDbEntity
  8
PV-174
100
AcDbLine
 10
-423.5
 20
0.0
 30
725.7725933897104
 11
-423.6999999999999
 21
0.0
 31
725.7725933897104
  0
ARC
  5
78
330
48
100
AcDbEntity
  8
PV-174
100
AcDbCircle
 10
-400.0
 20
1100.0
 30
0.0
 40
35.0
210
0.0
220
-1.0
230
0.0
100
AcDbArc
 50
299.0592810680396
 51
180.0
  0
ARC
  5
79
330
48
100
AcDbEntity
  8
PV-174
100
AcDbCircle
 10
-400.0
 20
1100.0
 30
0.0
 40
35.0
210
0.0
220
-1.0
230
0.0
100
AcDbArc
 50
179.9999999999992
 51
242.7971055877847
  0
ARC
  5
7A
330
48
100
AcDbEntity
  8
PV-174
100
AcDbCircle
 10
-400.0
 20
1100.0
 30
0.0
 40
16.8
210
0.0
220
-1.0
230
0.0
100
AcDbArc
 50
108.7990428793146
 51
180.0000000000002
  0
ARC
  5
7B
330
48
100
AcDbEntity
  8
PV-174
100
AcDbCircle
 10
-400.0
 20
1100.0
 30
0.0
 40
16.8
210
0.0
220
-1.0
230
0.0
100
AcDbArc
 50
179.9999999999992
 51
197.7527901619462
  0
ARC
  5
7C
330
48
100
AcDbEntity
  8
PV-174
100
AcDbCircle
 10
-400.0
 20
115.0
 30
0.0
 40
35.0
210
0.0
220
-1.0
230
0.0
100
AcDbArc
 50
118.1270682186047
 51
180.0
  0
ARC
  5
7D
330
48
100
AcDbEntity
  8
PV-174
100
AcDbCircle
 10
-400.0
 20
115.0
 30
0.0
 40
35.0
210
0.0
220
-1.0
230
0.0
100
AcDbArc
 50
298.1270682186039
 51
61.87293178139518
  0
ARC
  5
7E
330
48
100
AcDbEntity
  8
PV-174
100
AcDbCircle
 10
-400.0
 20
115.0
 30
0.0
 40
35.0
210
0.0
220
-1.0
230
0.0
100
AcDbArc
 50
179.9999999999992
 51
241.8729317813944
  0
ARC
  5
7F
330
48
100
AcDbEntity
  8
PV-174
100
AcDbCircle
 10
-400.0
 20
115.0
 30
0.0
 40
16.8
210
0.0
220
-1.0
230
0.0
100
AcDbArc
 50
169.1559374363031
 51
180.0000000000002
  0
ARC
  5
80
330
48
100
AcDbEntity
  8
PV-174
100
AcDbCircle
 10
-400.0
 20
115.0
 30
0.0
 40
16.8
210
0.0
220
-1.0
230
0.0
100
AcDbArc
 50
349.1559374363021
 51
10.84406256369683
  0
ARC
  5
81
330
48
100
AcDbEntity
  8
PV-174
100
AcDbCircle
 10
-400.0
 20
115.0
 30
0.0
 40
16.8
210
0.0
220
-1.0
230
0.0
100
AcDbArc
 50
179.999999999999
 51
190.844062563696
  0
ARC
  5
82
330
48
100
AcDbEntity
  8
PV-174
100
AcDbCircle
 10
0.0
 20
0.0
 30
0.0
 40
35.0
210
0.0
220
-1.0
230
0.0
100
AcDbArc
 50
208.1270682186039
 51
151.8729317813952
  0
ARC
  5
83
330
48
100
AcDbEntity
  8
PV-174
100
AcDbCircle
 10
0.0
 20
0.0
 30
0.0
 40
16.8
210
0.0
220
-1.0
230
0.0
100
AcDbArc
 50
259.1559374363022
 51
100.8440625636968
  0
LINE
  5
84
330
48
100
AcDbEntity
  8
PV-174
100
AcDbLine
 10
-375.4999999999999
 20
0.0
 30
725.5000000000227
 11
-375.3000000000001
 21
0.0
 31
725.5000000000227
  0
LINE
  5
85
330
48
100
AcDbEntity
  8
PV-174
100
AcDbLine
 10
-423.6999999999999
 20
0.0
 30
725.5000000000229
 11
-423.5
 21
0.0
 31
725.5000000000229
  0
LINE
  5
86
330
48
100
AcDbEntity
  8
PV-174
100
AcDbLine
 10
-375.5000000000002
 20
0.0
 30
741.5000000000218
 11
-375.3000000000003
 21
0.0
 31
741.5000000000218
  0
LINE
  5
87
330
48
100
AcDbEntity
  8
PV-174
100
AcDbLine
 10
-423.6999999999999
 20
0.0
 30
741.5000000000222
 11
-423.5000000000002
 21
0.0
 31
741.5000000000219
  0
LINE
  5
88
330
48
100
AcDbEntity
  8
PV-174
100
AcDbLine
 10
-366.8000000000001
 20
0.0
 30
716.1000000000219
 11
-366.65
 21
0.0
 31
716.1000000000219
  0
LINE
  5
89
330
48
100
AcDbEntity
  8
PV-174
100
AcDbLine
 10
-366.8000000000001
 20
0.0
 30
750.9000000000225
 11
-366.6499999999999
 21
0.0
 31
750.9000000000225
  0
LINE
  5
8A
330
48
100
AcDbEntity
  8
PV-174
100
AcDbLine
 10
-423.6999999999999
 20
0.0
 30
753.5000000000097
 11
-432.1999999999999
 21
0.0
 31
753.5000000000097
  0
LINE
  5
8B
330
48
100
AcDbEntity
  8
PV-174
100
AcDbLine
 10
-423.6999999999999
 20
0.0
 30
713.5000000000099
 11
-432.1999999999999
 21
0.0
 31
713.5000000000099
  0
LINE
  5
8C
330
48
100
AcDbEntity
  8
PV-174
100
AcDbLine
 10
-366.8000000000001
 20
0.0
 30
753.5000000000097
 11
-375.3000000000001
 21
0.0
 31
753.5000000000097
  0
LINE
  5
8D
330
48
100
AcDbEntity
  8
PV-174
100
AcDbLine
 10
-366.8000000000001
 20
0.0
 30
713.5000000000099
 11
-375.3000000000001
 21
0.0
 31
713.5000000000099
  0
LINE
  5
8E
330
48
100
AcDbEntity
  8
PV-174
100
AcDbLine
 10
-379.8000000000012
 20
0.0
 30
646.2000000000219
 11
-379.8000000000009
 21
0.0
 31
657.4131063834429
  0
LINE
  5
8F
330
48
100
AcDbEntity
  8
PV-174
100
AcDbLine
 10
-379.8000000000009
 20
0.0
 30
679.085388166583
 11
-379.8000000000005
 21
0.0
 31
713.5000000000224
  0
LINE
  5
90
330
48
100
AcDbEntity
  8
PV-174
100
AcDbLine
 10
-419.2000000000008
 20
0.0
 30
646.200000000022
 11
-419.2000000000006
 21
0.0
 31
657.4131063834462
  0
LINE
  5
91
330
48
100
AcDbEntity
  8
PV-174
100
AcDbLine
 10
-419.2000000000005
 20
0.0
 30
679.0853881665806
 11
-419.2000000000001
 21
0.0
 31
713.5000000000224
  0
LINE
  5
92
330
48
100
AcDbEntity
  8
PV-174
100
AcDbLine
 10
-417.0
 20
0.0
 30
753.5000000000223
 11
-423.5
 21
0.0
 31
753.5000000000223
  0
LINE
  5
93
330
48
100
AcDbEntity
  8
PV-174
100
AcDbLine
 10
-417.0
 20
0.0
 30
713.5000000000224
 11
-423.5
 21
0.0
 31
713.5000000000224
  0
LINE
  5
94
330
48
100
AcDbEntity
  8
PV-174
100
AcDbLine
 10
-375.4999999999999
 20
0.0
 30
753.5000000000223
 11
-382.0
 21
0.0
 31
753.5000000000223
  0
LINE
  5
95
330
48
100
AcDbEntity
  8
PV-174
100
AcDbLine
 10
-375.4999999999999
 20
0.0
 30
713.5000000000224
 11
-382.0
 21
0.0
 31
713.5000000000224
  0
LINE
  5
96
330
48
100
AcDbEntity
  8
PV-174
100
AcDbLine
 10
-382.0
 20
0.0
 30
753.5000225443489
 11
-417.0
 21
0.0
 31
753.5000225443489
  0
LINE
  5
97
330
48
100
AcDbEntity
  8
PV-174
100
AcDbLine
 10
-414.5
 20
0.0
 30
713.4999774556954
 11
-417.0
 21
0.0
 31
713.4999774556954
  0
LINE
  5
98
330
48
100
AcDbEntity
  8
PV-174
100
AcDbLine
 10
-382.0
 20
0.0
 30
713.4999774556954
 11
-384.5
 21
0.0
 31
713.4999774556954
  0
LINE
  5
99
330
48
100
AcDbEntity
  8
PV-174
100
AcDbLine
 10
-456.8499999999981
 20
0.0
 30
713.5000000000224
 11
-432.3499999999981
 21
0.0
 31
713.5000000000224
  0
LINE
  5
9A
330
48
100
AcDbEntity
  8
PV-174
100
AcDbLine
 10
-456.8499999999983
 20
0.0
 30
753.5000000000223
 11
-432.3499999999983
 21
0.0
 31
753.5000000000223
  0
LINE
  5
9B
330
48
100
AcDbEntity
  8
PV-174
100
AcDbLine
 10
-453.5281860625143
 20
0.0
 30
739.9681985355424
 11
-454.1807611844554
 21
0.0
 31
739.9681985355424
  0
LINE
  5
9C
330
48
100
AcDbEntity
  8
PV-174
100
AcDbLine
 10
-432.3499999999981
 20
0.0
 30
716.1000000000223
 11
-432.1999999999999
 21
0.0
 31
716.1000000000223
  0
LINE
  5
9D
330
48
100
AcDbEntity
  8
PV-174
100
AcDbLine
 10
-432.3499999999983
 20
0.0
 30
750.9000000000225
 11
-432.1999999999999
 21
0.0
 31
750.9000000000225
  0
LINE
  5
9E
330
48
100
AcDbEntity
  8
PV-174
100
AcDbLine
 10
-48.5
 20
0.0
 30
16.5
 11
-351.5
 21
0.0
 31
16.5
  0
LINE
  5
9F
330
48
100
AcDbEntity
  8
PV-174
100
AcDbLine
 10
-48.5
 20
0.0
 30
-16.5
 11
-351.5
 21
0.0
 31
-16.5
  0
LINE
  5
A0
330
48
100
AcDbEntity
  8
PV-174
100
AcDbLine
 10
-383.4999999999998
 20
0.0
 30
48.5
 11
-383.4999999999998
 21
0.0
 31
645.5000000000223
  0
LINE
  5
A1
330
48
100
AcDbEntity
  8
PV-174
100
AcDbLine
 10
-383.4999999999998
 20
0.0
 30
753.5000225443489
 11
-383.4999999999998
 21
0.0
 31
1051.5
  0
LINE
  5
A2
330
48
100
AcDbEntity
  8
PV-174
100
AcDbLine
 10
-416.5
 20
0.0
 30
48.5
 11
-416.5
 21
0.0
 31
645.5000000000226
  0
LINE
  5
A3
330
48
100
AcDbEntity
  8
PV-174
100
AcDbLine
 10
-416.5
 20
0.0
 30
753.5000225443489
 11
-416.5
 21
0.0
 31
1051.5
  0
ARC
  5
A4
330
48
100
AcDbEntity
  8
PV-174
100
AcDbCircle
 10
-366.6499999999999
 20
751.5000000000221
 30
0.0
 40
1.999999999999998
210
0.0
220
-1.0
230
0.0
100
AcDbArc
 50
0.0000000000003223
 51
90.00000000000033
  0
ARC
  5
A5
330
48
100
AcDbEntity
  8
PV-174
100
AcDbCircle
 10
-366.65
 20
715.5000000000223
 30
0.0
 40
1.999999999999998
210
0.0
220
-1.0
230
0.0
100
AcDbArc
 50
270.0000000000002
 51
0.0000000000003223
  0
ARC
  5
A6
330
48
100
AcDbEntity
  8
PV-174
100
AcDbCircle
 10
-418.5000000000004
 20
646.200000000022
 30
0.0
 40
0.6999999999999319
210
0.0
220
-1.0
230
0.0
100
AcDbArc
 50
179.9999999999907
 51
270.0
  0
ARC
  5
A7
330
48
100
AcDbEntity
  8
PV-174
100
AcDbCircle
 10
-380.5000000000014
 20
646.200000000022
 30
0.0
 40
0.6999999999999319
210
0.0
220
-1.0
230
0.0
100
AcDbArc
 50
270.0
 51
0.0
  0
SPLINE
  5
A8
330
48
100
AcDbEntity
  8
PV-174
100
AcDbSpline
210
0.0
220
1.0
230
0.0
 70
     8
 71
     3
 72
    35
 73
    31
 74
     0
 42
0.000000001
 43
0.0000000001
 40
132.3072857087945
 40
132.3072857087945
 40
132.3072857087945
 40
132.3072857087945
 40
136.7855331456034
 40
136.7855331456034
 40
141.7555702341805
 40
141.7555702341805
 40
141.7555702341805
 40
150.5350853176014
 40
150.5350853176014
 40
159.3158069937373
 40
159.3158069937373
 40
168.101503115555
 40
168.101503115555
 40
176.8930034281827
 40
176.8930034281827
 40
185.6877688664843
 40
185.6877688664843
 40
194.4814480186283
 40
194.4814480186283
 40
203.2703476028081
 40
203.2703476028081
 40
212.0534605094507
 40
212.0534605094507
 40
220.8330910535007
 40
220.8330910535007
 40
229.6136189378028
 40
229.6136189378028
 40
238.398942885138
 40
238.398942885138
 40
241.1243396664151
 40
241.1243396664151
 40
241.1243396664151
 40
241.1243396664151
 10
-414.4999999908593
 20
0.0
 30
684.9672933626685
 10
-415.6122991448395
 20
0.0
 30
683.9755360623842
 10
-416.6232375889498
 20
0.0
 30
682.8755899359276
 10
-418.5102726698429
 20
0.0
 30
680.3605681641434
 10
-419.3532959145562
 20
0.0
 30
678.9322452029922
 10
-420.0313096871984
 20
0.0
 30
677.4245503131095
 10
-421.2290134543112
 20
0.0
 30
674.7612241062802
 10
-421.8938474834216
 20
0.0
 30
671.8901550312405
 10
-422.0827513796071
 20
0.0
 30
666.0548540206739
 10
-421.6048513107454
 20
0.0
 30
663.1465950807037
 10
-419.5577180544792
 20
0.0
 30
657.6747501631468
 10
-418.0075135086976
 20
0.0
 30
655.1638584316044
 10
-414.0280929061873
 20
0.0
 30
650.8745555375228
 10
-411.636412691928
 20
0.0
 30
649.1377039338641
 10
-406.3192536872269
 20
0.0
 30
646.6757017639308
 10
-403.4443628375879
 20
0.0
 30
645.9744387678481
 10
-397.5874164288867
 20
0.0
 30
645.7105997467959
 10
-394.6612035785858
 20
0.0
 30
646.1503979791286
 10
-389.1442017834746
 20
0.0
 30
648.1235140866138
 10
-386.6058217496196
 20
0.0
 30
649.6374313166715
 10
-382.2553136250526
 20
0.0
 30
653.5493043086177
 10
-380.4842623122859
 20
0.0
 30
655.9093212045998
 10
-377.9493575677193
 20
0.0
 30
661.1727053287171
 10
-377.2093838891905
 20
0.0
 30
664.0254593103967
 10
-376.8673882591222
 20
0.0
 30
669.8537831320318
 10
-377.2687649409044
 20
0.0
 30
672.7734509437165
 10
-379.1714814567368
 20
0.0
 30
678.296688173139
 10
-380.6551599263639
 20
0.0
 30
680.8470897097459
 10
-383.1864972126806
 20
0.0
 30
683.7231072589132
 10
-383.8254283809058
 20
0.0
 30
684.3658233645164
 10
-384.500003624249
 20
0.0
 30
684.9672893047165
  0
SPLINE
  5
A9
330
48
100
AcDbEntity
  8
PV-174
100
AcDbSpline
210
0.0
220
1.0
230
0.0
 70
     8
 71
     3
 72
    24
 73
    20
 74
     0
 42
0.000000001
 43
0.0000000001
 40
0.0
 40
0.0
 40
0.0
 40
0.0
 40
0.0069048149749769
 40
0.0069048149749769
 40
0.0247659649317762
 40
0.0247659649317762
 40
0.0545552763944881
 40
0.0545552763944881
 40
0.0643559091378874
 40
0.0643559091378874
 40
0.0859949234863203
 40
0.0859949234863203
 40
0.1473005450050084
 40
0.1473005450050084
 40
0.1844538307831443
 40
0.1844538307831443
 40
0.2059422517223871
 40
0.2059422517223871
 40
0.2061965395260138
 40
0.2061965395260138
 40
0.2061965395260138
 40
0.2061965395260138
 10
-452.8817633642751
 20
0.0
 30
739.7665895900849
 10
-452.8798750405989
 20
0.0
 30
739.7656276715738
 10
-452.8779913020121
 20
0.0
 30
739.7646590412006
 10
-452.8712512889741
 20
0.0
 30
739.7611608951889
 10
-452.8664211028146
 20
0.0
 30
739.7585933986857
 10
-452.8536170273389
 20
0.0
 30
739.7516266095723
 10
-452.8456982256003
 20
0.0
 30
739.7471492422879
 10
-452.835286887339
 20
0.0
 30
739.7410405713043
 10
-452.8327187848719
 20
0.0
 30
739.7395155071071
 10
-452.8245100336071
 20
0.0
 30
739.73458234094
 10
-452.8189054879875
 20
0.0
 30
739.7311251257213
 10
-452.7975929930557
 20
0.0
 30
739.7176398750242
 10
-452.7822106578364
 20
0.0
 30
739.7071925436962
 10
-452.7580511769725
 20
0.0
 30
739.6896730400481
 10
-452.7490659450247
 20
0.0
 30
739.6828975317641
 10
-452.7350777981606
 20
0.0
 30
739.6719501779792
 10
-452.7299944302779
 20
0.0
 30
739.6678860539737
 10
-452.7248920007888
 20
0.0
 30
739.6637214379876
 10
-452.7248323321136
 20
0.0
 30
739.6636727243684
 10
-452.7247726692741
 20
0.0
 30
739.6636240036229
  0
SPLINE
  5
AA
330
48
100
AcDbEntity
  8
PV-174
100
AcDbSpline
210
0.0
220
1.0
230
0.0
 70
     8
 71
     3
 72
    18
 73
    14
 74
     0
 42
0.000000001
 43
0.0000000001
 40
0.203900170074742
 40
0.203900170074742
 40
0.203900170074742
 40
0.203900170074742
 40
0.4140914887330024
 40
0.4140914887330024
 40
0.5531594004291947
 40
0.5531594004291947
 40
0.9342624836064976
 40
0.9342624836064976
 40
1.058715851533573
 40
1.058715851533573
 40
1.20907934997097
 40
1.20907934997097
 40
1.267392488679218
 40
1.267392488679218
 40
1.267392488679218
 40
1.267392488679218
 10
-453.5282263919198
 20
0.0
 30
739.9682941549456
 10
-453.479847834071
 20
0.0
 30
739.9683013859878
 10
-453.4339109742993
 20
0.0
 30
739.9627442448482
 10
-453.3666490398743
 20
0.0
 30
739.9509418853353
 10
-453.33970807082
 20
0.0
 30
739.9450568028002
 10
-453.2385054694625
 20
0.0
 30
739.9193177516162
 10
-453.1630308944791
 20
0.0
 30
739.8929870716663
 10
-453.0609511623302
 20
0.0
 30
739.8508894433843
 10
-453.0356931760913
 20
0.0
 30
739.8399489057587
 10
-452.9796620128226
 20
0.0
 30
739.8146316330795
 10
-452.9488313012516
 20
0.0
 30
739.8000120039322
 10
-452.9058489291691
 20
0.0
 30
739.7787692178142
 10
-452.8938159159848
 20
0.0
 30
739.7727292009692
 10
-452.8817633642595
 20
0.0
 30
739.7665895900766
  0
SPLINE
  5
AB
330
48
100
AcDbEntity
  8
PV-174
100
AcDbSpline
210
0.0
220
1.0
230
0.0
 70
     8
 71
     3
 72
    20
 73
    16
 74
     0
 42
0.000000001
 43
0.0000000001
 40
1.736023434719105
 40
1.736023434719105
 40
1.736023434719105
 40
1.736023434719105
 40
4.481724718716971
 40
4.481724718716971
 40
8.494256553288714
 40
8.494256553288714
 40
12.2302098530054
 40
12.2302098530054
 40
16.0190034065687
 40
16.0190034065687
 40
20.63191901924623
 40
20.63191901924623
 40
24.55726384241274
 40
24.55726384241274
 40
27.09366019960931
 40
27.09366019960931
 40
27.09366019960931
 40
27.09366019960931
 10
-452.7248488388539
 20
0.0
 30
739.6634746651551
 10
-452.0296757556097
 20
0.0
 30
739.0957167810653
 10
-451.2708255154693
 20
0.0
 30
738.5906909847059
 10
-449.2789558067029
 20
0.0
 30
737.5750786218182
 10
-447.9997698680556
 20
0.0
 30
737.1770341909352
 10
-445.4246433509677
 20
0.0
 30
736.9528701208455
 10
-444.1956601020462
 20
0.0
 30
737.0941822623835
 10
-441.8025807487088
 20
0.0
 30
737.8278307984088
 10
-440.6756601828891
 20
0.0
 30
738.414912426428
 10
-438.431147280174
 20
0.0
 30
740.0174059705887
 10
-437.3610268869009
 20
0.0
 30
741.1024246400549
 10
-435.8091587261653
 20
0.0
 30
743.2438042362782
 10
-435.2666983448252
 20
0.0
 30
744.275439768961
 10
-434.7193905222793
 20
0.0
 30
745.9342552108101
 10
-434.5963456763249
 20
0.0
 30
746.5627152244588
 10
-434.5671135406663
 20
0.0
 30
747.1556480498272
  0
SPLINE
  5
AC
330
48
100
AcDbEntity
  8
PV-174
100
AcDbSpline
210
0.0
220
1.0
230
0.0
 70
     8
 71
     3
 72
    24
 73
    20
 74
     0
 42
0.000000001
 43
0.0000000001
 40
0.0
 40
0.0
 40
0.0
 40
0.0
 40
0.0756974007302869
 40
0.0756974007302869
 40
0.2789853411804089
 40
0.2789853411804089
 40
0.3497529015458669
 40
0.3497529015458669
 40
0.5919349001703657
 40
0.5919349001703657
 40
1.276514795648737
 40
1.276514795648737
 40
1.476316936862741
 40
1.476316936862741
 40
1.827563147716624
 40
1.827563147716624
 40
1.910592365237698
 40
1.910592365237698
 40
1.954297335670278
 40
1.954297335670278
 40
1.954297335670278
 40
1.954297335670278
 10
-457.8499999999984
 20
0.0
 30
735.5917600020634
 10
-457.8499999999984
 20
0.0
 30
735.6128495188128
 10
-457.849237466319
 20
0.0
 30
735.6340209009291
 10
-457.8440421397099
 20
0.0
 30
735.7120498970407
 10
-457.8356039813488
 20
0.0
 30
735.7696300146051
 10
-457.8197061223383
 20
0.0
 30
735.8479749745058
 10
-457.8151884689454
 20
0.0
 30
735.8682671664226
 10
-457.7935513955057
 20
0.0
 30
735.9582392801767
 10
-457.7724246951221
 20
0.0
 30
736.0286225684218
 10
-457.6786507586412
 20
0.0
 30
736.299228060291
 10
-457.5815452179352
 20
0.0
 30
736.5050867037892
 10
-457.4349611073505
 20
0.0
 30
736.7604106933828
 10
-457.4002326647118
 20
0.0
 30
736.8177092825598
 10
-457.3005301670916
 20
0.0
 30
736.97355909204
 10
-457.2321323840339
 20
0.0
 30
737.0711881668551
 10
-457.1427806370521
 20
0.0
 30
737.1863681539123
 10
-457.1254574138175
 20
0.0
 30
737.2081681970476
 10
-457.0986697692567
 20
0.0
 30
737.2410348053406
 10
-457.0893670608145
 20
0.0
 30
737.2522973713961
 10
-457.0800014534483
 20
0.0
 30
737.2634810193057
  0
SPLINE
  5
AD
330
48
100
AcDbEntity
  8
PV-174
100
AcDbSpline
210
0.0
220
1.0
230
0.0
 70
     8
 71
     3
 72
    18
 73
    14
 74
     0
 42
0.000000001
 43
0.0000000001
 40
1.6540747858433
 40
1.6540747858433
 40
1.6540747858433
 40
1.6540747858433
 40
1.715582394495875
 40
1.715582394495875
 40
1.902970208297486
 40
1.902970208297486
 40
2.031734176382974
 40
2.031734176382974
 40
2.255265245202036
 40
2.255265245202036
 40
2.814065234951959
 40
2.814065234951959
 40
3.138692671095101
 40
3.138692671095101
 40
3.138692671095101
 40
3.138692671095101
 10
-455.2281380730375
 20
0.0
 30
739.372728039866
 10
-455.2144664747413
 20
0.0
 30
739.3875948418252
 10
-455.2006607570731
 20
0.0
 30
739.4022428690314
 10
-455.1443332015071
 20
0.0
 30
739.4605941636996
 10
-455.1007960689885
 20
0.0
 30
739.5024834086723
 10
-455.0262014532878
 20
0.0
 30
739.5693195897603
 10
-454.9954630392123
 20
0.0
 30
739.5955001591824
 10
-454.9107032334472
 20
0.0
 30
739.6640880733878
 10
-454.8560939907098
 20
0.0
 30
739.7043495124166
 10
-454.6635991873986
 20
0.0
 30
739.8324991587037
 10
-454.5335984332423
 20
0.0
 30
739.8950072816026
 10
-454.3446993580832
 20
0.0
 30
739.9519758934988
 10
-454.2648034941418
 20
0.0
 30
739.9682401237828
 10
-454.1807482535849
 20
0.0
 30
739.9682099176526
  0
SPLINE
  5
AE
330
48
100
AcDbEntity
  8
PV-174
100
AcDbSpline
210
0.0
220
1.0
230
0.0
 70
     8
 71
     3
 72
    10
 73
     6
 74
     0
 42
0.000000001
 43
0.0000000001
 40
0.5238557413344813
 40
0.5238557413344813
 40
0.5238557413344813
 40
0.5238557413344813
 40
3.344927373450713
 40
3.344927373450713
 40
3.375545046730999
 40
3.375545046730999
 40
3.375545046730999
 40
3.375545046730999
 10
-457.0800016713906
 20
0.0
 30
737.2634812768101
 10
-456.4819408214468
 20
0.0
 30
737.9776383498128
 10
-455.8698923892674
 20
0.0
 30
738.6741981465937
 10
-455.2416324533944
 20
0.0
 30
739.3580500088289
 10
-455.2348857915901
 20
0.0
 30
739.3653900772574
 10
-455.2281378983143
 20
0.0
 30
739.3727279134274
  0
ARC
  5
AF
330
48
100
AcDbEntity
  8
PV-174
100
AcDbCircle
 10
-456.8499999999981
 20
714.5000000000224
 30
0.0
 40
0.9999999999999998
210
0.0
220
-1.0
230
0.0
100
AcDbArc
 50
179.999999999999
 51
269.9999999999997
  0
ARC
  5
B0
330
48
100
AcDbEntity
  8
PV-174
100
AcDbCircle
 10
-456.8499999999983
 20
752.5000000000224
 30
0.0
 40
0.9999999999999998
210
0.0
220
-1.0
230
0.0
100
AcDbArc
 50
89.99999999999982
 51
179.999999999999
  0
ARC
  5
B1
330
48
100
AcDbEntity
  8
PV-174
100
AcDbCircle
 10
-351.5
 20
48.5
 30
0.0
 40
32.0
210
0.0
220
-1.0
230
0.0
100
AcDbArc
 50
180.0000000000002
 51
270.0000000000012
  0
ARC
  5
B2
330
48
100
AcDbEntity
  8
PV-174
100
AcDbCircle
 10
-351.5
 20
48.5
 30
0.0
 40
65.0
210
0.0
220
-1.0
230
0.0
100
AcDbArc
 50
180.0000000000002
 51
270.0000000000012
  0
LINE
  5
B3
330
48
100
AcDbEntity
  8
PV-174
100
AcDbLine
 10
-48.49999999999983
 20
0.0
 30
-16.5
 11
0.0
 21
0.0
 31
-16.5
  0
LINE
  5
B4
330
48
100
AcDbEntity
  8
PV-174
100
AcDbLine
 10
0.0
 20
0.0
 30
16.5
 11
-48.49999999999983
 21
0.0
 31
16.5
  0
LINE
  5
B5
330
48
100
AcDbEntity
  8
PV-174
100
AcDbLine
 10
-383.0
 20
0.0
 30
1051.5
 11
-383.0
 21
0.0
 31
1100.5
  0
LINE
  5
B6
330
48
100
AcDbEntity
  8
PV-174
100
AcDbLine
 10
-416.0
 20
0.0
 30
1100.5
 11
-416.0
 21
0.0
 31
1051.5
  0
ENDBLK
  5
B8
330
48
100
AcDbEntity
  8
0
100
AcDbBlockEnd
  0
BLOCK
  5
BD
330
BB
100
AcDbEntity
  8
0
100
AcDbBlockBegin
  2
FRONT
 70
     0
 10
0.0
 20
0.0
 30
0.0
  3
FRONT
  1

  0
INSERT
  5
BC
330
BB
100
AcDbEntity
  8
PV-174
100
AcDbBlockReference
  2
*U0
 10
0.0
 20
0.0
 30
0.0
 50
180.0
210
0.0
220
1.0
230
0.0
  0
ENDBLK
  5
BE
330
BB
100
AcDbEntity
  8
0
100
AcDbBlockEnd
  0
BLOCK
  5
118
330
C0
100
AcDbEntity
  8
0
100
AcDbBlockBegin
  2
*U2
 70
     1
 10
0.0
 20
0.0
 30
0.0
  3
*U2
  1
*ANON
  0
LINE
  5
C1
330
C0
100
AcDbEntity
  8
PV-174
100
AcDbLine
 10
0.0
 20
-85.41458314728814
 30
1051.5
 11
0.0
 21
-90.5
 31
1051.5
  0
LINE
  5
C2
330
C0
100
AcDbEntity
  8
PV-174
100
AcDbLine
 10
0.0
 20
-73.50000000000041
 30
115.0000000000003
 11
0.0
 21
-57.0
 31
98.50000000000001
  0
LINE
  5
C3
330
C0
100
AcDbEntity
  8
PV-174
100
AcDbLine
 10
0.0
 20
-57.0
 30
131.4999999999998
 11
0.0
 21
-73.49999999999983
 31
115.0000000000001
  0
ARC
  5
C4
330
C0
100
AcDbEntity
  8
PV-174
100
AcDbCircle
 10
73.5
 20
0.0
 30
0.0
 40
16.5
210
-1.0
220
0.0
230
0.0
100
AcDbArc
 50
180.0000000000012
 51
0.0000000000020075
  0
LINE
  5
C5
330
C0
100
AcDbEntity
  8
PV-174
100
AcDbLine
 10
0.0
 20
-57.0
 30
1051.5
 11
0.0
 21
-85.41458314728831
 31
1051.5
  0
ARC
  5
C6
330
C0
100
AcDbEntity
  8
PV-174
100
AcDbCircle
 10
121.4681985355193
 20
751.6961205969002
 30
0.0
 40
1.000000000000051
210
-1.0
220
0.0
230
0.0
100
AcDbArc
 50
315.0000000000098
 51
73.27371363136449
  0
LINE
  5
C7
330
C0
100
AcDbEntity
  8
PV-174
100
AcDbLine
 10
0.0
 20
-98.51098618430762
 30
727.3246946833154
 11
0.0
 21
-122.1753053167059
 31
750.9890138157138
  0
ARC
  5
C8
330
C0
100
AcDbEntity
  8
PV-174
100
AcDbCircle
 10
97.8038794031211
 20
728.0318014645021
 30
0.0
 40
1.000000000000051
210
-1.0
220
0.0
230
0.0
100
AcDbArc
 50
196.7262863686342
 51
315.0000000000017
  0
LINE
  5
C9
330
C0
100
AcDbEntity
  8
PV-174
100
AcDbLine
 10
0.0
 20
-133.4890138156906
 30
739.6753053167291
 11
0.0
 21
-109.8246946832923
 31
716.0109861843307
  0
ARC
  5
CA
330
C0
100
AcDbEntity
  8
PV-174
100
AcDbCircle
 10
110.5318014644788
 20
715.303879403144
 30
0.0
 40
1.000000000000051
210
-1.0
220
0.0
230
0.0
100
AcDbArc
 50
135.0000000000017
 51
253.2737136313629
  0
ARC
  5
CB
330
C0
100
AcDbEntity
  8
PV-174
100
AcDbCircle
 10
134.1961205968771
 20
738.9681985355426
 30
0.0
 40
1.000000000000051
210
-1.0
220
0.0
230
0.0
100
AcDbArc
 50
16.72628636863424
 51
135.0000000000021
  0
ARC
  5
CC
330
C0
100
AcDbEntity
  8
PV-174
100
AcDbCircle
 10
115.9999999999992
 20
733.5000000000222
 30
0.0
 40
20.0
210
-1.0
220
0.0
230
0.0
100
AcDbArc
 50
253.2737136313648
 51
259.556700710818
  0
ARC
  5
CD
330
C0
100
AcDbEntity
  8
PV-174
100
AcDbCircle
 10
115.9999999999991
 20
733.5000000000222
 30
0.0
 40
20.0
210
-1.0
220
0.0
230
0.0
100
AcDbArc
 50
259.556700710818
 51
10.44329928918152
  0
ARC
  5
CE
330
C0
100
AcDbEntity
  8
PV-174
100
AcDbCircle
 10
115.9999999999992
 20
733.5000000000222
 30
0.0
 40
20.0
210
-1.0
220
0.0
230
0.0
100
AcDbArc
 50
10.44329928918187
 51
16.72628636863485
  0
ARC
  5
CF
330
C0
100
AcDbEntity
  8
PV-174
100
AcDbCircle
 10
115.9999999999992
 20
733.5000000000222
 30
0.0
 40
20.0
210
-1.0
220
0.0
230
0.0
100
AcDbArc
 50
73.27371363136518
 51
79.55670071081847
  0
ARC
  5
D0
330
C0
100
AcDbEntity
  8
PV-174
100
AcDbCircle
 10
115.9999999999991
 20
733.5000000000222
 30
0.0
 40
20.0
210
-1.0
220
0.0
230
0.0
100
AcDbArc
 50
79.55670071081835
 51
190.4432992891815
  0
ARC
  5
D1
330
C0
100
AcDbEntity
  8
PV-174
100
AcDbCircle
 10
115.9999999999992
 20
733.5000000000222
 30
0.0
 40
20.0
210
-1.0
220
0.0
230
0.0
100
AcDbArc
 50
190.4432992891815
 51
196.7262863686349
  0
SPLINE
  5
D2
330
C0
100
AcDbEntity
  8
PV-174
100
AcDbSpline
210
1.0
220
0.0
230
0.0
 70
     8
 71
     3
 72
    38
 73
    34
 74
     0
 42
0.000000001
 43
0.0000000001
 40
7.989195374219312
 40
7.989195374219312
 40
7.989195374219312
 40
7.989195374219312
 40
8.254479951649056
 40
8.254479951649056
 40
9.559037833637079
 40
9.559037833637079
 40
10.8635957156251
 40
10.8635957156251
 40
12.16815359761313
 40
12.16815359761313
 40
13.47206133512371
 40
13.47206133512371
 40
14.77596907263428
 40
14.77596907263428
 40
16.07987681014486
 40
16.07987681014486
 40
17.38378454765544
 40
17.38378454765544
 40
18.68769228516606
 40
18.68769228516606
 40
19.99160002267667
 40
19.99160002267667
 40
21.29550776018729
 40
21.29550776018729
 40
22.59941549769791
 40
22.59941549769791
 40
23.90397337968593
 40
23.90397337968593
 40
25.20853126167391
 40
25.20853126167391
 40
26.51308914366193
 40
26.51308914366193
 40
26.77837372109179
 40
26.77837372109179
 40
26.77837372109179
 40
26.77837372109179
 10
0.0
 20
-121.7560252858516
 30
752.6538025759457
 10
0.0
 20
-121.820095668476
 30
752.6345486053862
 10
0.0
 20
-121.8853590320025
 30
752.6145856798291
 10
0.0
 20
-122.2782577787448
 30
752.4921152552232
 10
0.0
 20
-122.6320603051131
 30
752.3725205489637
 10
0.0
 20
-123.3726051597887
 30
752.0957239417979
 10
0.0
 20
-123.7595330284074
 30
751.9383450180574
 10
0.0
 20
-124.5406708734843
 30
751.589772272051
 10
0.0
 20
-124.9348518410308
 30
751.3985018590008
 10
0.0
 20
-125.7018533670555
 30
750.9946220358557
 10
0.0
 20
-126.1077725273617
 30
750.7647320680322
 10
0.0
 20
-126.9375813909522
 30
750.2513388170051
 10
0.0
 20
-127.3614292488933
 30
749.9677504063403
 10
0.0
 20
-128.1995013717315
 30
749.356892643397
 10
0.0
 20
-128.6141262590289
 30
749.0292542670718
 10
0.0
 20
-129.409064965303
 30
748.3482623941775
 10
0.0
 20
-129.7893722607996
 30
747.9948989866837
 10
0.0
 20
-130.4948989866607
 30
747.2893722608229
 10
0.0
 20
-130.8482623941544
 30
746.9090649653262
 10
0.0
 20
-131.5292542670487
 30
746.1141262590521
 10
0.0
 20
-131.8568926433737
 30
745.6995013717546
 10
0.0
 20
-132.467750406317
 30
744.8614292489163
 10
0.0
 20
-132.751338816982
 30
744.4375813909752
 10
0.0
 20
-133.2647320680093
 30
743.6077725273849
 10
0.0
 20
-133.4946220358325
 30
743.2018533670786
 10
0.0
 20
-133.8985018589778
 30
742.4348518410539
 10
0.0
 20
-134.0897722720283
 30
742.0406708735073
 10
0.0
 20
-134.4383450180345
 30
741.2595330284305
 10
0.0
 20
-134.5957239417749
 30
740.8726051598119
 10
0.0
 20
-134.8725205489406
 30
740.132060305136
 10
0.0
 20
-134.9921152552001
 30
739.778257778768
 10
0.0
 20
-135.1145856798059
 30
739.3853590320258
 10
0.0
 20
-135.1345486053633
 30
739.3200956684993
 10
0.0
 20
-135.1538025759225
 30
739.2560252858749
  0
SPLINE
  5
D3
330
C0
100
AcDbEntity
  8
PV-174
100
AcDbSpline
210
1.0
220
0.0
230
0.0
 70
     8
 71
     3
 72
    46
 73
    42
 74
     0
 42
0.000000001
 43
0.0000000001
 40
-26.25009051702358
 40
-26.25009051702358
 40
-26.25009051702358
 40
-26.25009051702358
 40
-25.19226716828405
 40
-25.19226716828405
 40
-24.06297385938894
 40
-24.06297385938894
 40
-22.97039393615168
 40
-22.97039393615168
 40
-21.87781401291442
 40
-21.87781401291442
 40
-20.78523408967716
 40
-20.78523408967716
 40
-19.6926541664399
 40
-19.6926541664399
 40
-18.59462246291696
 40
-18.59462246291696
 40
-17.49659075939401
 40
-17.49659075939401
 40
-16.39855905587109
 40
-16.39855905587109
 40
-15.30052735234814
 40
-15.30052735234814
 40
-14.20249564882519
 40
-14.20249564882519
 40
-13.10446394530224
 40
-13.10446394530224
 40
-12.00643224177928
 40
-12.00643224177928
 40
-10.90840053825633
 40
-10.90840053825633
 40
-9.815820615019132
 40
-9.815820615019132
 40
-8.723240691781933
 40
-8.723240691781933
 40
-7.63066076854473
 40
-7.63066076854473
 40
-6.538080845307532
 40
-6.538080845307532
 40
-5.408787536412319
 40
-5.408787536412319
 40
-4.350964187672493
 40
-4.350964187672493
 40
-4.350964187672493
 40
-4.350964187672493
 10
0.0
 20
-110.2439954444158
 30
714.3461912555745
 10
0.0
 20
-110.0727263506291
 30
714.3976655167099
 10
0.0
 20
-109.880994556883
 30
714.457825691598
 10
0.0
 20
-109.4574315307305
 30
714.5989962797496
 10
0.0
 20
-109.2238277069188
 30
714.6811947761299
 10
0.0
 20
-108.7579057047828
 30
714.855646395021
 10
0.0
 20
-108.5054136741994
 30
714.9550031917125
 10
0.0
 20
-107.9657476633808
 30
715.182344030804
 10
0.0
 20
-107.678606588099
 30
715.3103813348648
 10
0.0
 20
-107.0859911460654
 30
715.5933458834248
 10
0.0
 20
-106.7803858508507
 30
715.748398182048
 10
0.0
 20
-106.1695296871961
 30
716.0792507167053
 10
0.0
 20
-105.8642989039838
 30
716.2550870898492
 10
0.0
 20
-105.2730268351832
 30
716.616496221741
 10
0.0
 20
-104.9606116825384
 30
716.8182186436653
 10
0.0
 20
-104.3232077599655
 30
717.2580036132452
 10
0.0
 20
-103.9982431326059
 30
717.4961122535655
 10
0.0
 20
-103.355300354507
 30
717.9990915821098
 10
0.0
 20
-103.0370949955671
 30
718.2641784571493
 10
0.0
 20
-102.4252577697848
 30
718.8066839133305
 10
0.0
 20
-102.1316263095001
 30
719.0841024430596
 10
0.0
 20
-101.5841024430361
 30
719.6316263095233
 10
0.0
 20
-101.3066839133071
 30
719.9252577698082
 10
0.0
 20
-100.7641784571259
 30
720.5370949955907
 10
0.0
 20
-100.4990915820865
 30
720.8553003545306
 10
0.0
 20
-99.99611225354229
 30
721.4982431326293
 10
0.0
 20
-99.75800361322178
 30
721.8232077599887
 10
0.0
 20
-99.31821864364193
 30
722.4606116825619
 10
0.0
 20
-99.11649622171779
 30
722.7730268352066
 10
0.0
 20
-98.75508708982607
 30
723.3642989040072
 10
0.0
 20
-98.57925071668212
 30
723.6695296872194
 10
0.0
 20
-98.24839818202477
 30
724.280385850874
 10
0.0
 20
-98.09334588340163
 30
724.5859911460889
 10
0.0
 20
-97.81038133484155
 30
725.1786065881223
 10
0.0
 20
-97.682344030781
 30
725.4657476634039
 10
0.0
 20
-97.45500319168934
 30
726.0054136742226
 10
0.0
 20
-97.35564639499802
 30
726.2579057048058
 10
0.0
 20
-97.18119477610665
 30
726.7238277069417
 10
0.0
 20
-97.09899627972646
 30
726.9574315307536
 10
0.0
 20
-96.95782569157513
 30
727.3809945569061
 10
0.0
 20
-96.89766551668707
 30
727.5727263506523
 10
0.0
 20
-96.84619125555158
 30
727.7439954444389
  0
LINE
  5
D4
330
C0
100
AcDbEntity
  8
PV-174
100
AcDbLine
 10
0.0
 20
-115.8094315943507
 30
680.4861549216338
 11
0.0
 21
-118.0239714676013
 31
655.1738483438273
  0
LINE
  5
D5
330
C0
100
AcDbEntity
  8
PV-174
100
AcDbLine
 10
0.0
 20
-125.3934308323404
 30
681.3246462061989
 11
0.0
 21
-127.6079707055911
 31
656.0123396283926
  0
LINE
  5
D6
330
C0
100
AcDbEntity
  8
PV-174
100
AcDbLine
 10
0.0
 20
-121.6926775808309
 30
714.3272504910376
 11
0.0
 21
-124.5975064840687
 31
681.1249041964583
  0
SPLINE
  5
D7
330
C0
100
AcDbEntity
  8
PV-174
100
AcDbSpline
210
1.0
220
0.0
230
0.0
 70
     8
 71
     3
 72
    20
 73
    16
 74
     0
 42
0.000000001
 43
0.0000000001
 40
-2.081957642337048
 40
-2.081957642337048
 40
-2.081957642337048
 40
-2.081957642337048
 40
-2.029036545889133
 40
-2.029036545889133
 40
-1.976115449441221
 40
-1.976115449441221
 40
-1.9382965860275
 40
-1.9382965860275
 40
-1.900477722613779
 40
-1.900477722613779
 40
-1.79865290262327
 40
-1.79865290262327
 40
-1.696828082632761
 40
-1.696828082632761
 40
-1.658125044755919
 40
-1.658125044755919
 40
-1.658125044755919
 40
-1.658125044755919
 10
0.0
 20
-124.5975064840687
 30
681.1249041964583
 10
0.0
 20
-124.598650288173
 30
681.111830455724
 10
0.0
 20
-124.5996161148738
 30
681.0983530207053
 10
0.0
 20
-124.6003183028387
 30
681.0759106161047
 10
0.0
 20
-124.6000304875882
 30
681.0670313275046
 10
0.0
 20
-124.5980930894454
 30
681.0589891330231
 10
0.0
 20
-124.5967445892768
 30
681.057502768006
 10
0.0
 20
-124.5930549121951
 30
681.0599463573915
 10
0.0
 20
-124.5907210792585
 30
681.0638355969752
 10
0.0
 20
-124.5820029850954
 30
681.0826685452097
 10
0.0
 20
-124.5749793973091
 30
681.1044942705964
 10
0.0
 20
-124.5602658091809
 30
681.1537182049471
 10
0.0
 20
-124.5525488615188
 30
681.1816513229367
 10
0.0
 20
-124.5415980819559
 30
681.2227902675581
 10
0.0
 20
-124.5385585925047
 30
681.2343677233752
 10
0.0
 20
-124.5355094358125
 30
681.2461123509414
  0
SPLINE
  5
D8
330
C0
100
AcDbEntity
  8
PV-174
100
AcDbSpline
210
1.0
220
0.0
230
0.0
 70
     8
 71
     3
 72
    14
 73
    10
 74
     0
 42
0.000000001
 43
0.0000000001
 40
0.649611117407552
 40
0.649611117407552
 40
0.649611117407552
 40
0.649611117407552
 40
0.7333587369340008
 40
0.7333587369340008
 40
1.466717473868001
 40
1.466717473868001
 40
2.251649856864295
 40
2.251649856864295
 40
3.036582239860591
 40
3.036582239860591
 40
3.036582239860591
 40
3.036582239860591
 10
0.0
 20
-124.5355094358125
 30
681.2461123509414
 10
0.0
 20
-124.5286582097319
 30
681.272501647003
 10
0.0
 20
-124.5215049268054
 30
681.298885388317
 10
0.0
 20
-124.4488555499708
 30
681.555967003418
 10
0.0
 20
-124.3598879735569
 30
681.7840790240762
 10
0.0
 20
-124.1581505577125
 30
682.2114761096484
 10
0.0
 20
-124.0238857982058
 30
682.4497980671541
 10
0.0
 20
-123.7221357831731
 30
682.9183367455668
 10
0.0
 20
-123.5552473410225
 30
683.1491273006487
 10
0.0
 20
-123.3982763409828
 30
683.358454209307
  0
SPLINE
  5
D9
330
C0
100
AcDbEntity
  8
PV-174
100
AcDbSpline
210
1.0
220
0.0
230
0.0
 70
     8
 71
     3
 72
    30
 73
    26
 74
     0
 42
0.000000001
 43
0.0000000001
 40
50.21703549202495
 40
50.21703549202495
 40
50.21703549202495
 40
50.21703549202495
 40
50.53039260880385
 40
50.53039260880385
 40
51.29598074329932
 40
51.29598074329932
 40
51.92914302530023
 40
51.92914302530023
 40
52.56230530730113
 40
52.56230530730113
 40
53.12551373138332
 40
53.12551373138332
 40
53.68872215546555
 40
53.68872215546555
 40
54.25193057954776
 40
54.25193057954776
 40
54.81513900362998
 40
54.81513900362998
 40
55.44830128563085
 40
55.44830128563085
 40
56.08146356763175
 40
56.08146356763175
 40
56.84705170212724
 40
56.84705170212724
 40
57.16040881890615
 40
57.16040881890615
 40
57.16040881890615
 40
57.16040881890615
 10
0.0
 20
-123.3982763409828
 30
683.358454209307
 10
0.0
 20
-123.3307032783151
 30
683.4485655057452
 10
0.0
 20
-123.2592113305928
 30
683.5377169279247
 10
0.0
 20
-123.0025302996649
 30
683.8353267296187
 10
0.0
 20
-122.8011137124942
 30
684.0294687831628
 10
0.0
 20
-122.4372940066792
 30
684.3210582439152
 10
0.0
 20
-122.2461204863238
 30
684.4519705806646
 10
0.0
 20
-121.8418396437628
 30
684.6727448195472
 10
0.0
 20
-121.6286064748536
 30
684.7623761936223
 10
0.0
 20
-121.2479170243389
 30
684.8811583222701
 10
0.0
 20
-121.0468158153606
 30
684.9256495173159
 10
0.0
 20
-120.6399007269742
 30
684.9712670931587
 10
0.0
 20
-120.4340766580352
 30
684.9723025360392
 10
0.0
 20
-120.0600331607081
 30
684.9395779703576
 10
0.0
 20
-119.857515824629
 30
684.9028172836897
 10
0.0
 20
-119.4647040996833
 30
684.7872326777624
 10
0.0
 20
-119.2743838848834
 30
684.7084965454752
 10
0.0
 20
-118.9201042627054
 30
684.5254129549247
 10
0.0
 20
-118.7256749095345
 30
684.4001157316231
 10
0.0
 20
-118.3658730456439
 30
684.1124929179295
 10
0.0
 20
-118.2003365693377
 30
683.9503725003061
 10
0.0
 20
-117.8926780808394
 30
683.6000363097461
 10
0.0
 20
-117.7280338780146
 30
683.3738680869163
 10
0.0
 20
-117.5269318084255
 30
683.0362074535734
 10
0.0
 20
-117.4720069660283
 30
682.935995995379
 10
0.0
 20
-117.4211081524324
 30
682.8355197528209
  0
SPLINE
  5
DA
330
C0
100
AcDbEntity
  8
PV-174
100
AcDbSpline
210
1.0
220
0.0
230
0.0
 70
     8
 71
     3
 72
    14
 73
    10
 74
     0
 42
0.000000001
 43
0.0000000001
 40
8.778950683888792
 40
8.778950683888792
 40
8.778950683888792
 40
8.778950683888792
 40
9.563883066885145
 40
9.563883066885145
 40
10.34881544988148
 40
10.34881544988148
 40
11.08217418681548
 40
11.08217418681548
 40
11.16592180634194
 40
11.16592180634194
 40
11.16592180634194
 40
11.16592180634194
 10
0.0
 20
-117.4211081524324
 30
682.8355197528209
 10
0.0
 20
-117.3028711308206
 30
682.602115262157
 10
0.0
 20
-117.1785944584152
 30
682.3458510603367
 10
0.0
 20
-116.9627895918123
 30
681.8320321970285
 10
0.0
 20
-116.8719487893129
 30
681.5740160547509
 10
0.0
 20
-116.7474929431661
 30
681.1180807566358
 10
0.0
 20
-116.6994882208383
 30
680.8779852126207
 10
0.0
 20
-116.6725843052543
 30
680.6121938130162
 10
0.0
 20
-116.670121185368
 30
680.5849687454724
 10
0.0
 20
-116.6679564979772
 30
680.5577906591909
  0
SPLINE
  5
DB
330
C0
100
AcDbEntity
  8
PV-174
100
AcDbSpline
210
1.0
220
0.0
230
0.0
 70
     8
 71
     3
 72
    20
 73
    16
 74
     0
 42
0.000000001
 43
0.0000000001
 40
1.658125044756507
 40
1.658125044756507
 40
1.658125044756507
 40
1.658125044756507
 40
1.696828082632723
 40
1.696828082632723
 40
1.798652902623235
 40
1.798652902623235
 40
1.900477722613746
 40
1.900477722613746
 40
1.938296586027632
 40
1.938296586027632
 40
1.97611544944152
 40
1.97611544944152
 40
2.029036545890051
 40
2.029036545890051
 40
2.081957642338585
 40
2.081957642338585
 40
2.081957642338585
 40
2.081957642338585
 10
0.0
 20
-116.6679564979772
 30
680.5577906591909
 10
0.0
 20
-116.6669930980006
 30
680.5456949784046
 10
0.0
 20
-116.6660101893286
 30
680.5337656083517
 10
0.0
 20
-116.6623694794782
 30
680.4913500738231
 10
0.0
 20
-116.6596203046261
 30
680.4625012887623
 10
0.0
 20
-116.6536778954607
 30
680.4114701888146
 10
0.0
 20
-116.6505510091944
 30
680.3887564120189
 10
0.0
 20
-116.645235669612
 30
680.3686956974209
 10
0.0
 20
-116.643612652208
 30
680.3644602782902
 10
0.0
 20
-116.6404033544558
 30
680.3614131068171
 10
0.0
 20
-116.6388172364581
 30
680.3626427260097
 10
0.0
 20
-116.6355127593303
 30
680.3702263158294
 10
0.0
 20
-116.6336874443558
 30
680.3789207294911
 10
0.0
 20
-116.6304818818461
 30
680.4011441171986
 10
0.0
 20
-116.6290927034387
 30
680.4145845137433
 10
0.0
 20
-116.6279488993348
 30
680.4276582544773
  0
LINE
  5
DC
330
C0
100
AcDbEntity
  8
PV-174
100
AcDbLine
 10
0.0
 20
-113.723119996097
 30
713.6300045490562
 11
0.0
 21
-116.6279488993346
 31
680.4276582544773
  0
ARC
  5
DD
330
C0
100
AcDbEntity
  8
PV-174
100
AcDbCircle
 10
115.9999999999995
 20
733.5000000000222
 30
0.0
 40
20.00002254432668
210
-1.0
220
0.0
230
0.0
100
AcDbArc
 50
244.1579338865007
 51
115.8420661136321
  0
LINE
  5
DE
330
C0
100
AcDbEntity
  8
PV-174
100
AcDbLine
 10
0.0
 20
-92.9999999999991
 30
645.5000000000223
 11
0.0
 21
-55.0
 31
645.5000000000223
  0
LINE
  5
DF
330
C0
100
AcDbEntity
  8
PV-174
100
AcDbLine
 10
0.0
 20
-49.30000000000063
 30
715.5000000000219
 11
0.0
 21
-74.00000000000017
 31
715.5000000000219
  0
LINE
  5
E0
330
C0
100
AcDbEntity
  8
PV-174
100
AcDbLine
 10
0.0
 20
-49.30000000000063
 30
751.5
 11
0.0
 21
-74.00000000000017
 31
751.5
  0
LINE
  5
E1
330
C0
100
AcDbEntity
  8
PV-174
100
AcDbLine
 10
0.0
 20
-74.0
 30
751.5000000000013
 11
0.0
 21
-107.2822021129016
 31
751.5000000000013
  0
LINE
  5
E2
330
C0
100
AcDbEntity
  8
PV-174
100
AcDbLine
 10
0.0
 20
-74.0
 30
715.5000000000232
 11
0.0
 21
-107.2822021128917
 31
715.5000000000232
  0
LINE
  5
E3
330
C0
100
AcDbEntity
  8
PV-174
100
AcDbLine
 10
0.0
 20
0.0
 30
1100.0
 11
0.0
 21
0.0
 31
1135.0
  0
LINE
  5
E4
330
C0
100
AcDbEntity
  8
PV-174
100
AcDbLine
 10
0.0
 20
0.0
 30
1065.0
 11
0.0
 21
0.0
 31
1100.0
  0
LINE
  5
E5
330
C0
100
AcDbEntity
  8
PV-174
100
AcDbLine
 10
0.0
 20
-12.0
 30
1100.0
 11
0.0
 21
-12.0
 31
1133.0
  0
LINE
  5
E6
330
C0
100
AcDbEntity
  8
PV-174
100
AcDbLine
 10
0.0
 20
-12.0
 30
1067.0
 11
0.0
 21
-12.0
 31
1100.0
  0
LINE
  5
E7
330
C0
100
AcDbEntity
  8
PV-174
100
AcDbLine
 10
0.0
 20
0.0
 30
115.0
 11
0.0
 21
0.0
 31
150.0
  0
LINE
  5
E8
330
C0
100
AcDbEntity
  8
PV-174
100
AcDbLine
 10
0.0
 20
0.0
 30
80.0
 11
0.0
 21
0.0
 31
115.0000000000003
  0
LINE
  5
E9
330
C0
100
AcDbEntity
  8
PV-174
100
AcDbLine
 10
0.0
 20
-12.0
 30
115.0
 11
0.0
 21
-12.0
 31
148.0
  0
LINE
  5
EA
330
C0
100
AcDbEntity
  8
PV-174
100
AcDbLine
 10
0.0
 20
-12.0
 30
82.0
 11
0.0
 21
-12.0
 31
115.0000000000003
  0
LINE
  5
EB
330
C0
100
AcDbEntity
  8
PV-174
100
AcDbLine
 10
0.0
 20
0.0
 30
0.0
 11
0.0
 21
0.0
 31
35.0
  0
LINE
  5
EC
330
C0
100
AcDbEntity
  8
PV-174
100
AcDbLine
 10
0.0
 20
0.0
 30
-35.0
 11
0.0
 21
0.0
 31
0.0000000000004888
  0
LINE
  5
ED
330
C0
100
AcDbEntity
  8
PV-174
100
AcDbLine
 10
0.0
 20
-12.0
 30
0.0
 11
0.0
 21
-12.0
 31
33.0
  0
LINE
  5
EE
330
C0
100
AcDbEntity
  8
PV-174
100
AcDbLine
 10
0.0
 20
-12.0
 30
-33.0
 11
0.0
 21
-12.0
 31
0.0000000000004609
  0
LINE
  5
EF
330
C0
100
AcDbEntity
  8
PV-174
100
AcDbLine
 10
0.0
 20
-10.0
 30
35.0
 11
0.0
 21
0.0
 31
35.0
  0
LINE
  5
F0
330
C0
100
AcDbEntity
  8
PV-174
100
AcDbLine
 10
0.0
 20
-10.0
 30
-35.0
 11
0.0
 21
0.0
 31
-35.0
  0
LINE
  5
F1
330
C0
100
AcDbEntity
  8
PV-174
100
AcDbLine
 10
0.0
 20
-10.0
 30
150.0
 11
0.0
 21
0.0
 31
150.0
  0
LINE
  5
F2
330
C0
100
AcDbEntity
  8
PV-174
100
AcDbLine
 10
0.0
 20
-10.0
 30
80.0
 11
0.0
 21
0.0
 31
80.0
  0
LINE
  5
F3
330
C0
100
AcDbEntity
  8
PV-174
100
AcDbLine
 10
0.0
 20
-10.0
 30
1135.0
 11
0.0
 21
0.0
 31
1135.0
  0
LINE
  5
F4
330
C0
100
AcDbEntity
  8
PV-174
100
AcDbLine
 10
0.0
 20
-10.0
 30
1065.0
 11
0.0
 21
0.0
 31
1065.0
  0
LINE
  5
F5
330
C0
100
AcDbEntity
  8
PV-174
100
AcDbLine
 10
0.0
 20
-47.30000000000063
 30
717.5000000000219
 11
0.0
 21
-47.30000000000063
 31
749.5
  0
LINE
  5
F6
330
C0
100
AcDbEntity
  8
PV-174
100
AcDbLine
 10
0.0
 20
-93.69999999999912
 30
646.200000000022
 11
0.0
 21
-93.69999999999912
 31
715.5000000000223
  0
LINE
  5
F7
330
C0
100
AcDbEntity
  8
PV-174
100
AcDbLine
 10
0.0
 20
-54.29999999999949
 30
646.200000000022
 11
0.0
 21
-54.29999999999949
 31
715.5000000000223
  0
ARC
  5
F8
330
C0
100
AcDbEntity
  8
PV-174
100
AcDbCircle
 10
7.629183551359914
 20
658.2685827446273
 30
0.0
 40
119.9999999999995
210
-1.0
220
0.0
230
0.0
100
AcDbArc
 50
11.07734021685748
 51
14.02230851986518
  0
ARC
  5
F9
330
C0
100
AcDbEntity
  8
PV-174
100
AcDbCircle
 10
7.629183551359914
 20
658.2685827446273
 30
0.0
 40
119.9999999999995
210
-1.0
220
0.0
230
0.0
100
AcDbArc
 50
355.8231250330059
 51
358.9226597831436
  0
ARC
  5
FA
330
C0
100
AcDbEntity
  8
PV-174
100
AcDbCircle
 10
235.788218748583
 20
678.2299118053969
 30
0.0
 40
120.0000000000005
210
-1.0
220
0.0
230
0.0
100
AcDbArc
 50
191.0773402168562
 51
194.1768749669942
  0
ARC
  5
FB
330
C0
100
AcDbEntity
  8
PV-174
100
AcDbCircle
 10
235.788218748583
 20
678.2299118053969
 30
0.0
 40
120.0000000000005
210
-1.0
220
0.0
230
0.0
100
AcDbArc
 50
175.9776914801348
 51
178.9226597831427
  0
LINE
  5
FC
330
C0
100
AcDbEntity
  8
PV-174
100
AcDbLine
 10
0.0
 20
-12.0
 30
-16.5
 11
0.0
 21
-25.0
 31
-16.5
  0
LINE
  5
FD
330
C0
100
AcDbEntity
  8
PV-174
100
AcDbLine
 10
0.0
 20
-12.0
 30
16.5
 11
0.0
 21
-25.0
 31
16.5
  0
LINE
  5
FE
330
C0
100
AcDbEntity
  8
PV-174
100
AcDbLine
 10
0.0
 20
-12.0
 30
98.50000000000001
 11
0.0
 21
-57.0
 31
98.50000000000001
  0
LINE
  5
FF
330
C0
100
AcDbEntity
  8
PV-174
100
AcDbLine
 10
0.0
 20
-12.0
 30
131.4999999999998
 11
0.0
 21
-57.0
 31
131.4999999999998
  0
LINE
  5
100
330
C0
100
AcDbEntity
  8
PV-174
100
AcDbLine
 10
0.0
 20
-90.0
 30
48.5
 11
0.0
 21
-90.0
 31
645.5000000000225
  0
LINE
  5
101
330
C0
100
AcDbEntity
  8
PV-174
100
AcDbLine
 10
0.0
 20
-90.0
 30
751.5000000000003
 11
0.0
 21
-90.0
 31
1051.5
  0
LINE
  5
102
330
C0
100
AcDbEntity
  8
PV-174
100
AcDbLine
 10
0.0
 20
-57.0
 30
131.4999999999998
 11
0.0
 21
-57.0
 31
645.5000000000225
  0
LINE
  5
103
330
C0
100
AcDbEntity
  8
PV-174
100
AcDbLine
 10
0.0
 20
-57.0
 30
751.5
 11
0.0
 21
-57.0
 31
1051.5
  0
LINE
  5
104
330
C0
100
AcDbEntity
  8
PV-174
100
AcDbLine
 10
0.0
 20
-57.0
 30
48.5
 11
0.0
 21
-57.0
 31
98.50000000000001
  0
LINE
  5
105
330
C0
100
AcDbEntity
  8
PV-174
100
AcDbLine
 10
0.0
 20
-12.0
 30
1084.0
 11
0.0
 21
-25.0
 31
1084.0
  0
LINE
  5
106
330
C0
100
AcDbEntity
  8
PV-174
100
AcDbLine
 10
0.0
 20
-12.0
 30
1117.0
 11
0.0
 21
-25.0
 31
1117.0
  0
ARC
  5
107
330
C0
100
AcDbEntity
  8
PV-174
100
AcDbCircle
 10
10.0
 20
-33.0
 30
0.0
 40
2.0
210
-1.0
220
0.0
230
0.0
100
AcDbArc
 50
270.0000000000002
 51
0.000000000001239
  0
ARC
  5
108
330
C0
100
AcDbEntity
  8
PV-174
100
AcDbCircle
 10
10.0
 20
33.0
 30
0.0
 40
2.0
210
-1.0
220
0.0
230
0.0
100
AcDbArc
 50
359.999999999998
 51
89.99999999999982
  0
ARC
  5
109
330
C0
100
AcDbEntity
  8
PV-174
100
AcDbCircle
 10
10.0
 20
82.0
 30
0.0
 40
2.0
210
-1.0
220
0.0
230
0.0
100
AcDbArc
 50
270.0000000000002
 51
0.000000000001239
  0
ARC
  5
10A
330
C0
100
AcDbEntity
  8
PV-174
100
AcDbCircle
 10
10.0
 20
148.0
 30
0.0
 40
2.0
210
-1.0
220
0.0
230
0.0
100
AcDbArc
 50
359.9999999999996
 51
89.99999999999982
  0
ARC
  5
10B
330
C0
100
AcDbEntity
  8
PV-174
100
AcDbCircle
 10
10.0
 20
1067.0
 30
0.0
 40
2.0
210
-1.0
220
0.0
230
0.0
100
AcDbArc
 50
270.0000000000002
 51
359.9999999999996
  0
ARC
  5
10C
330
C0
100
AcDbEntity
  8
PV-174
100
AcDbCircle
 10
10.0
 20
1133.0
 30
0.0
 40
2.0
210
-1.0
220
0.0
230
0.0
100
AcDbArc
 50
359.9999999999996
 51
89.99999999999982
  0
ARC
  5
10D
330
C0
100
AcDbEntity
  8
PV-174
100
AcDbCircle
 10
49.30000000000063
 20
717.5000000000219
 30
0.0
 40
1.999999999999998
210
-1.0
220
0.0
230
0.0
100
AcDbArc
 50
180.0
 51
270.0000000000012
  0
ARC
  5
10E
330
C0
100
AcDbEntity
  8
PV-174
100
AcDbCircle
 10
49.30000000000063
 20
749.5
 30
0.0
 40
1.999999999999995
210
-1.0
220
0.0
230
0.0
100
AcDbArc
 50
90.00000000000005
 51
180.0
  0
ARC
  5
10F
330
C0
100
AcDbEntity
  8
PV-174
100
AcDbCircle
 10
55.0
 20
646.200000000022
 30
0.0
 40
0.6999999999999319
210
-1.0
220
0.0
230
0.0
100
AcDbArc
 50
180.0
 51
270.0000000000012
  0
ARC
  5
110
330
C0
100
AcDbEntity
  8
PV-174
100
AcDbCircle
 10
92.9999999999991
 20
646.200000000022
 30
0.0
 40
0.6999999999999319
210
-1.0
220
0.0
230
0.0
100
AcDbArc
 50
269.999999999998
 51
0.0
  0
ARC
  5
111
330
C0
100
AcDbEntity
  8
PV-174
100
AcDbCircle
 10
123.3210823908025
 20
649.8196453603157
 30
0.0
 40
4.000000000000071
210
-1.0
220
0.0
230
0.0
100
AcDbArc
 50
194.176874966994
 51
355.8231250330048
  0
LINE
  5
112
330
C0
100
AcDbEntity
  8
PV-174
100
AcDbLine
 10
0.0
 20
-57.0
 30
48.49999999999983
 11
0.0
 21
-57.0
 31
0.0
  0
LINE
  5
113
330
C0
100
AcDbEntity
  8
PV-174
100
AcDbLine
 10
0.0
 20
-90.0
 30
0.0
 11
0.0
 21
-90.0
 31
48.49999999999983
  0
LINE
  5
114
330
C0
100
AcDbEntity
  8
PV-174
100
AcDbLine
 10
0.0
 20
-25.0
 30
-16.5
 11
0.0
 21
-73.5
 31
-16.5
  0
LINE
  5
115
330
C0
100
AcDbEntity
  8
PV-174
100
AcDbLine
 10
0.0
 20
-57.0
 30
16.5
 11
0.0
 21
-25.0
 31
16.5
  0
ARC
  5
116
330
C0
100
AcDbEntity
  8
PV-174
100
AcDbCircle
 10
25.0
 20
1051.5
 30
0.0
 40
32.5
210
-1.0
220
0.0
230
0.0
100
AcDbArc
 50
0.0000000000002036
 51
90.00000000000156
  0
ARC
  5
117
330
C0
100
AcDbEntity
  8
PV-174
100
AcDbCircle
 10
25.0
 20
1051.5
 30
0.0
 40
65.5
210
-1.0
220
0.0
230
0.0
100
AcDbArc
 50
0.0000000000002036
 51
90.00000000000161
  0
ENDBLK
  5
119
330
C0
100
AcDbEntity
  8
0
100
AcDbBlockEnd
  0
BLOCK
  5
11C
330
11A
100
AcDbEntity
  8
0
100
AcDbBlockBegin
  2
LEFT
 70
     0
 10
0.0
 20
0.0
 30
0.0
  3
LEFT
  1

  0
INSERT
  5
11B
330
11A
100
AcDbEntity
  8
PV-174
100
AcDbBlockReference
  2
*U2
 10
0.0
 20
0.0
 30
0.0
 50
270.0
210
0.0
220
1.0
230
0.0
  0
ENDBLK
  5
11D
330
11A
100
AcDbEntity
  8
0
100
AcDbBlockEnd
  0
BLOCK
  5
166
330
11F
100
AcDbEntity
  8
0
100
AcDbBlockBegin
  2
*U4
 70
     1
 10
0.0
 20
0.0
 30
0.0
  3
*U4
  1
*ANON
  0
LINE
  5
120
330
11F
100
AcDbEntity
  8
PV-174
100
AcDbLine
 10
0.0
 20
-90.5
 30
1051.5
 11
0.0
 21
-62.08541685271182
 31
1051.5
  0
LINE
  5
121
330
11F
100
AcDbEntity
  8
PV-174
100
AcDbLine
 10
0.0
 20
-57.0
 30
98.50000000000001
 11
0.0
 21
-73.49999999999972
 31
114.9999999999997
  0
LINE
  5
122
330
11F
100
AcDbEntity
  8
PV-174
100
AcDbLine
 10
0.0
 20
-73.50000000000027
 30
114.9999999999997
 11
0.0
 21
-57.0
 31
131.4999999999998
  0
ARC
  5
123
330
11F
100
AcDbEntity
  8
PV-174
100
AcDbCircle
 10
-73.5
 20
0.0
 30
0.0
 40
16.5
210
1.0
220
0.0
230
0.0
100
AcDbArc
 50
180.0
 51
270.0000000000002
  0
ARC
  5
124
330
11F
100
AcDbEntity
  8
PV-174
100
AcDbCircle
 10
-73.5
 20
0.0
 30
0.0
 40
16.5
210
1.0
220
0.0
230
0.0
100
AcDbArc
 50
90.0000000000006
 51
180.0000000000008
  0
LINE
  5
125
330
11F
100
AcDbEntity
  8
PV-174
100
AcDbLine
 10
0.0
 20
-62.08541685271182
 30
1051.5
 11
0.0
 21
-57.0
 31
1051.5
  0
LINE
  5
126
330
11F
100
AcDbEntity
  8
PV-174
100
AcDbLine
 10
0.0
 20
-118.0239714676013
 30
655.1738483438273
 11
0.0
 21
-115.8094315943507
 31
680.4861549216338
  0
LINE
  5
127
330
11F
100
AcDbEntity
  8
PV-174
100
AcDbLine
 10
0.0
 20
-127.6079707055911
 30
656.0123396283926
 11
0.0
 21
-125.3934308323404
 31
681.3246462061989
  0
SPLINE
  5
128
330
11F
100
AcDbEntity
  8
PV-174
100
AcDbSpline
210
1.0
220
0.0
230
0.0
 70
     8
 71
     3
 72
    14
 73
    10
 74
     0
 42
0.000000001
 43
0.0000000001
 40
8.794524056531006
 40
8.794524056531006
 40
8.794524056531006
 40
8.794524056531006
 40
9.579456439527339
 40
9.579456439527339
 40
10.36438882252367
 40
10.36438882252367
 40
11.09774755945768
 40
11.09774755945768
 40
11.18149517898411
 40
11.18149517898411
 40
11.18149517898411
 40
11.18149517898411
 10
0.0
 20
-123.3982763409828
 30
683.358454209307
 10
0.0
 20
-123.5552473410225
 30
683.1491273006487
 10
0.0
 20
-123.7221357831731
 30
682.9183367455665
 10
0.0
 20
-124.0238857982058
 30
682.4497980671536
 10
0.0
 20
-124.1581505577125
 30
682.2114761096484
 10
0.0
 20
-124.3598879735569
 30
681.7840790240762
 10
0.0
 20
-124.4488555499708
 30
681.555967003418
 10
0.0
 20
-124.5215049268054
 30
681.298885388317
 10
0.0
 20
-124.5286582097319
 30
681.272501647003
 10
0.0
 20
-124.5355094358125
 30
681.2461123509414
  0
SPLINE
  5
129
330
11F
100
AcDbEntity
  8
PV-174
100
AcDbSpline
210
1.0
220
0.0
230
0.0
 70
     8
 71
     3
 72
    20
 73
    16
 74
     0
 42
0.000000001
 43
0.0000000001
 40
1.658125044755959
 40
1.658125044755959
 40
1.658125044755959
 40
1.658125044755959
 40
1.696828082632773
 40
1.696828082632773
 40
1.798652902623284
 40
1.798652902623284
 40
1.900477722613793
 40
1.900477722613793
 40
1.93829658602752
 40
1.93829658602752
 40
1.976115449441244
 40
1.976115449441244
 40
2.029036545889155
 40
2.029036545889155
 40
2.081957642337066
 40
2.081957642337066
 40
2.081957642337066
 40
2.081957642337066
 10
0.0
 20
-124.5355094358125
 30
681.2461123509414
 10
0.0
 20
-124.5385585925046
 30
681.2343677233752
 10
0.0
 20
-124.5415980819559
 30
681.2227902675581
 10
0.0
 20
-124.5525488615188
 30
681.1816513229367
 10
0.0
 20
-124.5602658091809
 30
681.1537182049471
 10
0.0
 20
-124.5749793973091
 30
681.1044942705964
 10
0.0
 20
-124.5820029850954
 30
681.0826685452097
 10
0.0
 20
-124.5907210792585
 30
681.0638355969752
 10
0.0
 20
-124.5930549121951
 30
681.0599463573915
 10
0.0
 20
-124.5967445892768
 30
681.057502768006
 10
0.0
 20
-124.5980930894454
 30
681.0589891330231
 10
0.0
 20
-124.6000304875882
 30
681.0670313275046
 10
0.0
 20
-124.6003183028387
 30
681.0759106161047
 10
0.0
 20
-124.5996161148738
 30
681.0983530207053
 10
0.0
 20
-124.598650288173
 30
681.111830455724
 10
0.0
 20
-124.5975064840687
 30
681.1249041964583
  0
LINE
  5
12A
330
11F
100
AcDbEntity
  8
PV-174
100
AcDbLine
 10
0.0
 20
-121.6926775808309
 30
714.3272504910376
 11
0.0
 21
-124.5975064840687
 31
681.1249041964583
  0
SPLINE
  5
12B
330
11F
100
AcDbEntity
  8
PV-174
100
AcDbSpline
210
1.0
220
0.0
230
0.0
 70
     8
 71
     3
 72
    30
 73
    26
 74
     0
 42
0.000000001
 43
0.0000000001
 40
14.42455405504792
 40
14.42455405504792
 40
14.42455405504792
 40
14.42455405504792
 40
14.73791117182682
 40
14.73791117182682
 40
15.50349930632228
 40
15.50349930632228
 40
16.13666158832319
 40
16.13666158832319
 40
16.7698238703241
 40
16.7698238703241
 40
17.3330322944063
 40
17.3330322944063
 40
17.89624071848851
 40
17.89624071848851
 40
18.45944914257072
 40
18.45944914257072
 40
19.02265756665293
 40
19.02265756665293
 40
19.65581984865383
 40
19.65581984865383
 40
20.28898213065474
 40
20.28898213065474
 40
21.05457026515021
 40
21.05457026515021
 40
21.36792738192923
 40
21.36792738192923
 40
21.36792738192923
 40
21.36792738192923
 10
0.0
 20
-117.4211081524324
 30
682.8355197528209
 10
0.0
 20
-117.4720069660285
 30
682.9359959953791
 10
0.0
 20
-117.5269318084257
 30
683.0362074535734
 10
0.0
 20
-117.7280338780146
 30
683.3738680869163
 10
0.0
 20
-117.8926780808394
 30
683.6000363097461
 10
0.0
 20
-118.2003365693377
 30
683.9503725003061
 10
0.0
 20
-118.3658730456435
 30
684.1124929179292
 10
0.0
 20
-118.7256749095342
 30
684.4001157316228
 10
0.0
 20
-118.9201042627054
 30
684.5254129549247
 10
0.0
 20
-119.2743838848834
 30
684.7084965454752
 10
0.0
 20
-119.4647040996835
 30
684.7872326777626
 10
0.0
 20
-119.8575158246294
 30
684.90281728369
 10
0.0
 20
-120.0600331607081
 30
684.9395779703576
 10
0.0
 20
-120.4340766580352
 30
684.9723025360392
 10
0.0
 20
-120.6399007269742
 30
684.9712670931587
 10
0.0
 20
-121.0468158153606
 30
684.9256495173159
 10
0.0
 20
-121.2479170243389
 30
684.8811583222701
 10
0.0
 20
-121.6286064748536
 30
684.7623761936223
 10
0.0
 20
-121.8418396437628
 30
684.6727448195472
 10
0.0
 20
-122.2461204863238
 30
684.4519705806646
 10
0.0
 20
-122.4372940066792
 30
684.3210582439152
 10
0.0
 20
-122.8011137124942
 30
684.0294687831628
 10
0.0
 20
-123.0025302996649
 30
683.8353267296189
 10
0.0
 20
-123.259211330593
 30
683.5377169279247
 10
0.0
 20
-123.3307032783153
 30
683.4485655057452
 10
0.0
 20
-123.3982763409828
 30
683.358454209307
  0
SPLINE
  5
12C
330
11F
100
AcDbEntity
  8
PV-174
100
AcDbSpline
210
1.0
220
0.0
230
0.0
 70
     8
 71
     3
 72
    20
 73
    16
 74
     0
 42
0.000000001
 43
0.0000000001
 40
-2.081957642337072
 40
-2.081957642337072
 40
-2.081957642337072
 40
-2.081957642337072
 40
-2.029036545889185
 40
-2.029036545889185
 40
-1.976115449441301
 40
-1.976115449441301
 40
-1.938296586027581
 40
-1.938296586027581
 40
-1.900477722613866
 40
-1.900477722613866
 40
-1.798652902623324
 40
-1.798652902623324
 40
-1.696828082632783
 40
-1.696828082632783
 40
-1.658125044756548
 40
-1.658125044756548
 40
-1.658125044756548
 40
-1.658125044756548
 10
0.0
 20
-116.6279488993348
 30
680.4276582544773
 10
0.0
 20
-116.6290927034387
 30
680.4145845137433
 10
0.0
 20
-116.6304818818464
 30
680.4011441171994
 10
0.0
 20
-116.633687444356
 30
680.3789207294921
 10
0.0
 20
-116.6355127593301
 30
680.3702263158315
 10
0.0
 20
-116.6388172364583
 30
680.3626427260119
 10
0.0
 20
-116.6404033544558
 30
680.3614131068159
 10
0.0
 20
-116.6436126522082
 30
680.3644602782894
 10
0.0
 20
-116.645235669612
 30
680.3686956974209
 10
0.0
 20
-116.6505510091944
 30
680.3887564120185
 10
0.0
 20
-116.6536778954609
 30
680.4114701888145
 10
0.0
 20
-116.6596203046265
 30
680.4625012887619
 10
0.0
 20
-116.6623694794784
 30
680.491350073823
 10
0.0
 20
-116.6660101893288
 30
680.5337656083516
 10
0.0
 20
-116.6669930980006
 30
680.5456949784046
 10
0.0
 20
-116.6679564979772
 30
680.5577906591909
  0
SPLINE
  5
12D
330
11F
100
AcDbEntity
  8
PV-174
100
AcDbSpline
210
1.0
220
0.0
230
0.0
 70
     8
 71
     3
 72
    14
 73
    10
 74
     0
 42
0.000000001
 43
0.0000000001
 40
0.6496111174075529
 40
0.6496111174075529
 40
0.6496111174075529
 40
0.6496111174075529
 40
0.7333587369340008
 40
0.7333587369340008
 40
1.466717473868001
 40
1.466717473868001
 40
2.251649856864351
 40
2.251649856864351
 40
3.036582239860701
 40
3.036582239860701
 40
3.036582239860701
 40
3.036582239860701
 10
0.0
 20
-116.6679564979772
 30
680.5577906591909
 10
0.0
 20
-116.670121185368
 30
680.5849687454724
 10
0.0
 20
-116.6725843052543
 30
680.6121938130162
 10
0.0
 20
-116.6994882208383
 30
680.8779852126207
 10
0.0
 20
-116.7474929431661
 30
681.1180807566358
 10
0.0
 20
-116.8719487893129
 30
681.5740160547509
 10
0.0
 20
-116.9627895918123
 30
681.8320321970283
 10
0.0
 20
-117.1785944584152
 30
682.3458510603365
 10
0.0
 20
-117.3028711308206
 30
682.602115262157
 10
0.0
 20
-117.4211081524324
 30
682.8355197528209
  0
LINE
  5
12E
330
11F
100
AcDbEntity
  8
PV-174
100
AcDbLine
 10
0.0
 20
-113.723119996097
 30
713.6300045490562
 11
0.0
 21
-116.6279488993346
 31
680.4276582544773
  0
ARC
  5
12F
330
11F
100
AcDbEntity
  8
PV-174
100
AcDbCircle
 10
-115.9999999999995
 20
733.5000000000222
 30
0.0
 40
20.00002254432668
210
1.0
220
0.0
230
0.0
100
AcDbArc
 50
64.15793388636571
 51
295.842066113499
  0
LINE
  5
130
330
11F
100
AcDbEntity
  8
PV-174
100
AcDbLine
 10
0.0
 20
-73.99999999999931
 30
645.5000000000223
 11
0.0
 21
-92.9999999999991
 31
645.5000000000223
  0
LINE
  5
131
330
11F
100
AcDbEntity
  8
PV-174
100
AcDbLine
 10
0.0
 20
-55.0
 30
645.5000000000223
 11
0.0
 21
-73.99999999999959
 31
645.5000000000223
  0
LINE
  5
132
330
11F
100
AcDbEntity
  8
PV-174
100
AcDbLine
 10
0.0
 20
-74.0
 30
715.5000000000232
 11
0.0
 21
-107.2822021128917
 31
715.5000000000232
  0
LINE
  5
133
330
11F
100
AcDbEntity
  8
PV-174
100
AcDbLine
 10
0.0
 20
-74.0
 30
715.5000000000219
 11
0.0
 21
-49.30000000000063
 31
715.5000000000219
  0
LINE
  5
134
330
11F
100
AcDbEntity
  8
PV-174
100
AcDbLine
 10
0.0
 20
-74.0
 30
751.5
 11
0.0
 21
-49.30000000000063
 31
751.5
  0
LINE
  5
135
330
11F
100
AcDbEntity
  8
PV-174
100
AcDbLine
 10
0.0
 20
-74.0
 30
751.5000000000009
 11
0.0
 21
-107.282202112901
 31
751.5000000000009
  0
CIRCLE
  5
136
330
11F
100
AcDbEntity
  8
PV-174
100
AcDbCircle
 10
-115.9999999999993
 20
733.5000000000222
 30
0.0
 40
20.0
210
1.0
220
0.0
230
0.0
  0
LINE
  5
137
330
11F
100
AcDbEntity
  8
PV-174
100
AcDbLine
 10
0.0
 20
0.0
 30
1135.0
 11
0.0
 21
0.0
 31
1065.0
  0
LINE
  5
138
330
11F
100
AcDbEntity
  8
PV-174
100
AcDbLine
 10
0.0
 20
-12.0
 30
1133.0
 11
0.0
 21
-12.0
 31
1067.0
  0
LINE
  5
139
330
11F
100
AcDbEntity
  8
PV-174
100
AcDbLine
 10
0.0
 20
0.0
 30
150.0
 11
0.0
 21
0.0
 31
80.0
  0
LINE
  5
13A
330
11F
100
AcDbEntity
  8
PV-174
100
AcDbLine
 10
0.0
 20
-12.0
 30
148.0
 11
0.0
 21
-12.0
 31
82.0
  0
LINE
  5
13B
330
11F
100
AcDbEntity
  8
PV-174
100
AcDbLine
 10
0.0
 20
0.0
 30
35.0
 11
0.0
 21
0.0
 31
-35.0
  0
LINE
  5
13C
330
11F
100
AcDbEntity
  8
PV-174
100
AcDbLine
 10
0.0
 20
-12.0
 30
33.0
 11
0.0
 21
-12.0
 31
-33.0
  0
LINE
  5
13D
330
11F
100
AcDbEntity
  8
PV-174
100
AcDbLine
 10
0.0
 20
-10.0
 30
-35.0
 11
0.0
 21
0.0
 31
-35.0
  0
LINE
  5
13E
330
11F
100
AcDbEntity
  8
PV-174
100
AcDbLine
 10
0.0
 20
-10.0
 30
35.0
 11
0.0
 21
0.0
 31
35.0
  0
LINE
  5
13F
330
11F
100
AcDbEntity
  8
PV-174
100
AcDbLine
 10
0.0
 20
-10.0
 30
80.0
 11
0.0
 21
0.0
 31
80.0
  0
LINE
  5
140
330
11F
100
AcDbEntity
  8
PV-174
100
AcDbLine
 10
0.0
 20
-10.0
 30
150.0
 11
0.0
 21
0.0
 31
150.0
  0
LINE
  5
141
330
11F
100
AcDbEntity
  8
PV-174
100
AcDbLine
 10
0.0
 20
-10.0
 30
1065.0
 11
0.0
 21
0.0
 31
1065.0
  0
LINE
  5
142
330
11F
100
AcDbEntity
  8
PV-174
100
AcDbLine
 10
0.0
 20
-10.0
 30
1135.0
 11
0.0
 21
0.0
 31
1135.0
  0
LINE
  5
143
330
11F
100
AcDbEntity
  8
PV-174
100
AcDbLine
 10
0.0
 20
-47.30000000000063
 30
717.5000000000219
 11
0.0
 21
-47.30000000000063
 31
749.5
  0
LINE
  5
144
330
11F
100
AcDbEntity
  8
PV-174
100
AcDbLine
 10
0.0
 20
-54.29999999999949
 30
646.200000000022
 11
0.0
 21
-54.29999999999949
 31
715.5000000000223
  0
LINE
  5
145
330
11F
100
AcDbEntity
  8
PV-174
100
AcDbLine
 10
0.0
 20
-93.69999999999912
 30
646.200000000022
 11
0.0
 21
-93.69999999999912
 31
715.5000000000223
  0
ARC
  5
146
330
11F
100
AcDbEntity
  8
PV-174
100
AcDbCircle
 10
-7.629183551359914
 20
658.2685827446273
 30
0.0
 40
119.9999999999995
210
1.0
220
0.0
230
0.0
100
AcDbArc
 50
165.9776914801348
 51
168.9226597831425
  0
ARC
  5
147
330
11F
100
AcDbEntity
  8
PV-174
100
AcDbCircle
 10
-7.629183551359914
 20
658.2685827446273
 30
0.0
 40
119.9999999999995
210
1.0
220
0.0
230
0.0
100
AcDbArc
 50
181.0773402168563
 51
184.1768749669942
  0
ARC
  5
148
330
11F
100
AcDbEntity
  8
PV-174
100
AcDbCircle
 10
-235.788218748583
 20
678.2299118053969
 30
0.0
 40
120.0000000000005
210
1.0
220
0.0
230
0.0
100
AcDbArc
 50
345.8231250330056
 51
348.9226597831436
  0
ARC
  5
149
330
11F
100
AcDbEntity
  8
PV-174
100
AcDbCircle
 10
-235.788218748583
 20
678.2299118053969
 30
0.0
 40
120.0000000000005
210
1.0
220
0.0
230
0.0
100
AcDbArc
 50
1.077340216857396
 51
4.022308519865259
  0
LINE
  5
14A
330
11F
100
AcDbEntity
  8
PV-174
100
AcDbLine
 10
0.0
 20
-12.0
 30
16.5
 11
0.0
 21
-25.0
 31
16.5
  0
LINE
  5
14B
330
11F
100
AcDbEntity
  8
PV-174
100
AcDbLine
 10
0.0
 20
-12.0
 30
-16.5
 11
0.0
 21
-25.0
 31
-16.5
  0
LINE
  5
14C
330
11F
100
AcDbEntity
  8
PV-174
100
AcDbLine
 10
0.0
 20
-12.0
 30
131.4999999999998
 11
0.0
 21
-57.0
 31
131.4999999999998
  0
LINE
  5
14D
330
11F
100
AcDbEntity
  8
PV-174
100
AcDbLine
 10
0.0
 20
-12.0
 30
98.50000000000001
 11
0.0
 21
-57.0
 31
98.50000000000001
  0
LINE
  5
14E
330
11F
100
AcDbEntity
  8
PV-174
100
AcDbLine
 10
0.0
 20
-57.0
 30
131.4999999999998
 11
0.0
 21
-57.0
 31
645.5000000000223
  0
LINE
  5
14F
330
11F
100
AcDbEntity
  8
PV-174
100
AcDbLine
 10
0.0
 20
-57.0
 30
751.5
 11
0.0
 21
-57.0
 31
1051.5
  0
LINE
  5
150
330
11F
100
AcDbEntity
  8
PV-174
100
AcDbLine
 10
0.0
 20
-57.0
 30
48.5
 11
0.0
 21
-57.0
 31
98.50000000000001
  0
LINE
  5
151
330
11F
100
AcDbEntity
  8
PV-174
100
AcDbLine
 10
0.0
 20
-90.0
 30
48.5
 11
0.0
 21
-90.0
 31
645.5000000000223
  0
LINE
  5
152
330
11F
100
AcDbEntity
  8
PV-174
100
AcDbLine
 10
0.0
 20
-90.0
 30
751.5000000000003
 11
0.0
 21
-90.0
 31
1051.5
  0
LINE
  5
153
330
11F
100
AcDbEntity
  8
PV-174
100
AcDbLine
 10
0.0
 20
-12.0
 30
1117.0
 11
0.0
 21
-25.0
 31
1117.0
  0
LINE
  5
154
330
11F
100
AcDbEntity
  8
PV-174
100
AcDbLine
 10
0.0
 20
-12.0
 30
1084.0
 11
0.0
 21
-25.0
 31
1084.0
  0
ARC
  5
155
330
11F
100
AcDbEntity
  8
PV-174
100
AcDbCircle
 10
-10.0
 20
33.0
 30
0.0
 40
2.0
210
1.0
220
0.0
230
0.0
100
AcDbArc
 50
90.00000000000019
 51
180.0000000000012
  0
ARC
  5
156
330
11F
100
AcDbEntity
  8
PV-174
100
AcDbCircle
 10
-10.0
 20
-33.0
 30
0.0
 40
2.0
210
1.0
220
0.0
230
0.0
100
AcDbArc
 50
179.9999999999978
 51
269.9999999999997
  0
ARC
  5
157
330
11F
100
AcDbEntity
  8
PV-174
100
AcDbCircle
 10
-10.0
 20
148.0
 30
0.0
 40
2.0
210
1.0
220
0.0
230
0.0
100
AcDbArc
 50
90.00000000000019
 51
179.9999999999996
  0
ARC
  5
158
330
11F
100
AcDbEntity
  8
PV-174
100
AcDbCircle
 10
-10.0
 20
82.0
 30
0.0
 40
2.0
210
1.0
220
0.0
230
0.0
100
AcDbArc
 50
179.9999999999978
 51
269.9999999999997
  0
ARC
  5
159
330
11F
100
AcDbEntity
  8
PV-174
100
AcDbCircle
 10
-10.0
 20
1133.0
 30
0.0
 40
2.0
210
1.0
220
0.0
230
0.0
100
AcDbArc
 50
90.00000000000019
 51
179.9999999999996
  0
ARC
  5
15A
330
11F
100
AcDbEntity
  8
PV-174
100
AcDbCircle
 10
-10.0
 20
1067.0
 30
0.0
 40
2.0
210
1.0
220
0.0
230
0.0
100
AcDbArc
 50
179.9999999999996
 51
269.9999999999997
  0
ARC
  5
15B
330
11F
100
AcDbEntity
  8
PV-174
100
AcDbCircle
 10
-49.30000000000063
 20
717.5000000000219
 30
0.0
 40
1.999999999999998
210
1.0
220
0.0
230
0.0
100
AcDbArc
 50
269.9999999999978
 51
0.0
  0
ARC
  5
15C
330
11F
100
AcDbEntity
  8
PV-174
100
AcDbCircle
 10
-49.30000000000063
 20
749.5
 30
0.0
 40
1.999999999999995
210
1.0
220
0.0
230
0.0
100
AcDbArc
 50
0.0
 51
90.0
  0
ARC
  5
15D
330
11F
100
AcDbEntity
  8
PV-174
100
AcDbCircle
 10
-92.9999999999991
 20
646.200000000022
 30
0.0
 40
0.6999999999999319
210
1.0
220
0.0
230
0.0
100
AcDbArc
 50
180.0
 51
270.0000000000012
  0
ARC
  5
15E
330
11F
100
AcDbEntity
  8
PV-174
100
AcDbCircle
 10
-55.0
 20
646.200000000022
 30
0.0
 40
0.6999999999999319
210
1.0
220
0.0
230
0.0
100
AcDbArc
 50
269.999999999998
 51
0.0
  0
ARC
  5
15F
330
11F
100
AcDbEntity
  8
PV-174
100
AcDbCircle
 10
-123.3210823908025
 20
649.8196453603157
 30
0.0
 40
4.000000000000071
210
1.0
220
0.0
230
0.0
100
AcDbArc
 50
184.1768749669949
 51
345.8231250330058
  0
LINE
  5
160
330
11F
100
AcDbEntity
  8
PV-174
100
AcDbLine
 10
0.0
 20
-57.0
 30
16.49999999999997
 11
0.0
 21
-57.0
 31
48.50000000000017
  0
LINE
  5
161
330
11F
100
AcDbEntity
  8
PV-174
100
AcDbLine
 10
0.0
 20
-90.0
 30
48.50000000000017
 11
0.0
 21
-90.0
 31
0.0
  0
LINE
  5
162
330
11F
100
AcDbEntity
  8
PV-174
100
AcDbLine
 10
0.0
 20
-73.5
 30
-16.5
 11
0.0
 21
-25.0
 31
-16.5
  0
LINE
  5
163
330
11F
100
AcDbEntity
  8
PV-174
100
AcDbLine
 10
0.0
 20
-25.0
 30
16.5
 11
0.0
 21
-73.5
 31
16.5
  0
ARC
  5
164
330
11F
100
AcDbEntity
  8
PV-174
100
AcDbCircle
 10
-25.0
 20
1051.5
 30
0.0
 40
65.5
210
1.0
220
0.0
230
0.0
100
AcDbArc
 50
89.99999999999756
 51
179.9999999999998
  0
ARC
  5
165
330
11F
100
AcDbEntity
  8
PV-174
100
AcDbCircle
 10
-25.0
 20
1051.5
 30
0.0
 40
32.5
210
1.0
220
0.0
230
0.0
100
AcDbArc
 50
89.99999999999761
 51
179.9999999999998
  0
ENDBLK
  5
167
330
11F
100
AcDbEntity
  8
0
100
AcDbBlockEnd
  0
BLOCK
  5
16A
330
168
100
AcDbEntity
  8
0
100
AcDbBlockBegin
  2
RIGHT
 70
     0
 10
0.0
 20
0.0
 30
0.0
  3
RIGHT
  1

  0
INSERT
  5
169
330
168
100
AcDbEntity
  8
PV-174
100
AcDbBlockReference
  2
*U4
 10
0.0
 20
0.0
 30
0.0
 50
90.0
210
0.0
220
1.0
230
0.0
  0
ENDBLK
  5
16B
330
168
100
AcDbEntity
  8
0
100
AcDbBlockEnd
  0
BLOCK
  5
1CD
330
16D
100
AcDbEntity
  8
0
100
AcDbBlockBegin
  2
*U6
 70
     1
 10
0.0
 20
0.0
 30
0.0
  3
*U6
  1
*ANON
  0
ARC
  5
16E
330
16D
100
AcDbEntity
  8
PV-174
100
AcDbCircle
 10
-399.5
 20
-74.0
 30
0.0
 40
16.5
100
AcDbArc
 50
223.7722019657393
 51
0.0
  0
ARC
  5
16F
330
16D
100
AcDbEntity
  8
PV-174
100
AcDbCircle
 10
-400.0
 20
-73.5
 30
0.0
 40
16.5
100
AcDbArc
 50
165.8588897660683
 51
226.2277980342608
  0
ARC
  5
170
330
16D
100
AcDbEntity
  8
PV-174
100
AcDbCircle
 10
-399.5
 20
-74.0
 30
0.0
 40
16.5
100
AcDbArc
 50
180.0000000000003
 51
223.77220196574
  0
LINE
  5
171
330
16D
100
AcDbEntity
  8
PV-174
100
AcDbLine
 10
-457.8499999999981
 20
-96.99999999999917
 30
0.0
 11
-457.8499999999983
 21
-118.0917600020403
 31
0.0
  0
LINE
  5
172
330
16D
100
AcDbEntity
  8
PV-174
100
AcDbLine
 10
-457.8499999999983
 20
-134.8845052912122
 30
0.0
 11
-457.8499999999983
 21
-134.999999999999
 31
0.0
  0
LINE
  5
173
330
16D
100
AcDbEntity
  8
PV-174
100
AcDbLine
 10
-457.8499999999981
 20
-118.0917600020404
 30
0.0
 11
-457.8499999999983
 21
-134.8845052912124
 31
0.0
  0
LINE
  5
174
330
16D
100
AcDbEntity
  8
PV-174
100
AcDbLine
 10
-432.3499999999984
 20
-130.1421356237302
 30
0.0
 11
-432.3499999999983
 21
-135.9999999999992
 31
0.0
  0
LINE
  5
175
330
16D
100
AcDbEntity
  8
PV-174
100
AcDbLine
 10
-432.3499999999981
 20
-95.99999999999926
 30
0.0
 11
-432.3499999999984
 21
-130.1421356237304
 31
0.0
  0
LINE
  5
176
330
16D
100
AcDbEntity
  8
PV-174
100
AcDbLine
 10
-382.0
 20
-136.0000225443262
 30
0.0
 11
-382.0
 21
-107.2821503927636
 31
0.0
  0
LINE
  5
177
330
16D
100
AcDbEntity
  8
PV-174
100
AcDbLine
 10
-375.4999999999999
 20
-107.2822021128855
 30
0.0
 11
-375.4999999999999
 21
-135.9999999999992
 31
0.0
  0
LINE
  5
178
330
16D
100
AcDbEntity
  8
PV-174
100
AcDbLine
 10
-417.0
 20
-107.2821503927636
 30
0.0
 11
-417.0
 21
-136.0000225443262
 31
0.0
  0
LINE
  5
179
330
16D
100
AcDbEntity
  8
PV-174
100
AcDbLine
 10
-423.5
 20
-107.2822021128855
 30
0.0
 11
-423.5
 21
-135.9999999999992
 31
0.0
  0
ARC
  5
17A
330
16D
100
AcDbEntity
  8
PV-174
100
AcDbCircle
 10
-399.5
 20
-74.0
 30
0.0
 40
26.69999999999935
100
AcDbArc
 50
359.9999999999997
 51
51.83140718637042
  0
ARC
  5
17B
330
16D
100
AcDbEntity
  8
PV-174
100
AcDbCircle
 10
-399.5
 20
-74.0
 30
0.0
 40
26.69999999999935
100
AcDbArc
 50
128.1685928136292
 51
180.0000000000004
  0
LINE
  5
17C
330
16D
100
AcDbEntity
  8
PV-174
100
AcDbLine
 10
-372.8000000000005
 20
-74.0
 30
0.0
 11
-372.8000000000005
 21
-103.9999999999893
 31
0.0
  0
ARC
  5
17D
330
16D
100
AcDbEntity
  8
PV-174
100
AcDbCircle
 10
-421.2000000000001
 20
-74.0
 30
0.0
 40
5.000000000000047
100
AcDbArc
 50
342.4416349365611
 51
344.0278419482476
  0
ARC
  5
17E
330
16D
100
AcDbEntity
  8
PV-174
100
AcDbCircle
 10
-399.499999999999
 20
-73.99999999999976
 30
0.0
 40
17.00000000000029
100
AcDbArc
 50
185.090467235358
 51
234.9095327646387
  0
ARC
  5
17F
330
16D
100
AcDbEntity
  8
PV-174
100
AcDbCircle
 10
-410.3499999999995
 20
-92.79275126212176
 30
0.0
 40
4.999999999999737
100
AcDbArc
 50
42.44163493656563
 51
77.55836506344
  0
ARC
  5
180
330
16D
100
AcDbEntity
  8
PV-174
100
AcDbCircle
 10
-399.5
 20
-73.99999999999884
 30
0.0
 40
17.00000000000053
100
AcDbArc
 50
245.0904672353606
 51
294.9095327646389
  0
ARC
  5
181
330
16D
100
AcDbEntity
  8
PV-174
100
AcDbCircle
 10
-388.6499999999987
 20
-92.79275126212338
 30
0.0
 40
5.000000000001613
100
AcDbArc
 50
102.4416349365645
 51
137.5583650634387
  0
ARC
  5
182
330
16D
100
AcDbEntity
  8
PV-174
100
AcDbCircle
 10
-399.5
 20
-73.99999999999884
 30
0.0
 40
17.00000000000041
100
AcDbArc
 50
305.0904672353602
 51
354.9095327646372
  0
ARC
  5
183
330
16D
100
AcDbEntity
  8
PV-174
100
AcDbCircle
 10
-377.7999999999997
 20
-73.99999999999909
 30
0.0
 40
5.000000000000049
100
AcDbArc
 50
162.4416349365636
 51
197.5583650634366
  0
ARC
  5
184
330
16D
100
AcDbEntity
  8
PV-174
100
AcDbCircle
 10
-399.5000000000004
 20
-73.99999999999909
 30
0.0
 40
17.00000000000025
100
AcDbArc
 50
5.09046723535662
 51
13.93055456235404
  0
LINE
  5
185
330
16D
100
AcDbEntity
  8
PV-174
100
AcDbLine
 10
-426.1999999999993
 20
-74.0
 30
0.0
 11
-426.1999999999993
 21
-103.9999999999893
 31
0.0
  0
LINE
  5
186
330
16D
100
AcDbEntity
  8
PV-174
100
AcDbLine
 10
-366.8000000000001
 20
-96.00000000000092
 30
0.0
 11
-366.8000000000001
 21
-136.0000000000009
 31
0.0
  0
SPLINE
  5
187
330
16D
100
AcDbEntity
  8
PV-174
100
AcDbSpline
210
0.0
220
0.0
230
1.0
 70
     8
 71
     3
 72
    18
 73
    14
 74
     0
 42
0.000000001
 43
0.0000000001
 40
0.0
 40
0.0
 40
0.0
 40
0.0
 40
0.3978591234259627
 40
0.3978591234259627
 40
0.7957182468519255
 40
0.7957182468519255
 40
1.59143649370385
 40
1.59143649370385
 40
2.317215028378713
 40
2.317215028378713
 40
3.042993563053578
 40
3.042993563053578
 40
4.494550632403309
 40
4.494550632403309
 40
4.494550632403309
 40
4.494550632403309
 10
-374.8000000000005
 20
-107.282202112901
 30
0.0
 10
-374.6673802921923
 20
-107.282202112901
 30
0.0
 10
-374.5416859660104
 20
-107.2550878027346
 30
0.0
 10
-374.3046323184598
 20
-107.1621538659595
 30
0.0
 10
-374.1933082281038
 20
-107.096276123755
 30
0.0
 10
-373.8828038258911
 20
-106.8616221508144
 30
0.0
 10
-373.7075480136942
 20
-106.6559236272587
 30
0.0
 10
-373.4430697859343
 20
-106.275617537668
 30
0.0
 10
-373.3324521013692
 20
-106.078891562149
 30
0.0
 10
-373.1409183374108
 20
-105.6700207351138
 30
0.0
 10
-373.0601578331115
 20
-105.4578264604862
 30
0.0
 10
-372.8652403120323
 20
-104.8178468720285
 30
0.0
 10
-372.8000000000005
 20
-104.3870818851491
 30
0.0
 10
-372.8000000000005
 20
-103.9999999999893
 30
0.0
  0
LINE
  5
188
330
16D
100
AcDbEntity
  8
PV-174
100
AcDbLine
 10
-375.3000000000001
 20
-136.0000000000009
 30
0.0
 11
-375.3000000000001
 21
-107.282202112899
 31
0.0
  0
LINE
  5
189
330
16D
100
AcDbEntity
  8
PV-174
100
AcDbLine
 10
-375.3000000000001
 20
-107.282202112899
 30
0.0
 11
-374.8000000000005
 21
-107.282202112899
 31
0.0
  0
LINE
  5
18A
330
16D
100
AcDbEntity
  8
PV-174
100
AcDbLine
 10
-423.6999999999999
 20
-107.282202112899
 30
0.0
 11
-417.0
 21
-107.282202112899
 31
0.0
  0
LINE
  5
18B
330
16D
100
AcDbEntity
  8
PV-174
100
AcDbLine
 10
-382.0
 20
-107.282202112899
 30
0.0
 11
-375.3000000000001
 21
-107.282202112899
 31
0.0
  0
LINE
  5
18C
330
16D
100
AcDbEntity
  8
PV-174
100
AcDbLine
 10
-432.1999999999999
 20
-96.00000000000092
 30
0.0
 11
-432.1999999999999
 21
-136.0000000000009
 31
0.0
  0
LINE
  5
18D
330
16D
100
AcDbEntity
  8
PV-174
100
AcDbLine
 10
-423.6999999999999
 20
-136.0000000000009
 30
0.0
 11
-423.6999999999999
 21
-107.282202112899
 31
0.0
  0
SPLINE
  5
18E
330
16D
100
AcDbEntity
  8
PV-174
100
AcDbSpline
210
0.0
220
0.0
230
1.0
 70
     8
 71
     3
 72
    18
 73
    14
 74
     0
 42
0.000000001
 43
0.0000000001
 40
-4.494550632403958
 40
-4.494550632403958
 40
-4.494550632403958
 40
-4.494550632403958
 40
-3.042993563053927
 40
-3.042993563053927
 40
-2.317215028378913
 40
-2.317215028378913
 40
-1.591436493703898
 40
-1.591436493703898
 40
-0.7957182468519495
 40
-0.7957182468519495
 40
-0.3978591234259738
 40
-0.3978591234259738
 40
0.0
 40
0.0
 40
0.0
 40
0.0
 10
-426.1999999999993
 20
-103.9999999999893
 30
0.0
 10
-426.1999999999993
 20
-104.3870818851492
 30
0.0
 10
-426.1347596879677
 20
-104.8178468720287
 30
0.0
 10
-425.9398421668882
 20
-105.4578264604863
 30
0.0
 10
-425.8590816625893
 20
-105.6700207351142
 30
0.0
 10
-425.6675478986307
 20
-106.0788915621494
 30
0.0
 10
-425.5569302140655
 20
-106.2756175376685
 30
0.0
 10
-425.2924519863058
 20
-106.6559236272593
 30
0.0
 10
-425.1171961741086
 20
-106.861622150815
 30
0.0
 10
-424.806691771896
 20
-107.0962761237556
 30
0.0
 10
-424.6953676815401
 20
-107.1621538659604
 30
0.0
 10
-424.4583140339896
 20
-107.2550878027353
 30
0.0
 10
-424.3326197078077
 20
-107.2822021129016
 30
0.0
 10
-424.1999999999993
 20
-107.2822021129016
 30
0.0
  0
LINE
  5
18F
330
16D
100
AcDbEntity
  8
PV-174
100
AcDbLine
 10
-424.1999999999993
 20
-107.282202112899
 30
0.0
 11
-423.6999999999999
 21
-107.282202112899
 31
0.0
  0
LINE
  5
190
330
16D
100
AcDbEntity
  8
PV-174
100
AcDbLine
 10
-364.6499999999999
 20
-103.2720779386415
 30
0.0
 11
-364.6499999999999
 21
-133.9999999999992
 31
0.0
  0
LINE
  5
191
330
16D
100
AcDbEntity
  8
PV-174
100
AcDbLine
 10
-364.6499999999999
 20
-97.99999999999938
 30
0.0
 11
-364.6499999999999
 21
-103.2720779386415
 31
0.0
  0
LINE
  5
192
330
16D
100
AcDbEntity
  8
PV-174
100
AcDbLine
 10
-366.6499999999999
 20
-101.8578643762684
 30
0.0
 11
-366.6499999999999
 21
-135.9999999999992
 31
0.0
  0
LINE
  5
193
330
16D
100
AcDbEntity
  8
PV-174
100
AcDbLine
 10
-366.6499999999999
 20
-95.99999999999935
 30
0.0
 11
-366.6499999999999
 21
-101.8578643762686
 31
0.0
  0
LINE
  5
194
330
16D
100
AcDbEntity
  8
PV-174
100
AcDbLine
 10
-423.6999999999999
 20
-110.3431457505072
 30
0.0
 11
-423.5000000000002
 21
-110.3431457505072
 31
0.0
  0
LINE
  5
195
330
16D
100
AcDbEntity
  8
PV-174
100
AcDbLine
 10
-423.5000000000002
 20
-113.9294476391792
 30
0.0
 11
-423.6999999999999
 21
-113.9294476391792
 31
0.0
  0
LINE
  5
196
330
16D
100
AcDbEntity
  8
PV-174
100
AcDbLine
 10
-423.5
 20
-111.7573593128797
 30
0.0
 11
-423.6999999999999
 21
-111.7573593128797
 31
0.0
  0
LINE
  5
197
330
16D
100
AcDbEntity
  8
PV-174
100
AcDbLine
 10
-435.0
 20
0.0
 30
0.0
 11
-365.0
 21
0.0
 31
0.0
  0
LINE
  5
198
330
16D
100
AcDbEntity
  8
PV-174
100
AcDbLine
 10
-433.0
 20
-12.0
 30
0.0
 11
-367.0
 21
-12.0
 31
0.0
  0
LINE
  5
199
330
16D
100
AcDbEntity
  8
PV-174
100
AcDbLine
 10
-35.0
 20
0.0
 30
0.0
 11
35.0
 21
0.0
 31
0.0
  0
LINE
  5
19A
330
16D
100
AcDbEntity
  8
PV-174
100
AcDbLine
 10
-33.0
 20
-12.0
 30
0.0
 11
33.0
 21
-12.0
 31
0.0
  0
LINE
  5
19B
330
16D
100
AcDbEntity
  8
PV-174
100
AcDbLine
 10
35.0
 20
-10.0
 30
0.0
 11
35.0
 21
0.0
 31
0.0
  0
LINE
  5
19C
330
16D
100
AcDbEntity
  8
PV-174
100
AcDbLine
 10
-35.0
 20
-10.0
 30
0.0
 11
-35.0
 21
0.0
 31
0.0
  0
LINE
  5
19D
330
16D
100
AcDbEntity
  8
PV-174
100
AcDbLine
 10
-365.0
 20
-10.0
 30
0.0
 11
-365.0
 21
0.0
 31
0.0
  0
LINE
  5
19E
330
16D
100
AcDbEntity
  8
PV-174
100
AcDbLine
 10
-435.0
 20
-10.0
 30
0.0
 11
-435.0
 21
0.0
 31
0.0
  0
LINE
  5
19F
330
16D
100
AcDbEntity
  8
PV-174
100
AcDbLine
 10
-423.6999999999999
 20
-123.9999999999989
 30
0.0
 11
-423.5
 21
-123.9999999999989
 31
0.0
  0
LINE
  5
1A0
330
16D
100
AcDbEntity
  8
PV-174
100
AcDbLine
 10
-375.4999999999999
 20
-123.9999999999989
 30
0.0
 11
-375.3000000000001
 21
-123.9999999999989
 31
0.0
  0
LINE
  5
1A1
330
16D
100
AcDbEntity
  8
PV-174
100
AcDbLine
 10
-423.6999999999999
 20
-107.9999999999998
 30
0.0
 11
-423.5
 21
-107.9999999999998
 31
0.0
  0
LINE
  5
1A2
330
16D
100
AcDbEntity
  8
PV-174
100
AcDbLine
 10
-375.4999999999999
 20
-107.9999999999998
 30
0.0
 11
-375.3000000000001
 21
-107.9999999999998
 31
0.0
  0
LINE
  5
1A3
330
16D
100
AcDbEntity
  8
PV-174
100
AcDbLine
 10
-366.8000000000001
 20
-133.3999999999994
 30
0.0
 11
-366.6499999999999
 21
-133.3999999999994
 31
0.0
  0
LINE
  5
1A4
330
16D
100
AcDbEntity
  8
PV-174
100
AcDbLine
 10
-366.8000000000001
 20
-98.59999999999928
 30
0.0
 11
-366.6499999999999
 21
-98.59999999999928
 31
0.0
  0
LINE
  5
1A5
330
16D
100
AcDbEntity
  8
PV-174
100
AcDbLine
 10
-426.1999999999993
 20
-96.00000000000092
 30
0.0
 11
-432.1999999999999
 21
-96.00000000000092
 31
0.0
  0
LINE
  5
1A6
330
16D
100
AcDbEntity
  8
PV-174
100
AcDbLine
 10
-423.6999999999999
 20
-136.0000000000009
 30
0.0
 11
-432.1999999999999
 21
-136.0000000000009
 31
0.0
  0
LINE
  5
1A7
330
16D
100
AcDbEntity
  8
PV-174
100
AcDbLine
 10
-366.8000000000001
 20
-96.00000000000092
 30
0.0
 11
-372.8000000000005
 21
-96.00000000000092
 31
0.0
  0
LINE
  5
1A8
330
16D
100
AcDbEntity
  8
PV-174
100
AcDbLine
 10
-366.8000000000001
 20
-136.0000000000009
 30
0.0
 11
-375.3000000000001
 21
-136.0000000000009
 31
0.0
  0
LINE
  5
1A9
330
16D
100
AcDbEntity
  8
PV-174
100
AcDbLine
 10
-417.0
 20
-135.9999999999992
 30
0.0
 11
-423.5
 21
-135.9999999999992
 31
0.0
  0
LINE
  5
1AA
330
16D
100
AcDbEntity
  8
PV-174
100
AcDbLine
 10
-375.4999999999999
 20
-135.9999999999992
 30
0.0
 11
-382.0
 21
-135.9999999999992
 31
0.0
  0
LINE
  5
1AB
330
16D
100
AcDbEntity
  8
PV-174
100
AcDbLine
 10
-382.0
 20
-136.0000225443262
 30
0.0
 11
-417.0
 21
-136.0000225443262
 31
0.0
  0
LINE
  5
1AC
330
16D
100
AcDbEntity
  8
PV-174
100
AcDbLine
 10
-456.8499999999983
 20
-135.999999999999
 30
0.0
 11
-432.3499999999983
 21
-135.9999999999992
 31
0.0
  0
LINE
  5
1AD
330
16D
100
AcDbEntity
  8
PV-174
100
AcDbLine
 10
-456.8499999999981
 20
-95.99999999999916
 30
0.0
 11
-432.3499999999981
 21
-95.99999999999926
 31
0.0
  0
LINE
  5
1AE
330
16D
100
AcDbEntity
  8
PV-174
100
AcDbLine
 10
-454.1807611844554
 20
-122.4681985355194
 30
0.0
 11
-453.5281860625143
 21
-122.4681985355194
 31
0.0
  0
LINE
  5
1AF
330
16D
100
AcDbEntity
  8
PV-174
100
AcDbLine
 10
-432.3499999999983
 20
-133.3999999999992
 30
0.0
 11
-432.1999999999999
 21
-133.3999999999992
 31
0.0
  0
LINE
  5
1B0
330
16D
100
AcDbEntity
  8
PV-174
100
AcDbLine
 10
-432.3499999999981
 20
-98.59999999999915
 30
0.0
 11
-432.1999999999999
 21
-98.59999999999915
 31
0.0
  0
LINE
  5
1B1
330
16D
100
AcDbEntity
  8
PV-174
100
AcDbLine
 10
-48.5
 20
-57.0
 30
0.0
 11
-351.5
 21
-57.0
 31
0.0
  0
LINE
  5
1B2
330
16D
100
AcDbEntity
  8
PV-174
100
AcDbLine
 10
-48.5
 20
-90.0
 30
0.0
 11
-351.5
 21
-90.0
 31
0.0
  0
LINE
  5
1B3
330
16D
100
AcDbEntity
  8
PV-174
100
AcDbLine
 10
-16.5
 20
-12.0
 30
0.0
 11
-16.5
 21
-25.0
 31
0.0
  0
LINE
  5
1B4
330
16D
100
AcDbEntity
  8
PV-174
100
AcDbLine
 10
16.5
 20
-12.0
 30
0.0
 11
16.5
 21
-25.0
 31
0.0
  0
LINE
  5
1B5
330
16D
100
AcDbEntity
  8
PV-174
100
AcDbLine
 10
-416.5
 20
-12.0
 30
0.0
 11
-416.5
 21
-53.41141092741009
 31
0.0
  0
LINE
  5
1B6
330
16D
100
AcDbEntity
  8
PV-174
100
AcDbLine
 10
-416.0
 20
-12.0
 30
0.0
 11
-416.0
 21
-25.0
 31
0.0
  0
LINE
  5
1B7
330
16D
100
AcDbEntity
  8
PV-174
100
AcDbLine
 10
-383.0
 20
-12.0
 30
0.0
 11
-383.0
 21
-25.0
 31
0.0
  0
ARC
  5
1B8
330
16D
100
AcDbEntity
  8
PV-174
100
AcDbCircle
 10
-33.0
 20
-10.0
 30
0.0
 40
2.0
100
AcDbArc
 50
180.0000000000002
 51
270.0000000000012
  0
ARC
  5
1B9
330
16D
100
AcDbEntity
  8
PV-174
100
AcDbCircle
 10
33.0
 20
-10.0
 30
0.0
 40
2.0
100
AcDbArc
 50
269.9999999999978
 51
359.9999999999997
  0
ARC
  5
1BA
330
16D
100
AcDbEntity
  8
PV-174
100
AcDbCircle
 10
-433.0
 20
-10.0
 30
0.0
 40
2.0
100
AcDbArc
 50
180.0000000000002
 51
269.9999999999996
  0
ARC
  5
1BB
330
16D
100
AcDbEntity
  8
PV-174
100
AcDbCircle
 10
-367.0
 20
-10.0
 30
0.0
 40
2.0
100
AcDbArc
 50
269.9999999999996
 51
359.9999999999997
  0
ARC
  5
1BC
330
16D
100
AcDbEntity
  8
PV-174
100
AcDbCircle
 10
-366.6499999999999
 20
-97.99999999999938
 30
0.0
 40
1.999999999999998
100
AcDbArc
 50
360.0
 51
89.99999999999998
  0
ARC
  5
1BD
330
16D
100
AcDbEntity
  8
PV-174
100
AcDbCircle
 10
-366.6499999999999
 20
-133.9999999999992
 30
0.0
 40
1.999999999999998
100
AcDbArc
 50
270.0
 51
360.0
  0
SPLINE
  5
1BE
330
16D
100
AcDbEntity
  8
PV-174
100
AcDbSpline
210
0.0
220
0.0
230
1.0
 70
     8
 71
     3
 72
    20
 73
    16
 74
     0
 42
0.000000001
 43
0.0000000001
 40
0.1476977204276086
 40
0.1476977204276086
 40
0.1476977204276086
 40
0.1476977204276086
 40
0.2758370288594389
 40
0.2758370288594389
 40
0.293331138459643
 40
0.293331138459643
 40
0.301426564545421
 40
0.301426564545421
 40
0.3203753852087088
 40
0.3203753852087088
 40
0.3465415963585574
 40
0.3465415963585574
 40
0.3510419892013851
 40
0.3510419892013851
 40
0.3544686228257871
 40
0.3544686228257871
 40
0.3544686228257871
 40
0.3544686228257871
 10
-452.72477260876
 20
-122.1636242248967
 30
0.0
 10
-452.754732772099
 20
-122.1880902995213
 30
0.0
 10
-452.7860642184331
 20
-122.2106779798479
 30
0.0
 10
-452.8236381946451
 20
-122.2340379600939
 30
0.0
 10
-452.8281808076338
 20
-122.2368041041701
 30
0.0
 10
-452.8348686485736
 20
-122.2407910713531
 30
0.0
 10
-452.8369906535838
 20
-122.242043675732
 30
0.0
 10
-452.8441006132006
 20
-122.2461989782688
 30
0.0
 10
-452.8491166374765
 20
-122.2490623964882
 30
0.0
 10
-452.8611415463672
 20
-122.2557636415171
 30
0.0
 10
-452.8681815149818
 20
-122.2595570393605
 30
0.0
 10
-452.8765093603944
 20
-122.2638910385231
 30
0.0
 10
-452.87773344076
 20
-122.2645242430502
 30
0.0
 10
-452.8798929739598
 20
-122.2656345850944
 30
0.0
 10
-452.8808276041476
 20
-122.266112910666
 30
0.0
 10
-452.8817633642757
 20
-122.2665895900618
 30
0.0
  0
SPLINE
  5
1BF
330
16D
100
AcDbEntity
  8
PV-174
100
AcDbSpline
210
0.0
220
0.0
230
1.0
 70
     8
 71
     3
 72
    14
 73
    10
 74
     0
 42
0.000000001
 43
0.0000000001
 40
0.0
 40
0.0
 40
0.0
 40
0.0
 40
0.1027022129701241
 40
0.1027022129701241
 40
0.7279570392031931
 40
0.7279570392031931
 40
0.878711546942449
 40
0.878711546942449
 40
1.007573759621968
 40
1.007573759621968
 40
1.007573759621968
 40
1.007573759621968
 10
-452.8817633642595
 20
-122.2665895900536
 30
0.0
 10
-452.9087760831755
 20
-122.2803499610579
 30
0.0
 10
-452.9356919734055
 20
-122.2936112460113
 30
0.0
 10
-453.1256091923872
 20
-122.3837178546894
 30
0.0
 10
-453.2622215014566
 20
-122.4305110400931
 30
0.0
 10
-453.4049742763683
 20
-122.4580017455275
 30
0.0
 10
-453.4326605834802
 20
-122.4621418599697
 30
0.0
 10
-453.4837014226869
 20
-122.4670781391477
 30
0.0
 10
-453.5063636901861
 20
-122.468226297088
 30
0.0
 10
-453.5282529032577
 20
-122.4682427949804
 30
0.0
  0
SPLINE
  5
1C0
330
16D
100
AcDbEntity
  8
PV-174
100
AcDbSpline
210
0.0
220
0.0
230
1.0
 70
     8
 71
     3
 72
    22
 73
    18
 74
     0
 42
0.000000001
 43
0.0000000001
 40
3.061871436955371
 40
3.061871436955371
 40
3.061871436955371
 40
3.061871436955371
 40
3.560368615882659
 40
3.560368615882659
 40
7.493792974690864
 40
7.493792974690864
 40
12.10816926551457
 40
12.10816926551457
 40
16.79563105604578
 40
16.79563105604578
 40
20.70282533587922
 40
20.70282533587922
 40
24.42008836558175
 40
24.42008836558175
 40
27.33511547717966
 40
27.33511547717966
 40
28.43964690264884
 40
28.43964690264884
 40
28.43964690264884
 40
28.43964690264884
 10
-434.5670799620738
 20
-129.6556026835718
 30
0.0
 10
-434.5728668989599
 20
-129.539253096913
 30
0.0
 10
-434.582283586324
 20
-129.4210992727462
 30
0.0
 10
-434.6986457933848
 20
-128.3548379507155
 30
0.0
 10
-435.027052519048
 20
-127.3403671521688
 30
0.0
 10
-436.1758388781797
 20
-125.123178236523
 30
0.0
 10
-437.0570981534823
 20
-123.9467332235597
 30
0.0
 10
-439.219211337184
 20
-121.8648986269555
 30
0.0
 10
-440.5117954610219
 20
-120.9594935749362
 30
0.0
 10
-443.1317477641358
 20
-119.8406594292688
 30
0.0
 10
-444.396958098467
 20
-119.5474956675143
 30
0.0
 10
-446.9392772046112
 20
-119.5068039169874
 30
0.0
 10
-448.1516906208403
 20
-119.7342532393059
 30
0.0
 10
-450.2130064887729
 20
-120.5079238269888
 30
0.0
 10
-451.0686168680538
 20
-120.9685256554275
 30
0.0
 10
-452.1561095363566
 20
-121.7177215159132
 30
0.0
 10
-452.4455666778431
 20
-121.9355921202103
 30
0.0
 10
-452.7247875139418
 20
-122.1635938744505
 30
0.0
  0
ARC
  5
1C1
330
16D
100
AcDbEntity
  8
PV-174
100
AcDbCircle
 10
-456.8499999999983
 20
-134.999999999999
 30
0.0
 40
0.9999999999999998
100
AcDbArc
 50
180.0000000000002
 51
270.0000000000002
  0
SPLINE
  5
1C2
330
16D
100
AcDbEntity
  8
PV-174
100
AcDbSpline
210
0.0
220
0.0
230
1.0
 70
     8
 71
     3
 72
    16
 73
    12
 74
     0
 42
0.000000001
 43
0.0000000001
 40
0.2153933378818875
 40
0.2153933378818875
 40
0.2153933378818875
 40
0.2153933378818875
 40
0.4400106383128409
 40
0.4400106383128409
 40
0.7443622166473654
 40
0.7443622166473654
 40
0.7898558523517304
 40
0.7898558523517304
 40
0.8400475890234059
 40
0.8400475890234059
 40
0.9391014517164848
 40
0.9391014517164848
 40
0.9391014517164848
 40
0.9391014517164848
 10
-454.1807576035455
 20
-122.4682006681551
 30
0.0
 10
-454.2903845800351
 20
-122.4682216815
 30
0.0
 10
-454.4005345852712
 20
-122.4406262375248
 30
0.0
 10
-454.6452754481002
 20
-122.3436671399791
 30
0.0
 10
-454.7950625388856
 20
-122.2550922396509
 30
0.0
 10
-454.9694244857341
 20
-122.1167916128222
 30
0.0
 10
-454.9919748839054
 20
-122.098212247875
 30
0.0
 10
-455.0390563220349
 20
-122.0579415241711
 30
0.0
 10
-455.0635662312202
 20
-122.0361142590739
 30
0.0
 10
-455.1356944131602
 20
-121.9692313149145
 30
0.0
 10
-455.1826784305379
 20
-121.9221623161083
 30
0.0
 10
-455.2281379154657
 20
-121.8727279268646
 30
0.0
  0
SPLINE
  5
1C3
330
16D
100
AcDbEntity
  8
PV-174
100
AcDbSpline
210
0.0
220
0.0
230
1.0
 70
     8
 71
     3
 72
    22
 73
    18
 74
     0
 42
0.000000001
 43
0.0000000001
 40
0.0
 40
0.0
 40
0.0
 40
0.0
 40
0.1010342156325368
 40
0.1010342156325368
 40
0.3279516765630044
 40
0.3279516765630044
 40
0.5175559881790206
 40
0.5175559881790206
 40
0.7979184818379857
 40
0.7979184818379857
 40
1.199996365120315
 40
1.199996365120315
 40
1.322552189555461
 40
1.322552189555461
 40
1.60351084851738
 40
1.60351084851738
 40
2.026822376410208
 40
2.026822376410208
 40
2.026822376410208
 40
2.026822376410208
 10
-457.0800014534481
 20
-119.7634810192826
 30
0.0
 10
-457.1014486538127
 20
-119.7378705139364
 30
0.0
 10
-457.1225708773918
 20
-119.7118407521295
 30
0.0
 10
-457.1900016543588
 20
-119.6262624995533
 30
0.0
 10
-457.2350371334001
 20
-119.5651928122742
 30
0.0
 10
-457.3142480220611
 20
-119.4511515949651
 30
0.0
 10
-457.3490993862145
 20
-119.3983418614684
 30
0.0
 10
-457.4321217353229
 20
-119.2661606803816
 30
0.0
 10
-457.4789110837222
 20
-119.185816823808
 30
0.0
 10
-457.5848469553323
 20
-118.9891591853146
 30
0.0
 10
-457.6411284688931
 20
-118.8713415343572
 30
0.0
 10
-457.7037613826208
 20
-118.718743580223
 30
0.0
 10
-457.7176496709966
 20
-118.6831026572239
 30
0.0
 10
-457.7606490497968
 20
-118.5660323170412
 30
0.0
 10
-457.7863441744502
 20
-118.4848212494017
 30
0.0
 10
-457.8365476886783
 20
-118.283780561672
 30
0.0
 10
-457.8499999999984
 20
-118.1802928891902
 30
0.0
 10
-457.8499999999984
 20
-118.0917600020404
 30
0.0
  0
SPLINE
  5
1C4
330
16D
100
AcDbEntity
  8
PV-174
100
AcDbSpline
210
0.0
220
0.0
230
1.0
 70
     8
 71
     3
 72
    10
 73
     6
 74
     0
 42
0.000000001
 43
0.0000000001
 40
1.86139545575616
 40
1.86139545575616
 40
1.86139545575616
 40
1.86139545575616
 40
3.074047116240881
 40
3.074047116240881
 40
4.714235913710636
 40
4.714235913710636
 40
4.714235913710636
 40
4.714235913710636
 10
-455.228138151904
 20
-121.8727282836306
 30
0.0
 10
-455.495464929795
 20
-121.5820301013857
 30
0.0
 10
-455.7608896068022
 20
-121.2877946630828
 30
0.0
 10
-456.3800987250496
 20
-120.5876597188447
 30
0.0
 10
-456.7323764200501
 20
-120.1785868795265
 30
0.0
 10
-457.080001507334
 20
-119.7634810789069
 30
0.0
  0
ARC
  5
1C5
330
16D
100
AcDbEntity
  8
PV-174
100
AcDbCircle
 10
-456.8499999999981
 20
-96.99999999999917
 30
0.0
 40
0.9999999999999998
100
AcDbArc
 50
90.00000000000023
 51
180.000000000001
  0
LINE
  5
1C6
330
16D
100
AcDbEntity
  8
PV-174
100
AcDbLine
 10
-351.5000000000002
 20
-57.0
 30
0.0
 11
-378.9114109274102
 21
-57.0
 31
0.0
  0
LINE
  5
1C7
330
16D
100
AcDbEntity
  8
PV-174
100
AcDbLine
 10
-395.4688711258506
 20
-90.0
 30
0.0
 11
-393.7554373534636
 21
-90.0
 31
0.0
  0
LINE
  5
1C8
330
16D
100
AcDbEntity
  8
PV-174
100
AcDbLine
 10
-372.8000000000005
 20
-90.0
 30
0.0
 11
-351.5000000000002
 21
-90.0
 31
0.0
  0
ARC
  5
1C9
330
16D
100
AcDbEntity
  8
PV-174
100
AcDbCircle
 10
-48.5
 20
-25.0
 30
0.0
 40
32.0
100
AcDbArc
 50
270.0000000000002
 51
0.0000000000015587
  0
ARC
  5
1CA
330
16D
100
AcDbEntity
  8
PV-174
100
AcDbCircle
 10
-48.5
 20
-25.0
 30
0.0
 40
65.0
100
AcDbArc
 50
270.0000000000002
 51
0.0000000000015587
  0
LINE
  5
1CB
330
16D
100
AcDbEntity
  8
PV-174
100
AcDbLine
 10
-383.0
 20
-74.0
 30
0.0
 11
-383.0
 21
-25.0
 31
0.0
  0
LINE
  5
1CC
330
16D
100
AcDbEntity
  8
PV-174
100
AcDbLine
 10
-416.0
 20
-24.99999999999983
 30
0.0
 11
-416.0
 21
-74.0
 31
0.0
  0
ENDBLK
  5
1CE
330
16D
100
AcDbEntity
  8
0
100
AcDbBlockEnd
  0
BLOCK
  5
1D1
330
1CF
100
AcDbEntity
  8
0
100
AcDbBlockBegin
  2
TOP
 70
     0
 10
0.0
 20
0.0
 30
0.0
  3
TOP
  1

  0
INSERT
  5
1D0
330
1CF
100
AcDbEntity
  8
PV-174
100
AcDbBlockReference
  2
*U6
 10
0.0
 20
0.0
 30
0.0
  0
ENDBLK
  5
1D2
330
1CF
100
AcDbEntity
  8
0
100
AcDbBlockEnd
  0
BLOCK
  5
3D2
330
3D1
100
AcDbEntity
  8
0
100
AcDbBlockBegin
  2
*D9
 70
     1
 10
0.0
 20
0.0
 30
0.0
  3
*D9
  1

  0
LINE
  5
3D4
330
3D1
100
AcDbEntity
  8
0
 62
     0
440
 16777216
370
    -2
100
AcDbLine
 10
966.287028054713
 20
1115.332578643334
 30
0.0
 11
966.287028054713
 21
826.5047805774704
 31
0.0
  0
LINE
  5
3D5
330
3D1
100
AcDbEntity
  8
0
 62
     0
440
 16777216
370
    -2
100
AcDbLine
 10
875.787028054713
 20
1218.0684717319
 30
0.0
 11
875.787028054713
 21
826.5047805774704
 31
0.0
  0
LINE
  5
3D6
330
3D1
100
AcDbEntity
  8
0
 62
     0
440
 16777216
370
    -2
100
AcDbLine
 10
966.107028054713
 20
826.6847805774705
 30
0.0
 11
921.6070280547132
 21
826.6847805774705
 31
0.0
  0
LINE
  5
3D7
330
3D1
100
AcDbEntity
  8
0
 62
     0
440
 16777216
370
    -2
100
AcDbLine
 10
875.967028054713
 20
826.6847805774705
 30
0.0
 11
920.467028054713
 21
826.6847805774705
 31
0.0
  0
SOLID
  5
3D8
330
3D1
100
AcDbEntity
  8
0
 62
     0
440
 16777216
100
AcDbTrace
 10
966.107028054713
 20
826.7147805774705
 30
0.0
 11
966.107028054713
 21
826.6547805774704
 31
0.0
 12
966.287028054713
 22
826.6847805774705
 32
0.0
 13
966.287028054713
 23
826.6847805774705
 33
0.0
  0
SOLID
  5
3D9
330
3D1
100
AcDbEntity
  8
0
 62
     0
440
 16777216
100
AcDbTrace
 10
875.967028054713
 20
826.7147805774705
 30
0.0
 11
875.967028054713
 21
826.6547805774704
 31
0.0
 12
875.787028054713
 22
826.6847805774705
 32
0.0
 13
875.787028054713
 23
826.6847805774705
 33
0.0
  0
MTEXT
  5
3DA
330
3D1
100
AcDbEntity
  8
0
 62
     0
440
 16777216
100
AcDbMText
 10
921.0370280547131
 20
826.6847805774705
 30
0.0
 40
0.18
 41
0.0
 46
0.0
 71
     5
 72
     1
  1
\A1;90.5000
 73
     1
 44
1.0
  0
POINT
  5
3DB
330
3D1
100
AcDbEntity
  8
Defpoints
 62
     0
440
 16777216
100
AcDbPoint
 10
966.287028054713
 20
1115.395078643334
 30
0.0000000000000165
  0
POINT
  5
3DC
330
3D1
100
AcDbEntity
  8
Defpoints
 62
     0
440
 16777216
100
AcDbPoint
 10
875.787028054713
 20
1218.1309717319
 30
0.0000000000000059
  0
POINT
  5
3DD
330
3D1
100
AcDbEntity
  8
Defpoints
 62
     0
440
 16777216
100
AcDbPoint
 10
875.787028054713
 20
826.6847805774705
 30
0.0
  0
ENDBLK
  5
3D3
330
3D1
100
AcDbEntity
  8
0
100
AcDbBlockEnd
  0
BLOCK
  5
3E0
330
3DF
100
AcDbEntity
  8
0
100
AcDbBlockBegin
  2
*D10
 70
     1
 10
0.0
 20
0.0
 30
0.0
  3
*D10
  1

  0
LINE
  5
3E2
330
3DF
100
AcDbEntity
  8
0
 62
     0
440
 16777216
370
    -2
100
AcDbLine
 10
876.3495280547131
 20
418.1309717319004
 30
0.0
 11
1172.041977534646
 21
418.1309717319003
 31
0.0
  0
LINE
  5
3E3
330
3DF
100
AcDbEntity
  8
0
 62
     0
440
 16777216
370
    -2
100
AcDbLine
 10
876.3495280547131
 20
303.1309717319004
 30
0.0
 11
1172.041977534646
 21
303.1309717319004
 31
0.0
  0
LINE
  5
3E4
330
3DF
100
AcDbEntity
  8
0
 62
     0
440
 16777216
370
    -2
100
AcDbLine
 10
1171.861977534646
 20
417.9509717319003
 30
0.0
 11
1171.861977534646
 21
360.8109717319003
 31
0.0
  0
LINE
  5
3E5
330
3DF
100
AcDbEntity
  8
0
 62
     0
440
 16777216
370
    -2
100
AcDbLine
 10
1171.861977534646
 20
303.3109717319003
 30
0.0
 11
1171.861977534646
 21
360.4509717319003
 31
0.0
  0
SOLID
  5
3E6
330
3DF
100
AcDbEntity
  8
0
 62
     0
440
 16777216
100
AcDbTrace
 10
1171.831977534646
 20
417.9509717319003
 30
0.0
 11
1171.891977534646
 21
417.9509717319003
 31
0.0
 12
1171.861977534646
 22
418.1309717319003
 32
0.0
 13
1171.861977534646
 23
418.1309717319003
 33
0.0
  0
SOLID
  5
3E7
330
3DF
100
AcDbEntity
  8
0
 62
     0
440
 16777216
100
AcDbTrace
 10
1171.831977534646
 20
303.3109717319003
 30
0.0
 11
1171.891977534646
 21
303.3109717319003
 31
0.0
 12
1171.861977534646
 22
303.1309717319004
 32
0.0
 13
1171.861977534646
 23
303.1309717319004
 33
0.0
  0
MTEXT
  5
3E8
330
3DF
100
AcDbEntity
  8
0
 62
     0
440
 16777216
100
AcDbMText
 10
1171.861977534646
 20
360.6309717319005
 30
0.0
 40
0.18
 41
0.0
 46
0.0
 71
     5
 72
     1
  1
\A1;115.0000
 73
     1
 44
1.0
  0
POINT
  5
3E9
330
3DF
100
AcDbEntity
  8
Defpoints
 62
     0
440
 16777216
100
AcDbPoint
 10
876.2870280547129
 20
418.1309717319004
 30
0.0
  0
POINT
  5
3EA
330
3DF
100
AcDbEntity
  8
Defpoints
 62
     0
440
 16777216
100
AcDbPoint
 10
876.2870280547129
 20
303.1309717319004
 30
0.0
  0
POINT
  5
3EB
330
3DF
100
AcDbEntity
  8
Defpoints
 62
     0
440
 16777216
100
AcDbPoint
 10
1171.861977534646
 20
303.1309717319004
 30
0.0
  0
ENDBLK
  5
3E1
330
3DF
100
AcDbEntity
  8
0
100
AcDbBlockEnd
  0
ENDSEC
  0
SECTION
  2
ENTITIES
  0
LINE
  5
1E4
330
1F
100
AcDbEntity
  8
PV-174
100
AcDbLine
 10
39.29702802671551
 20
1169.6309717319
 30
-0.0000000000000055
 11
72.29702802671551
 21
1169.6309717319
 31
-0.0000000000000035
210
0.0
220
1.0
230
0.0
  0
LINE
  5
1E5
330
1F
100
AcDbEntity
  8
PV-174
100
AcDbLine
 10
72.29702802671551
 20
401.6309717319006
 30
-0.0000000000000035
 11
55.79702802671585
 21
418.1309717319001
 31
-0.0000000000000045
210
0.0
220
1.0
230
0.0
  0
LINE
  5
1E6
330
1F
100
AcDbEntity
  8
PV-174
100
AcDbLine
 10
55.79702802671528
 20
418.1309717319001
 30
-0.0000000000000045
 11
72.29702802671551
 21
434.6309717319003
 31
-0.0000000000000035
210
0.0
220
1.0
230
0.0
  0
ARC
  5
1E7
330
1F
100
AcDbEntity
  8
PV-174
100
AcDbCircle
 10
55.79702802671551
 20
303.1309717319004
 30
-0.0000000000000045
 40
16.5
100
AcDbArc
 50
180.0
 51
270.0
  0
ARC
  5
1E8
330
1F
100
AcDbEntity
  8
PV-174
100
AcDbCircle
 10
55.79702802671551
 20
303.1309717319004
 30
-0.0000000000000045
 40
16.5
100
AcDbArc
 50
90.0
 51
180.0
  0
LINE
  5
1EA
330
1F
100
AcDbEntity
  8
PV-174
100
AcDbLine
 10
11.27305655911419
 20
958.3048200757279
 30
-0.0000000000000072
 11
13.48759643236491
 21
983.6171266535341
 31
-0.0000000000000071
210
0.0
220
1.0
230
0.0
  0
LINE
  5
1EB
330
1F
100
AcDbEntity
  8
PV-174
100
AcDbLine
 10
1.689057321124437
 20
959.143311360293
 30
-0.0000000000000078
 11
3.903597194375095
 21
984.4556179380992
 31
-0.0000000000000077
210
0.0
220
1.0
230
0.0
  0
SPLINE
  5
1EC
330
1F
100
AcDbEntity
  8
PV-174
100
AcDbSpline
210
0.0
220
0.0
230
1.0
 70
     8
 71
     3
 72
    14
 73
    10
 74
     0
 42
0.000000001
 43
0.0000000001
 40
8.794524056531006
 40
8.794524056531006
 40
8.794524056531006
 40
8.794524056531006
 40
9.579456439527339
 40
9.579456439527339
 40
10.36438882252367
 40
10.36438882252367
 40
11.09774755945768
 40
11.09774755945768
 40
11.18149517898411
 40
11.18149517898411
 40
11.18149517898411
 40
11.18149517898411
 10
5.898751685732747
 20
986.4894259412073
 30
-0.0000000000000076
 10
5.741780685693072
 20
986.2800990325492
 30
-0.0000000000000076
 10
5.574892243542421
 20
986.049308477467
 30
-0.0000000000000076
 10
5.273142228509698
 20
985.580769799054
 30
-0.0000000000000076
 10
5.138877469003091
 20
985.3424478415488
 30
-0.0000000000000076
 10
4.937140053158429
 20
984.9150507559766
 30
-0.0000000000000076
 10
4.848172476744764
 20
984.6869387353184
 30
-0.0000000000000076
 10
4.775523099910174
 20
984.4298571202173
 30
-0.0000000000000076
 10
4.768369816983636
 20
984.4034733789033
 30
-0.0000000000000076
 10
4.761518590902937
 20
984.3770840828419
 30
-0.0000000000000076
  0
SPLINE
  5
1ED
330
1F
100
AcDbEntity
  8
PV-174
100
AcDbSpline
210
0.0
220
0.0
230
1.0
 70
     8
 71
     3
 72
    20
 73
    16
 74
     0
 42
0.000000001
 43
0.0000000001
 40
1.658125044755959
 40
1.658125044755959
 40
1.658125044755959
 40
1.658125044755959
 40
1.696828082632773
 40
1.696828082632773
 40
1.798652902623284
 40
1.798652902623284
 40
1.900477722613793
 40
1.900477722613793
 40
1.93829658602752
 40
1.93829658602752
 40
1.976115449441244
 40
1.976115449441244
 40
2.029036545889155
 40
2.029036545889155
 40
2.081957642337066
 40
2.081957642337066
 40
2.081957642337066
 40
2.081957642337066
 10
4.761518590902937
 20
984.3770840828419
 30
-0.0000000000000076
 10
4.758469434211008
 20
984.3653394552758
 30
-0.0000000000000076
 10
4.755429944759612
 20
984.3537619994586
 30
-0.0000000000000076
 10
4.744479165196651
 20
984.3126230548371
 30
-0.0000000000000076
 10
4.73676221753459
 20
984.2846899368476
 30
-0.0000000000000076
 10
4.722048629406458
 20
984.235466002497
 30
-0.0000000000000076
 10
4.715025041620151
 20
984.2136402771101
 30
-0.0000000000000076
 10
4.706306947456994
 20
984.1948073288756
 30
-0.0000000000000076
 10
4.703973114520465
 20
984.1909180892919
 30
-0.0000000000000076
 10
4.700283437438656
 20
984.1884744999063
 30
-0.0000000000000076
 10
4.698934937270053
 20
984.1899608649235
 30
-0.0000000000000076
 10
4.696997539127153
 20
984.1980030594049
 30
-0.0000000000000076
 10
4.696709723876892
 20
984.2068823480049
 30
-0.0000000000000076
 10
4.697411911841697
 20
984.2293247526058
 30
-0.0000000000000076
 10
4.69837773854249
 20
984.2428021876244
 30
-0.0000000000000076
 10
4.699521542646834
 20
984.2558759283585
 30
-0.0000000000000076
  0
LINE
  5
1EE
330
1F
100
AcDbEntity
  8
PV-174
100
AcDbLine
 10
7.604350445884563
 20
1017.458222222938
 30
-0.0000000000000075
 11
4.699521542646891
 21
984.2558759283585
 31
-0.0000000000000076
210
0.0
220
1.0
230
0.0
  0
SPLINE
  5
1EF
330
1F
100
AcDbEntity
  8
PV-174
100
AcDbSpline
210
-0.0000000000000001
220
0.0
230
1.0
 70
     8
 71
     3
 72
    30
 73
    26
 74
     0
 42
0.000000001
 43
0.0000000001
 40
14.42455405504792
 40
14.42455405504792
 40
14.42455405504792
 40
14.42455405504792
 40
14.73791117182682
 40
14.73791117182682
 40
15.50349930632228
 40
15.50349930632228
 40
16.13666158832319
 40
16.13666158832319
 40
16.7698238703241
 40
16.7698238703241
 40
17.3330322944063
 40
17.3330322944063
 40
17.89624071848851
 40
17.89624071848851
 40
18.45944914257072
 40
18.45944914257072
 40
19.02265756665293
 40
19.02265756665293
 40
19.65581984865383
 40
19.65581984865383
 40
20.28898213065474
 40
20.28898213065474
 40
21.05457026515021
 40
21.05457026515021
 40
21.36792738192923
 40
21.36792738192923
 40
21.36792738192923
 40
21.36792738192923
 10
11.87591987428317
 20
985.9664914847215
 30
-0.0000000000000072
 10
11.82502106068699
 20
986.0669677272793
 30
-0.0000000000000072
 10
11.77009621828983
 20
986.1671791854739
 30
-0.0000000000000072
 10
11.56899414870088
 20
986.5048398188168
 30
-0.0000000000000072
 10
11.40434994587616
 20
986.7310080416467
 30
-0.0000000000000072
 10
11.09669145737763
 20
987.0813442322065
 30
-0.0000000000000072
 10
10.93115498107192
 20
987.2434646498298
 30
-0.0000000000000072
 10
10.57135311718127
 20
987.5310874635232
 30
-0.0000000000000073
 10
10.37692376401008
 20
987.6563846868251
 30
-0.0000000000000073
 10
10.02264414183213
 20
987.8394682773754
 30
-0.0000000000000073
 10
9.83232392703212
 20
987.918204409663
 30
-0.0000000000000073
 10
9.43951220208612
 20
988.0337890155903
 30
-0.0000000000000073
 10
9.236994866007478
 20
988.070549702258
 30
-0.0000000000000074
 10
8.862951368680114
 20
988.1032742679396
 30
-0.0000000000000074
 10
8.657127299741375
 20
988.1022388250592
 30
-0.0000000000000074
 10
8.250212211354778
 20
988.0566212492162
 30
-0.0000000000000074
 10
8.049111002376605
 20
988.0121300541704
 30
-0.0000000000000074
 10
7.668421551861797
 20
987.8933479255229
 30
-0.0000000000000074
 10
7.455188382952655
 20
987.8037165514477
 30
-0.0000000000000075
 10
7.050907540391619
 20
987.5829423125649
 30
-0.0000000000000075
 10
6.859734020036285
 20
987.4520299758158
 30
-0.0000000000000075
 10
6.495914314221465
 20
987.160440515063
 30
-0.0000000000000075
 10
6.294497727050497
 20
986.9662984615194
 30
-0.0000000000000075
 10
6.037816696122376
 20
986.6686886598252
 30
-0.0000000000000075
 10
5.966324748400154
 20
986.5795372376455
 30
-0.0000000000000076
 10
5.898751685732747
 20
986.4894259412073
 30
-0.0000000000000076
  0
SPLINE
  5
1F0
330
1F
100
AcDbEntity
  8
PV-174
100
AcDbSpline
210
0.0
220
0.0
230
1.0
 70
     8
 71
     3
 72
    20
 73
    16
 74
     0
 42
0.000000001
 43
0.0000000001
 40
-2.081957642337072
 40
-2.081957642337072
 40
-2.081957642337072
 40
-2.081957642337072
 40
-2.029036545889185
 40
-2.029036545889185
 40
-1.976115449441301
 40
-1.976115449441301
 40
-1.938296586027581
 40
-1.938296586027581
 40
-1.900477722613866
 40
-1.900477722613866
 40
-1.798652902623324
 40
-1.798652902623324
 40
-1.696828082632783
 40
-1.696828082632783
 40
-1.658125044756548
 40
-1.658125044756548
 40
-1.658125044756548
 40
-1.658125044756548
 10
12.66907912738071
 20
983.5586299863777
 30
-0.0000000000000071
 10
12.66793532327693
 20
983.5455562456438
 30
-0.0000000000000071
 10
12.66654614486919
 20
983.5321158490998
 30
-0.0000000000000071
 10
12.66334058235941
 20
983.5098924613925
 30
-0.0000000000000071
 10
12.66151526738548
 20
983.5011980477318
 30
-0.0000000000000071
 10
12.65821079025716
 20
983.4936144579124
 30
-0.0000000000000071
 10
12.65662467225968
 20
983.4923848387163
 30
-0.0000000000000071
 10
12.65341537450729
 20
983.4954320101896
 30
-0.0000000000000071
 10
12.65179235710343
 20
983.4996674293211
 30
-0.0000000000000071
 10
12.64647701752108
 20
983.5197281439189
 30
-0.0000000000000071
 10
12.64335013125469
 20
983.542441920715
 30
-0.0000000000000071
 10
12.63740772208894
 20
983.5934730206625
 30
-0.0000000000000071
 10
12.63465854723716
 20
983.6223218057234
 30
-0.0000000000000071
 10
12.63101783738665
 20
983.6647373402518
 30
-0.0000000000000071
 10
12.63003492871502
 20
983.676666710305
 30
-0.0000000000000071
 10
12.62907152873845
 20
983.6887623910913
 30
-0.0000000000000071
  0
SPLINE
  5
1F1
330
1F
100
AcDbEntity
  8
PV-174
100
AcDbSpline
210
0.0000000000000004
220
0.0000000000000002
230
1.0
 70
     8
 71
     3
 72
    14
 73
    10
 74
     0
 42
0.000000001
 43
0.0000000001
 40
0.6496111174075529
 40
0.6496111174075529
 40
0.6496111174075529
 40
0.6496111174075529
 40
0.7333587369340008
 40
0.7333587369340008
 40
1.466717473868001
 40
1.466717473868001
 40
2.251649856864351
 40
2.251649856864351
 40
3.036582239860701
 40
3.036582239860701
 40
3.036582239860701
 40
3.036582239860701
 10
12.62907152873845
 20
983.6887623910913
 30
-0.0000000000000071
 10
12.62690684134748
 20
983.7159404773728
 30
-0.0000000000000071
 10
12.62444372146126
 20
983.7431655449167
 30
-0.0000000000000071
 10
12.59753980587709
 20
984.0089569445211
 30
-0.0000000000000071
 10
12.54953508354947
 20
984.2490524885361
 30
-0.0000000000000071
 10
12.42507923740265
 20
984.7049877866513
 30
-0.0000000000000072
 10
12.33423843490311
 20
984.9630039289285
 30
-0.0000000000000072
 10
12.11843356830025
 20
985.4768227922368
 30
-0.0000000000000072
 10
11.99415689589489
 20
985.7330869940573
 30
-0.0000000000000072
 10
11.87591987428317
 20
985.9664914847215
 30
-0.0000000000000072
  0
LINE
  5
1F2
330
1F
100
AcDbEntity
  8
PV-174
100
AcDbLine
 10
15.57390803061844
 20
1016.760976280957
 30
-0.000000000000007
 11
12.66907912738094
 21
983.5586299863777
 31
-0.0000000000000071
210
0.0
220
1.0
230
0.0
  0
ARC
  5
1F3
330
1F
100
AcDbEntity
  8
PV-174
100
AcDbCircle
 10
13.29702802671608
 20
1036.630971731923
 30
-0.0000000000000071
 40
20.00002254432668
100
AcDbArc
 50
64.15793388636505
 51
295.842066113498
  0
LINE
  5
1F4
330
1F
100
AcDbEntity
  8
PV-174
100
AcDbLine
 10
55.29702802671625
 20
948.6309717319228
 30
-0.0000000000000045
 11
36.29702802671648
 21
948.6309717319228
 31
-0.0000000000000057
210
0.0
220
1.0
230
0.0
  0
LINE
  5
1F5
330
1F
100
AcDbEntity
  8
PV-174
100
AcDbLine
 10
74.29702802671556
 20
948.6309717319228
 30
-0.0000000000000034
 11
55.29702802671597
 21
948.6309717319228
 31
-0.0000000000000045
210
0.0
220
1.0
230
0.0
  0
LINE
  5
1F6
330
1F
100
AcDbEntity
  8
PV-174
100
AcDbLine
 10
55.2970280267155
 20
1018.630971731923
 30
-0.0000000000000045
 11
22.01482591382381
 21
1018.630971731923
 31
-0.0000000000000066
210
0.0
220
1.0
230
0.0
  0
LINE
  5
1F7
330
1F
100
AcDbEntity
  8
PV-174
100
AcDbLine
 10
55.2970280267155
 20
1018.630971731922
 30
-0.0000000000000045
 11
79.99702802671487
 21
1018.630971731922
 31
-0.000000000000003
210
0.0
220
1.0
230
0.0
  0
LINE
  5
1F8
330
1F
100
AcDbEntity
  8
PV-174
100
AcDbLine
 10
55.2970280267155
 20
1054.6309717319
 30
-0.0000000000000045
 11
79.99702802671487
 21
1054.6309717319
 31
-0.000000000000003
210
0.0
220
1.0
230
0.0
  0
LINE
  5
1F9
330
1F
100
AcDbEntity
  8
PV-174
100
AcDbLine
 10
55.2970280267155
 20
1054.630971731901
 30
-0.0000000000000045
 11
22.01482591381455
 21
1054.630971731901
 31
-0.0000000000000066
210
0.0
220
1.0
230
0.0
  0
CIRCLE
  5
1FA
330
1F
100
AcDbEntity
  8
PV-174
100
AcDbCircle
 10
13.29702802671625
 20
1036.630971731922
 30
-0.0000000000000071
 40
20.0
  0
LINE
  5
1FB
330
1F
100
AcDbEntity
  8
PV-174
100
AcDbLine
 10
109.2970280267156
 20
1253.1309717319
 30
0.000000000000049
 11
109.2970280267156
 21
1183.1309717319
 31
0.000000000000049
210
0.0
220
1.0
230
0.0
  0
LINE
  5
1FC
330
1F
100
AcDbEntity
  8
PV-174
100
AcDbLine
 10
97.29702802671562
 20
1251.1309717319
 30
0.0000000000000483
 11
97.29702802671562
 21
1185.1309717319
 31
0.0000000000000483
210
0.0
220
1.0
230
0.0
  0
LINE
  5
1FD
330
1F
100
AcDbEntity
  8
PV-174
100
AcDbLine
 10
109.2970280267155
 20
453.1309717319004
 30
0.0
 11
109.2970280267155
 21
383.1309717319005
 31
0.0
210
0.0
220
1.0
230
0.0
  0
LINE
  5
1FE
330
1F
100
AcDbEntity
  8
PV-174
100
AcDbLine
 10
97.29702802671557
 20
451.1309717319004
 30
-0.0000000000000007
 11
97.29702802671557
 21
385.1309717319005
 31
-0.0000000000000007
210
0.0
220
1.0
230
0.0
  0
LINE
  5
1FF
330
1F
100
AcDbEntity
  8
PV-174
100
AcDbLine
 10
109.2970280267155
 20
338.1309717319004
 30
0.0
 11
109.2970280267155
 21
268.1309717319004
 31
0.0
210
0.0
220
1.0
230
0.0
  0
LINE
  5
200
330
1F
100
AcDbEntity
  8
PV-174
100
AcDbLine
 10
97.29702802671557
 20
336.1309717319004
 30
-0.0000000000000007
 11
97.29702802671557
 21
270.1309717319004
 31
-0.0000000000000007
210
0.0
220
1.0
230
0.0
  0
LINE
  5
201
330
1F
100
AcDbEntity
  8
PV-174
100
AcDbLine
 10
99.29702802671556
 20
268.1309717319004
 30
-0.0000000000000006
 11
109.2970280267155
 21
268.1309717319004
 31
0.0
210
0.0
220
1.0
230
0.0
  0
LINE
  5
202
330
1F
100
AcDbEntity
  8
PV-174
100
AcDbLine
 10
99.29702802671556
 20
338.1309717319004
 30
-0.0000000000000006
 11
109.2970280267155
 21
338.1309717319004
 31
0.0
210
0.0
220
1.0
230
0.0
  0
LINE
  5
203
330
1F
100
AcDbEntity
  8
PV-174
100
AcDbLine
 10
99.29702802671556
 20
383.1309717319005
 30
-0.0000000000000006
 11
109.2970280267155
 21
383.1309717319005
 31
0.0
210
0.0
220
1.0
230
0.0
  0
LINE
  5
204
330
1F
100
AcDbEntity
  8
PV-174
100
AcDbLine
 10
99.29702802671556
 20
453.1309717319004
 30
-0.0000000000000006
 11
109.2970280267155
 21
453.1309717319004
 31
0.0
210
0.0
220
1.0
230
0.0
  0
LINE
  5
205
330
1F
100
AcDbEntity
  8
PV-174
100
AcDbLine
 10
99.29702802671563
 20
1183.1309717319
 30
0.0000000000000484
 11
109.2970280267156
 21
1183.1309717319
 31
0.000000000000049
210
0.0
220
1.0
230
0.0
  0
LINE
  5
206
330
1F
100
AcDbEntity
  8
PV-174
100
AcDbLine
 10
99.29702802671563
 20
1253.1309717319
 30
0.0000000000000484
 11
109.2970280267156
 21
1253.1309717319
 31
0.000000000000049
210
0.0
220
1.0
230
0.0
  0
LINE
  5
207
330
1F
100
AcDbEntity
  8
PV-174
100
AcDbLine
 10
81.99702802671486
 20
1020.630971731922
 30
-0.0000000000000029
 11
81.99702802671486
 21
1052.6309717319
 31
-0.0000000000000029
210
0.0
220
1.0
230
0.0
  0
LINE
  5
208
330
1F
100
AcDbEntity
  8
PV-174
100
AcDbLine
 10
74.99702802671612
 20
949.3309717319224
 30
-0.0000000000000033
 11
74.99702802671612
 21
1018.630971731922
 31
-0.0000000000000033
210
0.0
220
1.0
230
0.0
  0
LINE
  5
209
330
1F
100
AcDbEntity
  8
PV-174
100
AcDbLine
 10
35.59702802671643
 20
949.3309717319224
 30
-0.0000000000000057
 11
35.59702802671643
 21
1018.630971731922
 31
-0.0000000000000057
210
0.0
220
1.0
230
0.0
  0
ARC
  5
20A
330
1F
100
AcDbEntity
  8
PV-174
100
AcDbCircle
 10
121.6678444753556
 20
961.3995544765277
 30
-0.0000000000000005
 40
119.9999999999995
100
AcDbArc
 50
165.9776914801355
 51
168.9226597831446
  0
ARC
  5
20B
330
1F
100
AcDbEntity
  8
PV-174
100
AcDbCircle
 10
121.6678444753556
 20
961.3995544765277
 30
-0.0000000000000005
 40
119.9999999999995
100
AcDbArc
 50
181.0773402168564
 51
184.1768749669934
  0
ARC
  5
20C
330
1F
100
AcDbEntity
  8
PV-174
100
AcDbCircle
 10
-106.4911907218676
 20
981.3608835372972
 30
-0.0000000000000144
 40
120.0000000000005
100
AcDbArc
 50
345.8231250330041
 51
348.9226597831446
  0
ARC
  5
20D
330
1F
100
AcDbEntity
  8
PV-174
100
AcDbCircle
 10
-106.4911907218676
 20
981.3608835372972
 30
-0.0000000000000144
 40
120.0000000000005
100
AcDbArc
 50
1.07734021685647
 51
4.022308519867091
  0
LINE
  5
20E
330
1F
100
AcDbEntity
  8
PV-174
100
AcDbLine
 10
97.29702802671557
 20
319.6309717319006
 30
-0.0000000000000007
 11
84.29702802671556
 21
319.6309717319006
 31
-0.0000000000000015
210
0.0
220
1.0
230
0.0
  0
LINE
  5
20F
330
1F
100
AcDbEntity
  8
PV-174
100
AcDbLine
 10
97.29702802671557
 20
286.6309717319004
 30
-0.0000000000000007
 11
84.29702802671556
 21
286.6309717319004
 31
-0.0000000000000015
210
0.0
220
1.0
230
0.0
  0
LINE
  5
210
330
1F
100
AcDbEntity
  8
PV-174
100
AcDbLine
 10
97.29702802671557
 20
434.6309717319003
 30
-0.0000000000000019
 11
72.29702802671551
 21
434.6309717319003
 31
-0.0000000000000035
210
0.0
220
1.0
230
0.0
  0
LINE
  5
211
330
1F
100
AcDbEntity
  8
PV-174
100
AcDbLine
 10
97.29702802671557
 20
401.6309717319006
 30
-0.0000000000000019
 11
72.29702802671551
 21
401.6309717319006
 31
-0.0000000000000035
210
0.0
220
1.0
230
0.0
  0
LINE
  5
212
330
1F
100
AcDbEntity
  8
PV-174
100
AcDbLine
 10
72.29702802671551
 20
434.6309717319003
 30
-0.0000000000000035
 11
72.29702802671551
 21
948.6309717319228
 31
-0.0000000000000035
210
0.0
220
1.0
230
0.0
  0
LINE
  5
213
330
1F
100
AcDbEntity
  8
PV-174
100
AcDbLine
 10
72.29702802671551
 20
1054.6309717319
 30
-0.0000000000000035
 11
72.29702802671551
 21
1169.6309717319
 31
-0.0000000000000035
210
0.0
220
1.0
230
0.0
  0
LINE
  5
214
330
1F
100
AcDbEntity
  8
PV-174
100
AcDbLine
 10
72.29702802671551
 20
351.6309717319006
 30
-0.0000000000000035
 11
72.29702802671551
 21
401.6309717319006
 31
-0.0000000000000035
210
0.0
220
1.0
230
0.0
  0
LINE
  5
215
330
1F
100
AcDbEntity
  8
PV-174
100
AcDbLine
 10
39.29702802671551
 20
351.6309717319006
 30
-0.0000000000000055
 11
39.29702802671551
 21
948.6309717319228
 31
-0.0000000000000055
210
0.0
220
1.0
230
0.0
  0
LINE
  5
216
330
1F
100
AcDbEntity
  8
PV-174
100
AcDbLine
 10
39.29702802671551
 20
1054.6309717319
 30
-0.0000000000000055
 11
39.29702802671551
 21
1169.6309717319
 31
-0.0000000000000055
210
0.0
220
1.0
230
0.0
  0
ARC
  5
219
330
1F
100
AcDbEntity
  8
PV-174
100
AcDbCircle
 10
99.29702802671556
 20
336.1309717319004
 30
-0.0000000000000006
 40
2.0
100
AcDbArc
 50
90.0
 51
180.0
  0
ARC
  5
21A
330
1F
100
AcDbEntity
  8
PV-174
100
AcDbCircle
 10
99.29702802671556
 20
270.1309717319004
 30
-0.0000000000000006
 40
2.0
100
AcDbArc
 50
180.0
 51
270.0
  0
ARC
  5
21B
330
1F
100
AcDbEntity
  8
PV-174
100
AcDbCircle
 10
99.29702802671556
 20
451.1309717319004
 30
-0.0000000000000006
 40
2.0
100
AcDbArc
 50
90.0
 51
180.0
  0
ARC
  5
21C
330
1F
100
AcDbEntity
  8
PV-174
100
AcDbCircle
 10
99.29702802671556
 20
385.1309717319005
 30
-0.0000000000000006
 40
2.0
100
AcDbArc
 50
180.0
 51
270.0
  0
ARC
  5
21D
330
1F
100
AcDbEntity
  8
PV-174
100
AcDbCircle
 10
99.29702802671563
 20
1251.1309717319
 30
0.0000000000000484
 40
2.0
100
AcDbArc
 50
90.0
 51
180.0
  0
ARC
  5
21E
330
1F
100
AcDbEntity
  8
PV-174
100
AcDbCircle
 10
99.29702802671563
 20
1185.1309717319
 30
0.0000000000000484
 40
2.0
100
AcDbArc
 50
180.0
 51
270.0
  0
ARC
  5
21F
330
1F
100
AcDbEntity
  8
PV-174
100
AcDbCircle
 10
79.99702802671487
 20
1020.630971731922
 30
-0.000000000000003
 40
1.999999999999998
100
AcDbArc
 50
269.9999999999968
 51
0.0
  0
ARC
  5
220
330
1F
100
AcDbEntity
  8
PV-174
100
AcDbCircle
 10
79.99702802671487
 20
1052.6309717319
 30
-0.000000000000003
 40
1.999999999999995
100
AcDbArc
 50
0.0
 51
90.0
  0
ARC
  5
221
330
1F
100
AcDbEntity
  8
PV-174
100
AcDbCircle
 10
36.29702802671648
 20
949.3309717319224
 30
-0.0000000000000057
 40
0.6999999999999319
100
AcDbArc
 50
180.0
 51
270.0
  0
ARC
  5
222
330
1F
100
AcDbEntity
  8
PV-174
100
AcDbCircle
 10
74.29702802671556
 20
949.3309717319224
 30
-0.0000000000000034
 40
0.6999999999999319
100
AcDbArc
 50
269.9999999999968
 51
0.0
  0
ARC
  5
223
330
1F
100
AcDbEntity
  8
PV-174
100
AcDbCircle
 10
5.975945635913092
 20
952.9506170922163
 30
-0.0000000000000076
 40
4.000000000000071
100
AcDbArc
 50
184.1768749669934
 51
345.8231250330041
  0
LINE
  5
224
330
1F
100
AcDbEntity
  8
PV-174
100
AcDbLine
 10
72.29702802671551
 20
319.6309717319006
 30
-0.0000000000000035
 11
72.29702802671551
 21
351.6309717319006
 31
-0.0000000000000035
210
0.0
220
1.0
230
0.0
  0
LINE
  5
225
330
1F
100
AcDbEntity
  8
PV-174
100
AcDbLine
 10
39.29702802671551
 20
351.6309717319006
 30
-0.0000000000000055
 11
39.29702802671551
 21
303.1309717319004
 31
-0.0000000000000055
210
0.0
220
1.0
230
0.0
  0
LINE
  5
226
330
1F
100
AcDbEntity
  8
PV-174
100
AcDbLine
 10
55.79702802671551
 20
286.6309717319004
 30
-0.0000000000000045
 11
97.29702802671557
 21
286.6309717319005
 31
-0.0000000000000019
210
0.0
220
1.0
230
0.0
  0
LINE
  5
227
330
1F
100
AcDbEntity
  8
PV-174
100
AcDbLine
 10
97.29702802671557
 20
319.6309717319006
 30
-0.0000000000000019
 11
55.79702802671551
 21
319.6309717319006
 31
-0.0000000000000045
210
0.0
220
1.0
230
0.0
  0
ARC
  5
228
330
1F
100
AcDbEntity
  8
PV-174
100
AcDbCircle
 10
104.7970280267155
 20
1169.6309717319
 30
-0.0000000000000015
 40
65.5
100
AcDbArc
 50
96.1349291808006
 51
180.0
  0
ARC
  5
229
330
1F
100
AcDbEntity
  8
PV-174
100
AcDbCircle
 10
104.7970280267155
 20
1169.6309717319
 30
-0.0000000000000015
 40
32.5
100
AcDbArc
 50
102.4380928150551
 51
180.0
  0
ARC
  5
22D
330
1F
100
AcDbEntity
  8
PV-174
100
AcDbCircle
 10
286.2170280407133
 20
95.56097171790099
 30
0.0
 40
16.5
100
AcDbArc
 50
223.7722019657361
 51
0.0
  0
ARC
  5
22E
330
1F
100
AcDbEntity
  8
PV-174
100
AcDbCircle
 10
285.7170280407134
 20
96.060971717901
 30
0.0
 40
16.5
100
AcDbArc
 50
165.8588897660661
 51
226.2277980342638
  0
ARC
  5
22F
330
1F
100
AcDbEntity
  8
PV-174
100
AcDbCircle
 10
286.2170280407133
 20
95.56097171790099
 30
0.0
 40
16.5
100
AcDbArc
 50
180.0
 51
223.7722019657384
  0
LINE
  5
230
330
1F
100
AcDbEntity
  8
PV-174
100
AcDbLine
 10
227.8670280407153
 20
72.56097171790168
 30
0.0
 11
227.8670280407151
 21
51.46921171586075
 31
0.0
  0
LINE
  5
231
330
1F
100
AcDbEntity
  8
PV-174
100
AcDbLine
 10
227.8670280407151
 20
34.67646642668865
 30
0.0
 11
227.8670280407151
 21
34.56097171790191
 31
0.0
  0
LINE
  5
232
330
1F
100
AcDbEntity
  8
PV-174
100
AcDbLine
 10
227.8670280407153
 20
51.46921171586052
 30
0.0
 11
227.8670280407151
 21
34.67646642668853
 31
0.0
  0
LINE
  5
233
330
1F
100
AcDbEntity
  8
PV-174
100
AcDbLine
 10
253.3670280407151
 20
39.41883609417061
 30
0.0
 11
253.3670280407151
 21
33.56097171790168
 31
0.0
  0
LINE
  5
234
330
1F
100
AcDbEntity
  8
PV-174
100
AcDbLine
 10
253.3670280407152
 20
73.56097171790167
 30
0.0
 11
253.3670280407151
 21
39.4188360941705
 31
0.0
  0
LINE
  5
235
330
1F
100
AcDbEntity
  8
PV-174
100
AcDbLine
 10
303.7170280407134
 20
33.56094917357462
 30
0.0
 11
303.7170280407134
 21
62.27882132513719
 31
0.0
  0
LINE
  5
236
330
1F
100
AcDbEntity
  8
PV-174
100
AcDbLine
 10
310.2170280407133
 20
62.27876960501532
 30
0.0
 11
310.2170280407133
 21
33.56097171790157
 31
0.0
  0
LINE
  5
237
330
1F
100
AcDbEntity
  8
PV-174
100
AcDbLine
 10
268.7170280407134
 20
62.27882132513719
 30
0.0
 11
268.7170280407134
 21
33.56094917357462
 31
0.0
  0
LINE
  5
238
330
1F
100
AcDbEntity
  8
PV-174
100
AcDbLine
 10
262.2170280407133
 20
62.27876960501532
 30
0.0
 11
262.2170280407133
 21
33.56097171790157
 31
0.0
  0
ARC
  5
239
330
1F
100
AcDbEntity
  8
PV-174
100
AcDbCircle
 10
286.2170280407133
 20
95.56097171790099
 30
0.0
 40
26.69999999999935
100
AcDbArc
 50
0.0
 51
51.83140718636947
  0
ARC
  5
23A
330
1F
100
AcDbEntity
  8
PV-174
100
AcDbCircle
 10
286.2170280407133
 20
95.56097171790099
 30
0.0
 40
26.69999999999935
100
AcDbArc
 50
128.1685928136305
 51
180.0
  0
LINE
  5
23B
330
1F
100
AcDbEntity
  8
PV-174
100
AcDbLine
 10
312.9170280407129
 20
95.56097171790099
 30
0.0
 11
312.9170280407129
 21
65.56097171791146
 31
0.0
  0
ARC
  5
23C
330
1F
100
AcDbEntity
  8
PV-174
100
AcDbCircle
 10
264.5170280407132
 20
95.56097171790099
 30
0.0
 40
5.000000000000047
100
AcDbArc
 50
342.4416349365578
 51
344.0278419482488
  0
ARC
  5
23D
330
1F
100
AcDbEntity
  8
PV-174
100
AcDbCircle
 10
286.2170280407143
 20
95.56097171790122
 30
0.0
 40
17.00000000000029
100
AcDbArc
 50
185.0904672353565
 51
234.9095327646375
  0
ARC
  5
23E
330
1F
100
AcDbEntity
  8
PV-174
100
AcDbCircle
 10
275.3670280407139
 20
76.76822045577921
 30
0.0
 40
4.999999999999737
100
AcDbArc
 50
42.44163493656407
 51
77.55836506344
  0
ARC
  5
23F
330
1F
100
AcDbEntity
  8
PV-174
100
AcDbCircle
 10
286.2170280407133
 20
95.56097171790202
 30
0.0
 40
17.00000000000053
100
AcDbArc
 50
245.0904672353601
 51
294.9095327646369
  0
ARC
  5
240
330
1F
100
AcDbEntity
  8
PV-174
100
AcDbCircle
 10
297.0670280407147
 20
76.7682204557775
 30
0.0
 40
5.000000000001613
100
AcDbArc
 50
102.4416349365663
 51
137.5583650634381
  0
ARC
  5
241
330
1F
100
AcDbEntity
  8
PV-174
100
AcDbCircle
 10
286.2170280407133
 20
95.56097171790202
 30
0.0
 40
17.00000000000041
100
AcDbArc
 50
305.0904672353624
 51
354.9095327646367
  0
ARC
  5
242
330
1F
100
AcDbEntity
  8
PV-174
100
AcDbCircle
 10
307.9170280407137
 20
95.56097171790169
 30
0.0
 40
5.000000000000049
100
AcDbArc
 50
162.441634936565
 51
197.5583650634349
  0
ARC
  5
243
330
1F
100
AcDbEntity
  8
PV-174
100
AcDbCircle
 10
286.217028040713
 20
95.56097171790169
 30
0.0
 40
17.00000000000025
100
AcDbArc
 50
5.090467235356505
 51
13.93055456235651
  0
LINE
  5
244
330
1F
100
AcDbEntity
  8
PV-174
100
AcDbLine
 10
259.517028040714
 20
95.56097171790099
 30
0.0
 11
259.517028040714
 21
65.56097171791146
 31
0.0
  0
LINE
  5
245
330
1F
100
AcDbEntity
  8
PV-174
100
AcDbLine
 10
318.9170280407133
 20
73.56097171790008
 30
0.0
 11
318.9170280407133
 21
33.5609717179002
 31
0.0
  0
SPLINE
  5
246
330
1F
100
AcDbEntity
  8
PV-174
100
AcDbSpline
210
0.0
220
0.0
230
1.0
 70
     8
 71
     3
 72
    18
 73
    14
 74
     0
 42
0.000000001
 43
0.0000000001
 40
0.0
 40
0.0
 40
0.0
 40
0.0
 40
0.3978591234259627
 40
0.3978591234259627
 40
0.7957182468519255
 40
0.7957182468519255
 40
1.59143649370385
 40
1.59143649370385
 40
2.317215028378713
 40
2.317215028378713
 40
3.042993563053578
 40
3.042993563053578
 40
4.494550632403309
 40
4.494550632403309
 40
4.494550632403309
 40
4.494550632403309
 10
310.9170280407129
 20
62.27876960499997
 30
0.0
 10
311.0496477485211
 20
62.27876960499997
 30
0.0
 10
311.1753420747031
 20
62.3058839151663
 30
0.0
 10
311.4123957222536
 20
62.39881785194132
 30
0.0
 10
311.5237198126096
 20
62.46469559414572
 30
0.0
 10
311.8342242148222
 20
62.69934956708664
 30
0.0
 10
312.0094800270193
 20
62.90504809064225
 30
0.0
 10
312.2739582547791
 20
63.28535418023284
 30
0.0
 10
312.3845759393443
 20
63.48208015575187
 30
0.0
 10
312.5761097033026
 20
63.8909509827871
 30
0.0
 10
312.6568702076018
 20
64.10314525741466
 30
0.0
 10
312.8517877286811
 20
64.74312484587244
 30
0.0
 10
312.9170280407129
 20
65.17388983275191
 30
0.0
 10
312.9170280407129
 20
65.56097171791146
 30
0.0
  0
LINE
  5
247
330
1F
100
AcDbEntity
  8
PV-174
100
AcDbLine
 10
310.4170280407132
 20
33.5609717179002
 30
0.0
 11
310.4170280407132
 21
62.27876960500168
 31
0.0
  0
LINE
  5
248
330
1F
100
AcDbEntity
  8
PV-174
100
AcDbLine
 10
310.4170280407132
 20
62.27876960500168
 30
0.0
 11
310.9170280407129
 21
62.27876960500168
 31
0.0
  0
LINE
  5
249
330
1F
100
AcDbEntity
  8
PV-174
100
AcDbLine
 10
262.0170280407136
 20
62.27876960500168
 30
0.0
 11
268.7170280407134
 21
62.27876960500168
 31
0.0
  0
LINE
  5
24A
330
1F
100
AcDbEntity
  8
PV-174
100
AcDbLine
 10
303.7170280407134
 20
62.27876960500168
 30
0.0
 11
310.4170280407132
 21
62.27876960500168
 31
0.0
  0
LINE
  5
24B
330
1F
100
AcDbEntity
  8
PV-174
100
AcDbLine
 10
253.5170280407136
 20
73.56097171790008
 30
0.0
 11
253.5170280407136
 21
33.5609717179002
 31
0.0
  0
LINE
  5
24C
330
1F
100
AcDbEntity
  8
PV-174
100
AcDbLine
 10
262.0170280407136
 20
33.5609717179002
 30
0.0
 11
262.0170280407136
 21
62.27876960500168
 31
0.0
  0
SPLINE
  5
24D
330
1F
100
AcDbEntity
  8
PV-174
100
AcDbSpline
210
0.0
220
0.0
230
1.0
 70
     8
 71
     3
 72
    18
 73
    14
 74
     0
 42
0.000000001
 43
0.0000000001
 40
-4.494550632403958
 40
-4.494550632403958
 40
-4.494550632403958
 40
-4.494550632403958
 40
-3.042993563053927
 40
-3.042993563053927
 40
-2.317215028378913
 40
-2.317215028378913
 40
-1.591436493703898
 40
-1.591436493703898
 40
-0.7957182468519495
 40
-0.7957182468519495
 40
-0.3978591234259738
 40
-0.3978591234259738
 40
0.0
 40
0.0
 40
0.0
 40
0.0
 10
259.517028040714
 20
65.56097171791146
 30
0.0
 10
259.517028040714
 20
65.17388983275168
 30
0.0
 10
259.5822683527458
 20
64.7431248458721
 30
0.0
 10
259.7771858738251
 20
64.10314525741455
 30
0.0
 10
259.8579463781241
 20
63.89095098278665
 30
0.0
 10
260.0494801420826
 20
63.48208015575142
 30
0.0
 10
260.1600978266477
 20
63.28535418023239
 30
0.0
 10
260.4245760544076
 20
62.90504809064157
 30
0.0
 10
260.5998318666046
 20
62.69934956708596
 30
0.0
 10
260.9103362688173
 20
62.46469559414527
 30
0.0
 10
261.0216603591733
 20
62.39881785194052
 30
0.0
 10
261.2587140067238
 20
62.30588391516562
 30
0.0
 10
261.3844083329058
 20
62.27876960499918
 30
0.0
 10
261.517028040714
 20
62.27876960499918
 30
0.0
  0
LINE
  5
24E
330
1F
100
AcDbEntity
  8
PV-174
100
AcDbLine
 10
261.517028040714
 20
62.27876960500168
 30
0.0
 11
262.0170280407136
 21
62.27876960500168
 31
0.0
  0
LINE
  5
24F
330
1F
100
AcDbEntity
  8
PV-174
100
AcDbLine
 10
321.0670280407135
 20
66.28889377925941
 30
0.0
 11
321.0670280407135
 21
35.56097171790168
 31
0.0
  0
LINE
  5
250
330
1F
100
AcDbEntity
  8
PV-174
100
AcDbLine
 10
321.0670280407135
 20
71.56097171790157
 30
0.0
 11
321.0670280407135
 21
66.28889377925929
 31
0.0
  0
LINE
  5
251
330
1F
100
AcDbEntity
  8
PV-174
100
AcDbLine
 10
319.0670280407135
 20
67.70310734163252
 30
0.0
 11
319.0670280407135
 21
33.56097171790157
 31
0.0
  0
LINE
  5
252
330
1F
100
AcDbEntity
  8
PV-174
100
AcDbLine
 10
319.0670280407135
 20
73.56097171790167
 30
0.0
 11
319.0670280407135
 21
67.70310734163217
 31
0.0
  0
LINE
  5
253
330
1F
100
AcDbEntity
  8
PV-174
100
AcDbLine
 10
262.0170280407136
 20
59.21782596739376
 30
0.0
 11
262.2170280407133
 21
59.21782596739376
 31
0.0
  0
LINE
  5
254
330
1F
100
AcDbEntity
  8
PV-174
100
AcDbLine
 10
262.2170280407133
 20
55.63152407872178
 30
0.0
 11
262.0170280407136
 21
55.63152407872178
 31
0.0
  0
LINE
  5
255
330
1F
100
AcDbEntity
  8
PV-174
100
AcDbLine
 10
262.2170280407133
 20
57.80361240502123
 30
0.0
 11
262.0170280407136
 21
57.80361240502123
 31
0.0
  0
LINE
  5
256
330
1F
100
AcDbEntity
  8
PV-174
100
AcDbLine
 10
250.7170280407134
 20
169.560971717901
 30
0.0
 11
320.7170280407134
 21
169.560971717901
 31
0.0
  0
LINE
  5
257
330
1F
100
AcDbEntity
  8
PV-174
100
AcDbLine
 10
252.7170280407133
 20
157.560971717901
 30
0.0
 11
318.7170280407134
 21
157.560971717901
 31
0.0
  0
LINE
  5
258
330
1F
100
AcDbEntity
  8
PV-174
100
AcDbLine
 10
707.7170280407133
 20
169.560971717901
 30
0.0
 11
777.7170280407133
 21
169.560971717901
 31
0.0
  0
LINE
  5
259
330
1F
100
AcDbEntity
  8
PV-174
100
AcDbLine
 10
709.7170280407133
 20
157.560971717901
 30
0.0
 11
775.7170280407133
 21
157.560971717901
 31
0.0
  0
LINE
  5
25A
330
1F
100
AcDbEntity
  8
PV-174
100
AcDbLine
 10
777.7170280407133
 20
159.560971717901
 30
0.0
 11
777.7170280407133
 21
169.560971717901
 31
0.0
  0
LINE
  5
25B
330
1F
100
AcDbEntity
  8
PV-174
100
AcDbLine
 10
707.7170280407133
 20
159.560971717901
 30
0.0
 11
707.7170280407133
 21
169.560971717901
 31
0.0
  0
LINE
  5
25C
330
1F
100
AcDbEntity
  8
PV-174
100
AcDbLine
 10
320.7170280407134
 20
159.560971717901
 30
0.0
 11
320.7170280407134
 21
169.560971717901
 31
0.0
  0
LINE
  5
25D
330
1F
100
AcDbEntity
  8
PV-174
100
AcDbLine
 10
250.7170280407134
 20
159.560971717901
 30
0.0
 11
250.7170280407134
 21
169.560971717901
 31
0.0
  0
LINE
  5
25E
330
1F
100
AcDbEntity
  8
PV-174
100
AcDbLine
 10
262.0170280407136
 20
45.56097171790191
 30
0.0
 11
262.2170280407133
 21
45.56097171790191
 31
0.0
  0
LINE
  5
25F
330
1F
100
AcDbEntity
  8
PV-174
100
AcDbLine
 10
310.2170280407133
 20
45.56097171790191
 30
0.0
 11
310.4170280407132
 21
45.56097171790191
 31
0.0
  0
LINE
  5
260
330
1F
100
AcDbEntity
  8
PV-174
100
AcDbLine
 10
262.0170280407136
 20
61.56097171790122
 30
0.0
 11
262.2170280407133
 21
61.56097171790122
 31
0.0
  0
LINE
  5
261
330
1F
100
AcDbEntity
  8
PV-174
100
AcDbLine
 10
310.2170280407133
 20
61.56097171790122
 30
0.0
 11
310.4170280407132
 21
61.56097171790122
 31
0.0
  0
LINE
  5
262
330
1F
100
AcDbEntity
  8
PV-174
100
AcDbLine
 10
318.9170280407133
 20
36.16097171790159
 30
0.0
 11
319.0670280407135
 21
36.16097171790159
 31
0.0
  0
LINE
  5
263
330
1F
100
AcDbEntity
  8
PV-174
100
AcDbLine
 10
318.9170280407133
 20
70.96097171790177
 30
0.0
 11
319.0670280407135
 21
70.96097171790177
 31
0.0
  0
LINE
  5
264
330
1F
100
AcDbEntity
  8
PV-174
100
AcDbLine
 10
259.517028040714
 20
73.56097171790008
 30
0.0
 11
253.5170280407136
 21
73.56097171790008
 31
0.0
  0
LINE
  5
265
330
1F
100
AcDbEntity
  8
PV-174
100
AcDbLine
 10
262.0170280407136
 20
33.5609717179002
 30
0.0
 11
253.5170280407136
 21
33.5609717179002
 31
0.0
  0
LINE
  5
266
330
1F
100
AcDbEntity
  8
PV-174
100
AcDbLine
 10
318.9170280407133
 20
73.56097171790008
 30
0.0
 11
312.9170280407129
 21
73.56097171790008
 31
0.0
  0
LINE
  5
267
330
1F
100
AcDbEntity
  8
PV-174
100
AcDbLine
 10
318.9170280407133
 20
33.5609717179002
 30
0.0
 11
310.4170280407132
 21
33.5609717179002
 31
0.0
  0
LINE
  5
268
330
1F
100
AcDbEntity
  8
PV-174
100
AcDbLine
 10
268.7170280407134
 20
33.56097171790157
 30
0.0
 11
262.2170280407133
 21
33.56097171790157
 31
0.0
  0
LINE
  5
269
330
1F
100
AcDbEntity
  8
PV-174
100
AcDbLine
 10
310.2170280407133
 20
33.56097171790157
 30
0.0
 11
303.7170280407134
 21
33.56097171790157
 31
0.0
  0
LINE
  5
26A
330
1F
100
AcDbEntity
  8
PV-174
100
AcDbLine
 10
303.7170280407134
 20
33.56094917357462
 30
0.0
 11
268.7170280407134
 21
33.56094917357462
 31
0.0
  0
LINE
  5
26B
330
1F
100
AcDbEntity
  8
PV-174
100
AcDbLine
 10
228.8670280407151
 20
33.56097171790191
 30
0.0
 11
253.3670280407151
 21
33.56097171790168
 31
0.0
  0
LINE
  5
26C
330
1F
100
AcDbEntity
  8
PV-174
100
AcDbLine
 10
228.8670280407152
 20
73.56097171790167
 30
0.0
 11
253.3670280407152
 21
73.56097171790167
 31
0.0
  0
LINE
  5
26D
330
1F
100
AcDbEntity
  8
PV-174
100
AcDbLine
 10
231.5362668562578
 20
47.0927731823815
 30
0.0
 11
232.1888419781991
 21
47.0927731823815
 31
0.0
  0
LINE
  5
26E
330
1F
100
AcDbEntity
  8
PV-174
100
AcDbLine
 10
253.3670280407151
 20
36.1609717179017
 30
0.0
 11
253.5170280407136
 21
36.1609717179017
 31
0.0
  0
LINE
  5
26F
330
1F
100
AcDbEntity
  8
PV-174
100
AcDbLine
 10
253.3670280407152
 20
70.96097171790188
 30
0.0
 11
253.5170280407136
 21
70.96097171790188
 31
0.0
  0
LINE
  5
270
330
1F
100
AcDbEntity
  8
PV-174
100
AcDbLine
 10
694.2170280407133
 20
112.560971717901
 30
0.0
 11
334.2170280407133
 21
112.560971717901
 31
0.0
  0
LINE
  5
271
330
1F
100
AcDbEntity
  8
PV-174
100
AcDbLine
 10
694.2170280407133
 20
79.560971717901
 30
0.0
 11
334.2170280407133
 21
79.56097171790077
 31
0.0
  0
LINE
  5
272
330
1F
100
AcDbEntity
  8
PV-174
100
AcDbLine
 10
726.2170280407133
 20
157.560971717901
 30
0.0
 11
726.2170280407133
 21
144.560971717901
 31
0.0
  0
LINE
  5
273
330
1F
100
AcDbEntity
  8
PV-174
100
AcDbLine
 10
759.2170280407133
 20
157.560971717901
 30
0.0
 11
759.2170280407133
 21
144.560971717901
 31
0.0
  0
LINE
  5
274
330
1F
100
AcDbEntity
  8
PV-174
100
AcDbLine
 10
269.2170280407133
 20
157.560971717901
 30
0.0
 11
269.2170280407133
 21
116.1495607904908
 31
0.0
  0
LINE
  5
275
330
1F
100
AcDbEntity
  8
PV-174
100
AcDbLine
 10
269.7170280407135
 20
157.560971717901
 30
0.0
 11
269.7170280407135
 21
144.560971717901
 31
0.0
  0
LINE
  5
276
330
1F
100
AcDbEntity
  8
PV-174
100
AcDbLine
 10
302.7170280407134
 20
157.560971717901
 30
0.0
 11
302.7170280407134
 21
144.560971717901
 31
0.0
  0
ARC
  5
277
330
1F
100
AcDbEntity
  8
PV-174
100
AcDbCircle
 10
709.7170280407133
 20
159.560971717901
 30
0.0
 40
2.0
100
AcDbArc
 50
180.0
 51
270.0
  0
ARC
  5
278
330
1F
100
AcDbEntity
  8
PV-174
100
AcDbCircle
 10
775.7170280407133
 20
159.560971717901
 30
0.0
 40
2.0
100
AcDbArc
 50
269.9999999999968
 51
0.0
  0
ARC
  5
279
330
1F
100
AcDbEntity
  8
PV-174
100
AcDbCircle
 10
252.7170280407133
 20
159.560971717901
 30
0.0
 40
2.0
100
AcDbArc
 50
180.0
 51
270.0
  0
ARC
  5
27A
330
1F
100
AcDbEntity
  8
PV-174
100
AcDbCircle
 10
318.7170280407134
 20
159.560971717901
 30
0.0
 40
2.0
100
AcDbArc
 50
270.0
 51
0.0
  0
ARC
  5
27B
330
1F
100
AcDbEntity
  8
PV-174
100
AcDbCircle
 10
319.0670280407135
 20
71.56097171790157
 30
0.0
 40
1.999999999999998
100
AcDbArc
 50
0.0
 51
90.0
  0
ARC
  5
27C
330
1F
100
AcDbEntity
  8
PV-174
100
AcDbCircle
 10
319.0670280407135
 20
35.56097171790168
 30
0.0
 40
1.999999999999998
100
AcDbArc
 50
270.0
 51
0.0
  0
SPLINE
  5
27D
330
1F
100
AcDbEntity
  8
PV-174
100
AcDbSpline
210
0.0
220
0.0
230
1.0
 70
     8
 71
     3
 72
    20
 73
    16
 74
     0
 42
0.000000001
 43
0.0000000001
 40
0.1476977204276086
 40
0.1476977204276086
 40
0.1476977204276086
 40
0.1476977204276086
 40
0.2758370288594389
 40
0.2758370288594389
 40
0.293331138459643
 40
0.293331138459643
 40
0.301426564545421
 40
0.301426564545421
 40
0.3203753852087088
 40
0.3203753852087088
 40
0.3465415963585574
 40
0.3465415963585574
 40
0.3510419892013851
 40
0.3510419892013851
 40
0.3544686228257871
 40
0.3544686228257871
 40
0.3544686228257871
 40
0.3544686228257871
 10
232.9922554319534
 20
47.3973474930043
 30
0.0
 10
232.9622952686143
 20
47.37288141837962
 30
0.0
 10
232.9309638222802
 20
47.3502937380531
 30
0.0
 10
232.8933898460682
 20
47.32693375780695
 30
0.0
 10
232.8888472330795
 20
47.32416761373087
 30
0.0
 10
232.8821593921397
 20
47.32018064654766
 30
0.0
 10
232.8800373871296
 20
47.31892804216897
 30
0.0
 10
232.8729274275127
 20
47.31477273963207
 30
0.0
 10
232.8679114032369
 20
47.31190932141259
 30
0.0
 10
232.8558864943461
 20
47.30520807638368
 30
0.0
 10
232.8488465257316
 20
47.30141467854048
 30
0.0
 10
232.8405186803189
 20
47.2970806793777
 30
0.0
 10
232.8392945999532
 20
47.29644747485053
 30
0.0
 10
232.8371350667537
 20
47.29533713280647
 30
0.0
 10
232.8362004365658
 20
47.29485880723496
 30
0.0
 10
232.8352646764378
 20
47.29438212783896
 30
0.0
  0
SPLINE
  5
27E
330
1F
100
AcDbEntity
  8
PV-174
100
AcDbSpline
210
0.0
220
0.0
230
1.0
 70
     8
 71
     3
 72
    14
 73
    10
 74
     0
 42
0.000000001
 43
0.0000000001
 40
0.0
 40
0.0
 40
0.0
 40
0.0
 40
0.1027022129701241
 40
0.1027022129701241
 40
0.7279570392031931
 40
0.7279570392031931
 40
0.878711546942449
 40
0.878711546942449
 40
1.007573759621968
 40
1.007573759621968
 40
1.007573759621968
 40
1.007573759621968
 10
232.8352646764539
 20
47.29438212784725
 30
0.0
 10
232.8082519575378
 20
47.28062175684295
 30
0.0
 10
232.781336067308
 20
47.26736047188978
 30
0.0
 10
232.5914188483261
 20
47.1772538632116
 30
0.0
 10
232.4548065392567
 20
47.13046067780772
 30
0.0
 10
232.312053764345
 20
47.10296997237333
 30
0.0
 10
232.2843674572332
 20
47.09882985793115
 30
0.0
 10
232.2333266180265
 20
47.09389357875318
 30
0.0
 10
232.2106643505273
 20
47.092745420813
 30
0.0
 10
232.1887751374557
 20
47.09272892292051
 30
0.0
  0
SPLINE
  5
27F
330
1F
100
AcDbEntity
  8
PV-174
100
AcDbSpline
210
0.0
220
0.0
230
1.0
 70
     8
 71
     3
 72
    22
 73
    18
 74
     0
 42
0.000000001
 43
0.0000000001
 40
3.061871436955371
 40
3.061871436955371
 40
3.061871436955371
 40
3.061871436955371
 40
3.560368615882659
 40
3.560368615882659
 40
7.493792974690864
 40
7.493792974690864
 40
12.10816926551457
 40
12.10816926551457
 40
16.79563105604578
 40
16.79563105604578
 40
20.70282533587922
 40
20.70282533587922
 40
24.42008836558175
 40
24.42008836558175
 40
27.33511547717966
 40
27.33511547717966
 40
28.43964690264884
 40
28.43964690264884
 40
28.43964690264884
 40
28.43964690264884
 10
251.1499480786396
 20
39.90536903432906
 30
0.0
 10
251.1441611417536
 20
40.02171862098793
 30
0.0
 10
251.1347444543893
 20
40.13987244515464
 30
0.0
 10
251.0183822473286
 20
41.20613376718529
 30
0.0
 10
250.6899755216654
 20
42.22060456573195
 30
0.0
 10
249.5411891625337
 20
44.43779348137787
 30
0.0
 10
248.6599298872312
 20
45.61423849434129
 30
0.0
 10
246.4978167035294
 20
47.69607309094545
 30
0.0
 10
245.2052325796915
 20
48.60147814296476
 30
0.0
 10
242.5852802765776
 20
49.72031228863205
 30
0.0
 10
241.3200699422465
 20
50.01347605038666
 30
0.0
 10
238.7777508361022
 20
50.05416780091332
 30
0.0
 10
237.5653374198731
 20
49.8267184785949
 30
0.0
 10
235.5040215519405
 20
49.05304789091212
 30
0.0
 10
234.6484111726596
 20
48.59244606247341
 30
0.0
 10
233.5609185043568
 20
47.84325020198775
 30
0.0
 10
233.2714613628702
 20
47.62537959769065
 30
0.0
 10
232.9922405267715
 20
47.39737784345038
 30
0.0
  0
ARC
  5
280
330
1F
100
AcDbEntity
  8
PV-174
100
AcDbCircle
 10
228.8670280407151
 20
34.56097171790191
 30
0.0
 40
0.9999999999999998
100
AcDbArc
 50
180.0
 51
270.0
  0
SPLINE
  5
281
330
1F
100
AcDbEntity
  8
PV-174
100
AcDbSpline
210
0.0
220
0.0
230
1.0
 70
     8
 71
     3
 72
    16
 73
    12
 74
     0
 42
0.000000001
 43
0.0000000001
 40
0.2153933378818875
 40
0.2153933378818875
 40
0.2153933378818875
 40
0.2153933378818875
 40
0.4400106383128409
 40
0.4400106383128409
 40
0.7443622166473654
 40
0.7443622166473654
 40
0.7898558523517304
 40
0.7898558523517304
 40
0.8400475890234059
 40
0.8400475890234059
 40
0.9391014517164848
 40
0.9391014517164848
 40
0.9391014517164848
 40
0.9391014517164848
 10
231.536270437168
 20
47.09277104974581
 30
0.0
 10
231.4266434606782
 20
47.09275003640084
 30
0.0
 10
231.3164934554421
 20
47.12034548037604
 30
0.0
 10
231.0717525926132
 20
47.21730457792182
 30
0.0
 10
230.9219655018278
 20
47.30587947824995
 30
0.0
 10
230.7476035549793
 20
47.44418010507854
 30
0.0
 10
230.7250531568079
 20
47.46275947002596
 30
0.0
 10
230.6779717186785
 20
47.50303019372961
 30
0.0
 10
230.6534618094933
 20
47.524857458827
 30
0.0
 10
230.5813336275532
 20
47.59174040298626
 30
0.0
 10
230.5343496101755
 20
47.63880940179274
 30
0.0
 10
230.4888901252476
 20
47.68824379103614
 30
0.0
  0
SPLINE
  5
282
330
1F
100
AcDbEntity
  8
PV-174
100
AcDbSpline
210
0.0
220
0.0
230
1.0
 70
     8
 71
     3
 72
    22
 73
    18
 74
     0
 42
0.000000001
 43
0.0000000001
 40
0.0
 40
0.0
 40
0.0
 40
0.0
 40
0.1010342156325368
 40
0.1010342156325368
 40
0.3279516765630044
 40
0.3279516765630044
 40
0.5175559881790206
 40
0.5175559881790206
 40
0.7979184818379857
 40
0.7979184818379857
 40
1.199996365120315
 40
1.199996365120315
 40
1.322552189555461
 40
1.322552189555461
 40
1.60351084851738
 40
1.60351084851738
 40
2.026822376410208
 40
2.026822376410208
 40
2.026822376410208
 40
2.026822376410208
 10
228.6370265872653
 20
49.79749069861828
 30
0.0
 10
228.6155793869007
 20
49.82310120396448
 30
0.0
 10
228.5944571633215
 20
49.84913096577111
 30
0.0
 10
228.5270263863546
 20
49.93470921834762
 30
0.0
 10
228.4819909073133
 20
49.99577890562682
 30
0.0
 10
228.4027800186523
 20
50.10982012293573
 30
0.0
 10
228.3679286544987
 20
50.16262985643232
 30
0.0
 10
228.2849063053904
 20
50.29481103751914
 30
0.0
 10
228.2381169569911
 20
50.37515489409281
 30
0.0
 10
228.1321810853811
 20
50.57181253258614
 30
0.0
 10
228.0758995718203
 20
50.68963018354361
 30
0.0
 10
228.0132666580926
 20
50.84222813767792
 30
0.0
 10
227.9993783697169
 20
50.87786906067697
 30
0.0
 10
227.9563789909165
 20
50.9949394008596
 30
0.0
 10
227.930683866263
 20
51.07615046849923
 30
0.0
 10
227.8804803520351
 20
51.27719115622904
 30
0.0
 10
227.8670280407151
 20
51.38067882871076
 30
0.0
 10
227.8670280407151
 20
51.46921171586052
 30
0.0
  0
SPLINE
  5
283
330
1F
100
AcDbEntity
  8
PV-174
100
AcDbSpline
210
0.0
220
0.0
230
1.0
 70
     8
 71
     3
 72
    10
 73
     6
 74
     0
 42
0.000000001
 43
0.0000000001
 40
1.86139545575616
 40
1.86139545575616
 40
1.86139545575616
 40
1.86139545575616
 40
3.074047116240881
 40
3.074047116240881
 40
4.714235913710636
 40
4.714235913710636
 40
4.714235913710636
 40
4.714235913710636
 10
230.4888898888095
 20
47.68824343427013
 30
0.0
 10
230.2215631109184
 20
47.97894161651515
 30
0.0
 10
229.9561384339112
 20
48.27317705481823
 30
0.0
 10
229.3369293156638
 20
48.97331199905625
 30
0.0
 10
228.9846516206633
 20
49.3823848383746
 30
0.0
 10
228.6370265333795
 20
49.79749063899408
 30
0.0
  0
ARC
  5
284
330
1F
100
AcDbEntity
  8
PV-174
100
AcDbCircle
 10
228.8670280407152
 20
72.56097171790168
 30
0.0
 40
0.9999999999999998
100
AcDbArc
 50
90.0
 51
180.0
  0
LINE
  5
285
330
1F
100
AcDbEntity
  8
PV-174
100
AcDbLine
 10
334.2170280407133
 20
112.560971717901
 30
0.0
 11
306.8056171133032
 21
112.560971717901
 31
0.0
  0
LINE
  5
286
330
1F
100
AcDbEntity
  8
PV-174
100
AcDbLine
 10
290.2481569148628
 20
79.56097171790077
 30
0.0
 11
291.9615906872498
 21
79.56097171790077
 31
0.0
  0
LINE
  5
287
330
1F
100
AcDbEntity
  8
PV-174
100
AcDbLine
 10
312.9170280407129
 20
79.56097171790077
 30
0.0
 11
334.2170280407133
 21
79.56097171790077
 31
0.0
  0
ARC
  5
288
330
1F
100
AcDbEntity
  8
PV-174
100
AcDbCircle
 10
694.2170280407133
 20
144.560971717901
 30
0.0
 40
32.0
100
AcDbArc
 50
270.0
 51
0.0
  0
ARC
  5
289
330
1F
100
AcDbEntity
  8
PV-174
100
AcDbCircle
 10
694.2170280407133
 20
144.560971717901
 30
0.0
 40
65.0
100
AcDbArc
 50
270.0
 51
0.0
  0
LINE
  5
28A
330
1F
100
AcDbEntity
  8
PV-174
100
AcDbLine
 10
302.7170280407134
 20
95.56097171790099
 30
0.0
 11
302.7170280407134
 21
144.560971717901
 31
0.0
  0
LINE
  5
28B
330
1F
100
AcDbEntity
  8
PV-174
100
AcDbLine
 10
269.7170280407135
 20
144.5609717179012
 30
0.0
 11
269.7170280407135
 21
95.56097171790099
 31
0.0
  0
LINE
  5
28C
330
1F
100
AcDbEntity
  8
PV-174
100
AcDbLine
 10
961.2016112020013
 20
1169.6309717319
 30
0.0000000000000096
 11
966.2870280547132
 21
1169.6309717319
 31
0.0000000000000105
210
0.0
220
1.0
230
0.0
  0
LINE
  5
28D
330
1F
100
AcDbEntity
  8
PV-174
100
AcDbLine
 10
949.7870280547132
 20
418.1309717319008
 30
0.0000000000000135
 11
933.2870280547131
 21
401.6309717319006
 31
0.0000000000000105
210
0.0
220
1.0
230
0.0
  0
LINE
  5
28E
330
1F
100
AcDbEntity
  8
PV-174
100
AcDbLine
 10
933.2870280547131
 20
434.6309717319003
 30
0.0000000000000105
 11
949.7870280547129
 21
418.1309717319006
 31
0.0000000000000135
210
0.0
220
1.0
230
0.0
  0
ARC
  5
28F
330
1F
100
AcDbEntity
  8
PV-174
100
AcDbCircle
 10
949.7870280547131
 20
303.1309717319004
 30
0.0000000000000135
 40
16.5
100
AcDbArc
 50
180.0
 51
0.0
  0
LINE
  5
290
330
1F
100
AcDbEntity
  8
PV-174
100
AcDbLine
 10
933.2870280547131
 20
1169.6309717319
 30
0.0000000000000105
 11
961.2016112020013
 21
1169.6309717319
 31
0.0000000000000216
210
0.0
220
1.0
230
0.0
  0
ARC
  5
291
330
1F
100
AcDbEntity
  8
PV-174
100
AcDbCircle
 10
997.7552265902325
 20
1054.8270923288
 30
0.0000000000000223
 40
1.000000000000051
100
AcDbArc
 50
315.0000000000091
 51
73.27371363136347
  0
LINE
  5
292
330
1F
100
AcDbEntity
  8
PV-174
100
AcDbLine
 10
974.7980142390206
 20
1030.455666415216
 30
0.0000000000000181
 11
998.4623333714189
 21
1054.119985547614
 31
0.0000000000000224
210
0.0
220
1.0
230
0.0
  0
ARC
  5
293
330
1F
100
AcDbEntity
  8
PV-174
100
AcDbCircle
 10
974.0909074578341
 20
1031.162773196403
 30
0.000000000000018
 40
1.000000000000051
100
AcDbArc
 50
196.7262863686334
 51
314.9999999999999
  0
LINE
  5
294
330
1F
100
AcDbEntity
  8
PV-174
100
AcDbLine
 10
1009.776041870403
 20
1042.806277048629
 30
0.0000000000000245
 11
986.1117227380052
 21
1019.141957916231
 31
0.0000000000000202
210
0.0
220
1.0
230
0.0
  0
ARC
  5
295
330
1F
100
AcDbEntity
  8
PV-174
100
AcDbCircle
 10
986.8188295191918
 20
1018.434851135044
 30
0.0000000000000203
 40
1.000000000000051
100
AcDbArc
 50
134.9999999999999
 51
253.2737136313635
  0
ARC
  5
296
330
1F
100
AcDbEntity
  8
PV-174
100
AcDbCircle
 10
1010.48314865159
 20
1042.099170267443
 30
0.0000000000000247
 40
1.000000000000051
100
AcDbArc
 50
16.72628636863348
 51
134.9999999999999
  0
ARC
  5
297
330
1F
100
AcDbEntity
  8
PV-174
100
AcDbCircle
 10
992.2870280547122
 20
1036.630971731923
 30
0.0000000000000213
 40
20.0
100
AcDbArc
 50
253.2737136313635
 51
259.5567007108177
  0
ARC
  5
298
330
1F
100
AcDbEntity
  8
PV-174
100
AcDbCircle
 10
992.2870280547122
 20
1036.630971731923
 30
0.0000000000000213
 40
20.0
100
AcDbArc
 50
259.5567007108177
 51
10.44329928918173
  0
ARC
  5
299
330
1F
100
AcDbEntity
  8
PV-174
100
AcDbCircle
 10
992.2870280547122
 20
1036.630971731923
 30
0.0000000000000213
 40
20.0
100
AcDbArc
 50
10.44329928918173
 51
16.72628636863348
  0
ARC
  5
29A
330
1F
100
AcDbEntity
  8
PV-174
100
AcDbCircle
 10
992.2870280547122
 20
1036.630971731923
 30
0.0000000000000213
 40
20.0
100
AcDbArc
 50
73.27371363136347
 51
79.55670071081773
  0
ARC
  5
29B
330
1F
100
AcDbEntity
  8
PV-174
100
AcDbCircle
 10
992.2870280547122
 20
1036.630971731923
 30
0.0000000000000213
 40
20.0
100
AcDbArc
 50
79.55670071081773
 51
190.4432992891817
  0
ARC
  5
29C
330
1F
100
AcDbEntity
  8
PV-174
100
AcDbCircle
 10
992.2870280547122
 20
1036.630971731923
 30
0.0000000000000213
 40
20.0
100
AcDbArc
 50
190.4432992891817
 51
196.7262863686334
  0
SPLINE
  5
29D
330
1F
100
AcDbEntity
  8
PV-174
100
AcDbSpline
210
-0.0000000000000002
220
0.0
230
1.0
 70
     8
 71
     3
 72
    38
 73
    34
 74
     0
 42
0.000000001
 43
0.0000000001
 40
7.989195374219312
 40
7.989195374219312
 40
7.989195374219312
 40
7.989195374219312
 40
8.254479951649056
 40
8.254479951649056
 40
9.559037833637079
 40
9.559037833637079
 40
10.8635957156251
 40
10.8635957156251
 40
12.16815359761313
 40
12.16815359761313
 40
13.47206133512371
 40
13.47206133512371
 40
14.77596907263428
 40
14.77596907263428
 40
16.07987681014486
 40
16.07987681014486
 40
17.38378454765544
 40
17.38378454765544
 40
18.68769228516606
 40
18.68769228516606
 40
19.99160002267667
 40
19.99160002267667
 40
21.29550776018729
 40
21.29550776018729
 40
22.59941549769791
 40
22.59941549769791
 40
23.90397337968593
 40
23.90397337968593
 40
25.20853126167391
 40
25.20853126167391
 40
26.51308914366193
 40
26.51308914366193
 40
26.77837372109179
 40
26.77837372109179
 40
26.77837372109179
 40
26.77837372109179
 10
998.0430533405646
 20
1055.784774307846
 30
0.0000000000000224
 10
998.1071237231891
 20
1055.765520337287
 30
0.0000000000000224
 10
998.1723870867154
 20
1055.74555741173
 30
0.0000000000000224
 10
998.5652858334578
 20
1055.623086987123
 30
0.0000000000000225
 10
998.919088359826
 20
1055.503492280864
 30
0.0000000000000225
 10
999.6596332145017
 20
1055.226695673698
 30
0.0000000000000227
 10
1000.04656108312
 20
1055.069316749958
 30
0.0000000000000227
 10
1000.827698928197
 20
1054.720744003951
 30
0.0000000000000229
 10
1001.221879895743
 20
1054.529473590901
 30
0.0000000000000229
 10
1001.988881421769
 20
1054.125593767756
 30
0.0000000000000231
 10
1002.394800582075
 20
1053.895703799933
 30
0.0000000000000232
 10
1003.224609445665
 20
1053.382310548905
 30
0.0000000000000233
 10
1003.648457303606
 20
1053.098722138241
 30
0.0000000000000234
 10
1004.486529426444
 20
1052.487864375297
 30
0.0000000000000235
 10
1004.901154313742
 20
1052.160225998972
 30
0.0000000000000236
 10
1005.696093020016
 20
1051.479234126078
 30
0.0000000000000238
 10
1006.076400315512
 20
1051.125870718584
 30
0.0000000000000238
 10
1006.781927041374
 20
1050.420343992723
 30
0.000000000000024
 10
1007.135290448867
 20
1050.040036697226
 30
0.000000000000024
 10
1007.816282321762
 20
1049.245097990952
 30
0.0000000000000242
 10
1008.143920698086
 20
1048.830473103655
 30
0.0000000000000242
 10
1008.75477846103
 20
1047.992400980817
 30
0.0000000000000243
 10
1009.038366871695
 20
1047.568553122875
 30
0.0000000000000244
 10
1009.551760122722
 20
1046.738744259285
 30
0.0000000000000245
 10
1009.781650090545
 20
1046.332825098979
 30
0.0000000000000245
 10
1010.185529913691
 20
1045.565823572954
 30
0.0000000000000246
 10
1010.376800326741
 20
1045.171642605408
 30
0.0000000000000246
 10
1010.725373072747
 20
1044.390504760331
 30
0.0000000000000247
 10
1010.882751996488
 20
1044.003576891712
 30
0.0000000000000247
 10
1011.159548603653
 20
1043.263032037036
 30
0.0000000000000248
 10
1011.279143309913
 20
1042.909229510668
 30
0.0000000000000248
 10
1011.401613734519
 20
1042.516330763926
 30
0.0000000000000248
 10
1011.421576660076
 20
1042.451067400399
 30
0.0000000000000248
 10
1011.440830630635
 20
1042.386997017775
 30
0.0000000000000248
  0
SPLINE
  5
29E
330
1F
100
AcDbEntity
  8
PV-174
100
AcDbSpline
210
-0.0000000000000002
220
0.0
230
1.0
 70
     8
 71
     3
 72
    46
 73
    42
 74
     0
 42
0.000000001
 43
0.0000000001
 40
-26.25009051702358
 40
-26.25009051702358
 40
-26.25009051702358
 40
-26.25009051702358
 40
-25.19226716828405
 40
-25.19226716828405
 40
-24.06297385938894
 40
-24.06297385938894
 40
-22.97039393615168
 40
-22.97039393615168
 40
-21.87781401291442
 40
-21.87781401291442
 40
-20.78523408967716
 40
-20.78523408967716
 40
-19.6926541664399
 40
-19.6926541664399
 40
-18.59462246291696
 40
-18.59462246291696
 40
-17.49659075939401
 40
-17.49659075939401
 40
-16.39855905587109
 40
-16.39855905587109
 40
-15.30052735234814
 40
-15.30052735234814
 40
-14.20249564882519
 40
-14.20249564882519
 40
-13.10446394530224
 40
-13.10446394530224
 40
-12.00643224177928
 40
-12.00643224177928
 40
-10.90840053825633
 40
-10.90840053825633
 40
-9.815820615019132
 40
-9.815820615019132
 40
-8.723240691781933
 40
-8.723240691781933
 40
-7.63066076854473
 40
-7.63066076854473
 40
-6.538080845307532
 40
-6.538080845307532
 40
-5.408787536412319
 40
-5.408787536412319
 40
-4.350964187672493
 40
-4.350964187672493
 40
-4.350964187672493
 40
-4.350964187672493
 10
986.5310234991289
 20
1017.477162987475
 30
0.0000000000000203
 10
986.3597544053421
 20
1017.52863724861
 30
0.0000000000000202
 10
986.1680226115959
 20
1017.588797423498
 30
0.0000000000000202
 10
985.7444595854436
 20
1017.72996801165
 30
0.0000000000000201
 10
985.5108557616317
 20
1017.81216650803
 30
0.0000000000000201
 10
985.0449337594957
 20
1017.986618126921
 30
0.00000000000002
 10
984.7924417289124
 20
1018.085974923613
 30
0.0000000000000199
 10
984.252775718094
 20
1018.313315762704
 30
0.0000000000000198
 10
983.9656346428119
 20
1018.441353066765
 30
0.0000000000000198
 10
983.3730192007784
 20
1018.724317615325
 30
0.0000000000000197
 10
983.0674139055636
 20
1018.879369913948
 30
0.0000000000000196
 10
982.4565577419091
 20
1019.210222448605
 30
0.0000000000000195
 10
982.1513269586969
 20
1019.38605882175
 30
0.0000000000000194
 10
981.5600548898963
 20
1019.747467953641
 30
0.0000000000000193
 10
981.2476397372515
 20
1019.949190375565
 30
0.0000000000000193
 10
980.6102358146786
 20
1020.388975345145
 30
0.0000000000000192
 10
980.2852711873189
 20
1020.627083985466
 30
0.0000000000000191
 10
979.6423284092202
 20
1021.13006331401
 30
0.000000000000019
 10
979.32412305028
 20
1021.39515018905
 30
0.0000000000000189
 10
978.7122858244979
 20
1021.937655645231
 30
0.0000000000000188
 10
978.4186543642132
 20
1022.21507417496
 30
0.0000000000000188
 10
977.8711304977491
 20
1022.762598041424
 30
0.0000000000000187
 10
977.59371196802
 20
1023.056229501708
 30
0.0000000000000186
 10
977.0512065118388
 20
1023.668066727491
 30
0.0000000000000185
 10
976.7861196367997
 20
1023.986272086431
 30
0.0000000000000185
 10
976.2831403082552
 20
1024.629214864529
 30
0.0000000000000184
 10
976.0450316679348
 20
1024.954179491889
 30
0.0000000000000183
 10
975.6052466983549
 20
1025.591583414462
 30
0.0000000000000182
 10
975.4035242764309
 20
1025.903998567107
 30
0.0000000000000182
 10
975.0421151445392
 20
1026.495270635908
 30
0.0000000000000181
 10
974.8662787713952
 20
1026.80050141912
 30
0.0000000000000181
 10
974.5354262367378
 20
1027.411357582774
 30
0.000000000000018
 10
974.3803739381146
 20
1027.716962877989
 30
0.000000000000018
 10
974.0974093895546
 20
1028.309578320023
 30
0.000000000000018
 10
973.9693720854941
 20
1028.596719395304
 30
0.0000000000000179
 10
973.7420312464022
 20
1029.136385406123
 30
0.0000000000000179
 10
973.6426744497109
 20
1029.388877436706
 30
0.0000000000000179
 10
973.4682228308194
 20
1029.854799438842
 30
0.0000000000000179
 10
973.3860243344395
 20
1030.088403262654
 30
0.0000000000000178
 10
973.2448537462882
 20
1030.511966288806
 30
0.0000000000000178
 10
973.1846935714001
 20
1030.703698082552
 30
0.0000000000000178
 10
973.1332193102646
 20
1030.874967176339
 30
0.0000000000000178
  0
LINE
  5
29F
330
1F
100
AcDbEntity
  8
PV-174
100
AcDbLine
 10
992.0964596490637
 20
983.6171266535341
 30
0.0000000000000213
 11
994.3109995223144
 21
958.3048200757279
 31
0.0000000000000217
210
0.0
220
1.0
230
0.0
  0
LINE
  5
2A0
330
1F
100
AcDbEntity
  8
PV-174
100
AcDbLine
 10
1001.680458887053
 20
984.4556179380992
 30
0.000000000000023
 11
1003.894998760304
 21
959.143311360293
 31
0.0000000000000234
210
0.0
220
1.0
230
0.0
  0
LINE
  5
2A1
330
1F
100
AcDbEntity
  8
PV-174
100
AcDbLine
 10
997.9797056355439
 20
1017.458222222938
 30
0.0000000000000224
 11
1000.884534538782
 21
984.2558759283585
 31
0.0000000000000229
210
0.0
220
1.0
230
0.0
  0
SPLINE
  5
2A2
330
1F
100
AcDbEntity
  8
PV-174
100
AcDbSpline
210
0.0
220
0.0
230
1.0
 70
     8
 71
     3
 72
    20
 73
    16
 74
     0
 42
0.000000001
 43
0.0000000001
 40
-2.081957642337048
 40
-2.081957642337048
 40
-2.081957642337048
 40
-2.081957642337048
 40
-2.029036545889133
 40
-2.029036545889133
 40
-1.976115449441221
 40
-1.976115449441221
 40
-1.9382965860275
 40
-1.9382965860275
 40
-1.900477722613779
 40
-1.900477722613779
 40
-1.79865290262327
 40
-1.79865290262327
 40
-1.696828082632761
 40
-1.696828082632761
 40
-1.658125044755919
 40
-1.658125044755919
 40
-1.658125044755919
 40
-1.658125044755919
 10
1000.884534538782
 20
984.2558759283585
 30
0.0000000000000229
 10
1000.885678342886
 20
984.2428021876244
 30
0.0000000000000229
 10
1000.886644169587
 20
984.2293247526058
 30
0.0000000000000229
 10
1000.887346357552
 20
984.2068823480049
 30
0.0000000000000229
 10
1000.887058542301
 20
984.1980030594049
 30
0.0000000000000229
 10
1000.885121144158
 20
984.1899608649235
 30
0.0000000000000229
 10
1000.88377264399
 20
984.1884744999063
 30
0.0000000000000229
 10
1000.880082966908
 20
984.1909180892919
 30
0.0000000000000229
 10
1000.877749133971
 20
984.1948073288756
 30
0.0000000000000229
 10
1000.869031039808
 20
984.2136402771101
 30
0.0000000000000229
 10
1000.862007452022
 20
984.235466002497
 30
0.0000000000000229
 10
1000.847293863894
 20
984.2846899368476
 30
0.0000000000000229
 10
1000.839576916232
 20
984.3126230548371
 30
0.0000000000000229
 10
1000.828626136669
 20
984.3537619994586
 30
0.0000000000000229
 10
1000.825586647217
 20
984.3653394552758
 30
0.0000000000000229
 10
1000.822537490525
 20
984.3770840828419
 30
0.0000000000000229
  0
SPLINE
  5
2A3
330
1F
100
AcDbEntity
  8
PV-174
100
AcDbSpline
210
0.0000000000000001
220
0.0000000000000001
230
1.0
 70
     8
 71
     3
 72
    14
 73
    10
 74
     0
 42
0.000000001
 43
0.0000000001
 40
0.649611117407552
 40
0.649611117407552
 40
0.649611117407552
 40
0.649611117407552
 40
0.7333587369340008
 40
0.7333587369340008
 40
1.466717473868001
 40
1.466717473868001
 40
2.251649856864295
 40
2.251649856864295
 40
3.036582239860591
 40
3.036582239860591
 40
3.036582239860591
 40
3.036582239860591
 10
1000.822537490525
 20
984.3770840828419
 30
0.0000000000000229
 10
1000.815686264445
 20
984.4034733789033
 30
0.0000000000000229
 10
1000.808532981518
 20
984.4298571202173
 30
0.0000000000000229
 10
1000.735883604684
 20
984.6869387353184
 30
0.0000000000000229
 10
1000.64691602827
 20
984.9150507559766
 30
0.0000000000000228
 10
1000.445178612425
 20
985.3424478415488
 30
0.0000000000000228
 10
1000.310913852919
 20
985.5807697990545
 30
0.0000000000000228
 10
1000.009163837886
 20
986.049308477467
 30
0.0000000000000227
 10
999.8422753957354
 20
986.2800990325492
 30
0.0000000000000227
 10
999.6853043956958
 20
986.4894259412073
 30
0.0000000000000227
  0
SPLINE
  5
2A4
330
1F
100
AcDbEntity
  8
PV-174
100
AcDbSpline
210
-0.0000000000000002
220
0.0
230
1.0
 70
     8
 71
     3
 72
    30
 73
    26
 74
     0
 42
0.000000001
 43
0.0000000001
 40
50.21703549202495
 40
50.21703549202495
 40
50.21703549202495
 40
50.21703549202495
 40
50.53039260880385
 40
50.53039260880385
 40
51.29598074329932
 40
51.29598074329932
 40
51.92914302530023
 40
51.92914302530023
 40
52.56230530730113
 40
52.56230530730113
 40
53.12551373138332
 40
53.12551373138332
 40
53.68872215546555
 40
53.68872215546555
 40
54.25193057954776
 40
54.25193057954776
 40
54.81513900362998
 40
54.81513900362998
 40
55.44830128563085
 40
55.44830128563085
 40
56.08146356763175
 40
56.08146356763175
 40
56.84705170212724
 40
56.84705170212724
 40
57.16040881890615
 40
57.16040881890615
 40
57.16040881890615
 40
57.16040881890615
 10
999.6853043956958
 20
986.4894259412073
 30
0.0000000000000227
 10
999.6177313330282
 20
986.5795372376455
 30
0.0000000000000227
 10
999.546239385306
 20
986.6686886598252
 30
0.0000000000000226
 10
999.2895583543781
 20
986.9662984615192
 30
0.0000000000000226
 10
999.0881417672071
 20
987.160440515063
 30
0.0000000000000226
 10
998.7243220613923
 20
987.4520299758158
 30
0.0000000000000225
 10
998.533148541037
 20
987.5829423125649
 30
0.0000000000000225
 10
998.1288676984759
 20
987.8037165514477
 30
0.0000000000000224
 10
997.9156345295667
 20
987.8933479255229
 30
0.0000000000000223
 10
997.534945079052
 20
988.0121300541704
 30
0.0000000000000223
 10
997.3338438700737
 20
988.0566212492162
 30
0.0000000000000222
 10
996.9269287816871
 20
988.1022388250592
 30
0.0000000000000222
 10
996.7211047127484
 20
988.1032742679396
 30
0.0000000000000221
 10
996.347061215421
 20
988.070549702258
 30
0.0000000000000221
 10
996.144543879342
 20
988.0337890155903
 30
0.000000000000022
 10
995.7517321543962
 20
987.9182044096628
 30
0.0000000000000219
 10
995.5614119395963
 20
987.8394682773754
 30
0.0000000000000219
 10
995.2071323174184
 20
987.6563846868251
 30
0.0000000000000218
 10
995.0127029642477
 20
987.5310874635236
 30
0.0000000000000218
 10
994.6529011003569
 20
987.24346464983
 30
0.0000000000000217
 10
994.4873646240509
 20
987.0813442322065
 30
0.0000000000000217
 10
994.1797061355524
 20
986.7310080416467
 30
0.0000000000000217
 10
994.0150619327276
 20
986.5048398188168
 30
0.0000000000000216
 10
993.8139598631385
 20
986.1671791854739
 30
0.0000000000000216
 10
993.7590350207413
 20
986.0669677272793
 30
0.0000000000000216
 10
993.7081362071452
 20
985.9664914847215
 30
0.0000000000000216
  0
SPLINE
  5
2A5
330
1F
100
AcDbEntity
  8
PV-174
100
AcDbSpline
210
0.0000000000000001
220
-0.0000000000000001
230
1.0
 70
     8
 71
     3
 72
    14
 73
    10
 74
     0
 42
0.000000001
 43
0.0000000001
 40
8.778950683888792
 40
8.778950683888792
 40
8.778950683888792
 40
8.778950683888792
 40
9.563883066885145
 40
9.563883066885145
 40
10.34881544988148
 40
10.34881544988148
 40
11.08217418681548
 40
11.08217418681548
 40
11.16592180634194
 40
11.16592180634194
 40
11.16592180634194
 40
11.16592180634194
 10
993.7081362071452
 20
985.9664914847215
 30
0.0000000000000216
 10
993.5898991855337
 20
985.7330869940573
 30
0.0000000000000215
 10
993.4656225131282
 20
985.4768227922372
 30
0.0000000000000215
 10
993.2498176465255
 20
984.9630039289289
 30
0.0000000000000215
 10
993.1589768440259
 20
984.7049877866513
 30
0.0000000000000215
 10
993.034520997879
 20
984.2490524885361
 30
0.0000000000000214
 10
992.9865162755515
 20
984.0089569445211
 30
0.0000000000000214
 10
992.9596123599672
 20
983.7431655449167
 30
0.0000000000000214
 10
992.957149240081
 20
983.7159404773728
 30
0.0000000000000214
 10
992.9549845526901
 20
983.6887623910913
 30
0.0000000000000214
  0
SPLINE
  5
2A6
330
1F
100
AcDbEntity
  8
PV-174
100
AcDbSpline
210
0.0
220
0.0
230
1.0
 70
     8
 71
     3
 72
    20
 73
    16
 74
     0
 42
0.000000001
 43
0.0000000001
 40
1.658125044756507
 40
1.658125044756507
 40
1.658125044756507
 40
1.658125044756507
 40
1.696828082632723
 40
1.696828082632723
 40
1.798652902623235
 40
1.798652902623235
 40
1.900477722613746
 40
1.900477722613746
 40
1.938296586027632
 40
1.938296586027632
 40
1.97611544944152
 40
1.97611544944152
 40
2.029036545890051
 40
2.029036545890051
 40
2.081957642338585
 40
2.081957642338585
 40
2.081957642338585
 40
2.081957642338585
 10
992.9549845526901
 20
983.6887623910913
 30
0.0000000000000214
 10
992.9540211527134
 20
983.676666710305
 30
0.0000000000000214
 10
992.9530382440416
 20
983.6647373402522
 30
0.0000000000000214
 10
992.9493975341911
 20
983.6223218057236
 30
0.0000000000000214
 10
992.9466483593392
 20
983.5934730206627
 30
0.0000000000000214
 10
992.9407059501739
 20
983.542441920715
 30
0.0000000000000214
 10
992.9375790639074
 20
983.5197281439192
 30
0.0000000000000214
 10
992.9322637243251
 20
983.4996674293213
 30
0.0000000000000214
 10
992.9306407069208
 20
983.4954320101907
 30
0.0000000000000214
 10
992.9274314091689
 20
983.4923848387175
 30
0.0000000000000214
 10
992.925845291171
 20
983.4936144579101
 30
0.0000000000000214
 10
992.9225408140435
 20
983.5011980477299
 30
0.0000000000000214
 10
992.920715499069
 20
983.5098924613916
 30
0.0000000000000214
 10
992.9175099365593
 20
983.5321158490989
 30
0.0000000000000214
 10
992.9161207581516
 20
983.5455562456434
 30
0.0000000000000214
 10
992.914976954048
 20
983.5586299863777
 30
0.0000000000000214
  0
LINE
  5
2A7
330
1F
100
AcDbEntity
  8
PV-174
100
AcDbLine
 10
990.0101480508102
 20
1016.760976280957
 30
0.0000000000000209
 11
992.9149769540476
 21
983.5586299863777
 31
0.0000000000000214
210
0.0
220
1.0
230
0.0
  0
ARC
  5
2A8
330
1F
100
AcDbEntity
  8
PV-174
100
AcDbCircle
 10
992.2870280547124
 20
1036.630971731923
 30
0.0000000000000213
 40
20.00002254432668
100
AcDbArc
 50
244.1579338865022
 51
115.8420661136321
  0
LINE
  5
2A9
330
1F
100
AcDbEntity
  8
PV-174
100
AcDbLine
 10
969.287028054712
 20
948.6309717319228
 30
0.0000000000000171
 11
931.287028054713
 21
948.6309717319228
 31
0.0000000000000101
210
0.0
220
1.0
230
0.0
  0
LINE
  5
2AA
330
1F
100
AcDbEntity
  8
PV-174
100
AcDbLine
 10
925.5870280547137
 20
1018.630971731922
 30
0.0000000000000091
 11
950.2870280547131
 21
1018.630971731922
 31
0.0000000000000136
210
0.0
220
1.0
230
0.0
  0
LINE
  5
2AB
330
1F
100
AcDbEntity
  8
PV-174
100
AcDbLine
 10
925.5870280547137
 20
1054.6309717319
 30
0.0000000000000091
 11
950.2870280547131
 21
1054.6309717319
 31
0.0000000000000136
210
0.0
220
1.0
230
0.0
  0
LINE
  5
2AC
330
1F
100
AcDbEntity
  8
PV-174
100
AcDbLine
 10
950.2870280547131
 20
1054.630971731901
 30
0.0000000000000136
 11
983.5692301676147
 21
1054.630971731901
 31
0.0000000000000197
210
0.0
220
1.0
230
0.0
  0
LINE
  5
2AD
330
1F
100
AcDbEntity
  8
PV-174
100
AcDbLine
 10
950.2870280547131
 20
1018.630971731923
 30
0.0000000000000136
 11
983.5692301676047
 21
1018.630971731923
 31
0.0000000000000197
210
0.0
220
1.0
230
0.0
  0
LINE
  5
2AE
330
1F
100
AcDbEntity
  8
PV-174
100
AcDbLine
 10
895.7870280547131
 20
1218.1309717319
 30
0.0000000000000059
 11
895.7870280547131
 21
1253.1309717319
 31
0.0000000000000059
210
0.0
220
1.0
230
0.0
  0
LINE
  5
2AF
330
1F
100
AcDbEntity
  8
PV-174
100
AcDbLine
 10
895.7870280547131
 20
1183.1309717319
 30
0.0000000000000059
 11
895.7870280547131
 21
1218.1309717319
 31
0.0000000000000059
210
0.0
220
1.0
230
0.0
  0
LINE
  5
2B0
330
1F
100
AcDbEntity
  8
PV-174
100
AcDbLine
 10
907.7870280547131
 20
1218.1309717319
 30
0.0000000000000081
 11
907.7870280547131
 21
1251.1309717319
 31
0.0000000000000081
210
0.0
220
1.0
230
0.0
  0
LINE
  5
2B1
330
1F
100
AcDbEntity
  8
PV-174
100
AcDbLine
 10
907.7870280547131
 20
1185.1309717319
 30
0.0000000000000081
 11
907.7870280547131
 21
1218.1309717319
 31
0.0000000000000081
210
0.0
220
1.0
230
0.0
  0
LINE
  5
2B2
330
1F
100
AcDbEntity
  8
PV-174
100
AcDbLine
 10
896.287028054713
 20
418.1309717319004
 30
0.0
 11
896.287028054713
 21
453.1309717319004
 31
0.0
210
0.0
220
1.0
230
0.0
  0
LINE
  5
2B3
330
1F
100
AcDbEntity
  8
PV-174
100
AcDbLine
 10
896.287028054713
 20
383.1309717319005
 30
0.0
 11
896.287028054713
 21
418.1309717319008
 31
0.0
210
0.0
220
1.0
230
0.0
  0
LINE
  5
2B4
330
1F
100
AcDbEntity
  8
PV-174
100
AcDbLine
 10
908.287028054713
 20
418.1309717319004
 30
0.0000000000000022
 11
908.287028054713
 21
451.1309717319004
 31
0.0000000000000022
210
0.0
220
1.0
230
0.0
  0
LINE
  5
2B5
330
1F
100
AcDbEntity
  8
PV-174
100
AcDbLine
 10
908.287028054713
 20
385.1309717319005
 30
0.0000000000000022
 11
908.287028054713
 21
418.1309717319008
 31
0.0000000000000022
210
0.0
220
1.0
230
0.0
  0
LINE
  5
2B6
330
1F
100
AcDbEntity
  8
PV-174
100
AcDbLine
 10
896.287028054713
 20
303.1309717319004
 30
0.0
 11
896.287028054713
 21
338.1309717319004
 31
0.0
210
0.0
220
1.0
230
0.0
  0
LINE
  5
2B7
330
1F
100
AcDbEntity
  8
PV-174
100
AcDbLine
 10
896.287028054713
 20
268.1309717319004
 30
0.0
 11
896.287028054713
 21
303.130971731901
 31
0.0
210
0.0
220
1.0
230
0.0
  0
LINE
  5
2B8
330
1F
100
AcDbEntity
  8
PV-174
100
AcDbLine
 10
908.287028054713
 20
303.1309717319004
 30
0.0000000000000022
 11
908.287028054713
 21
336.1309717319004
 31
0.0000000000000022
210
0.0
220
1.0
230
0.0
  0
LINE
  5
2B9
330
1F
100
AcDbEntity
  8
PV-174
100
AcDbLine
 10
908.287028054713
 20
270.1309717319004
 30
0.0000000000000022
 11
908.287028054713
 21
303.130971731901
 31
0.0000000000000022
210
0.0
220
1.0
230
0.0
  0
LINE
  5
2BA
330
1F
100
AcDbEntity
  8
PV-174
100
AcDbLine
 10
906.287028054713
 20
338.1309717319004
 30
0.0000000000000018
 11
896.287028054713
 21
338.1309717319004
 31
0.0
210
0.0
220
1.0
230
0.0
  0
LINE
  5
2BB
330
1F
100
AcDbEntity
  8
PV-174
100
AcDbLine
 10
906.287028054713
 20
268.1309717319004
 30
0.0000000000000018
 11
896.287028054713
 21
268.1309717319004
 31
0.0
210
0.0
220
1.0
230
0.0
  0
LINE
  5
2BC
330
1F
100
AcDbEntity
  8
PV-174
100
AcDbLine
 10
906.287028054713
 20
453.1309717319004
 30
0.0000000000000018
 11
896.287028054713
 21
453.1309717319004
 31
0.0
210
0.0
220
1.0
230
0.0
  0
LINE
  5
2BD
330
1F
100
AcDbEntity
  8
PV-174
100
AcDbLine
 10
906.287028054713
 20
383.1309717319005
 30
0.0000000000000018
 11
896.287028054713
 21
383.1309717319005
 31
0.0
210
0.0
220
1.0
230
0.0
  0
LINE
  5
2BE
330
1F
100
AcDbEntity
  8
PV-174
100
AcDbLine
 10
905.7870280547131
 20
1253.1309717319
 30
0.0000000000000077
 11
895.7870280547131
 21
1253.1309717319
 31
0.0000000000000059
210
0.0
220
1.0
230
0.0
  0
LINE
  5
2BF
330
1F
100
AcDbEntity
  8
PV-174
100
AcDbLine
 10
905.7870280547131
 20
1183.1309717319
 30
0.0000000000000077
 11
895.7870280547131
 21
1183.1309717319
 31
0.0000000000000059
210
0.0
220
1.0
230
0.0
  0
LINE
  5
2C0
330
1F
100
AcDbEntity
  8
PV-174
100
AcDbLine
 10
923.5870280547137
 20
1020.630971731922
 30
0.0000000000000087
 11
923.5870280547137
 21
1052.6309717319
 31
0.0000000000000087
210
0.0
220
1.0
230
0.0
  0
LINE
  5
2C1
330
1F
100
AcDbEntity
  8
PV-174
100
AcDbLine
 10
969.9870280547122
 20
949.3309717319224
 30
0.0000000000000172
 11
969.9870280547122
 21
1018.630971731922
 31
0.0000000000000172
210
0.0
220
1.0
230
0.0
  0
LINE
  5
2C2
330
1F
100
AcDbEntity
  8
PV-174
100
AcDbLine
 10
930.5870280547123
 20
949.3309717319224
 30
0.00000000000001
 11
930.5870280547123
 21
1018.630971731922
 31
0.00000000000001
210
0.0
220
1.0
230
0.0
  0
ARC
  5
2C3
330
1F
100
AcDbEntity
  8
PV-174
100
AcDbCircle
 10
883.9162116060728
 20
961.3995544765277
 30
0.0000000000000014
 40
119.9999999999995
100
AcDbArc
 50
11.07734021685537
 51
14.02230851986444
  0
ARC
  5
2C4
330
1F
100
AcDbEntity
  8
PV-174
100
AcDbCircle
 10
883.9162116060728
 20
961.3995544765277
 30
0.0000000000000014
 40
119.9999999999995
100
AcDbArc
 50
355.8231250330066
 51
358.9226597831435
  0
ARC
  5
2C5
330
1F
100
AcDbEntity
  8
PV-174
100
AcDbCircle
 10
1112.075246803296
 20
981.3608835372972
 30
0.0000000000000433
 40
120.0000000000005
100
AcDbArc
 50
191.0773402168553
 51
194.1768749669958
  0
ARC
  5
2C6
330
1F
100
AcDbEntity
  8
PV-174
100
AcDbCircle
 10
1112.075246803296
 20
981.3608835372972
 30
0.0000000000000433
 40
120.0000000000005
100
AcDbArc
 50
175.9776914801329
 51
178.9226597831435
  0
LINE
  5
2C7
330
1F
100
AcDbEntity
  8
PV-174
100
AcDbLine
 10
908.287028054713
 20
286.6309717319004
 30
0.0000000000000022
 11
921.287028054713
 21
286.6309717319004
 31
0.0000000000000046
210
0.0
220
1.0
230
0.0
  0
LINE
  5
2C8
330
1F
100
AcDbEntity
  8
PV-174
100
AcDbLine
 10
908.287028054713
 20
319.6309717319006
 30
0.0000000000000022
 11
921.287028054713
 21
319.6309717319006
 31
0.0000000000000046
210
0.0
220
1.0
230
0.0
  0
LINE
  5
2C9
330
1F
100
AcDbEntity
  8
PV-174
100
AcDbLine
 10
908.287028054713
 20
401.6309717319006
 30
0.0000000000000059
 11
933.2870280547131
 21
401.6309717319006
 31
0.0000000000000105
210
0.0
220
1.0
230
0.0
  0
LINE
  5
2CA
330
1F
100
AcDbEntity
  8
PV-174
100
AcDbLine
 10
908.2870280547131
 20
434.6309717319003
 30
0.0000000000000059
 11
933.2870280547131
 21
434.6309717319003
 31
0.0000000000000105
210
0.0
220
1.0
230
0.0
  0
LINE
  5
2CB
330
1F
100
AcDbEntity
  8
PV-174
100
AcDbLine
 10
966.2870280547132
 20
351.6309717319006
 30
0.0000000000000165
 11
966.2870280547132
 21
948.630971731923
 31
0.0000000000000165
210
0.0
220
1.0
230
0.0
  0
LINE
  5
2CC
330
1F
100
AcDbEntity
  8
PV-174
100
AcDbLine
 10
966.2870280547132
 20
1054.6309717319
 30
0.0000000000000165
 11
966.287028054713
 21
1169.6309717319
 31
0.0000000000000165
210
0.0
220
1.0
230
0.0
  0
LINE
  5
2CD
330
1F
100
AcDbEntity
  8
PV-174
100
AcDbLine
 10
933.2870280547131
 20
434.6309717319003
 30
0.0000000000000105
 11
933.2870280547131
 21
948.630971731923
 31
0.0000000000000105
210
0.0
220
1.0
230
0.0
  0
LINE
  5
2CE
330
1F
100
AcDbEntity
  8
PV-174
100
AcDbLine
 10
933.2870280547131
 20
1054.6309717319
 30
0.0000000000000105
 11
933.2870280547131
 21
1169.6309717319
 31
0.0000000000000105
210
0.0
220
1.0
230
0.0
  0
LINE
  5
2CF
330
1F
100
AcDbEntity
  8
PV-174
100
AcDbLine
 10
933.2870280547131
 20
351.6309717319006
 30
0.0000000000000105
 11
933.2870280547131
 21
401.6309717319006
 31
0.0000000000000105
210
0.0
220
1.0
230
0.0
  0
ARC
  5
2D2
330
1F
100
AcDbEntity
  8
PV-174
100
AcDbCircle
 10
906.287028054713
 20
270.1309717319004
 30
0.0000000000000018
 40
2.0
100
AcDbArc
 50
270.0
 51
0.0
  0
ARC
  5
2D3
330
1F
100
AcDbEntity
  8
PV-174
100
AcDbCircle
 10
906.287028054713
 20
336.1309717319004
 30
0.0000000000000018
 40
2.0
100
AcDbArc
 50
0.0
 51
90.0
  0
ARC
  5
2D4
330
1F
100
AcDbEntity
  8
PV-174
100
AcDbCircle
 10
906.287028054713
 20
385.1309717319005
 30
0.0000000000000018
 40
2.0
100
AcDbArc
 50
270.0
 51
0.0
  0
ARC
  5
2D5
330
1F
100
AcDbEntity
  8
PV-174
100
AcDbCircle
 10
906.287028054713
 20
451.1309717319004
 30
0.0000000000000018
 40
2.0
100
AcDbArc
 50
0.0
 51
90.0
  0
ARC
  5
2D6
330
1F
100
AcDbEntity
  8
PV-174
100
AcDbCircle
 10
905.7870280547131
 20
1185.1309717319
 30
0.0000000000000077
 40
2.0
100
AcDbArc
 50
270.0
 51
0.0
  0
ARC
  5
2D7
330
1F
100
AcDbEntity
  8
PV-174
100
AcDbCircle
 10
905.7870280547131
 20
1251.1309717319
 30
0.0000000000000077
 40
2.0
100
AcDbArc
 50
0.0
 51
90.0
  0
ARC
  5
2D8
330
1F
100
AcDbEntity
  8
PV-174
100
AcDbCircle
 10
925.5870280547137
 20
1020.630971731922
 30
0.0000000000000091
 40
1.999999999999998
100
AcDbArc
 50
180.0
 51
270.0
  0
ARC
  5
2D9
330
1F
100
AcDbEntity
  8
PV-174
100
AcDbCircle
 10
925.5870280547137
 20
1052.6309717319
 30
0.0000000000000091
 40
1.999999999999995
100
AcDbArc
 50
90.0
 51
180.0
  0
ARC
  5
2DA
330
1F
100
AcDbEntity
  8
PV-174
100
AcDbCircle
 10
931.287028054713
 20
949.3309717319224
 30
0.0000000000000101
 40
0.6999999999999319
100
AcDbArc
 50
180.0
 51
270.0
  0
ARC
  5
2DB
330
1F
100
AcDbEntity
  8
PV-174
100
AcDbCircle
 10
969.287028054712
 20
949.3309717319224
 30
0.0000000000000171
 40
0.6999999999999319
100
AcDbArc
 50
269.9999999999968
 51
0.0
  0
ARC
  5
2DC
330
1F
100
AcDbEntity
  8
PV-174
100
AcDbCircle
 10
999.6081104455154
 20
952.9506170922163
 30
0.0000000000000227
 40
4.000000000000071
100
AcDbArc
 50
194.1768749669958
 51
355.8231250330066
  0
LINE
  5
2DD
330
1F
100
AcDbEntity
  8
PV-174
100
AcDbLine
 10
933.2870280547131
 20
351.6309717319003
 30
0.0000000000000105
 11
933.2870280547131
 21
303.1309717319004
 31
0.0000000000000105
210
0.0
220
1.0
230
0.0
  0
LINE
  5
2DE
330
1F
100
AcDbEntity
  8
PV-174
100
AcDbLine
 10
966.2870280547132
 20
303.1309717319004
 30
0.0000000000000165
 11
966.2870280547132
 21
351.6309717319003
 31
0.0000000000000165
210
0.0
220
1.0
230
0.0
  0
LINE
  5
2DF
330
1F
100
AcDbEntity
  8
PV-174
100
AcDbLine
 10
908.287028054713
 20
286.6309717319004
 30
0.0000000000000059
 11
949.7870280547131
 21
286.6309717319004
 31
0.0000000000000135
210
0.0
220
1.0
230
0.0
  0
LINE
  5
2E0
330
1F
100
AcDbEntity
  8
PV-174
100
AcDbLine
 10
933.2870280547131
 20
319.6309717319006
 30
0.0000000000000105
 11
908.2870280547131
 21
319.6309717319006
 31
0.0000000000000059
210
0.0
220
1.0
230
0.0
  0
ARC
  5
2E1
330
1F
100
AcDbEntity
  8
PV-174
100
AcDbCircle
 10
900.787028054713
 20
1169.6309717319
 30
0.0000000000000105
 40
32.5
100
AcDbArc
 50
0.0
 51
77.56190718494484
  0
ARC
  5
2E2
330
1F
100
AcDbEntity
  8
PV-174
100
AcDbCircle
 10
900.787028054713
 20
1169.6309717319
 30
0.0000000000000105
 40
65.5
100
AcDbArc
 50
0.0
 51
83.8650708191994
  0
ARC
  5
2E3
330
1F
100
AcDbEntity
  8
PV-174
100
AcDbCircle
 10
285.7170280407134
 20
1218.6309717319
 30
-0.000000000000049
 40
16.5
100
AcDbArc
 50
0.0
 51
180.0
  0
LINE
  5
2E4
330
1F
100
AcDbEntity
  8
PV-174
100
AcDbLine
 10
273.8024448934254
 20
1169.6309717319
 30
-0.0000000000000505
 11
302.2170280407136
 21
1169.6309717319
 31
-0.000000000000047
210
0.0
220
1.0
230
0.0
  0
ARC
  5
2E5
330
1F
100
AcDbEntity
  8
PV-174
100
AcDbCircle
 10
742.7170280407133
 20
303.1309717319004
 30
0.0
 40
16.5
100
AcDbArc
 50
270.0
 51
0.0
  0
ARC
  5
2E6
330
1F
100
AcDbEntity
  8
PV-174
100
AcDbCircle
 10
742.7170280407133
 20
303.1309717319004
 30
0.0
 40
16.5
100
AcDbArc
 50
0.0
 51
90.0
  0
LINE
  5
2E7
330
1F
100
AcDbEntity
  8
PV-174
100
AcDbLine
 10
269.2170280407136
 20
1169.6309717319
 30
-0.000000000000051
 11
273.8024448934254
 21
1169.6309717319
 31
-0.0000000000000505
210
0.0
220
1.0
230
0.0
  0
LINE
  5
2E8
330
1F
100
AcDbEntity
  8
PV-174
100
AcDbLine
 10
227.8670280407151
 20
1055.630971731922
 30
-0.0000000000000561
 11
227.8670280407151
 21
1055.515477023136
 31
-0.0000000000000561
210
0.0
220
1.0
230
0.0
  0
LINE
  5
2E9
330
1F
100
AcDbEntity
  8
PV-174
100
AcDbLine
 10
227.8670280407151
 20
1055.515477023136
 30
-0.0000000000000561
 11
227.8670280407153
 21
1038.722731733964
 31
-0.0000000000000561
210
0.0
220
1.0
230
0.0
  0
LINE
  5
2EA
330
1F
100
AcDbEntity
  8
PV-174
100
AcDbLine
 10
227.8670280407151
 20
1038.722731733964
 30
-0.0000000000000561
 11
227.8670280407153
 21
1017.630971731922
 31
-0.0000000000000561
210
0.0
220
1.0
230
0.0
  0
LINE
  5
2EB
330
1F
100
AcDbEntity
  8
PV-174
100
AcDbLine
 10
253.3670280407151
 20
1050.773107355654
 30
-0.0000000000000529
 11
253.3670280407152
 21
1016.630971731923
 31
-0.0000000000000529
210
0.0
220
1.0
230
0.0
  0
LINE
  5
2EC
330
1F
100
AcDbEntity
  8
PV-174
100
AcDbLine
 10
253.3670280407151
 20
1056.630971731922
 30
-0.0000000000000529
 11
253.3670280407151
 21
1050.773107355653
 31
-0.0000000000000529
210
0.0
220
1.0
230
0.0
  0
ELLIPSE
  5
2ED
330
1F
100
AcDbEntity
  8
PV-174
100
AcDbEllipse
 10
286.2170280407133
 20
971.7994646491959
 30
-0.0000000000000489
 11
12.70449773839052
 21
0.0
 31
0.0000000000000016
210
-0.0000000000000001
220
0.0
230
1.0
 40
0.9961946980917455
 41
0.0
 42
6.283185307179585
  0
ELLIPSE
  5
2EE
330
1F
100
AcDbEntity
  8
PV-174
100
AcDbEllipse
 10
286.2170280407133
 20
971.7288419779029
 30
-0.0000000000000489
 11
-18.81828199961667
 21
0.0
 31
-0.0000000000000023
210
-0.0000000000000001
220
0.0
230
1.0
 40
0.9961946980917455
 41
-2.409769549797641
 42
-0.7318231037921505
  0
SPLINE
  5
2EF
330
1F
100
AcDbEntity
  8
PV-174
100
AcDbSpline
210
-0.0000000000000003
220
0.0
230
1.0
 70
     8
 71
     3
 72
    14
 73
    10
 74
     0
 42
0.000000001
 43
0.0000000001
 40
8.794524056531006
 40
8.794524056531006
 40
8.794524056531006
 40
8.794524056531006
 40
9.579456439527339
 40
9.579456439527339
 40
10.36438882252367
 40
10.36438882252367
 40
11.09774755945768
 40
11.09774755945768
 40
11.18149517898411
 40
11.18149517898411
 40
11.18149517898411
 40
11.18149517898411
 10
301.2170280407133
 20
986.4894259412073
 30
-0.0000000000000471
 10
301.2170280407133
 20
986.2800990325492
 30
-0.0000000000000471
 10
301.1863338089688
 20
986.049308477467
 30
-0.0000000000000471
 10
301.0681384167448
 20
985.580769799054
 30
-0.0000000000000471
 10
300.9813909951187
 20
985.3424478415488
 30
-0.0000000000000471
 10
300.8003717691618
 20
984.9150507559766
 30
-0.0000000000000471
 10
300.6910003543727
 20
984.6869387353184
 30
-0.0000000000000472
 10
300.5600121216256
 20
984.4298571202173
 30
-0.0000000000000472
 10
300.5464895736661
 20
984.4034733789033
 30
-0.0000000000000472
 10
300.5328969067331
 20
984.3770840828419
 30
-0.0000000000000472
  0
SPLINE
  5
2F0
330
1F
100
AcDbEntity
  8
PV-174
100
AcDbSpline
210
0.0
220
0.0
230
1.0
 70
     8
 71
     3
 72
    20
 73
    16
 74
     0
 42
0.000000001
 43
0.0000000001
 40
1.658125044755959
 40
1.658125044755959
 40
1.658125044755959
 40
1.658125044755959
 40
1.696828082632773
 40
1.696828082632773
 40
1.798652902623284
 40
1.798652902623284
 40
1.900477722613793
 40
1.900477722613793
 40
1.93829658602752
 40
1.93829658602752
 40
1.976115449441244
 40
1.976115449441244
 40
2.029036545889155
 40
2.029036545889155
 40
2.081957642337066
 40
2.081957642337066
 40
2.081957642337066
 40
2.081957642337066
 10
300.5328969067331
 20
984.3770840828419
 30
-0.0000000000000472
 10
300.5268474535615
 20
984.3653394552758
 30
-0.0000000000000472
 10
300.5205893142057
 20
984.3537619994586
 30
-0.0000000000000472
 10
300.4970551832784
 20
984.3126230548371
 30
-0.0000000000000472
 10
300.478643437067
 20
984.2846899368476
 30
-0.0000000000000472
 10
300.4368408197795
 20
984.235466002497
 30
-0.0000000000000472
 10
300.4140934986265
 20
984.2136402771101
 30
-0.0000000000000472
 10
300.3724279088146
 20
984.1948073288756
 30
-0.0000000000000472
 10
300.3594013487202
 20
984.1909180892919
 30
-0.0000000000000472
 10
300.3327983291361
 20
984.1884744999063
 30
-0.0000000000000472
 10
300.3192171275655
 20
984.1899608649235
 30
-0.0000000000000472
 10
300.290123663842
 20
984.1980030594049
 30
-0.0000000000000472
 10
300.2733359053068
 20
984.2068823480049
 30
-0.0000000000000472
 10
300.2427136038439
 20
984.2293247526058
 30
-0.0000000000000472
 10
300.2288158102118
 20
984.2428021876244
 30
-0.0000000000000472
 10
300.2170280407136
 20
984.2558759283585
 30
-0.0000000000000472
  0
SPLINE
  5
2F1
330
1F
100
AcDbEntity
  8
PV-174
100
AcDbSpline
210
-0.0000000000000005
220
-0.0000000000000004
230
1.0
 70
     8
 71
     3
 72
    20
 73
    16
 74
     0
 42
0.000000001
 43
0.0000000001
 40
-2.081957642337048
 40
-2.081957642337048
 40
-2.081957642337048
 40
-2.081957642337048
 40
-2.029036545889133
 40
-2.029036545889133
 40
-1.976115449441221
 40
-1.976115449441221
 40
-1.9382965860275
 40
-1.9382965860275
 40
-1.900477722613779
 40
-1.900477722613779
 40
-1.79865290262327
 40
-1.79865290262327
 40
-1.696828082632761
 40
-1.696828082632761
 40
-1.658125044755919
 40
-1.658125044755919
 40
-1.658125044755919
 40
-1.658125044755919
 10
272.2170280407135
 20
984.2558759283585
 30
-0.0000000000000506
 10
272.2052402712151
 20
984.2428021876244
 30
-0.0000000000000506
 10
272.191342477583
 20
984.2293247526058
 30
-0.0000000000000506
 10
272.16072017612
 20
984.2068823480049
 30
-0.0000000000000506
 10
272.1439324175851
 20
984.1980030594049
 30
-0.0000000000000506
 10
272.1148389538615
 20
984.1899608649235
 30
-0.0000000000000506
 10
272.1012577522909
 20
984.1884744999063
 30
-0.0000000000000507
 10
272.0746547327067
 20
984.1909180892919
 30
-0.0000000000000507
 10
272.0616281726123
 20
984.1948073288756
 30
-0.0000000000000507
 10
272.0199625828004
 20
984.2136402771101
 30
-0.0000000000000507
 10
271.9972152616473
 20
984.235466002497
 30
-0.0000000000000507
 10
271.95541264436
 20
984.2846899368476
 30
-0.0000000000000507
 10
271.9370008981484
 20
984.3126230548371
 30
-0.0000000000000507
 10
271.9134667672213
 20
984.3537619994586
 30
-0.0000000000000507
 10
271.9072086278654
 20
984.3653394552758
 30
-0.0000000000000507
 10
271.9011591746938
 20
984.3770840828419
 30
-0.0000000000000507
  0
SPLINE
  5
2F2
330
1F
100
AcDbEntity
  8
PV-174
100
AcDbSpline
210
0.0000000000000004
220
0.0000000000000002
230
1.0
 70
     8
 71
     3
 72
    14
 73
    10
 74
     0
 42
0.000000001
 43
0.0000000001
 40
0.649611117407552
 40
0.649611117407552
 40
0.649611117407552
 40
0.649611117407552
 40
0.7333587369340008
 40
0.7333587369340008
 40
1.466717473868001
 40
1.466717473868001
 40
2.251649856864295
 40
2.251649856864295
 40
3.036582239860591
 40
3.036582239860591
 40
3.036582239860591
 40
3.036582239860591
 10
271.9011591746938
 20
984.3770840828419
 30
-0.0000000000000507
 10
271.8875665077608
 20
984.4034733789033
 30
-0.0000000000000507
 10
271.8740439598013
 20
984.4298571202173
 30
-0.0000000000000507
 10
271.7430557270542
 20
984.6869387353184
 30
-0.0000000000000507
 10
271.6336843122651
 20
984.9150507559766
 30
-0.0000000000000507
 10
271.4526650863082
 20
985.3424478415488
 30
-0.0000000000000507
 10
271.3659176646821
 20
985.5807697990545
 30
-0.0000000000000507
 10
271.2477222724581
 20
986.049308477467
 30
-0.0000000000000508
 10
271.2170280407133
 20
986.2800990325492
 30
-0.0000000000000508
 10
271.2170280407133
 20
986.4894259412073
 30
-0.0000000000000508
  0
LINE
  5
2F3
330
1F
100
AcDbEntity
  8
PV-174
100
AcDbLine
 10
271.2170280407133
 20
1017.193941285533
 30
-0.0000000000000508
 11
271.2170280407133
 21
986.4894259412073
 31
-0.0000000000000508
210
0.0
220
1.0
230
0.0
  0
LINE
  5
2F4
330
1F
100
AcDbEntity
  8
PV-174
100
AcDbLine
 10
301.2170280407133
 20
1017.193941285533
 30
-0.0000000000000471
 11
301.2170280407133
 21
986.4894259412073
 31
-0.0000000000000471
210
0.0
220
1.0
230
0.0
  0
LINE
  5
2F5
330
1F
100
AcDbEntity
  8
PV-174
100
AcDbLine
 10
300.2170280407136
 20
1017.458222222938
 30
-0.0000000000000472
 11
272.2170280407135
 21
1017.458222222938
 31
-0.0000000000000506
210
0.0
220
1.0
230
0.0
  0
SPLINE
  5
2F6
330
1F
100
AcDbEntity
  8
PV-174
100
AcDbSpline
210
-0.0000000000000001
220
-0.0000000000000003
230
1.0
 70
     8
 71
     3
 72
    14
 73
    10
 74
     0
 42
0.000000001
 43
0.0000000001
 40
0.0
 40
0.0
 40
0.0
 40
0.0
 40
0.3766543382939877
 40
0.3766543382939877
 40
0.7533086765879756
 40
0.7533086765879756
 40
1.135751222155823
 40
1.135751222155823
 40
1.51819376772367
 40
1.51819376772367
 40
1.51819376772367
 40
1.51819376772367
 10
272.2170280407135
 20
1017.458222222938
 30
-0.0000000000000506
 10
272.0914765946155
 20
1017.458222222938
 30
-0.0000000000000507
 10
271.9577539603414
 20
1017.450879351671
 30
-0.0000000000000507
 10
271.7121749521107
 20
1017.421792227707
 30
-0.0000000000000507
 10
271.6003054814178
 20
1017.400125028179
 30
-0.0000000000000507
 10
271.4224178905356
 20
1017.351467265938
 30
-0.0000000000000507
 10
271.3449827696036
 20
1017.321110076082
 30
-0.0000000000000507
 10
271.2422874824292
 20
1017.257331560063
 30
-0.0000000000000508
 10
271.2170280407133
 20
1017.223975607834
 30
-0.0000000000000508
 10
271.2170280407133
 20
1017.193941285533
 30
-0.0000000000000508
  0
SPLINE
  5
2F7
330
1F
100
AcDbEntity
  8
PV-174
100
AcDbSpline
210
-0.0000000000000002
220
-0.0000000000000004
230
1.0
 70
     8
 71
     3
 72
    14
 73
    10
 74
     0
 42
0.000000001
 43
0.0000000001
 40
-1.51819376772367
 40
-1.51819376772367
 40
-1.51819376772367
 40
-1.51819376772367
 40
-1.135751222155821
 40
-1.135751222155821
 40
-0.7533086765879721
 40
-0.7533086765879721
 40
-0.376654338293986
 40
-0.376654338293986
 40
0.0
 40
0.0
 40
0.0
 40
0.0
 10
301.2170280407133
 20
1017.193941285533
 30
-0.0000000000000471
 10
301.2170280407133
 20
1017.223975607834
 30
-0.0000000000000471
 10
301.1917685989977
 20
1017.257331560063
 30
-0.0000000000000471
 10
301.0890733118234
 20
1017.321110076082
 30
-0.0000000000000471
 10
301.0116381908915
 20
1017.351467265938
 30
-0.0000000000000471
 10
300.8337506000091
 20
1017.400125028179
 30
-0.0000000000000471
 10
300.7218811293162
 20
1017.421792227707
 30
-0.0000000000000471
 10
300.4763021210854
 20
1017.450879351671
 30
-0.0000000000000472
 10
300.3425794868114
 20
1017.458222222938
 30
-0.0000000000000472
 10
300.2170280407136
 20
1017.458222222938
 30
-0.0000000000000472
  0
LINE
  5
2F8
330
1F
100
AcDbEntity
  8
PV-174
100
AcDbLine
 10
303.7170280407134
 20
1016.630949187596
 30
-0.0000000000000468
 11
303.7170280407134
 21
1056.630994276249
 31
-0.0000000000000468
210
0.0
220
1.0
230
0.0
  0
LINE
  5
2F9
330
1F
100
AcDbEntity
  8
PV-174
100
AcDbLine
 10
310.2170280407133
 20
1036.630971731923
 30
-0.000000000000046
 11
310.2170280407133
 21
1016.630971731923
 31
-0.000000000000046
210
0.0
220
1.0
230
0.0
  0
LINE
  5
2FA
330
1F
100
AcDbEntity
  8
PV-174
100
AcDbLine
 10
310.2170280407133
 20
1056.630971731922
 30
-0.000000000000046
 11
310.2170280407133
 21
1036.630971731922
 31
-0.000000000000046
210
0.0
220
1.0
230
0.0
  0
LINE
  5
2FB
330
1F
100
AcDbEntity
  8
PV-174
100
AcDbLine
 10
268.7170280407134
 20
1056.630994276249
 30
-0.0000000000000511
 11
268.7170280407134
 21
1016.630949187596
 31
-0.0000000000000511
210
0.0
220
1.0
230
0.0
  0
LINE
  5
2FC
330
1F
100
AcDbEntity
  8
PV-174
100
AcDbLine
 10
262.2170280407133
 20
1036.630971731923
 30
-0.0000000000000519
 11
262.2170280407133
 21
1016.630971731923
 31
-0.0000000000000519
210
0.0
220
1.0
230
0.0
  0
LINE
  5
2FD
330
1F
100
AcDbEntity
  8
PV-174
100
AcDbLine
 10
262.2170280407133
 20
1056.630971731922
 30
-0.0000000000000519
 11
262.2170280407133
 21
1036.630971731922
 31
-0.0000000000000519
210
0.0
220
1.0
230
0.0
  0
LINE
  5
2FE
330
1F
100
AcDbEntity
  8
PV-174
100
AcDbLine
 10
305.217028040712
 20
948.6309717319228
 30
-0.0000000000000466
 11
267.217028040713
 21
948.6309717319228
 31
-0.0000000000000512
210
0.0
220
1.0
230
0.0
  0
LINE
  5
2FF
330
1F
100
AcDbEntity
  8
PV-174
100
AcDbLine
 10
318.9170280407133
 20
1036.63097173191
 30
-0.0000000000000449
 11
318.9170280407133
 21
1016.63097173191
 31
-0.0000000000000449
210
0.0
220
1.0
230
0.0
  0
LINE
  5
300
330
1F
100
AcDbEntity
  8
PV-174
100
AcDbLine
 10
318.9170280407133
 20
1056.63097173191
 30
-0.0000000000000449
 11
318.9170280407133
 21
1036.63097173191
 31
-0.0000000000000449
210
0.0
220
1.0
230
0.0
  0
LINE
  5
301
330
1F
100
AcDbEntity
  8
PV-174
100
AcDbLine
 10
310.4170280407132
 20
1016.63097173191
 30
-0.000000000000046
 11
310.4170280407132
 21
1056.63097173191
 31
-0.000000000000046
210
0.0
220
1.0
230
0.0
  0
LINE
  5
302
330
1F
100
AcDbEntity
  8
PV-174
100
AcDbLine
 10
262.0170280407136
 20
1054.6309717319
 30
-0.0000000000000519
 11
262.2170280407133
 21
1054.6309717319
 31
-0.0000000000000519
210
0.0
220
1.0
230
0.0
  0
LINE
  5
303
330
1F
100
AcDbEntity
  8
PV-174
100
AcDbLine
 10
310.2170280407133
 20
1054.6309717319
 30
-0.000000000000046
 11
310.4170280407132
 21
1054.6309717319
 31
-0.000000000000046
210
0.0
220
1.0
230
0.0
  0
LINE
  5
304
330
1F
100
AcDbEntity
  8
PV-174
100
AcDbLine
 10
310.4170280407128
 20
1051.9309717319
 30
-0.000000000000046
 11
310.2170280407133
 21
1051.9309717319
 31
-0.000000000000046
210
0.0
220
1.0
230
0.0
  0
LINE
  5
305
330
1F
100
AcDbEntity
  8
PV-174
100
AcDbLine
 10
262.2170280407133
 20
1051.9309717319
 30
-0.0000000000000519
 11
262.0170280407141
 21
1051.9309717319
 31
-0.0000000000000519
210
0.0
220
1.0
230
0.0
  0
LINE
  5
306
330
1F
100
AcDbEntity
  8
PV-174
100
AcDbLine
 10
262.0170280407141
 20
1021.330971731922
 30
-0.0000000000000519
 11
262.2170280407133
 21
1021.330971731922
 31
-0.0000000000000519
210
0.0
220
1.0
230
0.0
  0
LINE
  5
307
330
1F
100
AcDbEntity
  8
PV-174
100
AcDbLine
 10
310.2170280407133
 20
1021.330971731922
 30
-0.000000000000046
 11
310.4170280407128
 21
1021.330971731922
 31
-0.000000000000046
210
0.0
220
1.0
230
0.0
  0
LINE
  5
308
330
1F
100
AcDbEntity
  8
PV-174
100
AcDbLine
 10
310.4170280407132
 20
1018.630971731922
 30
-0.000000000000046
 11
310.2170280407133
 21
1018.630971731922
 31
-0.000000000000046
210
0.0
220
1.0
230
0.0
  0
LINE
  5
309
330
1F
100
AcDbEntity
  8
PV-174
100
AcDbLine
 10
262.2170280407133
 20
1018.630971731922
 30
-0.0000000000000519
 11
262.0170280407136
 21
1018.630971731922
 31
-0.0000000000000519
210
0.0
220
1.0
230
0.0
  0
LINE
  5
30A
330
1F
100
AcDbEntity
  8
PV-174
100
AcDbLine
 10
253.5170280407136
 20
1036.63097173191
 30
-0.0000000000000529
 11
253.5170280407136
 21
1016.63097173191
 31
-0.0000000000000529
210
0.0
220
1.0
230
0.0
  0
LINE
  5
30B
330
1F
100
AcDbEntity
  8
PV-174
100
AcDbLine
 10
253.5170280407136
 20
1056.63097173191
 30
-0.0000000000000529
 11
253.5170280407136
 21
1036.63097173191
 31
-0.0000000000000529
210
0.0
220
1.0
230
0.0
  0
LINE
  5
30C
330
1F
100
AcDbEntity
  8
PV-174
100
AcDbLine
 10
262.0170280407136
 20
1016.63097173191
 30
-0.0000000000000519
 11
262.0170280407136
 21
1056.63097173191
 31
-0.0000000000000519
210
0.0
220
1.0
230
0.0
  0
LINE
  5
30D
330
1F
100
AcDbEntity
  8
PV-174
100
AcDbLine
 10
321.0670280407135
 20
1054.630971731922
 30
-0.0000000000000447
 11
321.0670280407133
 21
1018.630971731922
 31
-0.0000000000000447
210
0.0
220
1.0
230
0.0
  0
LINE
  5
30E
330
1F
100
AcDbEntity
  8
PV-174
100
AcDbLine
 10
319.0670280407135
 20
1056.630971731922
 30
-0.0000000000000449
 11
319.0670280407133
 21
1016.630971731922
 31
-0.0000000000000449
210
0.0
220
1.0
230
0.0
  0
LINE
  5
30F
330
1F
100
AcDbEntity
  8
PV-174
100
AcDbLine
 10
262.0170280407136
 20
1030.974117482431
 30
-0.0000000000000519
 11
262.2170280407133
 21
1030.974117482431
 31
-0.0000000000000519
210
0.0
220
1.0
230
0.0
  0
LINE
  5
310
330
1F
100
AcDbEntity
  8
PV-174
100
AcDbLine
 10
262.0170280407136
 20
1030.835416774188
 30
-0.0000000000000519
 11
262.2170280407133
 21
1030.835416774188
 31
-0.0000000000000519
210
0.0
220
1.0
230
0.0
  0
LINE
  5
311
330
1F
100
AcDbEntity
  8
PV-174
100
AcDbLine
 10
262.2170280407133
 20
1028.903565121611
 30
-0.0000000000000519
 11
262.0170280407136
 21
1028.903565121611
 31
-0.0000000000000519
210
0.0
220
1.0
230
0.0
  0
ARC
  5
312
330
1F
100
AcDbEntity
  8
PV-174
100
AcDbCircle
 10
285.7170280407135
 20
1218.1309717319
 30
0.0
 40
35.0
100
AcDbArc
 50
299.059281068039
 51
180.0
  0
ARC
  5
313
330
1F
100
AcDbEntity
  8
PV-174
100
AcDbCircle
 10
285.7170280407135
 20
1218.1309717319
 30
0.0
 40
35.0
100
AcDbArc
 50
180.0
 51
242.797105587782
  0
ARC
  5
316
330
1F
100
AcDbEntity
  8
PV-174
100
AcDbCircle
 10
285.7170280407134
 20
418.1309717319004
 30
-0.000000000000049
 40
35.0
100
AcDbArc
 50
118.1270682186058
 51
180.0
  0
ARC
  5
317
330
1F
100
AcDbEntity
  8
PV-174
100
AcDbCircle
 10
285.7170280407134
 20
418.1309717319004
 30
-0.000000000000049
 40
35.0
100
AcDbArc
 50
298.1270682186058
 51
61.87293178139418
  0
ARC
  5
318
330
1F
100
AcDbEntity
  8
PV-174
100
AcDbCircle
 10
285.7170280407134
 20
418.1309717319004
 30
-0.000000000000049
 40
35.0
100
AcDbArc
 50
180.0
 51
241.8729317813942
  0
ARC
  5
319
330
1F
100
AcDbEntity
  8
PV-174
100
AcDbCircle
 10
285.7170280407134
 20
418.1309717319004
 30
-0.000000000000049
 40
16.8
100
AcDbArc
 50
169.1559374363057
 51
180.0
  0
ARC
  5
31A
330
1F
100
AcDbEntity
  8
PV-174
100
AcDbCircle
 10
285.7170280407134
 20
418.1309717319004
 30
-0.000000000000049
 40
16.8
100
AcDbArc
 50
349.1559374363057
 51
10.84406256369426
  0
ARC
  5
31B
330
1F
100
AcDbEntity
  8
PV-174
100
AcDbCircle
 10
285.7170280407134
 20
418.1309717319004
 30
-0.000000000000049
 40
16.8
100
AcDbArc
 50
180.0
 51
190.8440625636942
  0
ARC
  5
31C
330
1F
100
AcDbEntity
  8
PV-174
100
AcDbCircle
 10
742.7170280407133
 20
303.1309717319004
 30
0.0
 40
35.0
100
AcDbArc
 50
208.1270682186029
 51
151.8729317813971
  0
ARC
  5
31D
330
1F
100
AcDbEntity
  8
PV-174
100
AcDbCircle
 10
742.7170280407133
 20
303.1309717319004
 30
0.0
 40
16.8
100
AcDbArc
 50
259.1559374363026
 51
100.8440625636941
  0
LINE
  5
31E
330
1F
100
AcDbEntity
  8
PV-174
100
AcDbLine
 10
310.2170280407136
 20
1028.630971731923
 30
-0.000000000000046
 11
310.4170280407132
 21
1028.630971731923
 31
-0.000000000000046
210
0.0
220
1.0
230
0.0
  0
LINE
  5
31F
330
1F
100
AcDbEntity
  8
PV-174
100
AcDbLine
 10
262.0170280407136
 20
1028.630971731923
 30
-0.0000000000000519
 11
262.2170280407133
 21
1028.630971731923
 31
-0.0000000000000519
210
0.0
220
1.0
230
0.0
  0
LINE
  5
320
330
1F
100
AcDbEntity
  8
PV-174
100
AcDbLine
 10
310.2170280407133
 20
1044.630971731922
 30
-0.000000000000046
 11
310.4170280407132
 21
1044.630971731922
 31
-0.000000000000046
210
0.0
220
1.0
230
0.0
  0
LINE
  5
321
330
1F
100
AcDbEntity
  8
PV-174
100
AcDbLine
 10
262.0170280407136
 20
1044.630971731922
 30
-0.0000000000000519
 11
262.2170280407133
 21
1044.630971731922
 31
-0.0000000000000519
210
0.0
220
1.0
230
0.0
  0
LINE
  5
322
330
1F
100
AcDbEntity
  8
PV-174
100
AcDbLine
 10
318.9170280407133
 20
1019.230971731922
 30
-0.0000000000000449
 11
319.0670280407133
 21
1019.230971731922
 31
-0.0000000000000449
210
0.0
220
1.0
230
0.0
  0
LINE
  5
323
330
1F
100
AcDbEntity
  8
PV-174
100
AcDbLine
 10
318.9170280407133
 20
1054.030971731923
 30
-0.0000000000000449
 11
319.0670280407135
 21
1054.030971731923
 31
-0.0000000000000449
210
0.0
220
1.0
230
0.0
  0
LINE
  5
324
330
1F
100
AcDbEntity
  8
PV-174
100
AcDbLine
 10
262.0170280407136
 20
1056.63097173191
 30
-0.0000000000000519
 11
253.5170280407136
 21
1056.63097173191
 31
-0.0000000000000529
210
0.0
220
1.0
230
0.0
  0
LINE
  5
325
330
1F
100
AcDbEntity
  8
PV-174
100
AcDbLine
 10
262.0170280407136
 20
1016.63097173191
 30
-0.0000000000000519
 11
253.5170280407136
 21
1016.63097173191
 31
-0.0000000000000529
210
0.0
220
1.0
230
0.0
  0
LINE
  5
326
330
1F
100
AcDbEntity
  8
PV-174
100
AcDbLine
 10
318.9170280407133
 20
1056.63097173191
 30
-0.0000000000000449
 11
310.4170280407132
 21
1056.63097173191
 31
-0.000000000000046
210
0.0
220
1.0
230
0.0
  0
LINE
  5
327
330
1F
100
AcDbEntity
  8
PV-174
100
AcDbLine
 10
318.9170280407133
 20
1016.63097173191
 30
-0.0000000000000449
 11
310.4170280407132
 21
1016.63097173191
 31
-0.000000000000046
210
0.0
220
1.0
230
0.0
  0
LINE
  5
328
330
1F
100
AcDbEntity
  8
PV-174
100
AcDbLine
 10
305.9170280407124
 20
949.3309717319222
 30
-0.0000000000000465
 11
305.9170280407125
 21
960.5440781153433
 31
-0.0000000000000465
210
0.0
220
1.0
230
0.0
  0
LINE
  5
329
330
1F
100
AcDbEntity
  8
PV-174
100
AcDbLine
 10
305.9170280407126
 20
982.2163598984834
 30
-0.0000000000000465
 11
305.9170280407129
 21
1016.630971731923
 31
-0.0000000000000465
210
0.0
220
1.0
230
0.0
  0
LINE
  5
32A
330
1F
100
AcDbEntity
  8
PV-174
100
AcDbLine
 10
266.5170280407127
 20
949.3309717319224
 30
-0.0000000000000513
 11
266.5170280407128
 21
960.5440781153467
 31
-0.0000000000000513
210
0.0
220
1.0
230
0.0
  0
LINE
  5
32B
330
1F
100
AcDbEntity
  8
PV-174
100
AcDbLine
 10
266.5170280407129
 20
982.2163598984811
 30
-0.0000000000000513
 11
266.5170280407133
 21
1016.630971731923
 31
-0.0000000000000513
210
0.0
220
1.0
230
0.0
  0
LINE
  5
32C
330
1F
100
AcDbEntity
  8
PV-174
100
AcDbLine
 10
268.7170280407134
 20
1056.630971731922
 30
-0.0000000000000511
 11
262.2170280407133
 21
1056.630971731922
 31
-0.0000000000000519
210
0.0
220
1.0
230
0.0
  0
LINE
  5
32D
330
1F
100
AcDbEntity
  8
PV-174
100
AcDbLine
 10
268.7170280407134
 20
1016.630971731923
 30
-0.0000000000000511
 11
262.2170280407133
 21
1016.630971731923
 31
-0.0000000000000519
210
0.0
220
1.0
230
0.0
  0
LINE
  5
32E
330
1F
100
AcDbEntity
  8
PV-174
100
AcDbLine
 10
310.2170280407133
 20
1056.630971731922
 30
-0.000000000000046
 11
303.7170280407134
 21
1056.630971731922
 31
-0.0000000000000468
210
0.0
220
1.0
230
0.0
  0
LINE
  5
32F
330
1F
100
AcDbEntity
  8
PV-174
100
AcDbLine
 10
310.2170280407133
 20
1016.630971731923
 30
-0.000000000000046
 11
303.7170280407134
 21
1016.630971731923
 31
-0.0000000000000468
210
0.0
220
1.0
230
0.0
  0
LINE
  5
330
330
1F
100
AcDbEntity
  8
PV-174
100
AcDbLine
 10
303.7170280407134
 20
1056.630994276249
 30
-0.0000000000000468
 11
268.7170280407134
 21
1056.630994276249
 31
-0.0000000000000511
210
0.0
220
1.0
230
0.0
  0
LINE
  5
331
330
1F
100
AcDbEntity
  8
PV-174
100
AcDbLine
 10
271.2170280407133
 20
1016.630949187596
 30
-0.0000000000000508
 11
268.7170280407134
 21
1016.630949187596
 31
-0.0000000000000511
210
0.0
220
1.0
230
0.0
  0
LINE
  5
332
330
1F
100
AcDbEntity
  8
PV-174
100
AcDbLine
 10
303.7170280407134
 20
1016.630949187596
 30
-0.0000000000000468
 11
301.2170280407133
 21
1016.630949187596
 31
-0.0000000000000471
210
0.0
220
1.0
230
0.0
  0
LINE
  5
333
330
1F
100
AcDbEntity
  8
PV-174
100
AcDbLine
 10
228.8670280407152
 20
1016.630971731923
 30
-0.0000000000000559
 11
253.3670280407152
 21
1016.630971731923
 31
-0.0000000000000529
210
0.0
220
1.0
230
0.0
  0
LINE
  5
334
330
1F
100
AcDbEntity
  8
PV-174
100
AcDbLine
 10
228.8670280407151
 20
1056.630971731922
 30
-0.0000000000000559
 11
253.3670280407151
 21
1056.630971731922
 31
-0.0000000000000529
210
0.0
220
1.0
230
0.0
  0
LINE
  5
335
330
1F
100
AcDbEntity
  8
PV-174
100
AcDbLine
 10
232.1888419781991
 20
1043.099170267443
 30
-0.0000000000000555
 11
231.5362668562578
 21
1043.099170267443
 31
-0.0000000000000556
210
0.0
220
1.0
230
0.0
  0
LINE
  5
336
330
1F
100
AcDbEntity
  8
PV-174
100
AcDbLine
 10
253.3670280407152
 20
1019.230971731923
 30
-0.0000000000000529
 11
253.5170280407136
 21
1019.230971731923
 31
-0.0000000000000529
210
0.0
220
1.0
230
0.0
  0
LINE
  5
337
330
1F
100
AcDbEntity
  8
PV-174
100
AcDbLine
 10
253.3670280407151
 20
1054.030971731923
 30
-0.0000000000000529
 11
253.5170280407136
 21
1054.030971731923
 31
-0.0000000000000529
210
0.0
220
1.0
230
0.0
  0
LINE
  5
338
330
1F
100
AcDbEntity
  8
PV-174
100
AcDbLine
 10
711.850379372612
 20
319.6309717319006
 30
-0.0000000000000038
 11
334.2170280407133
 21
319.6309717319006
 31
-0.000000000000043
210
0.0
220
1.0
230
0.0
  0
LINE
  5
339
330
1F
100
AcDbEntity
  8
PV-174
100
AcDbLine
 10
694.2170280407134
 20
286.6309717319004
 30
-0.0000000000000059
 11
334.2170280407133
 21
286.6309717319004
 31
-0.000000000000043
210
0.0
220
1.0
230
0.0
  0
LINE
  5
33A
330
1F
100
AcDbEntity
  8
PV-174
100
AcDbLine
 10
302.2170280407136
 20
351.6309717319006
 30
-0.000000000000047
 11
302.2170280407136
 21
948.6309717319226
 31
-0.000000000000047
210
0.0
220
1.0
230
0.0
  0
LINE
  5
33B
330
1F
100
AcDbEntity
  8
PV-174
100
AcDbLine
 10
302.2170280407136
 20
1056.630994276249
 30
-0.000000000000047
 11
302.2170280407136
 21
1218.6309717319
 31
-0.000000000000047
210
0.0
220
1.0
230
0.0
  0
LINE
  5
33C
330
1F
100
AcDbEntity
  8
PV-174
100
AcDbLine
 10
269.2170280407133
 20
351.6309717319006
 30
-0.000000000000051
 11
269.2170280407133
 21
948.630971731923
 31
-0.000000000000051
210
0.0
220
1.0
230
0.0
  0
LINE
  5
33D
330
1F
100
AcDbEntity
  8
PV-174
100
AcDbLine
 10
269.2170280407133
 20
1056.630994276249
 30
-0.000000000000051
 11
269.2170280407133
 21
1218.6309717319
 31
-0.000000000000051
210
0.0
220
1.0
230
0.0
  0
ARC
  5
33E
330
1F
100
AcDbEntity
  8
PV-174
100
AcDbCircle
 10
319.0670280407135
 20
1054.630971731922
 30
-0.0000000000000449
 40
1.999999999999998
100
AcDbArc
 50
0.0
 51
90.0
  0
ARC
  5
33F
330
1F
100
AcDbEntity
  8
PV-174
100
AcDbCircle
 10
319.0670280407133
 20
1018.630971731922
 30
-0.0000000000000449
 40
1.999999999999998
100
AcDbArc
 50
270.0
 51
0.0
  0
ARC
  5
340
330
1F
100
AcDbEntity
  8
PV-174
100
AcDbCircle
 10
267.217028040713
 20
949.3309717319224
 30
-0.0000000000000512
 40
0.6999999999999319
100
AcDbArc
 50
179.9999999999935
 51
270.0
  0
ARC
  5
341
330
1F
100
AcDbEntity
  8
PV-174
100
AcDbCircle
 10
305.217028040712
 20
949.3309717319224
 30
-0.0000000000000466
 40
0.6999999999999319
100
AcDbArc
 50
270.0
 51
0.0
  0
SPLINE
  5
342
330
1F
100
AcDbEntity
  8
PV-174
100
AcDbSpline
210
-0.0000000000000001
220
0.0
230
1.0
 70
     8
 71
     3
 72
    35
 73
    31
 74
     0
 42
0.000000001
 43
0.0000000001
 40
132.3072857087945
 40
132.3072857087945
 40
132.3072857087945
 40
132.3072857087945
 40
136.7855331456034
 40
136.7855331456034
 40
141.7555702341805
 40
141.7555702341805
 40
141.7555702341805
 40
150.5350853176014
 40
150.5350853176014
 40
159.3158069937373
 40
159.3158069937373
 40
168.101503115555
 40
168.101503115555
 40
176.8930034281827
 40
176.8930034281827
 40
185.6877688664843
 40
185.6877688664843
 40
194.4814480186283
 40
194.4814480186283
 40
203.2703476028081
 40
203.2703476028081
 40
212.0534605094507
 40
212.0534605094507
 40
220.8330910535007
 40
220.8330910535007
 40
229.6136189378028
 40
229.6136189378028
 40
238.398942885138
 40
238.398942885138
 40
241.1243396664151
 40
241.1243396664151
 40
241.1243396664151
 40
241.1243396664151
 10
271.217028049854
 20
988.0982650945689
 30
-0.0000000000000508
 10
270.104728895874
 20
987.1065077942846
 30
-0.0000000000000509
 10
269.0937904517637
 20
986.006561667828
 30
-0.000000000000051
 10
267.2067553708703
 20
983.4915398960436
 30
-0.0000000000000513
 10
266.3637321261572
 20
982.0632169348927
 30
-0.0000000000000514
 10
265.685718353515
 20
980.55552204501
 30
-0.0000000000000514
 10
264.4880145864022
 20
977.8921958381808
 30
-0.0000000000000516
 10
263.8231805572918
 20
975.021126763141
 30
-0.0000000000000517
 10
263.6342766611063
 20
969.1858257525744
 30
-0.0000000000000517
 10
264.112176729968
 20
966.2775668126043
 30
-0.0000000000000516
 10
266.1593099862342
 20
960.805721895047
 30
-0.0000000000000514
 10
267.7095145320158
 20
958.2948301635047
 30
-0.0000000000000512
 10
271.6889351345261
 20
954.0055272694234
 30
-0.0000000000000507
 10
274.0806153487854
 20
952.2686756657646
 30
-0.0000000000000504
 10
279.3977743534866
 20
949.8066734958312
 30
-0.0000000000000498
 10
282.2726652031254
 20
949.1054104997486
 30
-0.0000000000000494
 10
288.1296116118268
 20
948.8415714786963
 30
-0.0000000000000487
 10
291.0558244621277
 20
949.2813697110292
 30
-0.0000000000000483
 10
296.5728262572387
 20
951.2544858185144
 30
-0.0000000000000477
 10
299.1112062910938
 20
952.7684030485719
 30
-0.0000000000000473
 10
303.4617144156608
 20
956.6802760405181
 30
-0.0000000000000468
 10
305.2327657284275
 20
959.0402929365003
 30
-0.0000000000000466
 10
307.7676704729939
 20
964.3036770606176
 30
-0.0000000000000463
 10
308.5076441515229
 20
967.1564310422972
 30
-0.0000000000000462
 10
308.8496397815914
 20
972.9847548639323
 30
-0.0000000000000462
 10
308.448263099809
 20
975.904422675617
 30
-0.0000000000000462
 10
306.5455465839765
 20
981.4276599050394
 30
-0.0000000000000464
 10
305.0618681143495
 20
983.9780614416463
 30
-0.0000000000000466
 10
302.5305308280328
 20
986.8540789908136
 30
-0.0000000000000469
 10
301.8915996598076
 20
987.4967950964167
 30
-0.000000000000047
 10
301.2170244164644
 20
988.0982610366167
 30
-0.0000000000000471
  0
SPLINE
  5
343
330
1F
100
AcDbEntity
  8
PV-174
100
AcDbSpline
210
-0.0000000000000055
220
-0.0000000000000074
230
1.0
 70
     8
 71
     3
 72
    24
 73
    20
 74
     0
 42
0.000000001
 43
0.0000000001
 40
0.0
 40
0.0
 40
0.0
 40
0.0
 40
0.0069048149749769
 40
0.0069048149749769
 40
0.0247659649317762
 40
0.0247659649317762
 40
0.0545552763944881
 40
0.0545552763944881
 40
0.0643559091378874
 40
0.0643559091378874
 40
0.0859949234863203
 40
0.0859949234863203
 40
0.1473005450050084
 40
0.1473005450050084
 40
0.1844538307831443
 40
0.1844538307831443
 40
0.2059422517223871
 40
0.2059422517223871
 40
0.2061965395260138
 40
0.2061965395260138
 40
0.2061965395260138
 40
0.2061965395260138
 10
232.8352646764383
 20
1042.897561321985
 30
-0.0000000000000555
 10
232.8371530001144
 20
1042.896599403474
 30
-0.0000000000000555
 10
232.8390367387012
 20
1042.895630773101
 30
-0.0000000000000555
 10
232.8457767517392
 20
1042.892132627089
 30
-0.0000000000000555
 10
232.8506069378988
 20
1042.889565130586
 30
-0.0000000000000555
 10
232.8634110133746
 20
1042.882598341472
 30
-0.0000000000000555
 10
232.8713298151131
 20
1042.878120974188
 30
-0.0000000000000555
 10
232.8817411533744
 20
1042.872012303205
 30
-0.0000000000000555
 10
232.8843092558415
 20
1042.870487239007
 30
-0.0000000000000555
 10
232.8925180071063
 20
1042.86555407284
 30
-0.0000000000000555
 10
232.898122552726
 20
1042.862096857621
 30
-0.0000000000000555
 10
232.9194350476576
 20
1042.848611606924
 30
-0.0000000000000554
 10
232.934817382877
 20
1042.838164275597
 30
-0.0000000000000554
 10
232.9589768637409
 20
1042.820644771948
 30
-0.0000000000000554
 10
232.9679620956887
 20
1042.813869263664
 30
-0.0000000000000554
 10
232.9819502425528
 20
1042.802921909879
 30
-0.0000000000000554
 10
232.9870336104356
 20
1042.798857785874
 30
-0.0000000000000554
 10
232.9921360399246
 20
1042.794693169888
 30
-0.0000000000000554
 10
232.9921957085999
 20
1042.794644456269
 30
-0.0000000000000554
 10
232.9922553714393
 20
1042.794595735523
 30
-0.0000000000000554
  0
SPLINE
  5
344
330
1F
100
AcDbEntity
  8
PV-174
100
AcDbSpline
210
0.0
220
0.0
230
1.0
 70
     8
 71
     3
 72
    18
 73
    14
 74
     0
 42
0.000000001
 43
0.0000000001
 40
0.203900170074742
 40
0.203900170074742
 40
0.203900170074742
 40
0.203900170074742
 40
0.4140914887330024
 40
0.4140914887330024
 40
0.5531594004291947
 40
0.5531594004291947
 40
0.9342624836064976
 40
0.9342624836064976
 40
1.058715851533573
 40
1.058715851533573
 40
1.20907934997097
 40
1.20907934997097
 40
1.267392488679218
 40
1.267392488679218
 40
1.267392488679218
 40
1.267392488679218
 10
232.1888016487934
 20
1043.099265886846
 30
-0.0000000000000555
 10
232.2371802066424
 20
1043.099273117888
 30
-0.0000000000000555
 10
232.2831170664141
 20
1043.093715976748
 30
-0.0000000000000555
 10
232.350379000839
 20
1043.081913617236
 30
-0.0000000000000555
 10
232.3773199698933
 20
1043.0760285347
 30
-0.0000000000000555
 10
232.4785225712509
 20
1043.050289483516
 30
-0.0000000000000555
 10
232.5539971462343
 20
1043.023958803567
 30
-0.0000000000000555
 10
232.6560768783833
 20
1042.981861175285
 30
-0.0000000000000555
 10
232.6813348646222
 20
1042.970920637659
 30
-0.0000000000000555
 10
232.7373660278909
 20
1042.94560336498
 30
-0.0000000000000555
 10
232.7681967394619
 20
1042.930983735833
 30
-0.0000000000000555
 10
232.8111791115443
 20
1042.909740949715
 30
-0.0000000000000555
 10
232.8232121247286
 20
1042.903700932869
 30
-0.0000000000000555
 10
232.8352646764539
 20
1042.897561321977
 30
-0.0000000000000555
  0
SPLINE
  5
345
330
1F
100
AcDbEntity
  8
PV-174
100
AcDbSpline
210
-0.0000000000000001
220
0.0
230
1.0
 70
     8
 71
     3
 72
    20
 73
    16
 74
     0
 42
0.000000001
 43
0.0000000001
 40
1.736023434719105
 40
1.736023434719105
 40
1.736023434719105
 40
1.736023434719105
 40
4.481724718716971
 40
4.481724718716971
 40
8.494256553288714
 40
8.494256553288714
 40
12.2302098530054
 40
12.2302098530054
 40
16.0190034065687
 40
16.0190034065687
 40
20.63191901924623
 40
20.63191901924623
 40
24.55726384241274
 40
24.55726384241274
 40
27.09366019960931
 40
27.09366019960931
 40
27.09366019960931
 40
27.09366019960931
 10
232.9921792018595
 20
1042.794446397055
 30
-0.0000000000000554
 10
233.6873522851036
 20
1042.226688512966
 30
-0.0000000000000554
 10
234.446202525244
 20
1041.721662716606
 30
-0.0000000000000553
 10
236.4380722340105
 20
1040.706050353718
 30
-0.000000000000055
 10
237.7172581726579
 20
1040.308005922835
 30
-0.0000000000000549
 10
240.2923846897457
 20
1040.083841852746
 30
-0.0000000000000545
 10
241.5213679386671
 20
1040.225153994284
 30
-0.0000000000000544
 10
243.9144472920045
 20
1040.958802530309
 30
-0.0000000000000541
 10
245.0413678578244
 20
1041.545884158328
 30
-0.000000000000054
 10
247.2858807605395
 20
1043.148377702489
 30
-0.0000000000000537
 10
248.3560011538124
 20
1044.233396371955
 30
-0.0000000000000536
 10
249.9078693145481
 20
1046.374775968178
 30
-0.0000000000000534
 10
250.4503296958881
 20
1047.406411500861
 30
-0.0000000000000533
 10
250.9976375184341
 20
1049.06522694271
 30
-0.0000000000000532
 10
251.1206823643884
 20
1049.693686956359
 30
-0.0000000000000532
 10
251.1499145000471
 20
1050.286619781727
 30
-0.0000000000000532
  0
SPLINE
  5
346
330
1F
100
AcDbEntity
  8
PV-174
100
AcDbSpline
210
0.0000000000000004
220
-0.0000000000000002
230
1.0
 70
     8
 71
     3
 72
    24
 73
    20
 74
     0
 42
0.000000001
 43
0.0000000001
 40
0.0
 40
0.0
 40
0.0
 40
0.0
 40
0.0756974007302869
 40
0.0756974007302869
 40
0.2789853411804089
 40
0.2789853411804089
 40
0.3497529015458669
 40
0.3497529015458669
 40
0.5919349001703657
 40
0.5919349001703657
 40
1.276514795648737
 40
1.276514795648737
 40
1.476316936862741
 40
1.476316936862741
 40
1.827563147716624
 40
1.827563147716624
 40
1.910592365237698
 40
1.910592365237698
 40
1.954297335670278
 40
1.954297335670278
 40
1.954297335670278
 40
1.954297335670278
 10
227.8670280407151
 20
1038.722731733964
 30
-0.0000000000000561
 10
227.8670280407151
 20
1038.743821250713
 30
-0.0000000000000561
 10
227.8677905743945
 20
1038.764992632829
 30
-0.0000000000000561
 10
227.8729859010034
 20
1038.843021628941
 30
-0.0000000000000561
 10
227.8814240593645
 20
1038.900601746505
 30
-0.0000000000000561
 10
227.8973219183749
 20
1038.978946706406
 30
-0.0000000000000561
 10
227.9018395717679
 20
1038.999238898323
 30
-0.0000000000000561
 10
227.9234766452078
 20
1039.089211012077
 30
-0.0000000000000561
 10
227.9446033455914
 20
1039.159594300322
 30
-0.0000000000000561
 10
228.0383772820723
 20
1039.430199792191
 30
-0.000000000000056
 10
228.1354828227783
 20
1039.636058435689
 30
-0.000000000000056
 10
228.2820669333629
 20
1039.891382425283
 30
-0.000000000000056
 10
228.3167953760016
 20
1039.94868101446
 30
-0.000000000000056
 10
228.4164978736218
 20
1040.10453082394
 30
-0.000000000000056
 10
228.4848956566796
 20
1040.202159898755
 30
-0.000000000000056
 10
228.5742474036612
 20
1040.317339885812
 30
-0.000000000000056
 10
228.5915706268958
 20
1040.339139928948
 30
-0.000000000000056
 10
228.6183582714568
 20
1040.372006537241
 30
-0.000000000000056
 10
228.6276609798989
 20
1040.383269103296
 30
-0.000000000000056
 10
228.6370265872652
 20
1040.394452751206
 30
-0.000000000000056
  0
SPLINE
  5
347
330
1F
100
AcDbEntity
  8
PV-174
100
AcDbSpline
210
-0.0000000000000003
220
0.0000000000000004
230
1.0
 70
     8
 71
     3
 72
    18
 73
    14
 74
     0
 42
0.000000001
 43
0.0000000001
 40
1.6540747858433
 40
1.6540747858433
 40
1.6540747858433
 40
1.6540747858433
 40
1.715582394495875
 40
1.715582394495875
 40
1.902970208297486
 40
1.902970208297486
 40
2.031734176382974
 40
2.031734176382974
 40
2.255265245202036
 40
2.255265245202036
 40
2.814065234951959
 40
2.814065234951959
 40
3.138692671095101
 40
3.138692671095101
 40
3.138692671095101
 40
3.138692671095101
 10
230.4888899676758
 20
1042.503699771766
 30
-0.0000000000000557
 10
230.502561565972
 20
1042.518566573725
 30
-0.0000000000000557
 10
230.5163672836402
 20
1042.533214600932
 30
-0.0000000000000557
 10
230.5726948392063
 20
1042.5915658956
 30
-0.0000000000000557
 10
230.616231971725
 20
1042.633455140573
 30
-0.0000000000000557
 10
230.6908265874256
 20
1042.70029132166
 30
-0.0000000000000557
 10
230.721565001501
 20
1042.726471891083
 30
-0.0000000000000557
 10
230.8063248072663
 20
1042.795059805288
 30
-0.0000000000000557
 10
230.8609340500037
 20
1042.835321244317
 30
-0.0000000000000557
 10
231.0534288533148
 20
1042.963470890604
 30
-0.0000000000000557
 10
231.1834296074711
 20
1043.025979013503
 30
-0.0000000000000557
 10
231.3723286826303
 20
1043.082947625399
 30
-0.0000000000000556
 10
231.4522245465716
 20
1043.099211855683
 30
-0.0000000000000556
 10
231.5362797871284
 20
1043.099181649553
 30
-0.0000000000000556
  0
SPLINE
  5
348
330
1F
100
AcDbEntity
  8
PV-174
100
AcDbSpline
210
-0.0000000000000001
220
-0.0000000000000001
230
1.0
 70
     8
 71
     3
 72
    10
 73
     6
 74
     0
 42
0.000000001
 43
0.0000000001
 40
0.5238557413344813
 40
0.5238557413344813
 40
0.5238557413344813
 40
0.5238557413344813
 40
3.344927373450713
 40
3.344927373450713
 40
3.375545046730999
 40
3.375545046730999
 40
3.375545046730999
 40
3.375545046730999
 10
228.6370263693228
 20
1040.39445300871
 30
-0.000000000000056
 10
229.2350872192665
 20
1041.108610081713
 30
-0.0000000000000559
 10
229.8471356514459
 20
1041.805169878494
 30
-0.0000000000000558
 10
230.4753955873189
 20
1042.489021740729
 30
-0.0000000000000557
 10
230.4821422491234
 20
1042.496361809158
 30
-0.0000000000000557
 10
230.4888901423991
 20
1042.503699645328
 30
-0.0000000000000557
  0
ARC
  5
349
330
1F
100
AcDbEntity
  8
PV-174
100
AcDbCircle
 10
228.8670280407152
 20
1017.630971731922
 30
-0.0000000000000559
 40
0.9999999999999998
100
AcDbArc
 50
180.0
 51
270.0
  0
ARC
  5
34A
330
1F
100
AcDbEntity
  8
PV-174
100
AcDbCircle
 10
228.8670280407151
 20
1055.630971731922
 30
-0.0000000000000559
 40
0.9999999999999998
100
AcDbArc
 50
90.0
 51
180.0
  0
ARC
  5
34B
330
1F
100
AcDbEntity
  8
PV-174
100
AcDbCircle
 10
334.2170280407133
 20
351.6309717319006
 30
-0.000000000000043
 40
32.0
100
AcDbArc
 50
180.0
 51
270.0
  0
ARC
  5
34C
330
1F
100
AcDbEntity
  8
PV-174
100
AcDbCircle
 10
334.2170280407133
 20
351.6309717319006
 30
-0.000000000000043
 40
65.0
100
AcDbArc
 50
180.0
 51
270.0
  0
LINE
  5
34D
330
1F
100
AcDbEntity
  8
PV-174
100
AcDbLine
 10
694.2170280407134
 20
286.6309717319004
 30
-0.0000000000000059
 11
742.7170280407133
 21
286.6309717319004
 31
0.0
210
0.0
220
1.0
230
0.0
  0
LINE
  5
34E
330
1F
100
AcDbEntity
  8
PV-174
100
AcDbLine
 10
742.7170280407133
 20
319.6309717319006
 30
0.0
 11
694.2170280407134
 21
319.6309717319006
 31
-0.0000000000000059
210
0.0
220
1.0
230
0.0
  0
LINE
  5
34F
330
1F
100
AcDbEntity
  8
PV-174
100
AcDbLine
 10
302.2170280407136
 20
1169.6309717319
 30
-0.000000000000047
 11
302.2170280407136
 21
1218.6309717319
 31
-0.000000000000047
210
0.0
220
1.0
230
0.0
  0
LINE
  5
350
330
1F
100
AcDbEntity
  8
PV-174
100
AcDbLine
 10
269.2170280407136
 20
1218.6309717319
 30
-0.000000000000051
 11
269.2170280407136
 21
1169.6309717319
 31
-0.000000000000051
210
0.0
220
1.0
230
0.0
  0
ENDSEC
  0
SECTION
  2
OBJECTS
  0
DICTIONARY
  5
C
330
0
100
AcDbDictionary
281
     1
  3
ACAD_CIP_PREVIOUS_PRODUCT_INFO
350
3C7
  3
ACAD_COLOR
350
3A8
  3
ACAD_DETAILVIEWSTYLE
350
3C1
  3
ACAD_GROUP
350
D
  3
ACAD_LAYOUT
350
1A
  3
ACAD_MATERIAL
350
376
  3
ACAD_MLEADERSTYLE
350
3BD
  3
ACAD_MLINESTYLE
350
17
  3
ACAD_PLOTSETTINGS
350
19
  3
ACAD_PLOTSTYLENAME
350
1DD
  3
ACAD_SCALELIST
350
3AB
  3
ACAD_SECTIONVIEWSTYLE
350
3BF
  3
ACAD_TABLESTYLE
350
3A9
  3
ACAD_VISUALSTYLE
350
38F
  3
ACDB_RECOMPOSE_DATA
350
483
  3
AcDbVariableDictionary
350
3F0
  3
AcDsDecomposeData
350
489
  0
DICTIONARY
  5
435
330
2
100
AcDbDictionary
280
     1
281
     1
  3
ACAD_LAYERSTATES
360
436
  0
DICTIONARY
  5
3EC
330
10
100
AcDbDictionary
280
     1
281
     1
  3
ADSK_XREC_LAYER_RECONCILED
360
3ED
  0
DICTIONARY
  5
3EE
330
BA
100
AcDbDictionary
280
     1
281
     1
  3
ADSK_XREC_LAYER_RECONCILED
360
3EF
  0
DICTIONARY
  5
1D7
330
1F
100
AcDbDictionary
281
     1
  3
ACAD_LAYOUTSELFREF
350
373
  0
DICTIONARY
  5
1D5
330
1B
100
AcDbDictionary
281
     1
  3
ACAD_LAYOUTSELFREF
350
372
  0
XRECORD
  5
3C7
102
{ACAD_REACTORS
330
C
102
}
330
C
100
AcDbXrecord
280
     1
300
ACDLT
300
2016
300
ACDLT_F_S
  0
DICTIONARY
  5
3A8
102
{ACAD_REACTORS
330
C
102
}
330
C
100
AcDbDictionary
281
     1
  0
DICTIONARY
  5
3C1
102
{ACAD_REACTORS
330
C
102
}
330
C
100
AcDbDictionary
281
     1
  3
Imperial24
350
3C2
  0
DICTIONARY
  5
D
102
{ACAD_REACTORS
330
C
102
}
330
C
100
AcDbDictionary
281
     1
  0
DICTIONARY
  5
1A
102
{ACAD_REACTORS
330
C
102
}
330
C
100
AcDbDictionary
281
     1
  3
Layout1
350
3C4
  3
Model
350
3C3
  0
DICTIONARY
  5
376
102
{ACAD_REACTORS
330
C
102
}
330
C
100
AcDbDictionary
281
     1
  3
ByBlock
350
37F
  3
ByLayer
350
377
  3
Global
350
387
  0
DICTIONARY
  5
3BD
102
{ACAD_REACTORS
330
C
102
}
330
C
100
AcDbDictionary
281
     1
  3
Standard
350
3BE
  0
DICTIONARY
  5
17
102
{ACAD_REACTORS
330
C
102
}
330
C
100
AcDbDictionary
281
     1
  3
STANDARD
350
18
  0
DICTIONARY
  5
19
102
{ACAD_REACTORS
330
C
102
}
330
C
100
AcDbDictionary
281
     1
  0
ACDBDICTIONARYWDFLT
  5
1DD
102
{ACAD_REACTORS
330
C
102
}
330
C
100
AcDbDictionary
281
     1
  3
Normal
350
1DE
100
AcDbDictionaryWithDefault
340
1DE
  0
DICTIONARY
  5
3AB
102
{ACAD_REACTORS
330
C
102
}
330
C
100
AcDbDictionary
281
     1
  3
A0
350
3AC
  3
A1
350
3AD
  3
A2
350
3AE
  3
A3
350
3AF
  3
A4
350
3B0
  3
A5
350
3B1
  3
A6
350
3B2
  3
A7
350
3B3
  3
A8
350
3B4
  3
A9
350
3B5
  3
B0
350
3B6
  3
B1
350
3B7
  3
B2
350
3B8
  3
B3
350
3B9
  3
B4
350
3BA
  3
B5
350
3BB
  3
B6
350
3BC
  0
DICTIONARY
  5
3BF
102
{ACAD_REACTORS
330
C
102
}
330
C
100
AcDbDictionary
281
     1
  3
Imperial24
350
3C0
  0
DICTIONARY
  5
3A9
102
{ACAD_REACTORS
330
C
102
}
330
C
100
AcDbDictionary
281
     1
  3
Standard
350
3AA
  0
DICTIONARY
  5
38F
102
{ACAD_REACTORS
330
C
102
}
330
C
100
AcDbDictionary
281
     1
  3
2dWireframe
350
395
  3
Basic
350
394
  3
Brighten
350
39B
  3
ColorChange
350
39F
  3
Conceptual
350
398
  3
Dim
350
39A
  3
EdgeColorOff
350
3A7
  3
Facepattern
350
39E
  3
Flat
350
390
  3
FlatWithEdges
350
391
  3
Gouraud
350
392
  3
GouraudWithEdges
350
393
  3
Hidden
350
397
  3
JitterOff
350
3A5
  3
Linepattern
350
39D
  3
OverhangOff
350
3A6
  3
Realistic
350
399
  3
Shaded
350
3A4
  3
Shaded with edges
350
3A3
  3
Shades of Gray
350
3A0
  3
Sketchy
350
3A1
  3
Thicken
350
39C
  3
Wireframe
350
396
  3
X-Ray
350
3A2
  0
XRECORD
  5
483
102
{ACAD_REACTORS
330
C
102
}
330
C
100
AcDbXrecord
280
     1
 90
        1
330
3AA
  0
DICTIONARY
  5
3F0
102
{ACAD_REACTORS
330
C
102
}
330
C
100
AcDbDictionary
281
     1
  3
CANNOSCALE
350
3F6
  3
CMLEADERSTYLE
350
3F2
  3
CTABLESTYLE
350
3F1
  3
CVIEWDETAILSTYLE
350
3F3
  3
CVIEWSECTIONSTYLE
350
3F4
  3
LAYEREVAL
350
3F8
  3
LAYERNOTIFY
350
3F9
  3
LIGHTINGUNITS
350
3F7
  3
MSLTSCALE
350
3F5
  0
DICTIONARY
  5
489
102
{ACAD_REACTORS
330
C
102
}
330
C
100
AcDbDictionary
281
     1
  3
AcDsRecords
350
48B
  3
AcDsSchemas
350
48A
1001
ACAD
1070
     2
  0
DICTIONARY
  5
436
102
{ACAD_REACTORS
330
435
102
}
330
435
100
AcDbDictionary
281
     1
  0
XRECORD
  5
3ED
102
{ACAD_REACTORS
330
3EC
102
}
330
3EC
100
AcDbXrecord
280
     1
290
     1
  0
XRECORD
  5
3EF
102
{ACAD_REACTORS
330
3EE
102
}
330
3EE
100
AcDbXrecord
280
     1
290
     1
  0
XRECORD
  5
373
102
{ACAD_REACTORS
330
1D7
102
}
330
1D7
100
AcDbXrecord
280
     1
340
1F
  0
XRECORD
  5
372
102
{ACAD_REACTORS
330
1D5
102
}
330
1D5
100
AcDbXrecord
280
     1
340
1B
  0
ACDBDETAILVIEWSTYLE
  5
3C2
102
{ACAD_XDICTIONARY
360
4BE
102
}
102
{ACAD_REACTORS
330
3C1
102
}
330
3C1
100
AcDbModelDocViewStyle
 70
     0
  3
Imperial24
290
     0
100
AcDbDetailViewStyle
 70
     0
 71
     0
 90
        3
 71
     1
340
11
 62
   256
 40
0.24
340
0
 62
   256
 40
0.24
300

 40
0.36
280
     3
 71
     2
340
16
 90
       25
 62
   256
 71
     3
340
11
 62
   256
 40
0.24
 90
        1
 40
0.75
 90
        1
300
%<\AcVar ViewType \f "%tc1">% %<\AcVar ViewDetailId>%\PVARIA %<\AcVar ViewScale \f "%sn">%
 71
     4
340
16
 90
       25
 62
   256
340
16
 90
       25
 62
   256
280
     0
  0
LAYOUT
  5
3C4
102
{ACAD_REACTORS
330
1A
102
}
330
1A
100
AcDbPlotSettings
  1

  2
\\srvadruck01\MFSA15
  4

  6

 40
0.0
 41
0.0
 42
0.0
 43
0.0
 44
0.0
 45
0.0
 46
0.0
 47
0.0
 48
0.0
 49
0.0
140
0.0
141
0.0
142
1.0
143
1.0
 70
   688
 72
     0
 73
     0
 74
     5
  7

 75
    16
147
1.0
 76
     0
 77
     2
 78
   300
148
0.0
149
0.0
100
AcDbLayout
  1
Layout1
 70
     1
 71
     1
 10
0.0
 20
0.0
 11
12.0
 21
9.0
 12
0.0
 22
0.0
 32
0.0
 14
1.000000000000000E+20
 24
1.000000000000000E+20
 34
1.000000000000000E+20
 15
-1.000000000000000E+20
 25
-1.000000000000000E+20
 35
-1.000000000000000E+20
146
0.0
 13
0.0
 23
0.0
 33
0.0
 16
1.0
 26
0.0
 36
0.0
 17
0.0
 27
1.0
 37
0.0
 76
     0
330
1B
  0
LAYOUT
  5
3C3
102
{ACAD_REACTORS
330
1A
102
}
330
1A
100
AcDbPlotSettings
  1

  2
\\srvadruck01\MFSA15
  4

  6

 40
0.0
 41
0.0
 42
0.0
 43
0.0
 44
0.0
 45
0.0
 46
0.0
 47
0.0
 48
0.0
 49
0.0
140
0.0
141
0.0
142
1.0
143
1.0
 70
  1712
 72
     0
 73
     0
 74
     0
  7

 75
     0
147
1.0
 76
     0
 77
     2
 78
   300
148
0.0
149
0.0
100
AcDbLayout
  1
Model
 70
     1
 71
     0
 10
0.0
 20
0.0
 11
12.0
 21
9.0
 12
0.0
 22
0.0
 32
0.0
 14
0.0
 24
0.0
 34
0.0
 15
0.0
 25
0.0
 35
0.0
146
0.0
 13
0.0
 23
0.0
 33
0.0
 16
1.0
 26
0.0
 36
0.0
 17
0.0
 27
1.0
 37
0.0
 76
     0
330
1F
331
351
  0
MATERIAL
  5
37F
102
{ACAD_XDICTIONARY
360
380
102
}
102
{ACAD_REACTORS
330
376
102
}
330
376
100
AcDbMaterial
  1
ByBlock
 72
     0
 43
0.0208333333333333
 43
0.0
 43
0.0
 43
0.0
 43
0.0
 43
0.0208333333333333
 43
0.0
 43
0.0
 43
0.0
 43
0.0
 43
1.0
 43
0.0
 43
0.0
 43
0.0
 43
0.0
 43
1.0
 77
     0
 47
0.0208333333333333
 47
0.0
 47
0.0
 47
0.0
 47
0.0
 47
0.0208333333333333
 47
0.0
 47
0.0
 47
0.0
 47
0.0
 47
1.0
 47
0.0
 47
0.0
 47
0.0
 47
0.0
 47
1.0
171
     0
 49
0.0208333333333333
 49
0.0
 49
0.0
 49
0.0
 49
0.0
 49
0.0208333333333333
 49
0.0
 49
0.0
 49
0.0
 49
0.0
 49
1.0
 49
0.0
 49
0.0
 49
0.0
 49
0.0
 49
1.0
175
     0
142
0.0208333333333333
142
0.0
142
0.0
142
0.0
142
0.0
142
0.0208333333333333
142
0.0
142
0.0
142
0.0
142
0.0
142
1.0
142
0.0
142
0.0
142
0.0
142
0.0
142
1.0
179
     0
144
0.0208333333333333
144
0.0
144
0.0
144
0.0
144
0.0
144
0.0208333333333333
144
0.0
144
0.0
144
0.0
144
0.0
144
1.0
144
0.0
144
0.0
144
0.0
144
0.0
144
1.0
147
0.0208333333333333
147
0.0
147
0.0
147
0.0
147
0.0
147
0.0208333333333333
147
0.0
147
0.0
147
0.0
147
0.0
147
1.0
147
0.0
147
0.0
147
0.0
147
0.0
147
1.0
  0
MATERIAL
  5
377
102
{ACAD_XDICTIONARY
360
378
102
}
102
{ACAD_REACTORS
330
376
102
}
330
376
100
AcDbMaterial
  1
ByLayer
 72
     0
 43
0.0208333333333333
 43
0.0
 43
0.0
 43
0.0
 43
0.0
 43
0.0208333333333333
 43
0.0
 43
0.0
 43
0.0
 43
0.0
 43
1.0
 43
0.0
 43
0.0
 43
0.0
 43
0.0
 43
1.0
 77
     0
 47
0.0208333333333333
 47
0.0
 47
0.0
 47
0.0
 47
0.0
 47
0.0208333333333333
 47
0.0
 47
0.0
 47
0.0
 47
0.0
 47
1.0
 47
0.0
 47
0.0
 47
0.0
 47
0.0
 47
1.0
171
     0
 49
0.0208333333333333
 49
0.0
 49
0.0
 49
0.0
 49
0.0
 49
0.0208333333333333
 49
0.0
 49
0.0
 49
0.0
 49
0.0
 49
1.0
 49
0.0
 49
0.0
 49
0.0
 49
0.0
 49
1.0
175
     0
142
0.0208333333333333
142
0.0
142
0.0
142
0.0
142
0.0
142
0.0208333333333333
142
0.0
142
0.0
142
0.0
142
0.0
142
1.0
142
0.0
142
0.0
142
0.0
142
0.0
142
1.0
179
     0
144
0.0208333333333333
144
0.0
144
0.0
144
0.0
144
0.0
144
0.0208333333333333
144
0.0
144
0.0
144
0.0
144
0.0
144
1.0
144
0.0
144
0.0
144
0.0
144
0.0
144
1.0
147
0.0208333333333333
147
0.0
147
0.0
147
0.0
147
0.0
147
0.0208333333333333
147
0.0
147
0.0
147
0.0
147
0.0
147
1.0
147
0.0
147
0.0
147
0.0
147
0.0
147
1.0
  0
MATERIAL
  5
387
102
{ACAD_XDICTIONARY
360
388
102
}
102
{ACAD_REACTORS
330
376
102
}
330
376
100
AcDbMaterial
  1
Global
 72
     0
 43
0.0208333333333333
 43
0.0
 43
0.0
 43
0.0
 43
0.0
 43
0.0208333333333333
 43
0.0
 43
0.0
 43
0.0
 43
0.0
 43
1.0
 43
0.0
 43
0.0
 43
0.0
 43
0.0
 43
1.0
 77
     0
 47
0.0208333333333333
 47
0.0
 47
0.0
 47
0.0
 47
0.0
 47
0.0208333333333333
 47
0.0
 47
0.0
 47
0.0
 47
0.0
 47
1.0
 47
0.0
 47
0.0
 47
0.0
 47
0.0
 47
1.0
171
     0
 49
0.0208333333333333
 49
0.0
 49
0.0
 49
0.0
 49
0.0
 49
0.0208333333333333
 49
0.0
 49
0.0
 49
0.0
 49
0.0
 49
1.0
 49
0.0
 49
0.0
 49
0.0
 49
0.0
 49
1.0
175
     0
142
0.0208333333333333
142
0.0
142
0.0
142
0.0
142
0.0
142
0.0208333333333333
142
0.0
142
0.0
142
0.0
142
0.0
142
1.0
142
0.0
142
0.0
142
0.0
142
0.0
142
1.0
179
     0
144
0.0208333333333333
144
0.0
144
0.0
144
0.0
144
0.0
144
0.0208333333333333
144
0.0
144
0.0
144
0.0
144
0.0
144
1.0
144
0.0
144
0.0
144
0.0
144
0.0
144
1.0
147
0.0208333333333333
147
0.0
147
0.0
147
0.0
147
0.0
147
0.0208333333333333
147
0.0
147
0.0
147
0.0
147
0.0
147
1.0
147
0.0
147
0.0
147
0.0
147
0.0
147
1.0
  0
MLEADERSTYLE
  5
3BE
102
{ACAD_REACTORS
330
3BD
102
}
330
3BD
100
AcDbMLeaderStyle
179
     2
170
     2
171
     1
172
     0
 90
        2
 40
0.0
 41
0.0
173
     1
 91
-1056964608
340
14
 92
       -2
290
     1
 42
0.09
291
     1
 43
0.36
  3
Standard
 44
0.18
300

342
11
174
     1
178
     6
175
     1
176
     0
 93
-1056964608
 45
0.18
292
     0
297
     0
 46
0.18
 94
-1056964608
 47
1.0
 49
1.0
140
1.0
293
     1
141
0.0
294
     1
177
     0
142
1.0
295
     0
296
     0
143
0.125
271
     0
272
     9
273
     9
  0
MLINESTYLE
  5
18
102
{ACAD_REACTORS
330
17
102
}
330
17
100
AcDbMlineStyle
  2
STANDARD
 70
     0
  3

 62
   256
 51
90.0
 52
90.0
 71
     2
 49
0.5
 62
   256
  6
BYLAYER
 49
-0.5
 62
   256
  6
BYLAYER
  0
ACDBPLACEHOLDER
  5
1DE
102
{ACAD_REACTORS
330
1DD
102
}
330
1DD
  0
SCALE
  5
3AC
102
{ACAD_REACTORS
330
3AB
102
}
330
3AB
100
AcDbScale
 70
     0
300
1:1
140
1.0
141
1.0
290
     1
  0
SCALE
  5
3AD
102
{ACAD_REACTORS
330
3AB
102
}
330
3AB
100
AcDbScale
 70
     0
300
1/128" = 1'-0"
140
0.0078125
141
12.0
290
     0
  0
SCALE
  5
3AE
102
{ACAD_REACTORS
330
3AB
102
}
330
3AB
100
AcDbScale
 70
     0
300
1/64" = 1'-0"
140
0.015625
141
12.0
290
     0
  0
SCALE
  5
3AF
102
{ACAD_REACTORS
330
3AB
102
}
330
3AB
100
AcDbScale
 70
     0
300
1/32" = 1'-0"
140
0.03125
141
12.0
290
     0
  0
SCALE
  5
3B0
102
{ACAD_REACTORS
330
3AB
102
}
330
3AB
100
AcDbScale
 70
     0
300
1/16" = 1'-0"
140
0.0625
141
12.0
290
     0
  0
SCALE
  5
3B1
102
{ACAD_REACTORS
330
3AB
102
}
330
3AB
100
AcDbScale
 70
     0
300
3/32" = 1'-0"
140
0.09375
141
12.0
290
     0
  0
SCALE
  5
3B2
102
{ACAD_REACTORS
330
3AB
102
}
330
3AB
100
AcDbScale
 70
     0
300
1/8" = 1'-0"
140
0.125
141
12.0
290
     0
  0
SCALE
  5
3B3
102
{ACAD_REACTORS
330
3AB
102
}
330
3AB
100
AcDbScale
 70
     0
300
3/16" = 1'-0"
140
0.1875
141
12.0
290
     0
  0
SCALE
  5
3B4
102
{ACAD_REACTORS
330
3AB
102
}
330
3AB
100
AcDbScale
 70
     0
300
1/4" = 1'-0"
140
0.25
141
12.0
290
     0
  0
SCALE
  5
3B5
102
{ACAD_REACTORS
330
3AB
102
}
330
3AB
100
AcDbScale
 70
     0
300
3/8" = 1'-0"
140
0.375
141
12.0
290
     0
  0
SCALE
  5
3B6
102
{ACAD_REACTORS
330
3AB
102
}
330
3AB
100
AcDbScale
 70
     0
300
1/2" = 1'-0"
140
0.5
141
12.0
290
     0
  0
SCALE
  5
3B7
102
{ACAD_REACTORS
330
3AB
102
}
330
3AB
100
AcDbScale
 70
     0
300
3/4" = 1'-0"
140
0.75
141
12.0
290
     0
  0
SCALE
  5
3B8
102
{ACAD_REACTORS
330
3AB
102
}
330
3AB
100
AcDbScale
 70
     0
300
1" = 1'-0"
140
1.0
141
12.0
290
     0
  0
SCALE
  5
3B9
102
{ACAD_REACTORS
330
3AB
102
}
330
3AB
100
AcDbScale
 70
     0
300
1-1/2" = 1'-0"
140
1.5
141
12.0
290
     0
  0
SCALE
  5
3BA
102
{ACAD_REACTORS
330
3AB
102
}
330
3AB
100
AcDbScale
 70
     0
300
3" = 1'-0"
140
3.0
141
12.0
290
     0
  0
SCALE
  5
3BB
102
{ACAD_REACTORS
330
3AB
102
}
330
3AB
100
AcDbScale
 70
     0
300
6" = 1'-0"
140
6.0
141
12.0
290
     0
  0
SCALE
  5
3BC
102
{ACAD_REACTORS
330
3AB
102
}
330
3AB
100
AcDbScale
 70
     0
300
1'-0" = 1'-0"
140
12.0
141
12.0
290
     0
  0
ACDBSECTIONVIEWSTYLE
  5
3C0
102
{ACAD_XDICTIONARY
360
4BC
102
}
102
{ACAD_REACTORS
330
3BF
102
}
330
3BF
100
AcDbModelDocViewStyle
 70
     0
  3
Imperial24
290
     0
100
AcDbSectionViewStyle
 70
     0
 71
     0
 90
       78
 71
     1
340
11
 62
   256
 40
0.24
340
0
340
0
 62
   256
 40
0.24
300
I, O, Q, S, X, Z
 40
0.48
 90
        3
 40
0.18
 90
        1
 71
     2
340
16
 90
       25
 62
   256
340
16
 90
       50
 62
   256
 40
0.24
 40
0.0
 40
0.24
 71
     3
340
11
 62
   256
 40
0.24
 90
        1
 40
0.75
 90
        1
300
%<\AcVar ViewType \f "%tc1">% %<\AcVar ViewSectionStartId>%-%<\AcVar ViewSectionEndId>%\PVARIA %<\AcVar ViewScale \f "%sn">%
 71
     4
 62
   256
 62
   257
300
ANSI31
 40
1.0
 90
        0
290
     0
290
     0
 90
        6
 40
0.0
 40
1.570796326794896
 40
0.2617993877991494
 40
1.308996938995747
 40
-0.2617993877991494
 40
1.832595714594046
  0
TABLESTYLE
  5
3AA
102
{ACAD_XDICTIONARY
360
481
102
}
102
{ACAD_REACTORS
330
3A9
102
}
330
3A9
100
AcDbTableStyle
280
     0
  3
Standard
 70
     0
 71
     0
 40
0.06
 41
0.06
280
     0
281
     0
  7
STANDARD
140
0.18
170
     2
 62
     0
 63
     7
283
     0
 90
      512
 91
        0
  1

274
    -2
284
     1
 64
     0
275
    -2
285
     1
 65
     0
276
    -2
286
     1
 66
     0
277
    -2
287
     1
 67
     0
278
    -2
288
     1
 68
     0
279
    -2
289
     1
 69
     0
  7
STANDARD
140
0.25
170
     5
 62
     0
 63
     7
283
     0
 90
      512
 91
        0
  1

274
    -2
284
     1
 64
     0
275
    -2
285
     1
 65
     0
276
    -2
286
     1
 66
     0
277
    -2
287
     1
 67
     0
278
    -2
288
     1
 68
     0
279
    -2
289
     1
 69
     0
  7
STANDARD
140
0.18
170
     5
 62
     0
 63
     7
283
     0
 90
      512
 91
        0
  1

274
    -2
284
     1
 64
     0
275
    -2
285
     1
 65
     0
276
    -2
286
     1
 66
     0
277
    -2
287
     1
 67
     0
278
    -2
288
     1
 68
     0
279
    -2
289
     1
 69
     0
  0
VISUALSTYLE
  5
395
102
{ACAD_XDICTIONARY
360
496
102
}
102
{ACAD_REACTORS
330
38F
102
}
330
38F
100
AcDbVisualStyle
  2
2dWireframe
 70
     4
177
     2
291
     0
 71
     0
176
     1
 72
     2
176
     1
 73
     0
176
     1
 90
        0
176
     1
 40
0.6
176
     1
 41
30.0
176
     1
 63
     7
421
 16777215
176
     1
 74
     1
176
     1
 91
        4
176
     1
 64
     7
176
     1
 65
   257
176
     1
 75
     1
176
     1
175
     1
176
     1
 42
1.0
176
     1
 92
        0
176
     1
 66
   257
176
     1
 43
1.0
176
     1
 76
     1
176
     1
 77
     6
176
     1
 78
     2
176
     1
 67
     7
176
     1
 79
     5
176
     1
170
     0
176
     1
171
     0
176
     1
290
     0
176
     1
 93
        1
176
     1
 44
0.0
176
     1
173
     0
176
     1
1001
ACAD
1000
AcDbSavedByObjectVersion
1070
     0
  0
VISUALSTYLE
  5
394
102
{ACAD_XDICTIONARY
360
494
102
}
102
{ACAD_REACTORS
330
38F
102
}
330
38F
100
AcDbVisualStyle
  2
Basic
 70
     7
177
     2
291
     1
 71
     1
176
     1
 72
     0
176
     1
 73
     1
176
     1
 90
        0
176
     1
 40
0.6
176
     1
 41
30.0
176
     1
 63
     7
421
 16777215
176
     1
 74
     0
176
     1
 91
        4
176
     1
 64
     7
176
     1
 65
   257
176
     1
 75
     1
176
     1
175
     1
176
     1
 42
1.0
176
     1
 92
        8
176
     1
 66
     7
176
     1
 43
1.0
176
     1
 76
     1
176
     1
 77
     6
176
     1
 78
     2
176
     1
 67
     7
176
     1
 79
     5
176
     1
170
     0
176
     1
171
     0
176
     1
290
     0
176
     1
 93
        1
176
     1
 44
0.0
176
     1
173
     0
176
     1
1001
ACAD
1000
AcDbSavedByObjectVersion
1070
     0
  0
VISUALSTYLE
  5
39B
102
{ACAD_XDICTIONARY
360
4A2
102
}
102
{ACAD_REACTORS
330
38F
102
}
330
38F
100
AcDbVisualStyle
  2
Brighten
 70
    12
177
     2
291
     1
 71
     2
176
     1
 72
     2
176
     1
 73
     0
176
     1
 90
        0
176
     1
 40
0.6
176
     1
 41
30.0
176
     1
 63
     7
421
 16777215
176
     1
 74
     1
176
     1
 91
        4
176
     1
 64
     7
176
     1
 65
   257
176
     1
 75
     1
176
     1
175
     1
176
     1
 42
1.0
176
     1
 92
        8
176
     1
 66
     7
176
     1
 43
1.0
176
     1
 76
     1
176
     1
 77
     6
176
     1
 78
     2
176
     1
 67
     7
176
     1
 79
     5
176
     1
170
     0
176
     1
171
     0
176
     1
290
     0
176
     1
 93
        1
176
     1
 44
50.0
176
     1
173
     0
176
     1
1001
ACAD
1000
AcDbSavedByObjectVersion
1070
     0
  0
VISUALSTYLE
  5
39F
102
{ACAD_XDICTIONARY
360
4AA
102
}
102
{ACAD_REACTORS
330
38F
102
}
330
38F
100
AcDbVisualStyle
  2
ColorChange
 70
    16
177
     2
291
     1
 71
     2
176
     1
 72
     2
176
     1
 73
     3
176
     1
 90
        0
176
     1
 40
0.6
176
     1
 41
30.0
176
     1
 63
     8
421
  8421504
176
     1
 74
     1
176
     1
 91
        4
176
     1
 64
     7
176
     1
 65
   257
176
     1
 75
     1
176
     1
175
     1
176
     1
 42
1.0
176
     1
 92
        8
176
     1
 66
     8
424
  8421504
176
     1
 43
1.0
176
     1
 76
     1
176
     1
 77
     6
176
     1
 78
     2
176
     1
 67
     7
176
     1
 79
     5
176
     1
170
     0
176
     1
171
     0
176
     1
290
     0
176
     1
 93
        1
176
     1
 44
0.0
176
     1
173
     0
176
     1
1001
ACAD
1000
AcDbSavedByObjectVersion
1070
     0
  0
VISUALSTYLE
  5
398
102
{ACAD_XDICTIONARY
360
49C
102
}
102
{ACAD_REACTORS
330
38F
102
}
330
38F
100
AcDbVisualStyle
  2
Conceptual
 70
     9
177
     2
291
     0
 71
     3
176
     1
 72
     2
176
     1
 73
     0
176
     1
 90
        0
176
     1
 40
0.6
176
     1
 41
30.0
176
     1
 63
     7
421
 16777215
176
     1
 74
     2
176
     1
 91
        2
176
     1
 64
     7
176
     1
 65
   257
176
     1
 75
     1
176
     1
175
     1
176
     1
 42
179.0
176
     1
 92
        8
176
     1
 66
     7
176
     1
 43
1.0
176
     1
 76
     1
176
     1
 77
     6
176
     1
 78
     2
176
     1
 67
     7
176
     1
 79
     3
176
     1
170
     0
176
     1
171
     0
176
     1
290
     0
176
     1
 93
        1
176
     1
 44
0.0
176
     1
173
     0
176
     1
1001
ACAD
1000
AcDbSavedByObjectVersion
1070
     0
  0
VISUALSTYLE
  5
39A
102
{ACAD_XDICTIONARY
360
4A0
102
}
102
{ACAD_REACTORS
330
38F
102
}
330
38F
100
AcDbVisualStyle
  2
Dim
 70
    11
177
     2
291
     1
 71
     2
176
     1
 72
     2
176
     1
 73
     0
176
     1
 90
        0
176
     1
 40
0.6
176
     1
 41
30.0
176
     1
 63
     7
421
 16777215
176
     1
 74
     1
176
     1
 91
        4
176
     1
 64
     7
176
     1
 65
   257
176
     1
 75
     1
176
     1
175
     1
176
     1
 42
1.0
176
     1
 92
        8
176
     1
 66
     7
176
     1
 43
1.0
176
     1
 76
     1
176
     1
 77
     6
176
     1
 78
     2
176
     1
 67
     7
176
     1
 79
     5
176
     1
170
     0
176
     1
171
     0
176
     1
290
     0
176
     1
 93
        1
176
     1
 44
-50.0
176
     1
173
     0
176
     1
1001
ACAD
1000
AcDbSavedByObjectVersion
1070
     0
  0
VISUALSTYLE
  5
3A7
102
{ACAD_XDICTIONARY
360
4BA
102
}
102
{ACAD_REACTORS
330
38F
102
}
330
38F
100
AcDbVisualStyle
  2
EdgeColorOff
 70
    22
177
     2
291
     1
 71
     2
176
     0
 72
     2
176
     0
 73
     0
176
     0
 90
        0
176
     0
 40
0.6
176
     0
 41
30.0
176
     0
 63
     7
421
 16777215
176
     0
 74
     1
176
     0
 91
        4
176
     0
 64
     7
176
     0
 65
   257
176
     0
 75
     1
176
     0
175
     1
176
     0
 42
1.0
176
     0
 92
        8
176
     2
 66
     7
176
     0
 43
1.0
176
     0
 76
     1
176
     0
 77
     6
176
     0
 78
     2
176
     0
 67
     7
176
     0
 79
     5
176
     0
170
     0
176
     0
171
     0
176
     0
290
     0
176
     0
 93
        1
176
     0
 44
0.0
176
     0
173
     0
176
     0
1001
ACAD
1000
AcDbSavedByObjectVersion
1070
     0
  0
VISUALSTYLE
  5
39E
102
{ACAD_XDICTIONARY
360
4A8
102
}
102
{ACAD_REACTORS
330
38F
102
}
330
38F
100
AcDbVisualStyle
  2
Facepattern
 70
    15
177
     2
291
     1
 71
     2
176
     1
 72
     2
176
     1
 73
     0
176
     1
 90
        0
176
     1
 40
0.6
176
     1
 41
30.0
176
     1
 63
     7
421
 16777215
176
     1
 74
     1
176
     1
 91
        4
176
     1
 64
     7
176
     1
 65
   257
176
     1
 75
     1
176
     1
175
     1
176
     1
 42
1.0
176
     1
 92
        8
176
     1
 66
     7
176
     1
 43
1.0
176
     1
 76
     1
176
     1
 77
     6
176
     1
 78
     2
176
     1
 67
     7
176
     1
 79
     5
176
     1
170
     0
176
     1
171
     0
176
     1
290
     0
176
     1
 93
        1
176
     1
 44
0.0
176
     1
173
     0
176
     1
1001
ACAD
1000
AcDbSavedByObjectVersion
1070
     0
  0
VISUALSTYLE
  5
390
102
{ACAD_XDICTIONARY
360
48C
102
}
102
{ACAD_REACTORS
330
38F
102
}
330
38F
100
AcDbVisualStyle
  2
Flat
 70
     0
177
     2
291
     1
 71
     2
176
     1
 72
     1
176
     1
 73
     1
176
     1
 90
        2
176
     1
 40
0.6
176
     1
 41
30.0
176
     1
 63
     7
421
 16777215
176
     1
 74
     0
176
     1
 91
        0
176
     1
 64
     7
176
     1
 65
   257
176
     1
 75
     1
176
     1
175
     1
176
     1
 42
1.0
176
     1
 92
        8
176
     1
 66
     7
176
     1
 43
1.0
176
     1
 76
     1
176
     1
 77
     6
176
     1
 78
     2
176
     1
 67
     7
176
     1
 79
     5
176
     1
170
     0
176
     1
171
     0
176
     1
290
     0
176
     1
 93
       13
176
     1
 44
0.0
176
     1
173
     0
176
     1
1001
ACAD
1000
AcDbSavedByObjectVersion
1070
     0
  0
VISUALSTYLE
  5
391
102
{ACAD_XDICTIONARY
360
48E
102
}
102
{ACAD_REACTORS
330
38F
102
}
330
38F
100
AcDbVisualStyle
  2
FlatWithEdges
 70
     1
177
     2
291
     1
 71
     2
176
     1
 72
     1
176
     1
 73
     1
176
     1
 90
        2
176
     1
 40
0.6
176
     1
 41
30.0
176
     1
 63
     7
421
 16777215
176
     1
 74
     1
176
     1
 91
        0
176
     1
 64
     7
176
     1
 65
   257
176
     1
 75
     1
176
     1
175
     1
176
     1
 42
1.0
176
     1
 92
        0
176
     1
 66
   257
176
     1
 43
1.0
176
     1
 76
     1
176
     1
 77
     6
176
     1
 78
     2
176
     1
 67
     7
176
     1
 79
     5
176
     1
170
     0
176
     1
171
     0
176
     1
290
     0
176
     1
 93
       13
176
     1
 44
0.0
176
     1
173
     0
176
     1
1001
ACAD
1000
AcDbSavedByObjectVersion
1070
     0
  0
VISUALSTYLE
  5
392
102
{ACAD_XDICTIONARY
360
490
102
}
102
{ACAD_REACTORS
330
38F
102
}
330
38F
100
AcDbVisualStyle
  2
Gouraud
 70
     2
177
     2
291
     1
 71
     2
176
     1
 72
     2
176
     1
 73
     1
176
     1
 90
        2
176
     1
 40
0.6
176
     1
 41
30.0
176
     1
 63
     7
421
 16777215
176
     1
 74
     0
176
     1
 91
        0
176
     1
 64
     7
176
     1
 65
   257
176
     1
 75
     1
176
     1
175
     1
176
     1
 42
1.0
176
     1
 92
        0
176
     1
 66
     7
176
     1
 43
1.0
176
     1
 76
     1
176
     1
 77
     6
176
     1
 78
     2
176
     1
 67
     7
176
     1
 79
     5
176
     1
170
     0
176
     1
171
     0
176
     1
290
     0
176
     1
 93
       13
176
     1
 44
0.0
176
     1
173
     0
176
     1
1001
ACAD
1000
AcDbSavedByObjectVersion
1070
     0
  0
VISUALSTYLE
  5
393
102
{ACAD_XDICTIONARY
360
492
102
}
102
{ACAD_REACTORS
330
38F
102
}
330
38F
100
AcDbVisualStyle
  2
GouraudWithEdges
 70
     3
177
     2
291
     1
 71
     2
176
     1
 72
     2
176
     1
 73
     1
176
     1
 90
        2
176
     1
 40
0.6
176
     1
 41
30.0
176
     1
 63
     7
421
 16777215
176
     1
 74
     1
176
     1
 91
        0
176
     1
 64
     7
176
     1
 65
   257
176
     1
 75
     1
176
     1
175
     1
176
     1
 42
1.0
176
     1
 92
        0
176
     1
 66
   257
176
     1
 43
1.0
176
     1
 76
     1
176
     1
 77
     6
176
     1
 78
     2
176
     1
 67
     7
176
     1
 79
     5
176
     1
170
     0
176
     1
171
     0
176
     1
290
     0
176
     1
 93
       13
176
     1
 44
0.0
176
     1
173
     0
176
     1
1001
ACAD
1000
AcDbSavedByObjectVersion
1070
     0
  0
VISUALSTYLE
  5
397
102
{ACAD_XDICTIONARY
360
49A
102
}
102
{ACAD_REACTORS
330
38F
102
}
330
38F
100
AcDbVisualStyle
  2
Hidden
 70
     6
177
     2
291
     0
 71
     1
176
     1
 72
     2
176
     1
 73
     2
176
     1
 90
        0
176
     1
 40
0.6
176
     1
 41
30.0
176
     1
 63
     7
421
 16777215
176
     1
 74
     2
176
     1
 91
        2
176
     1
 64
     7
176
     1
 65
   257
176
     1
 75
     2
176
     1
175
     1
176
     1
 42
40.0
176
     1
 92
        0
176
     1
 66
   257
176
     1
 43
1.0
176
     1
 76
     1
176
     1
 77
     6
176
     1
 78
     2
176
     1
 67
     7
176
     1
 79
     3
176
     1
170
     0
176
     1
171
     0
176
     1
290
     0
176
     1
 93
        1
176
     1
 44
0.0
176
     1
173
     0
176
     1
1001
ACAD
1000
AcDbSavedByObjectVersion
1070
     0
  0
VISUALSTYLE
  5
3A5
102
{ACAD_XDICTIONARY
360
4B6
102
}
102
{ACAD_REACTORS
330
38F
102
}
330
38F
100
AcDbVisualStyle
  2
JitterOff
 70
    20
177
     2
291
     1
 71
     2
176
     0
 72
     2
176
     0
 73
     0
176
     0
 90
        0
176
     0
 40
0.6
176
     0
 41
30.0
176
     0
 63
     7
421
 16777215
176
     0
 74
     1
176
     0
 91
        4
176
     0
 64
     7
176
     0
 65
   257
176
     0
 75
     1
176
     0
175
     1
176
     0
 42
1.0
176
     0
 92
       10
176
     2
 66
     7
176
     0
 43
1.0
176
     0
 76
     1
176
     0
 77
     6
176
     0
 78
     2
176
     0
 67
     7
176
     0
 79
     5
176
     0
170
     0
176
     0
171
     0
176
     0
290
     0
176
     0
 93
        1
176
     0
 44
0.0
176
     0
173
     0
176
     0
1001
ACAD
1000
AcDbSavedByObjectVersion
1070
     0
  0
VISUALSTYLE
  5
39D
102
{ACAD_XDICTIONARY
360
4A6
102
}
102
{ACAD_REACTORS
330
38F
102
}
330
38F
100
AcDbVisualStyle
  2
Linepattern
 70
    14
177
     2
291
     1
 71
     2
176
     1
 72
     2
176
     1
 73
     0
176
     1
 90
        0
176
     1
 40
0.6
176
     1
 41
30.0
176
     1
 63
     7
421
 16777215
176
     1
 74
     1
176
     1
 91
        4
176
     1
 64
     7
176
     1
 65
   257
176
     1
 75
     7
176
     1
175
     7
176
     1
 42
1.0
176
     1
 92
        8
176
     1
 66
     7
176
     1
 43
1.0
176
     1
 76
     1
176
     1
 77
     6
176
     1
 78
     2
176
     1
 67
     7
176
     1
 79
     5
176
     1
170
     0
176
     1
171
     0
176
     1
290
     0
176
     1
 93
        1
176
     1
 44
0.0
176
     1
173
     0
176
     1
1001
ACAD
1000
AcDbSavedByObjectVersion
1070
     0
  0
VISUALSTYLE
  5
3A6
102
{ACAD_XDICTIONARY
360
4B8
102
}
102
{ACAD_REACTORS
330
38F
102
}
330
38F
100
AcDbVisualStyle
  2
OverhangOff
 70
    21
177
     2
291
     1
 71
     2
176
     0
 72
     2
176
     0
 73
     0
176
     0
 90
        0
176
     0
 40
0.6
176
     0
 41
30.0
176
     0
 63
     7
421
 16777215
176
     0
 74
     1
176
     0
 91
        4
176
     0
 64
     7
176
     0
 65
   257
176
     0
 75
     1
176
     0
175
     1
176
     0
 42
1.0
176
     0
 92
        9
176
     2
 66
     7
176
     0
 43
1.0
176
     0
 76
     1
176
     0
 77
     6
176
     0
 78
     2
176
     0
 67
     7
176
     0
 79
     5
176
     0
170
     0
176
     0
171
     0
176
     0
290
     0
176
     0
 93
        1
176
     0
 44
0.0
176
     0
173
     0
176
     0
1001
ACAD
1000
AcDbSavedByObjectVersion
1070
     0
  0
VISUALSTYLE
  5
399
102
{ACAD_XDICTIONARY
360
49E
102
}
102
{ACAD_REACTORS
330
38F
102
}
330
38F
100
AcDbVisualStyle
  2
Realistic
 70
     8
177
     2
291
     0
 71
     2
176
     1
 72
     3
176
     1
 73
     0
176
     1
 90
        2
176
     1
 40
0.6
176
     1
 41
30.0
176
     1
 63
     7
421
 16777215
176
     1
 74
     0
176
     1
 91
        0
176
     1
 64
     7
176
     1
 65
   257
176
     1
 75
     1
176
     1
175
     1
176
     1
 42
1.0
176
     1
 92
        8
176
     1
 66
   257
176
     1
 43
1.0
176
     1
 76
     1
176
     1
 77
     6
176
     1
 78
     2
176
     1
 67
     7
176
     1
 79
     3
176
     1
170
     0
176
     1
171
     0
176
     1
290
     0
176
     1
 93
       13
176
     1
 44
0.0
176
     1
173
     0
176
     1
1001
ACAD
1000
AcDbSavedByObjectVersion
1070
     0
  0
VISUALSTYLE
  5
3A4
102
{ACAD_XDICTIONARY
360
4B4
102
}
102
{ACAD_REACTORS
330
38F
102
}
330
38F
100
AcDbVisualStyle
  2
Shaded
 70
    27
177
     2
291
     0
 71
     2
176
     1
 72
     2
176
     1
 73
     1
176
     1
 90
        2
176
     1
 40
0.6
176
     1
 41
30.0
176
     1
 63
     7
421
 16777215
176
     1
 74
     0
176
     1
 91
        4
176
     1
 64
     7
176
     1
 65
   257
176
     1
 75
     1
176
     1
175
     1
176
     1
 42
1.0
176
     1
 92
        8
176
     1
 66
   257
176
     1
 43
1.0
176
     1
 76
     1
176
     1
 77
     6
176
     1
 78
     2
176
     1
 67
     8
425
  7895160
176
     1
 79
     3
176
     1
170
     0
176
     1
171
     0
176
     1
290
     0
176
     1
 93
        5
176
     1
 44
0.0
176
     1
173
     0
176
     1
1001
ACAD
1000
AcDbSavedByObjectVersion
1070
     0
  0
VISUALSTYLE
  5
3A3
102
{ACAD_XDICTIONARY
360
4B2
102
}
102
{ACAD_REACTORS
330
38F
102
}
330
38F
100
AcDbVisualStyle
  2
Shaded with edges
 70
    26
177
     2
291
     0
 71
     2
176
     1
 72
     2
176
     1
 73
     1
176
     1
 90
        2
176
     1
 40
0.6
176
     1
 41
30.0
176
     1
 63
     7
421
 16777215
176
     1
 74
     1
176
     1
 91
       10
176
     1
 64
     7
176
     1
 65
   257
176
     1
 75
     2
176
     1
175
     1
176
     1
 42
1.0
176
     1
 92
        8
176
     1
 66
   257
176
     1
 43
1.0
176
     1
 76
     1
176
     1
 77
     6
176
     1
 78
     2
176
     1
 67
     7
176
     1
 79
     3
176
     1
170
     0
176
     1
171
     0
176
     1
290
     0
176
     1
 93
        5
176
     1
 44
0.0
176
     1
173
     0
176
     1
1001
ACAD
1000
AcDbSavedByObjectVersion
1070
     0
  0
VISUALSTYLE
  5
3A0
102
{ACAD_XDICTIONARY
360
4AC
102
}
102
{ACAD_REACTORS
330
38F
102
}
330
38F
100
AcDbVisualStyle
  2
Shades of Gray
 70
    23
177
     2
291
     0
 71
     2
176
     1
 72
     2
176
     1
 73
     3
176
     1
 90
        0
176
     1
 40
0.6
176
     1
 41
30.0
176
     1
 63
     7
421
 16777215
176
     1
 74
     2
176
     1
 91
        2
176
     1
 64
     7
176
     1
 65
     7
176
     1
 75
     1
176
     1
175
     1
176
     1
 42
40.0
176
     1
 92
        8
176
     1
 66
     7
176
     1
 43
1.0
176
     1
 76
     1
176
     1
 77
     6
176
     1
 78
     2
176
     1
 67
     7
176
     1
 79
     3
176
     1
170
     0
176
     1
171
     0
176
     1
290
     0
176
     1
 93
        1
176
     1
 44
0.0
176
     1
173
     0
176
     1
1001
ACAD
1000
AcDbSavedByObjectVersion
1070
     0
  0
VISUALSTYLE
  5
3A1
102
{ACAD_XDICTIONARY
360
4AE
102
}
102
{ACAD_REACTORS
330
38F
102
}
330
38F
100
AcDbVisualStyle
  2
Sketchy
 70
    24
177
     2
291
     0
 71
     1
176
     1
 72
     2
176
     1
 73
     2
176
     1
 90
        0
176
     1
 40
0.6
176
     1
 41
30.0
176
     1
 63
     7
421
 16777215
176
     1
 74
     2
176
     1
 91
        2
176
     1
 64
     7
176
     1
 65
     7
176
     1
 75
     1
176
     1
175
     1
176
     1
 42
40.0
176
     1
 92
       11
176
     1
 66
     7
176
     1
 43
1.0
176
     1
 76
     1
176
     1
 77
     6
176
     1
 78
     2
176
     1
 67
     7
176
     1
 79
     6
176
     1
170
     0
176
     1
171
     0
176
     1
290
     0
176
     1
 93
        1
176
     1
 44
0.0
176
     1
173
     0
176
     1
1001
ACAD
1000
AcDbSavedByObjectVersion
1070
     0
  0
VISUALSTYLE
  5
39C
102
{ACAD_XDICTIONARY
360
4A4
102
}
102
{ACAD_REACTORS
330
38F
102
}
330
38F
100
AcDbVisualStyle
  2
Thicken
 70
    13
177
     2
291
     1
 71
     2
176
     1
 72
     2
176
     1
 73
     0
176
     1
 90
        0
176
     1
 40
0.6
176
     1
 41
30.0
176
     1
 63
     7
421
 16777215
176
     1
 74
     1
176
     1
 91
        4
176
     1
 64
     7
176
     1
 65
   257
176
     1
 75
     1
176
     1
175
     1
176
     1
 42
1.0
176
     1
 92
       12
176
     1
 66
     7
176
     1
 43
1.0
176
     1
 76
     1
176
     1
 77
     6
176
     1
 78
     2
176
     1
 67
     7
176
     1
 79
     5
176
     1
170
     0
176
     1
171
     0
176
     1
290
     0
176
     1
 93
        1
176
     1
 44
0.0
176
     1
173
     0
176
     1
1001
ACAD
1000
AcDbSavedByObjectVersion
1070
     0
  0
VISUALSTYLE
  5
396
102
{ACAD_XDICTIONARY
360
498
102
}
102
{ACAD_REACTORS
330
38F
102
}
330
38F
100
AcDbVisualStyle
  2
Wireframe
 70
     5
177
     2
291
     0
 71
     0
176
     1
 72
     2
176
     1
 73
     0
176
     1
 90
        0
176
     1
 40
0.6
176
     1
 41
30.0
176
     1
 63
     7
421
 16777215
176
     1
 74
     1
176
     1
 91
        4
176
     1
 64
     7
176
     1
 65
   257
176
     1
 75
     1
176
     1
175
     1
176
     1
 42
1.0
176
     1
 92
        0
176
     1
 66
   257
176
     1
 43
1.0
176
     1
 76
     1
176
     1
 77
     6
176
     1
 78
     2
176
     1
 67
     7
176
     1
 79
     3
176
     1
170
     0
176
     1
171
     0
176
     1
290
     0
176
     1
 93
        1
176
     1
 44
0.0
176
     1
173
     0
176
     1
1001
ACAD
1000
AcDbSavedByObjectVersion
1070
     0
  0
VISUALSTYLE
  5
3A2
102
{ACAD_XDICTIONARY
360
4B0
102
}
102
{ACAD_REACTORS
330
38F
102
}
330
38F
100
AcDbVisualStyle
  2
X-Ray
 70
    25
177
     2
291
     0
 71
     2
176
     1
 72
     2
176
     1
 73
     1
176
     1
 90
        1
176
     1
 40
0.5
176
     1
 41
30.0
176
     1
 63
     7
421
 16777215
176
     1
 74
     1
176
     1
 91
        0
176
     1
 64
     7
176
     1
 65
   257
176
     1
 75
     1
176
     1
175
     1
176
     1
 42
1.0
176
     1
 92
        8
176
     1
 66
     7
176
     1
 43
1.0
176
     1
 76
     1
176
     1
 77
     6
176
     1
 78
     2
176
     1
 67
     7
176
     1
 79
     3
176
     1
170
     0
176
     1
171
     0
176
     1
290
     0
176
     1
 93
       13
176
     1
 44
0.0
176
     1
173
     0
176
     1
1001
ACAD
1000
AcDbSavedByObjectVersion
1070
     0
  0
DICTIONARYVAR
  5
3F6
102
{ACAD_REACTORS
330
3F0
102
}
330
3F0
100
DictionaryVariables
280
     0
  1
1:1
  0
DICTIONARYVAR
  5
3F2
102
{ACAD_REACTORS
330
3F0
102
}
330
3F0
100
DictionaryVariables
280
     0
  1
STANDARD
  0
DICTIONARYVAR
  5
3F1
102
{ACAD_REACTORS
330
3F0
102
}
330
3F0
100
DictionaryVariables
280
     0
  1
STANDARD
  0
DICTIONARYVAR
  5
3F3
102
{ACAD_REACTORS
330
3F0
102
}
330
3F0
100
DictionaryVariables
280
     0
  1
Imperial24
  0
DICTIONARYVAR
  5
3F4
102
{ACAD_REACTORS
330
3F0
102
}
330
3F0
100
DictionaryVariables
280
     0
  1
Imperial24
  0
DICTIONARYVAR
  5
3F8
102
{ACAD_REACTORS
330
3F0
102
}
330
3F0
100
DictionaryVariables
280
     0
  1
1
  0
DICTIONARYVAR
  5
3F9
102
{ACAD_REACTORS
330
3F0
102
}
330
3F0
100
DictionaryVariables
280
     0
  1
15
  0
DICTIONARYVAR
  5
3F7
102
{ACAD_REACTORS
330
3F0
102
}
330
3F0
100
DictionaryVariables
280
     0
  1
0
  0
DICTIONARYVAR
  5
3F5
102
{ACAD_REACTORS
330
3F0
102
}
330
3F0
100
DictionaryVariables
280
     0
  1
0
  0
DICTIONARY
  5
48B
102
{ACAD_REACTORS
330
489
102
}
330
489
100
AcDbDictionary
281
     1
  0
DICTIONARY
  5
48A
102
{ACAD_REACTORS
330
489
102
}
330
489
100
AcDbDictionary
281
     1
  3
8796087857856
350
484
  3
8796087857872
350
485
  3
8796087857888
350
486
  3
8796087857904
350
487
  3
8796087857920
350
488
  0
DICTIONARY
  5
4BE
330
3C2
100
AcDbDictionary
280
     1
281
     1
  3
ACAD_XREC_ROUNDTRIP
360
4BF
  0
DICTIONARY
  5
380
330
37F
100
AcDbDictionary
280
     1
281
     1
  3
BUMPTILE
360
382
  3
DIFFUSETILE
360
381
  3
OPACITYTILE
360
385
  3
REFLECTIONTILE
360
384
  3
REFRACTIONTILE
360
386
  3
SPECULARTILE
360
383
  0
DICTIONARY
  5
378
330
377
100
AcDbDictionary
280
     1
281
     1
  3
BUMPTILE
360
37A
  3
DIFFUSETILE
360
379
  3
OPACITYTILE
360
37D
  3
REFLECTIONTILE
360
37C
  3
REFRACTIONTILE
360
37E
  3
SPECULARTILE
360
37B
  0
DICTIONARY
  5
388
330
387
100
AcDbDictionary
280
     1
281
     1
  3
BUMPTILE
360
38A
  3
DIFFUSETILE
360
389
  3
OPACITYTILE
360
38D
  3
REFLECTIONTILE
360
38C
  3
REFRACTIONTILE
360
38E
  3
SPECULARTILE
360
38B
  0
DICTIONARY
  5
4BC
330
3C0
100
AcDbDictionary
280
     1
281
     1
  3
ACAD_XREC_ROUNDTRIP
360
4BD
  0
DICTIONARY
  5
481
330
3AA
100
AcDbDictionary
280
     1
281
     1
  3
ACAD_ROUNDTRIP_2008_TABLESTYLE_CELLSTYLEMAP
360
482
  0
DICTIONARY
  5
496
330
395
100
AcDbDictionary
280
     1
281
     1
  3
ACAD_XREC_ROUNDTRIP
360
497
  0
DICTIONARY
  5
494
330
394
100
AcDbDictionary
280
     1
281
     1
  3
ACAD_XREC_ROUNDTRIP
360
495
  0
DICTIONARY
  5
4A2
330
39B
100
AcDbDictionary
280
     1
281
     1
  3
ACAD_XREC_ROUNDTRIP
360
4A3
  0
DICTIONARY
  5
4AA
330
39F
100
AcDbDictionary
280
     1
281
     1
  3
ACAD_XREC_ROUNDTRIP
360
4AB
  0
DICTIONARY
  5
49C
330
398
100
AcDbDictionary
280
     1
281
     1
  3
ACAD_XREC_ROUNDTRIP
360
49D
  0
DICTIONARY
  5
4A0
330
39A
100
AcDbDictionary
280
     1
281
     1
  3
ACAD_XREC_ROUNDTRIP
360
4A1
  0
DICTIONARY
  5
4BA
330
3A7
100
AcDbDictionary
280
     1
281
     1
  3
ACAD_XREC_ROUNDTRIP
360
4BB
  0
DICTIONARY
  5
4A8
330
39E
100
AcDbDictionary
280
     1
281
     1
  3
ACAD_XREC_ROUNDTRIP
360
4A9
  0
DICTIONARY
  5
48C
330
390
100
AcDbDictionary
280
     1
281
     1
  3
ACAD_XREC_ROUNDTRIP
360
48D
  0
DICTIONARY
  5
48E
330
391
100
AcDbDictionary
280
     1
281
     1
  3
ACAD_XREC_ROUNDTRIP
360
48F
  0
DICTIONARY
  5
490
330
392
100
AcDbDictionary
280
     1
281
     1
  3
ACAD_XREC_ROUNDTRIP
360
491
  0
DICTIONARY
  5
492
330
393
100
AcDbDictionary
280
     1
281
     1
  3
ACAD_XREC_ROUNDTRIP
360
493
  0
DICTIONARY
  5
49A
330
397
100
AcDbDictionary
280
     1
281
     1
  3
ACAD_XREC_ROUNDTRIP
360
49B
  0
DICTIONARY
  5
4B6
330
3A5
100
AcDbDictionary
280
     1
281
     1
  3
ACAD_XREC_ROUNDTRIP
360
4B7
  0
DICTIONARY
  5
4A6
330
39D
100
AcDbDictionary
280
     1
281
     1
  3
ACAD_XREC_ROUNDTRIP
360
4A7
  0
DICTIONARY
  5
4B8
330
3A6
100
AcDbDictionary
280
     1
281
     1
  3
ACAD_XREC_ROUNDTRIP
360
4B9
  0
DICTIONARY
  5
49E
330
399
100
AcDbDictionary
280
     1
281
     1
  3
ACAD_XREC_ROUNDTRIP
360
49F
  0
DICTIONARY
  5
4B4
330
3A4
100
AcDbDictionary
280
     1
281
     1
  3
ACAD_XREC_ROUNDTRIP
360
4B5
  0
DICTIONARY
  5
4B2
330
3A3
100
AcDbDictionary
280
     1
281
     1
  3
ACAD_XREC_ROUNDTRIP
360
4B3
  0
DICTIONARY
  5
4AC
330
3A0
100
AcDbDictionary
280
     1
281
     1
  3
ACAD_XREC_ROUNDTRIP
360
4AD
  0
DICTIONARY
  5
4AE
330
3A1
100
AcDbDictionary
280
     1
281
     1
  3
ACAD_XREC_ROUNDTRIP
360
4AF
  0
DICTIONARY
  5
4A4
330
39C
100
AcDbDictionary
280
     1
281
     1
  3
ACAD_XREC_ROUNDTRIP
360
4A5
  0
DICTIONARY
  5
498
330
396
100
AcDbDictionary
280
     1
281
     1
  3
ACAD_XREC_ROUNDTRIP
360
499
  0
DICTIONARY
  5
4B0
330
3A2
100
AcDbDictionary
280
     1
281
     1
  3
ACAD_XREC_ROUNDTRIP
360
4B1
  0
XRECORD
  5
484
102
{ACAD_REACTORS
330
48A
102
}
330
48A
100
AcDbXrecord
280
     1
  1
AcDb_Thumbnail_Schema
102
{ATTRRECORD
341
485
  2
AcDbDs::TreatedAsObjectData
280
     1
291
     1
102
ATTRRECORD}
102
{ATTRRECORD
341
486
  2
AcDbDs::Legacy
280
     1
291
     1
102
ATTRRECORD}
  2
AcDbDs::ID
280
    10
 91
        8
102
{ATTRRECORD
341
487
  2
AcDs:Indexable
280
     1
291
     1
102
ATTRRECORD}
102
{ATTRRECORD
341
488
  2
AcDbDs::HandleAttribute
280
     7
282
     1
102
ATTRRECORD}
  2
Thumbnail_Data
280
    15
 91
        0
  0
XRECORD
  5
485
102
{ACAD_REACTORS
330
48A
102
}
330
48A
100
AcDbXrecord
280
     1
  1
AcDbDs::TreatedAsObjectDataSchema
  2
AcDbDs::TreatedAsObjectData
280
     1
 91
        0
  0
XRECORD
  5
486
102
{ACAD_REACTORS
330
48A
102
}
330
48A
100
AcDbXrecord
280
     1
  1
AcDbDs::LegacySchema
  2
AcDbDs::Legacy
280
     1
 91
        0
  0
XRECORD
  5
487
102
{ACAD_REACTORS
330
48A
102
}
330
48A
100
AcDbXrecord
280
     1
  1
AcDbDs::IndexedPropertySchema
  2
AcDs:Indexable
280
     1
 91
        0
  0
XRECORD
  5
488
102
{ACAD_REACTORS
330
48A
102
}
330
48A
100
AcDbXrecord
280
     1
  1
AcDbDs::HandleAttributeSchema
  2
AcDbDs::HandleAttribute
280
     7
 91
        1
284
     1
  0
XRECORD
  5
4BF
102
{ACAD_REACTORS
330
4BE
102
}
330
4BE
100
AcDbXrecord
280
     1
102
DISPLAYNAME
  1
Imperial24
102
FLAGS
 90
        0
  0
XRECORD
  5
382
102
{ACAD_REACTORS
330
380
102
}
330
380
100
AcDbXrecord
280
     1
270
     1
271
     1
  0
XRECORD
  5
381
102
{ACAD_REACTORS
330
380
102
}
330
380
100
AcDbXrecord
280
     1
270
     1
271
     1
  0
XRECORD
  5
385
102
{ACAD_REACTORS
330
380
102
}
330
380
100
AcDbXrecord
280
     1
270
     1
271
     1
  0
XRECORD
  5
384
102
{ACAD_REACTORS
330
380
102
}
330
380
100
AcDbXrecord
280
     1
270
     1
271
     1
  0
XRECORD
  5
386
102
{ACAD_REACTORS
330
380
102
}
330
380
100
AcDbXrecord
280
     1
270
     1
271
     1
  0
XRECORD
  5
383
102
{ACAD_REACTORS
330
380
102
}
330
380
100
AcDbXrecord
280
     1
270
     1
271
     1
  0
XRECORD
  5
37A
102
{ACAD_REACTORS
330
378
102
}
330
378
100
AcDbXrecord
280
     1
270
     1
271
     1
  0
XRECORD
  5
379
102
{ACAD_REACTORS
330
378
102
}
330
378
100
AcDbXrecord
280
     1
270
     1
271
     1
  0
XRECORD
  5
37D
102
{ACAD_REACTORS
330
378
102
}
330
378
100
AcDbXrecord
280
     1
270
     1
271
     1
  0
XRECORD
  5
37C
102
{ACAD_REACTORS
330
378
102
}
330
378
100
AcDbXrecord
280
     1
270
     1
271
     1
  0
XRECORD
  5
37E
102
{ACAD_REACTORS
330
378
102
}
330
378
100
AcDbXrecord
280
     1
270
     1
271
     1
  0
XRECORD
  5
37B
102
{ACAD_REACTORS
330
378
102
}
330
378
100
AcDbXrecord
280
     1
270
     1
271
     1
  0
XRECORD
  5
38A
102
{ACAD_REACTORS
330
388
102
}
330
388
100
AcDbXrecord
280
     1
270
     1
271
     1
  0
XRECORD
  5
389
102
{ACAD_REACTORS
330
388
102
}
330
388
100
AcDbXrecord
280
     1
270
     1
271
     1
  0
XRECORD
  5
38D
102
{ACAD_REACTORS
330
388
102
}
330
388
100
AcDbXrecord
280
     1
270
     1
271
     1
  0
XRECORD
  5
38C
102
{ACAD_REACTORS
330
388
102
}
330
388
100
AcDbXrecord
280
     1
270
     1
271
     1
  0
XRECORD
  5
38E
102
{ACAD_REACTORS
330
388
102
}
330
388
100
AcDbXrecord
280
     1
270
     1
271
     1
  0
XRECORD
  5
38B
102
{ACAD_REACTORS
330
388
102
}
330
388
100
AcDbXrecord
280
     1
270
     1
271
     1
  0
XRECORD
  5
4BD
102
{ACAD_REACTORS
330
4BC
102
}
330
4BC
100
AcDbXrecord
280
     1
102
DISPLAYNAME
  1
Imperial24
102
FLAGS
 90
        0
  0
CELLSTYLEMAP
  5
482
102
{ACAD_REACTORS
330
481
102
}
330
481
100
AcDbCellStyleMap
 90
        3
300
CELLSTYLE
  1
TABLEFORMAT_BEGIN
 90
        5
170
     1
 91
        0
 92
    32768
 62
   257
 93
        1
300
CONTENTFORMAT
  1
CONTENTFORMAT_BEGIN
 90
        0
 91
        0
 92
      512
 93
        0
300

 40
0.0
140
1.0
 94
        5
 62
     0
340
11
144
0.25
309
CONTENTFORMAT_END
171
     0
 94
        0
309
TABLEFORMAT_END
  1
CELLSTYLE_BEGIN
 90
        1
 91
        1
300
_TITLE
309
CELLSTYLE_END
300
CELLSTYLE
  1
TABLEFORMAT_BEGIN
 90
        5
170
     1
 91
        0
 92
        0
 62
   257
 93
        1
300
CONTENTFORMAT
  1
CONTENTFORMAT_BEGIN
 90
        0
 91
        0
 92
      512
 93
        0
300

 40
0.0
140
1.0
 94
        5
 62
     0
340
11
144
0.18
309
CONTENTFORMAT_END
171
     0
 94
        0
309
TABLEFORMAT_END
  1
CELLSTYLE_BEGIN
 90
        2
 91
        1
300
_HEADER
309
CELLSTYLE_END
300
CELLSTYLE
  1
TABLEFORMAT_BEGIN
 90
        5
170
     1
 91
        0
 92
        0
 62
   257
 93
        1
300
CONTENTFORMAT
  1
CONTENTFORMAT_BEGIN
 90
        0
 91
        0
 92
      512
 93
        0
300

 40
0.0
140
1.0
 94
        2
 62
     0
340
11
144
0.18
309
CONTENTFORMAT_END
171
     0
 94
        0
309
TABLEFORMAT_END
  1
CELLSTYLE_BEGIN
 90
        3
 91
        2
300
_DATA
309
CELLSTYLE_END
  0
XRECORD
  5
497
102
{ACAD_REACTORS
330
496
102
}
330
496
100
AcDbXrecord
280
     1
102
RTVSPost2010Prop28
280
     1
102
RTVSPost2010PropOp28
 70
     1
102
RTVSPost2010Prop29
280
     1
102
RTVSPost2010PropOp29
 70
     1
102
RTVSPost2010Prop30
280
     0
102
RTVSPost2010PropOp30
 70
     1
102
RTVSPost2010Prop31
280
     0
102
RTVSPost2010PropOp31
 70
     1
102
RTVSPost2010Prop32
280
     0
102
RTVSPost2010PropOp32
 70
     1
102
RTVSPost2010Prop33
280
     0
102
RTVSPost2010PropOp33
 70
     1
102
RTVSPost2010Prop34
280
     0
102
RTVSPost2010PropOp34
 70
     1
102
RTVSPost2010Prop35
280
     0
102
RTVSPost2010PropOp35
 70
     1
102
RTVSPost2010Prop36
280
     0
102
RTVSPost2010PropOp36
 70
     1
102
RTVSPost2010Prop37
 90
       50
102
RTVSPost2010PropOp37
 70
     1
102
RTVSPost2010Prop38
140
0.0
102
RTVSPost2010PropOp38
 70
     1
102
RTVSPost2010Prop39
140
1.0
102
RTVSPost2010PropOp39
 70
     1
102
RTVSPost2010Prop40
 90
        0
102
RTVSPost2010PropOp40
 70
     1
102
RTVSPost2010Prop41ColorIndex
 90
       18
102
RTVSPost2010Prop41ColorRGB
 90
        0
102
RTVSPost2010PropOp41
 70
     1
102
RTVSPost2010Prop42
 90
       50
102
RTVSPost2010PropOp42
 70
     1
102
RTVSPost2010Prop43
 90
        3
102
RTVSPost2010PropOp43
 70
     1
102
RTVSPost2010Prop44ColorIndex
 90
        5
102
RTVSPost2010Prop44ColorRGB
 90
      255
102
RTVSPost2010PropOp44
 70
     1
102
RTVSPost2010Prop45
280
     0
102
RTVSPost2010PropOp45
 70
     1
102
RTVSPost2010Prop46
 90
       50
102
RTVSPost2010PropOp46
 70
     1
102
RTVSPost2010Prop47
 90
       50
102
RTVSPost2010PropOp47
 70
     1
102
RTVSPost2010Prop48
 90
       50
102
RTVSPost2010PropOp48
 70
     1
102
RTVSPost2010Prop49
280
     0
102
RTVSPost2010PropOp49
 70
     1
102
RTVSPost2010Prop50
 90
       50
102
RTVSPost2010PropOp50
 70
     1
102
RTVSPost2010Prop51ColorIndex
 90
      256
102
RTVSPost2010Prop51ColorRGB
 90
-16777216
102
RTVSPost2010PropOp51
 70
     0
102
RTVSPost2010Prop52
140
1.0
102
RTVSPost2010PropOp52
 70
     0
102
RTVSPost2010Prop53
 90
        2
102
RTVSPost2010PropOp53
 70
     1
102
RTVSPost2010Prop54
  1
strokes_ogs.tif
102
RTVSPost2010PropOp54
 70
     1
102
RTVSPost2010Prop55
280
     0
102
RTVSPost2010PropOp55
 70
     1
102
RTVSPost2010Prop56
140
1.0
102
RTVSPost2010PropOp56
 70
     1
102
RTVSPost2010Prop57
140
1.0
102
RTVSPost2010PropOp57
 70
     1
  0
XRECORD
  5
495
102
{ACAD_REACTORS
330
494
102
}
330
494
100
AcDbXrecord
280
     1
102
RTVSPost2010Prop28
280
     0
102
RTVSPost2010PropOp28
 70
     1
102
RTVSPost2010Prop29
280
     1
102
RTVSPost2010PropOp29
 70
     1
102
RTVSPost2010Prop30
280
     1
102
RTVSPost2010PropOp30
 70
     1
102
RTVSPost2010Prop31
280
     0
102
RTVSPost2010PropOp31
 70
     1
102
RTVSPost2010Prop32
280
     0
102
RTVSPost2010PropOp32
 70
     1
102
RTVSPost2010Prop33
280
     0
102
RTVSPost2010PropOp33
 70
     1
102
RTVSPost2010Prop34
280
     0
102
RTVSPost2010PropOp34
 70
     1
102
RTVSPost2010Prop35
280
     0
102
RTVSPost2010PropOp35
 70
     1
102
RTVSPost2010Prop36
280
     0
102
RTVSPost2010PropOp36
 70
     1
102
RTVSPost2010Prop37
 90
       50
102
RTVSPost2010PropOp37
 70
     1
102
RTVSPost2010Prop38
140
0.0
102
RTVSPost2010PropOp38
 70
     1
102
RTVSPost2010Prop39
140
1.0
102
RTVSPost2010PropOp39
 70
     1
102
RTVSPost2010Prop40
 90
        0
102
RTVSPost2010PropOp40
 70
     1
102
RTVSPost2010Prop41ColorIndex
 90
       18
102
RTVSPost2010Prop41ColorRGB
 90
        0
102
RTVSPost2010PropOp41
 70
     1
102
RTVSPost2010Prop42
 90
       50
102
RTVSPost2010PropOp42
 70
     1
102
RTVSPost2010Prop43
 90
        3
102
RTVSPost2010PropOp43
 70
     1
102
RTVSPost2010Prop44ColorIndex
 90
        5
102
RTVSPost2010Prop44ColorRGB
 90
      255
102
RTVSPost2010PropOp44
 70
     1
102
RTVSPost2010Prop45
280
     0
102
RTVSPost2010PropOp45
 70
     1
102
RTVSPost2010Prop46
 90
       50
102
RTVSPost2010PropOp46
 70
     1
102
RTVSPost2010Prop47
 90
       50
102
RTVSPost2010PropOp47
 70
     1
102
RTVSPost2010Prop48
 90
       50
102
RTVSPost2010PropOp48
 70
     1
102
RTVSPost2010Prop49
280
     0
102
RTVSPost2010PropOp49
 70
     1
102
RTVSPost2010Prop50
 90
       50
102
RTVSPost2010PropOp50
 70
     1
102
RTVSPost2010Prop51ColorIndex
 90
      256
102
RTVSPost2010Prop51ColorRGB
 90
-16777216
102
RTVSPost2010PropOp51
 70
     0
102
RTVSPost2010Prop52
140
1.0
102
RTVSPost2010PropOp52
 70
     0
102
RTVSPost2010Prop53
 90
        2
102
RTVSPost2010PropOp53
 70
     1
102
RTVSPost2010Prop54
  1
strokes_ogs.tif
102
RTVSPost2010PropOp54
 70
     1
102
RTVSPost2010Prop55
280
     0
102
RTVSPost2010PropOp55
 70
     1
102
RTVSPost2010Prop56
140
1.0
102
RTVSPost2010PropOp56
 70
     1
102
RTVSPost2010Prop57
140
1.0
102
RTVSPost2010PropOp57
 70
     1
  0
XRECORD
  5
4A3
102
{ACAD_REACTORS
330
4A2
102
}
330
4A2
100
AcDbXrecord
280
     1
102
RTVSPost2010Prop28
280
     0
102
RTVSPost2010PropOp28
 70
     1
102
RTVSPost2010Prop29
280
     1
102
RTVSPost2010PropOp29
 70
     1
102
RTVSPost2010Prop30
280
     1
102
RTVSPost2010PropOp30
 70
     1
102
RTVSPost2010Prop31
280
     0
102
RTVSPost2010PropOp31
 70
     1
102
RTVSPost2010Prop32
280
     0
102
RTVSPost2010PropOp32
 70
     1
102
RTVSPost2010Prop33
280
     0
102
RTVSPost2010PropOp33
 70
     1
102
RTVSPost2010Prop34
280
     0
102
RTVSPost2010PropOp34
 70
     1
102
RTVSPost2010Prop35
280
     0
102
RTVSPost2010PropOp35
 70
     1
102
RTVSPost2010Prop36
280
     0
102
RTVSPost2010PropOp36
 70
     1
102
RTVSPost2010Prop37
 90
       50
102
RTVSPost2010PropOp37
 70
     1
102
RTVSPost2010Prop38
140
0.0
102
RTVSPost2010PropOp38
 70
     1
102
RTVSPost2010Prop39
140
1.0
102
RTVSPost2010PropOp39
 70
     1
102
RTVSPost2010Prop40
 90
        0
102
RTVSPost2010PropOp40
 70
     1
102
RTVSPost2010Prop41ColorIndex
 90
       18
102
RTVSPost2010Prop41ColorRGB
 90
        0
102
RTVSPost2010PropOp41
 70
     1
102
RTVSPost2010Prop42
 90
       50
102
RTVSPost2010PropOp42
 70
     1
102
RTVSPost2010Prop43
 90
        3
102
RTVSPost2010PropOp43
 70
     1
102
RTVSPost2010Prop44ColorIndex
 90
        5
102
RTVSPost2010Prop44ColorRGB
 90
      255
102
RTVSPost2010PropOp44
 70
     1
102
RTVSPost2010Prop45
280
     0
102
RTVSPost2010PropOp45
 70
     1
102
RTVSPost2010Prop46
 90
       50
102
RTVSPost2010PropOp46
 70
     1
102
RTVSPost2010Prop47
 90
       50
102
RTVSPost2010PropOp47
 70
     1
102
RTVSPost2010Prop48
 90
       50
102
RTVSPost2010PropOp48
 70
     1
102
RTVSPost2010Prop49
280
     0
102
RTVSPost2010PropOp49
 70
     1
102
RTVSPost2010Prop50
 90
       50
102
RTVSPost2010PropOp50
 70
     1
102
RTVSPost2010Prop51ColorIndex
 90
      256
102
RTVSPost2010Prop51ColorRGB
 90
-16777216
102
RTVSPost2010PropOp51
 70
     0
102
RTVSPost2010Prop52
140
1.0
102
RTVSPost2010PropOp52
 70
     0
102
RTVSPost2010Prop53
 90
        2
102
RTVSPost2010PropOp53
 70
     1
102
RTVSPost2010Prop54
  1
strokes_ogs.tif
102
RTVSPost2010PropOp54
 70
     1
102
RTVSPost2010Prop55
280
     0
102
RTVSPost2010PropOp55
 70
     1
102
RTVSPost2010Prop56
140
1.0
102
RTVSPost2010PropOp56
 70
     1
102
RTVSPost2010Prop57
140
1.0
102
RTVSPost2010PropOp57
 70
     1
  0
XRECORD
  5
4AB
102
{ACAD_REACTORS
330
4AA
102
}
330
4AA
100
AcDbXrecord
280
     1
102
RTVSPost2010Prop28
280
     0
102
RTVSPost2010PropOp28
 70
     1
102
RTVSPost2010Prop29
280
     1
102
RTVSPost2010PropOp29
 70
     1
102
RTVSPost2010Prop30
280
     1
102
RTVSPost2010PropOp30
 70
     1
102
RTVSPost2010Prop31
280
     0
102
RTVSPost2010PropOp31
 70
     1
102
RTVSPost2010Prop32
280
     0
102
RTVSPost2010PropOp32
 70
     1
102
RTVSPost2010Prop33
280
     0
102
RTVSPost2010PropOp33
 70
     1
102
RTVSPost2010Prop34
280
     0
102
RTVSPost2010PropOp34
 70
     1
102
RTVSPost2010Prop35
280
     0
102
RTVSPost2010PropOp35
 70
     1
102
RTVSPost2010Prop36
280
     0
102
RTVSPost2010PropOp36
 70
     1
102
RTVSPost2010Prop37
 90
       50
102
RTVSPost2010PropOp37
 70
     1
102
RTVSPost2010Prop38
140
0.0
102
RTVSPost2010PropOp38
 70
     1
102
RTVSPost2010Prop39
140
1.0
102
RTVSPost2010PropOp39
 70
     1
102
RTVSPost2010Prop40
 90
        0
102
RTVSPost2010PropOp40
 70
     1
102
RTVSPost2010Prop41ColorIndex
 90
       18
102
RTVSPost2010Prop41ColorRGB
 90
        0
102
RTVSPost2010PropOp41
 70
     1
102
RTVSPost2010Prop42
 90
       50
102
RTVSPost2010PropOp42
 70
     1
102
RTVSPost2010Prop43
 90
        3
102
RTVSPost2010PropOp43
 70
     1
102
RTVSPost2010Prop44ColorIndex
 90
        5
102
RTVSPost2010Prop44ColorRGB
 90
      255
102
RTVSPost2010PropOp44
 70
     1
102
RTVSPost2010Prop45
280
     0
102
RTVSPost2010PropOp45
 70
     1
102
RTVSPost2010Prop46
 90
       50
102
RTVSPost2010PropOp46
 70
     1
102
RTVSPost2010Prop47
 90
       50
102
RTVSPost2010PropOp47
 70
     1
102
RTVSPost2010Prop48
 90
       50
102
RTVSPost2010PropOp48
 70
     1
102
RTVSPost2010Prop49
280
     0
102
RTVSPost2010PropOp49
 70
     1
102
RTVSPost2010Prop50
 90
       50
102
RTVSPost2010PropOp50
 70
     1
102
RTVSPost2010Prop51ColorIndex
 90
      256
102
RTVSPost2010Prop51ColorRGB
 90
-16777216
102
RTVSPost2010PropOp51
 70
     0
102
RTVSPost2010Prop52
140
1.0
102
RTVSPost2010PropOp52
 70
     0
102
RTVSPost2010Prop53
 90
        2
102
RTVSPost2010PropOp53
 70
     1
102
RTVSPost2010Prop54
  1
strokes_ogs.tif
102
RTVSPost2010PropOp54
 70
     1
102
RTVSPost2010Prop55
280
     0
102
RTVSPost2010PropOp55
 70
     1
102
RTVSPost2010Prop56
140
1.0
102
RTVSPost2010PropOp56
 70
     1
102
RTVSPost2010Prop57
140
1.0
102
RTVSPost2010PropOp57
 70
     1
  0
XRECORD
  5
49D
102
{ACAD_REACTORS
330
49C
102
}
330
49C
100
AcDbXrecord
280
     1
102
RTVSPost2010Prop28
280
     0
102
RTVSPost2010PropOp28
 70
     1
102
RTVSPost2010Prop29
280
     1
102
RTVSPost2010PropOp29
 70
     1
102
RTVSPost2010Prop30
280
     1
102
RTVSPost2010PropOp30
 70
     1
102
RTVSPost2010Prop31
280
     0
102
RTVSPost2010PropOp31
 70
     1
102
RTVSPost2010Prop32
280
     0
102
RTVSPost2010PropOp32
 70
     1
102
RTVSPost2010Prop33
280
     0
102
RTVSPost2010PropOp33
 70
     1
102
RTVSPost2010Prop34
280
     0
102
RTVSPost2010PropOp34
 70
     1
102
RTVSPost2010Prop35
280
     0
102
RTVSPost2010PropOp35
 70
     1
102
RTVSPost2010Prop36
280
     0
102
RTVSPost2010PropOp36
 70
     1
102
RTVSPost2010Prop37
 90
       50
102
RTVSPost2010PropOp37
 70
     1
102
RTVSPost2010Prop38
140
0.0
102
RTVSPost2010PropOp38
 70
     1
102
RTVSPost2010Prop39
140
1.0
102
RTVSPost2010PropOp39
 70
     1
102
RTVSPost2010Prop40
 90
        0
102
RTVSPost2010PropOp40
 70
     1
102
RTVSPost2010Prop41ColorIndex
 90
       18
102
RTVSPost2010Prop41ColorRGB
 90
        0
102
RTVSPost2010PropOp41
 70
     1
102
RTVSPost2010Prop42
 90
       50
102
RTVSPost2010PropOp42
 70
     1
102
RTVSPost2010Prop43
 90
        3
102
RTVSPost2010PropOp43
 70
     1
102
RTVSPost2010Prop44ColorIndex
 90
        5
102
RTVSPost2010Prop44ColorRGB
 90
      255
102
RTVSPost2010PropOp44
 70
     1
102
RTVSPost2010Prop45
280
     0
102
RTVSPost2010PropOp45
 70
     1
102
RTVSPost2010Prop46
 90
       50
102
RTVSPost2010PropOp46
 70
     1
102
RTVSPost2010Prop47
 90
       50
102
RTVSPost2010PropOp47
 70
     1
102
RTVSPost2010Prop48
 90
       50
102
RTVSPost2010PropOp48
 70
     1
102
RTVSPost2010Prop49
280
     0
102
RTVSPost2010PropOp49
 70
     1
102
RTVSPost2010Prop50
 90
       50
102
RTVSPost2010PropOp50
 70
     1
102
RTVSPost2010Prop51ColorIndex
 90
      256
102
RTVSPost2010Prop51ColorRGB
 90
-16777216
102
RTVSPost2010PropOp51
 70
     0
102
RTVSPost2010Prop52
140
1.0
102
RTVSPost2010PropOp52
 70
     0
102
RTVSPost2010Prop53
 90
        2
102
RTVSPost2010PropOp53
 70
     1
102
RTVSPost2010Prop54
  1
strokes_ogs.tif
102
RTVSPost2010PropOp54
 70
     1
102
RTVSPost2010Prop55
280
     0
102
RTVSPost2010PropOp55
 70
     1
102
RTVSPost2010Prop56
140
1.0
102
RTVSPost2010PropOp56
 70
     1
102
RTVSPost2010Prop57
140
1.0
102
RTVSPost2010PropOp57
 70
     1
  0
XRECORD
  5
4A1
102
{ACAD_REACTORS
330
4A0
102
}
330
4A0
100
AcDbXrecord
280
     1
102
RTVSPost2010Prop28
280
     0
102
RTVSPost2010PropOp28
 70
     1
102
RTVSPost2010Prop29
280
     1
102
RTVSPost2010PropOp29
 70
     1
102
RTVSPost2010Prop30
280
     1
102
RTVSPost2010PropOp30
 70
     1
102
RTVSPost2010Prop31
280
     0
102
RTVSPost2010PropOp31
 70
     1
102
RTVSPost2010Prop32
280
     0
102
RTVSPost2010PropOp32
 70
     1
102
RTVSPost2010Prop33
280
     0
102
RTVSPost2010PropOp33
 70
     1
102
RTVSPost2010Prop34
280
     0
102
RTVSPost2010PropOp34
 70
     1
102
RTVSPost2010Prop35
280
     0
102
RTVSPost2010PropOp35
 70
     1
102
RTVSPost2010Prop36
280
     0
102
RTVSPost2010PropOp36
 70
     1
102
RTVSPost2010Prop37
 90
       50
102
RTVSPost2010PropOp37
 70
     1
102
RTVSPost2010Prop38
140
0.0
102
RTVSPost2010PropOp38
 70
     1
102
RTVSPost2010Prop39
140
1.0
102
RTVSPost2010PropOp39
 70
     1
102
RTVSPost2010Prop40
 90
        0
102
RTVSPost2010PropOp40
 70
     1
102
RTVSPost2010Prop41ColorIndex
 90
       18
102
RTVSPost2010Prop41ColorRGB
 90
        0
102
RTVSPost2010PropOp41
 70
     1
102
RTVSPost2010Prop42
 90
       50
102
RTVSPost2010PropOp42
 70
     1
102
RTVSPost2010Prop43
 90
        3
102
RTVSPost2010PropOp43
 70
     1
102
RTVSPost2010Prop44ColorIndex
 90
        5
102
RTVSPost2010Prop44ColorRGB
 90
      255
102
RTVSPost2010PropOp44
 70
     1
102
RTVSPost2010Prop45
280
     0
102
RTVSPost2010PropOp45
 70
     1
102
RTVSPost2010Prop46
 90
       50
102
RTVSPost2010PropOp46
 70
     1
102
RTVSPost2010Prop47
 90
       50
102
RTVSPost2010PropOp47
 70
     1
102
RTVSPost2010Prop48
 90
       50
102
RTVSPost2010PropOp48
 70
     1
102
RTVSPost2010Prop49
280
     0
102
RTVSPost2010PropOp49
 70
     1
102
RTVSPost2010Prop50
 90
       50
102
RTVSPost2010PropOp50
 70
     1
102
RTVSPost2010Prop51ColorIndex
 90
      256
102
RTVSPost2010Prop51ColorRGB
 90
-16777216
102
RTVSPost2010PropOp51
 70
     0
102
RTVSPost2010Prop52
140
1.0
102
RTVSPost2010PropOp52
 70
     0
102
RTVSPost2010Prop53
 90
        2
102
RTVSPost2010PropOp53
 70
     1
102
RTVSPost2010Prop54
  1
strokes_ogs.tif
102
RTVSPost2010PropOp54
 70
     1
102
RTVSPost2010Prop55
280
     0
102
RTVSPost2010PropOp55
 70
     1
102
RTVSPost2010Prop56
140
1.0
102
RTVSPost2010PropOp56
 70
     1
102
RTVSPost2010Prop57
140
1.0
102
RTVSPost2010PropOp57
 70
     1
  0
XRECORD
  5
4BB
102
{ACAD_REACTORS
330
4BA
102
}
330
4BA
100
AcDbXrecord
280
     1
102
RTVSPost2010Prop28
280
     0
102
RTVSPost2010PropOp28
 70
     1
102
RTVSPost2010Prop29
280
     1
102
RTVSPost2010PropOp29
 70
     1
102
RTVSPost2010Prop30
280
     1
102
RTVSPost2010PropOp30
 70
     1
102
RTVSPost2010Prop31
280
     0
102
RTVSPost2010PropOp31
 70
     1
102
RTVSPost2010Prop32
280
     0
102
RTVSPost2010PropOp32
 70
     1
102
RTVSPost2010Prop33
280
     0
102
RTVSPost2010PropOp33
 70
     1
102
RTVSPost2010Prop34
280
     0
102
RTVSPost2010PropOp34
 70
     1
102
RTVSPost2010Prop35
280
     0
102
RTVSPost2010PropOp35
 70
     1
102
RTVSPost2010Prop36
280
     0
102
RTVSPost2010PropOp36
 70
     1
102
RTVSPost2010Prop37
 90
       50
102
RTVSPost2010PropOp37
 70
     0
102
RTVSPost2010Prop38
140
0.0
102
RTVSPost2010PropOp38
 70
     0
102
RTVSPost2010Prop39
140
1.0
102
RTVSPost2010PropOp39
 70
     0
102
RTVSPost2010Prop40
 90
        0
102
RTVSPost2010PropOp40
 70
     0
102
RTVSPost2010Prop41ColorIndex
 90
       18
102
RTVSPost2010Prop41ColorRGB
 90
        0
102
RTVSPost2010PropOp41
 70
     0
102
RTVSPost2010Prop42
 90
       50
102
RTVSPost2010PropOp42
 70
     0
102
RTVSPost2010Prop43
 90
        3
102
RTVSPost2010PropOp43
 70
     0
102
RTVSPost2010Prop44ColorIndex
 90
        5
102
RTVSPost2010Prop44ColorRGB
 90
      255
102
RTVSPost2010PropOp44
 70
     0
102
RTVSPost2010Prop45
280
     0
102
RTVSPost2010PropOp45
 70
     1
102
RTVSPost2010Prop46
 90
       50
102
RTVSPost2010PropOp46
 70
     0
102
RTVSPost2010Prop47
 90
       50
102
RTVSPost2010PropOp47
 70
     0
102
RTVSPost2010Prop48
 90
       50
102
RTVSPost2010PropOp48
 70
     0
102
RTVSPost2010Prop49
280
     0
102
RTVSPost2010PropOp49
 70
     1
102
RTVSPost2010Prop50
 90
       50
102
RTVSPost2010PropOp50
 70
     0
102
RTVSPost2010Prop51ColorIndex
 90
      256
102
RTVSPost2010Prop51ColorRGB
 90
-16777216
102
RTVSPost2010PropOp51
 70
     0
102
RTVSPost2010Prop52
140
1.0
102
RTVSPost2010PropOp52
 70
     0
102
RTVSPost2010Prop53
 90
        2
102
RTVSPost2010PropOp53
 70
     0
102
RTVSPost2010Prop54
  1
strokes_ogs.tif
102
RTVSPost2010PropOp54
 70
     0
102
RTVSPost2010Prop55
280
     0
102
RTVSPost2010PropOp55
 70
     1
102
RTVSPost2010Prop56
140
1.0
102
RTVSPost2010PropOp56
 70
     0
102
RTVSPost2010Prop57
140
1.0
102
RTVSPost2010PropOp57
 70
     0
  0
XRECORD
  5
4A9
102
{ACAD_REACTORS
330
4A8
102
}
330
4A8
100
AcDbXrecord
280
     1
102
RTVSPost2010Prop28
280
     0
102
RTVSPost2010PropOp28
 70
     1
102
RTVSPost2010Prop29
280
     1
102
RTVSPost2010PropOp29
 70
     1
102
RTVSPost2010Prop30
280
     1
102
RTVSPost2010PropOp30
 70
     1
102
RTVSPost2010Prop31
280
     0
102
RTVSPost2010PropOp31
 70
     1
102
RTVSPost2010Prop32
280
     0
102
RTVSPost2010PropOp32
 70
     1
102
RTVSPost2010Prop33
280
     0
102
RTVSPost2010PropOp33
 70
     1
102
RTVSPost2010Prop34
280
     0
102
RTVSPost2010PropOp34
 70
     1
102
RTVSPost2010Prop35
280
     0
102
RTVSPost2010PropOp35
 70
     1
102
RTVSPost2010Prop36
280
     0
102
RTVSPost2010PropOp36
 70
     1
102
RTVSPost2010Prop37
 90
       50
102
RTVSPost2010PropOp37
 70
     1
102
RTVSPost2010Prop38
140
0.0
102
RTVSPost2010PropOp38
 70
     1
102
RTVSPost2010Prop39
140
1.0
102
RTVSPost2010PropOp39
 70
     1
102
RTVSPost2010Prop40
 90
        0
102
RTVSPost2010PropOp40
 70
     1
102
RTVSPost2010Prop41ColorIndex
 90
       18
102
RTVSPost2010Prop41ColorRGB
 90
        0
102
RTVSPost2010PropOp41
 70
     1
102
RTVSPost2010Prop42
 90
       50
102
RTVSPost2010PropOp42
 70
     1
102
RTVSPost2010Prop43
 90
        3
102
RTVSPost2010PropOp43
 70
     1
102
RTVSPost2010Prop44ColorIndex
 90
        5
102
RTVSPost2010Prop44ColorRGB
 90
      255
102
RTVSPost2010PropOp44
 70
     1
102
RTVSPost2010Prop45
280
     0
102
RTVSPost2010PropOp45
 70
     1
102
RTVSPost2010Prop46
 90
       50
102
RTVSPost2010PropOp46
 70
     1
102
RTVSPost2010Prop47
 90
       50
102
RTVSPost2010PropOp47
 70
     1
102
RTVSPost2010Prop48
 90
       50
102
RTVSPost2010PropOp48
 70
     1
102
RTVSPost2010Prop49
280
     0
102
RTVSPost2010PropOp49
 70
     1
102
RTVSPost2010Prop50
 90
       50
102
RTVSPost2010PropOp50
 70
     1
102
RTVSPost2010Prop51ColorIndex
 90
      256
102
RTVSPost2010Prop51ColorRGB
 90
-16777216
102
RTVSPost2010PropOp51
 70
     0
102
RTVSPost2010Prop52
140
1.0
102
RTVSPost2010PropOp52
 70
     0
102
RTVSPost2010Prop53
 90
        2
102
RTVSPost2010PropOp53
 70
     1
102
RTVSPost2010Prop54
  1
strokes_ogs.tif
102
RTVSPost2010PropOp54
 70
     1
102
RTVSPost2010Prop55
280
     0
102
RTVSPost2010PropOp55
 70
     1
102
RTVSPost2010Prop56
140
1.0
102
RTVSPost2010PropOp56
 70
     1
102
RTVSPost2010Prop57
140
1.0
102
RTVSPost2010PropOp57
 70
     1
  0
XRECORD
  5
48D
102
{ACAD_REACTORS
330
48C
102
}
330
48C
100
AcDbXrecord
280
     1
102
RTVSPost2010Prop28
280
     0
102
RTVSPost2010PropOp28
 70
     1
102
RTVSPost2010Prop29
280
     1
102
RTVSPost2010PropOp29
 70
     1
102
RTVSPost2010Prop30
280
     1
102
RTVSPost2010PropOp30
 70
     1
102
RTVSPost2010Prop31
280
     0
102
RTVSPost2010PropOp31
 70
     1
102
RTVSPost2010Prop32
280
     0
102
RTVSPost2010PropOp32
 70
     1
102
RTVSPost2010Prop33
280
     0
102
RTVSPost2010PropOp33
 70
     1
102
RTVSPost2010Prop34
280
     0
102
RTVSPost2010PropOp34
 70
     1
102
RTVSPost2010Prop35
280
     0
102
RTVSPost2010PropOp35
 70
     1
102
RTVSPost2010Prop36
280
     0
102
RTVSPost2010PropOp36
 70
     1
102
RTVSPost2010Prop37
 90
       50
102
RTVSPost2010PropOp37
 70
     1
102
RTVSPost2010Prop38
140
0.0
102
RTVSPost2010PropOp38
 70
     1
102
RTVSPost2010Prop39
140
1.0
102
RTVSPost2010PropOp39
 70
     1
102
RTVSPost2010Prop40
 90
        0
102
RTVSPost2010PropOp40
 70
     1
102
RTVSPost2010Prop41ColorIndex
 90
       18
102
RTVSPost2010Prop41ColorRGB
 90
        0
102
RTVSPost2010PropOp41
 70
     1
102
RTVSPost2010Prop42
 90
       50
102
RTVSPost2010PropOp42
 70
     1
102
RTVSPost2010Prop43
 90
        3
102
RTVSPost2010PropOp43
 70
     1
102
RTVSPost2010Prop44ColorIndex
 90
        5
102
RTVSPost2010Prop44ColorRGB
 90
      255
102
RTVSPost2010PropOp44
 70
     1
102
RTVSPost2010Prop45
280
     0
102
RTVSPost2010PropOp45
 70
     1
102
RTVSPost2010Prop46
 90
       50
102
RTVSPost2010PropOp46
 70
     1
102
RTVSPost2010Prop47
 90
       50
102
RTVSPost2010PropOp47
 70
     1
102
RTVSPost2010Prop48
 90
       50
102
RTVSPost2010PropOp48
 70
     1
102
RTVSPost2010Prop49
280
     0
102
RTVSPost2010PropOp49
 70
     1
102
RTVSPost2010Prop50
 90
       50
102
RTVSPost2010PropOp50
 70
     1
102
RTVSPost2010Prop51ColorIndex
 90
      256
102
RTVSPost2010Prop51ColorRGB
 90
-16777216
102
RTVSPost2010PropOp51
 70
     0
102
RTVSPost2010Prop52
140
1.0
102
RTVSPost2010PropOp52
 70
     0
102
RTVSPost2010Prop53
 90
        2
102
RTVSPost2010PropOp53
 70
     1
102
RTVSPost2010Prop54
  1
strokes_ogs.tif
102
RTVSPost2010PropOp54
 70
     1
102
RTVSPost2010Prop55
280
     0
102
RTVSPost2010PropOp55
 70
     1
102
RTVSPost2010Prop56
140
1.0
102
RTVSPost2010PropOp56
 70
     1
102
RTVSPost2010Prop57
140
1.0
102
RTVSPost2010PropOp57
 70
     1
  0
XRECORD
  5
48F
102
{ACAD_REACTORS
330
48E
102
}
330
48E
100
AcDbXrecord
280
     1
102
RTVSPost2010Prop28
280
     0
102
RTVSPost2010PropOp28
 70
     1
102
RTVSPost2010Prop29
280
     1
102
RTVSPost2010PropOp29
 70
     1
102
RTVSPost2010Prop30
280
     1
102
RTVSPost2010PropOp30
 70
     1
102
RTVSPost2010Prop31
280
     0
102
RTVSPost2010PropOp31
 70
     1
102
RTVSPost2010Prop32
280
     0
102
RTVSPost2010PropOp32
 70
     1
102
RTVSPost2010Prop33
280
     0
102
RTVSPost2010PropOp33
 70
     1
102
RTVSPost2010Prop34
280
     0
102
RTVSPost2010PropOp34
 70
     1
102
RTVSPost2010Prop35
280
     0
102
RTVSPost2010PropOp35
 70
     1
102
RTVSPost2010Prop36
280
     0
102
RTVSPost2010PropOp36
 70
     1
102
RTVSPost2010Prop37
 90
       50
102
RTVSPost2010PropOp37
 70
     1
102
RTVSPost2010Prop38
140
0.0
102
RTVSPost2010PropOp38
 70
     1
102
RTVSPost2010Prop39
140
1.0
102
RTVSPost2010PropOp39
 70
     1
102
RTVSPost2010Prop40
 90
        0
102
RTVSPost2010PropOp40
 70
     1
102
RTVSPost2010Prop41ColorIndex
 90
       18
102
RTVSPost2010Prop41ColorRGB
 90
        0
102
RTVSPost2010PropOp41
 70
     1
102
RTVSPost2010Prop42
 90
       50
102
RTVSPost2010PropOp42
 70
     1
102
RTVSPost2010Prop43
 90
        3
102
RTVSPost2010PropOp43
 70
     1
102
RTVSPost2010Prop44ColorIndex
 90
        5
102
RTVSPost2010Prop44ColorRGB
 90
      255
102
RTVSPost2010PropOp44
 70
     1
102
RTVSPost2010Prop45
280
     0
102
RTVSPost2010PropOp45
 70
     1
102
RTVSPost2010Prop46
 90
       50
102
RTVSPost2010PropOp46
 70
     1
102
RTVSPost2010Prop47
 90
       50
102
RTVSPost2010PropOp47
 70
     1
102
RTVSPost2010Prop48
 90
       50
102
RTVSPost2010PropOp48
 70
     1
102
RTVSPost2010Prop49
280
     0
102
RTVSPost2010PropOp49
 70
     1
102
RTVSPost2010Prop50
 90
       50
102
RTVSPost2010PropOp50
 70
     1
102
RTVSPost2010Prop51ColorIndex
 90
      256
102
RTVSPost2010Prop51ColorRGB
 90
-16777216
102
RTVSPost2010PropOp51
 70
     0
102
RTVSPost2010Prop52
140
1.0
102
RTVSPost2010PropOp52
 70
     0
102
RTVSPost2010Prop53
 90
        2
102
RTVSPost2010PropOp53
 70
     1
102
RTVSPost2010Prop54
  1
strokes_ogs.tif
102
RTVSPost2010PropOp54
 70
     1
102
RTVSPost2010Prop55
280
     0
102
RTVSPost2010PropOp55
 70
     1
102
RTVSPost2010Prop56
140
1.0
102
RTVSPost2010PropOp56
 70
     1
102
RTVSPost2010Prop57
140
1.0
102
RTVSPost2010PropOp57
 70
     1
  0
XRECORD
  5
491
102
{ACAD_REACTORS
330
490
102
}
330
490
100
AcDbXrecord
280
     1
102
RTVSPost2010Prop28
280
     0
102
RTVSPost2010PropOp28
 70
     1
102
RTVSPost2010Prop29
280
     1
102
RTVSPost2010PropOp29
 70
     1
102
RTVSPost2010Prop30
280
     1
102
RTVSPost2010PropOp30
 70
     1
102
RTVSPost2010Prop31
280
     0
102
RTVSPost2010PropOp31
 70
     1
102
RTVSPost2010Prop32
280
     0
102
RTVSPost2010PropOp32
 70
     1
102
RTVSPost2010Prop33
280
     0
102
RTVSPost2010PropOp33
 70
     1
102
RTVSPost2010Prop34
280
     0
102
RTVSPost2010PropOp34
 70
     1
102
RTVSPost2010Prop35
280
     0
102
RTVSPost2010PropOp35
 70
     1
102
RTVSPost2010Prop36
280
     0
102
RTVSPost2010PropOp36
 70
     1
102
RTVSPost2010Prop37
 90
       50
102
RTVSPost2010PropOp37
 70
     1
102
RTVSPost2010Prop38
140
0.0
102
RTVSPost2010PropOp38
 70
     1
102
RTVSPost2010Prop39
140
1.0
102
RTVSPost2010PropOp39
 70
     1
102
RTVSPost2010Prop40
 90
        0
102
RTVSPost2010PropOp40
 70
     1
102
RTVSPost2010Prop41ColorIndex
 90
       18
102
RTVSPost2010Prop41ColorRGB
 90
        0
102
RTVSPost2010PropOp41
 70
     1
102
RTVSPost2010Prop42
 90
       50
102
RTVSPost2010PropOp42
 70
     1
102
RTVSPost2010Prop43
 90
        3
102
RTVSPost2010PropOp43
 70
     1
102
RTVSPost2010Prop44ColorIndex
 90
        5
102
RTVSPost2010Prop44ColorRGB
 90
      255
102
RTVSPost2010PropOp44
 70
     1
102
RTVSPost2010Prop45
280
     0
102
RTVSPost2010PropOp45
 70
     1
102
RTVSPost2010Prop46
 90
       50
102
RTVSPost2010PropOp46
 70
     1
102
RTVSPost2010Prop47
 90
       50
102
RTVSPost2010PropOp47
 70
     1
102
RTVSPost2010Prop48
 90
       50
102
RTVSPost2010PropOp48
 70
     1
102
RTVSPost2010Prop49
280
     0
102
RTVSPost2010PropOp49
 70
     1
102
RTVSPost2010Prop50
 90
       50
102
RTVSPost2010PropOp50
 70
     1
102
RTVSPost2010Prop51ColorIndex
 90
      256
102
RTVSPost2010Prop51ColorRGB
 90
-16777216
102
RTVSPost2010PropOp51
 70
     0
102
RTVSPost2010Prop52
140
1.0
102
RTVSPost2010PropOp52
 70
     0
102
RTVSPost2010Prop53
 90
        2
102
RTVSPost2010PropOp53
 70
     1
102
RTVSPost2010Prop54
  1
strokes_ogs.tif
102
RTVSPost2010PropOp54
 70
     1
102
RTVSPost2010Prop55
280
     0
102
RTVSPost2010PropOp55
 70
     1
102
RTVSPost2010Prop56
140
1.0
102
RTVSPost2010PropOp56
 70
     1
102
RTVSPost2010Prop57
140
1.0
102
RTVSPost2010PropOp57
 70
     1
  0
XRECORD
  5
493
102
{ACAD_REACTORS
330
492
102
}
330
492
100
AcDbXrecord
280
     1
102
RTVSPost2010Prop28
280
     0
102
RTVSPost2010PropOp28
 70
     1
102
RTVSPost2010Prop29
280
     1
102
RTVSPost2010PropOp29
 70
     1
102
RTVSPost2010Prop30
280
     1
102
RTVSPost2010PropOp30
 70
     1
102
RTVSPost2010Prop31
280
     0
102
RTVSPost2010PropOp31
 70
     1
102
RTVSPost2010Prop32
280
     0
102
RTVSPost2010PropOp32
 70
     1
102
RTVSPost2010Prop33
280
     0
102
RTVSPost2010PropOp33
 70
     1
102
RTVSPost2010Prop34
280
     0
102
RTVSPost2010PropOp34
 70
     1
102
RTVSPost2010Prop35
280
     0
102
RTVSPost2010PropOp35
 70
     1
102
RTVSPost2010Prop36
280
     0
102
RTVSPost2010PropOp36
 70
     1
102
RTVSPost2010Prop37
 90
       50
102
RTVSPost2010PropOp37
 70
     1
102
RTVSPost2010Prop38
140
0.0
102
RTVSPost2010PropOp38
 70
     1
102
RTVSPost2010Prop39
140
1.0
102
RTVSPost2010PropOp39
 70
     1
102
RTVSPost2010Prop40
 90
        0
102
RTVSPost2010PropOp40
 70
     1
102
RTVSPost2010Prop41ColorIndex
 90
       18
102
RTVSPost2010Prop41ColorRGB
 90
        0
102
RTVSPost2010PropOp41
 70
     1
102
RTVSPost2010Prop42
 90
       50
102
RTVSPost2010PropOp42
 70
     1
102
RTVSPost2010Prop43
 90
        3
102
RTVSPost2010PropOp43
 70
     1
102
RTVSPost2010Prop44ColorIndex
 90
        5
102
RTVSPost2010Prop44ColorRGB
 90
      255
102
RTVSPost2010PropOp44
 70
     1
102
RTVSPost2010Prop45
280
     0
102
RTVSPost2010PropOp45
 70
     1
102
RTVSPost2010Prop46
 90
       50
102
RTVSPost2010PropOp46
 70
     1
102
RTVSPost2010Prop47
 90
       50
102
RTVSPost2010PropOp47
 70
     1
102
RTVSPost2010Prop48
 90
       50
102
RTVSPost2010PropOp48
 70
     1
102
RTVSPost2010Prop49
280
     0
102
RTVSPost2010PropOp49
 70
     1
102
RTVSPost2010Prop50
 90
       50
102
RTVSPost2010PropOp50
 70
     1
102
RTVSPost2010Prop51ColorIndex
 90
      256
102
RTVSPost2010Prop51ColorRGB
 90
-16777216
102
RTVSPost2010PropOp51
 70
     0
102
RTVSPost2010Prop52
140
1.0
102
RTVSPost2010PropOp52
 70
     0
102
RTVSPost2010Prop53
 90
        2
102
RTVSPost2010PropOp53
 70
     1
102
RTVSPost2010Prop54
  1
strokes_ogs.tif
102
RTVSPost2010PropOp54
 70
     1
102
RTVSPost2010Prop55
280
     0
102
RTVSPost2010PropOp55
 70
     1
102
RTVSPost2010Prop56
140
1.0
102
RTVSPost2010PropOp56
 70
     1
102
RTVSPost2010Prop57
140
1.0
102
RTVSPost2010PropOp57
 70
     1
  0
XRECORD
  5
49B
102
{ACAD_REACTORS
330
49A
102
}
330
49A
100
AcDbXrecord
280
     1
102
RTVSPost2010Prop28
280
     0
102
RTVSPost2010PropOp28
 70
     1
102
RTVSPost2010Prop29
280
     1
102
RTVSPost2010PropOp29
 70
     1
102
RTVSPost2010Prop30
280
     1
102
RTVSPost2010PropOp30
 70
     1
102
RTVSPost2010Prop31
280
     0
102
RTVSPost2010PropOp31
 70
     1
102
RTVSPost2010Prop32
280
     0
102
RTVSPost2010PropOp32
 70
     1
102
RTVSPost2010Prop33
280
     0
102
RTVSPost2010PropOp33
 70
     1
102
RTVSPost2010Prop34
280
     0
102
RTVSPost2010PropOp34
 70
     1
102
RTVSPost2010Prop35
280
     0
102
RTVSPost2010PropOp35
 70
     1
102
RTVSPost2010Prop36
280
     0
102
RTVSPost2010PropOp36
 70
     1
102
RTVSPost2010Prop37
 90
       50
102
RTVSPost2010PropOp37
 70
     1
102
RTVSPost2010Prop38
140
0.0
102
RTVSPost2010PropOp38
 70
     1
102
RTVSPost2010Prop39
140
1.0
102
RTVSPost2010PropOp39
 70
     1
102
RTVSPost2010Prop40
 90
        0
102
RTVSPost2010PropOp40
 70
     1
102
RTVSPost2010Prop41ColorIndex
 90
       18
102
RTVSPost2010Prop41ColorRGB
 90
        0
102
RTVSPost2010PropOp41
 70
     1
102
RTVSPost2010Prop42
 90
       50
102
RTVSPost2010PropOp42
 70
     1
102
RTVSPost2010Prop43
 90
        3
102
RTVSPost2010PropOp43
 70
     1
102
RTVSPost2010Prop44ColorIndex
 90
        5
102
RTVSPost2010Prop44ColorRGB
 90
      255
102
RTVSPost2010PropOp44
 70
     1
102
RTVSPost2010Prop45
280
     0
102
RTVSPost2010PropOp45
 70
     1
102
RTVSPost2010Prop46
 90
       50
102
RTVSPost2010PropOp46
 70
     1
102
RTVSPost2010Prop47
 90
       50
102
RTVSPost2010PropOp47
 70
     1
102
RTVSPost2010Prop48
 90
       50
102
RTVSPost2010PropOp48
 70
     1
102
RTVSPost2010Prop49
280
     0
102
RTVSPost2010PropOp49
 70
     1
102
RTVSPost2010Prop50
 90
       50
102
RTVSPost2010PropOp50
 70
     1
102
RTVSPost2010Prop51ColorIndex
 90
      256
102
RTVSPost2010Prop51ColorRGB
 90
-16777216
102
RTVSPost2010PropOp51
 70
     0
102
RTVSPost2010Prop52
140
1.0
102
RTVSPost2010PropOp52
 70
     0
102
RTVSPost2010Prop53
 90
        2
102
RTVSPost2010PropOp53
 70
     1
102
RTVSPost2010Prop54
  1
strokes_ogs.tif
102
RTVSPost2010PropOp54
 70
     1
102
RTVSPost2010Prop55
280
     0
102
RTVSPost2010PropOp55
 70
     1
102
RTVSPost2010Prop56
140
1.0
102
RTVSPost2010PropOp56
 70
     1
102
RTVSPost2010Prop57
140
1.0
102
RTVSPost2010PropOp57
 70
     1
  0
XRECORD
  5
4B7
102
{ACAD_REACTORS
330
4B6
102
}
330
4B6
100
AcDbXrecord
280
     1
102
RTVSPost2010Prop28
280
     0
102
RTVSPost2010PropOp28
 70
     1
102
RTVSPost2010Prop29
280
     1
102
RTVSPost2010PropOp29
 70
     1
102
RTVSPost2010Prop30
280
     1
102
RTVSPost2010PropOp30
 70
     1
102
RTVSPost2010Prop31
280
     0
102
RTVSPost2010PropOp31
 70
     1
102
RTVSPost2010Prop32
280
     0
102
RTVSPost2010PropOp32
 70
     1
102
RTVSPost2010Prop33
280
     0
102
RTVSPost2010PropOp33
 70
     1
102
RTVSPost2010Prop34
280
     0
102
RTVSPost2010PropOp34
 70
     1
102
RTVSPost2010Prop35
280
     0
102
RTVSPost2010PropOp35
 70
     1
102
RTVSPost2010Prop36
280
     0
102
RTVSPost2010PropOp36
 70
     1
102
RTVSPost2010Prop37
 90
       50
102
RTVSPost2010PropOp37
 70
     0
102
RTVSPost2010Prop38
140
0.0
102
RTVSPost2010PropOp38
 70
     0
102
RTVSPost2010Prop39
140
1.0
102
RTVSPost2010PropOp39
 70
     0
102
RTVSPost2010Prop40
 90
        0
102
RTVSPost2010PropOp40
 70
     0
102
RTVSPost2010Prop41ColorIndex
 90
       18
102
RTVSPost2010Prop41ColorRGB
 90
        0
102
RTVSPost2010PropOp41
 70
     0
102
RTVSPost2010Prop42
 90
       50
102
RTVSPost2010PropOp42
 70
     0
102
RTVSPost2010Prop43
 90
        3
102
RTVSPost2010PropOp43
 70
     0
102
RTVSPost2010Prop44ColorIndex
 90
        5
102
RTVSPost2010Prop44ColorRGB
 90
      255
102
RTVSPost2010PropOp44
 70
     0
102
RTVSPost2010Prop45
280
     0
102
RTVSPost2010PropOp45
 70
     1
102
RTVSPost2010Prop46
 90
       50
102
RTVSPost2010PropOp46
 70
     0
102
RTVSPost2010Prop47
 90
       50
102
RTVSPost2010PropOp47
 70
     0
102
RTVSPost2010Prop48
 90
       50
102
RTVSPost2010PropOp48
 70
     0
102
RTVSPost2010Prop49
280
     0
102
RTVSPost2010PropOp49
 70
     1
102
RTVSPost2010Prop50
 90
       50
102
RTVSPost2010PropOp50
 70
     0
102
RTVSPost2010Prop51ColorIndex
 90
      256
102
RTVSPost2010Prop51ColorRGB
 90
-16777216
102
RTVSPost2010PropOp51
 70
     0
102
RTVSPost2010Prop52
140
1.0
102
RTVSPost2010PropOp52
 70
     0
102
RTVSPost2010Prop53
 90
        2
102
RTVSPost2010PropOp53
 70
     0
102
RTVSPost2010Prop54
  1
strokes_ogs.tif
102
RTVSPost2010PropOp54
 70
     0
102
RTVSPost2010Prop55
280
     0
102
RTVSPost2010PropOp55
 70
     1
102
RTVSPost2010Prop56
140
1.0
102
RTVSPost2010PropOp56
 70
     0
102
RTVSPost2010Prop57
140
1.0
102
RTVSPost2010PropOp57
 70
     0
  0
XRECORD
  5
4A7
102
{ACAD_REACTORS
330
4A6
102
}
330
4A6
100
AcDbXrecord
280
     1
102
RTVSPost2010Prop28
280
     0
102
RTVSPost2010PropOp28
 70
     1
102
RTVSPost2010Prop29
280
     1
102
RTVSPost2010PropOp29
 70
     1
102
RTVSPost2010Prop30
280
     1
102
RTVSPost2010PropOp30
 70
     1
102
RTVSPost2010Prop31
280
     0
102
RTVSPost2010PropOp31
 70
     1
102
RTVSPost2010Prop32
280
     0
102
RTVSPost2010PropOp32
 70
     1
102
RTVSPost2010Prop33
280
     0
102
RTVSPost2010PropOp33
 70
     1
102
RTVSPost2010Prop34
280
     0
102
RTVSPost2010PropOp34
 70
     1
102
RTVSPost2010Prop35
280
     0
102
RTVSPost2010PropOp35
 70
     1
102
RTVSPost2010Prop36
280
     0
102
RTVSPost2010PropOp36
 70
     1
102
RTVSPost2010Prop37
 90
       50
102
RTVSPost2010PropOp37
 70
     1
102
RTVSPost2010Prop38
140
0.0
102
RTVSPost2010PropOp38
 70
     1
102
RTVSPost2010Prop39
140
1.0
102
RTVSPost2010PropOp39
 70
     1
102
RTVSPost2010Prop40
 90
        0
102
RTVSPost2010PropOp40
 70
     1
102
RTVSPost2010Prop41ColorIndex
 90
       18
102
RTVSPost2010Prop41ColorRGB
 90
        0
102
RTVSPost2010PropOp41
 70
     1
102
RTVSPost2010Prop42
 90
       50
102
RTVSPost2010PropOp42
 70
     1
102
RTVSPost2010Prop43
 90
        3
102
RTVSPost2010PropOp43
 70
     1
102
RTVSPost2010Prop44ColorIndex
 90
        5
102
RTVSPost2010Prop44ColorRGB
 90
      255
102
RTVSPost2010PropOp44
 70
     1
102
RTVSPost2010Prop45
280
     0
102
RTVSPost2010PropOp45
 70
     1
102
RTVSPost2010Prop46
 90
       50
102
RTVSPost2010PropOp46
 70
     1
102
RTVSPost2010Prop47
 90
       50
102
RTVSPost2010PropOp47
 70
     1
102
RTVSPost2010Prop48
 90
       50
102
RTVSPost2010PropOp48
 70
     1
102
RTVSPost2010Prop49
280
     0
102
RTVSPost2010PropOp49
 70
     1
102
RTVSPost2010Prop50
 90
       50
102
RTVSPost2010PropOp50
 70
     1
102
RTVSPost2010Prop51ColorIndex
 90
      256
102
RTVSPost2010Prop51ColorRGB
 90
-16777216
102
RTVSPost2010PropOp51
 70
     0
102
RTVSPost2010Prop52
140
1.0
102
RTVSPost2010PropOp52
 70
     0
102
RTVSPost2010Prop53
 90
        2
102
RTVSPost2010PropOp53
 70
     1
102
RTVSPost2010Prop54
  1
strokes_ogs.tif
102
RTVSPost2010PropOp54
 70
     1
102
RTVSPost2010Prop55
280
     0
102
RTVSPost2010PropOp55
 70
     1
102
RTVSPost2010Prop56
140
1.0
102
RTVSPost2010PropOp56
 70
     1
102
RTVSPost2010Prop57
140
1.0
102
RTVSPost2010PropOp57
 70
     1
  0
XRECORD
  5
4B9
102
{ACAD_REACTORS
330
4B8
102
}
330
4B8
100
AcDbXrecord
280
     1
102
RTVSPost2010Prop28
280
     0
102
RTVSPost2010PropOp28
 70
     1
102
RTVSPost2010Prop29
280
     1
102
RTVSPost2010PropOp29
 70
     1
102
RTVSPost2010Prop30
280
     1
102
RTVSPost2010PropOp30
 70
     1
102
RTVSPost2010Prop31
280
     0
102
RTVSPost2010PropOp31
 70
     1
102
RTVSPost2010Prop32
280
     0
102
RTVSPost2010PropOp32
 70
     1
102
RTVSPost2010Prop33
280
     0
102
RTVSPost2010PropOp33
 70
     1
102
RTVSPost2010Prop34
280
     0
102
RTVSPost2010PropOp34
 70
     1
102
RTVSPost2010Prop35
280
     0
102
RTVSPost2010PropOp35
 70
     1
102
RTVSPost2010Prop36
280
     0
102
RTVSPost2010PropOp36
 70
     1
102
RTVSPost2010Prop37
 90
       50
102
RTVSPost2010PropOp37
 70
     0
102
RTVSPost2010Prop38
140
0.0
102
RTVSPost2010PropOp38
 70
     0
102
RTVSPost2010Prop39
140
1.0
102
RTVSPost2010PropOp39
 70
     0
102
RTVSPost2010Prop40
 90
        0
102
RTVSPost2010PropOp40
 70
     0
102
RTVSPost2010Prop41ColorIndex
 90
       18
102
RTVSPost2010Prop41ColorRGB
 90
        0
102
RTVSPost2010PropOp41
 70
     0
102
RTVSPost2010Prop42
 90
       50
102
RTVSPost2010PropOp42
 70
     0
102
RTVSPost2010Prop43
 90
        3
102
RTVSPost2010PropOp43
 70
     0
102
RTVSPost2010Prop44ColorIndex
 90
        5
102
RTVSPost2010Prop44ColorRGB
 90
      255
102
RTVSPost2010PropOp44
 70
     0
102
RTVSPost2010Prop45
280
     0
102
RTVSPost2010PropOp45
 70
     1
102
RTVSPost2010Prop46
 90
       50
102
RTVSPost2010PropOp46
 70
     0
102
RTVSPost2010Prop47
 90
       50
102
RTVSPost2010PropOp47
 70
     0
102
RTVSPost2010Prop48
 90
       50
102
RTVSPost2010PropOp48
 70
     0
102
RTVSPost2010Prop49
280
     0
102
RTVSPost2010PropOp49
 70
     1
102
RTVSPost2010Prop50
 90
       50
102
RTVSPost2010PropOp50
 70
     0
102
RTVSPost2010Prop51ColorIndex
 90
      256
102
RTVSPost2010Prop51ColorRGB
 90
-16777216
102
RTVSPost2010PropOp51
 70
     0
102
RTVSPost2010Prop52
140
1.0
102
RTVSPost2010PropOp52
 70
     0
102
RTVSPost2010Prop53
 90
        2
102
RTVSPost2010PropOp53
 70
     0
102
RTVSPost2010Prop54
  1
strokes_ogs.tif
102
RTVSPost2010PropOp54
 70
     0
102
RTVSPost2010Prop55
280
     0
102
RTVSPost2010PropOp55
 70
     1
102
RTVSPost2010Prop56
140
1.0
102
RTVSPost2010PropOp56
 70
     0
102
RTVSPost2010Prop57
140
1.0
102
RTVSPost2010PropOp57
 70
     0
  0
XRECORD
  5
49F
102
{ACAD_REACTORS
330
49E
102
}
330
49E
100
AcDbXrecord
280
     1
102
RTVSPost2010Prop28
280
     0
102
RTVSPost2010PropOp28
 70
     1
102
RTVSPost2010Prop29
280
     1
102
RTVSPost2010PropOp29
 70
     1
102
RTVSPost2010Prop30
280
     1
102
RTVSPost2010PropOp30
 70
     1
102
RTVSPost2010Prop31
280
     0
102
RTVSPost2010PropOp31
 70
     1
102
RTVSPost2010Prop32
280
     0
102
RTVSPost2010PropOp32
 70
     1
102
RTVSPost2010Prop33
280
     0
102
RTVSPost2010PropOp33
 70
     1
102
RTVSPost2010Prop34
280
     0
102
RTVSPost2010PropOp34
 70
     1
102
RTVSPost2010Prop35
280
     0
102
RTVSPost2010PropOp35
 70
     1
102
RTVSPost2010Prop36
280
     0
102
RTVSPost2010PropOp36
 70
     1
102
RTVSPost2010Prop37
 90
       50
102
RTVSPost2010PropOp37
 70
     1
102
RTVSPost2010Prop38
140
0.0
102
RTVSPost2010PropOp38
 70
     1
102
RTVSPost2010Prop39
140
1.0
102
RTVSPost2010PropOp39
 70
     1
102
RTVSPost2010Prop40
 90
        0
102
RTVSPost2010PropOp40
 70
     1
102
RTVSPost2010Prop41ColorIndex
 90
       18
102
RTVSPost2010Prop41ColorRGB
 90
        0
102
RTVSPost2010PropOp41
 70
     1
102
RTVSPost2010Prop42
 90
       50
102
RTVSPost2010PropOp42
 70
     1
102
RTVSPost2010Prop43
 90
        3
102
RTVSPost2010PropOp43
 70
     1
102
RTVSPost2010Prop44ColorIndex
 90
        5
102
RTVSPost2010Prop44ColorRGB
 90
      255
102
RTVSPost2010PropOp44
 70
     1
102
RTVSPost2010Prop45
280
     0
102
RTVSPost2010PropOp45
 70
     1
102
RTVSPost2010Prop46
 90
       50
102
RTVSPost2010PropOp46
 70
     1
102
RTVSPost2010Prop47
 90
       50
102
RTVSPost2010PropOp47
 70
     1
102
RTVSPost2010Prop48
 90
       50
102
RTVSPost2010PropOp48
 70
     1
102
RTVSPost2010Prop49
280
     0
102
RTVSPost2010PropOp49
 70
     1
102
RTVSPost2010Prop50
 90
       50
102
RTVSPost2010PropOp50
 70
     1
102
RTVSPost2010Prop51ColorIndex
 90
      256
102
RTVSPost2010Prop51ColorRGB
 90
-16777216
102
RTVSPost2010PropOp51
 70
     0
102
RTVSPost2010Prop52
140
1.0
102
RTVSPost2010PropOp52
 70
     0
102
RTVSPost2010Prop53
 90
        2
102
RTVSPost2010PropOp53
 70
     1
102
RTVSPost2010Prop54
  1
strokes_ogs.tif
102
RTVSPost2010PropOp54
 70
     1
102
RTVSPost2010Prop55
280
     0
102
RTVSPost2010PropOp55
 70
     1
102
RTVSPost2010Prop56
140
1.0
102
RTVSPost2010PropOp56
 70
     1
102
RTVSPost2010Prop57
140
1.0
102
RTVSPost2010PropOp57
 70
     1
  0
XRECORD
  5
4B5
102
{ACAD_REACTORS
330
4B4
102
}
330
4B4
100
AcDbXrecord
280
     1
102
RTVSPost2010Prop28
280
     0
102
RTVSPost2010PropOp28
 70
     1
102
RTVSPost2010Prop29
280
     1
102
RTVSPost2010PropOp29
 70
     1
102
RTVSPost2010Prop30
280
     1
102
RTVSPost2010PropOp30
 70
     1
102
RTVSPost2010Prop31
280
     0
102
RTVSPost2010PropOp31
 70
     1
102
RTVSPost2010Prop32
280
     0
102
RTVSPost2010PropOp32
 70
     1
102
RTVSPost2010Prop33
280
     0
102
RTVSPost2010PropOp33
 70
     1
102
RTVSPost2010Prop34
280
     0
102
RTVSPost2010PropOp34
 70
     1
102
RTVSPost2010Prop35
280
     0
102
RTVSPost2010PropOp35
 70
     1
102
RTVSPost2010Prop36
280
     0
102
RTVSPost2010PropOp36
 70
     1
102
RTVSPost2010Prop37
 90
       50
102
RTVSPost2010PropOp37
 70
     1
102
RTVSPost2010Prop38
140
0.0
102
RTVSPost2010PropOp38
 70
     1
102
RTVSPost2010Prop39
140
1.0
102
RTVSPost2010PropOp39
 70
     1
102
RTVSPost2010Prop40
 90
        0
102
RTVSPost2010PropOp40
 70
     1
102
RTVSPost2010Prop41ColorIndex
 90
       18
102
RTVSPost2010Prop41ColorRGB
 90
        0
102
RTVSPost2010PropOp41
 70
     1
102
RTVSPost2010Prop42
 90
       50
102
RTVSPost2010PropOp42
 70
     1
102
RTVSPost2010Prop43
 90
        3
102
RTVSPost2010PropOp43
 70
     1
102
RTVSPost2010Prop44ColorIndex
 90
        5
102
RTVSPost2010Prop44ColorRGB
 90
      255
102
RTVSPost2010PropOp44
 70
     1
102
RTVSPost2010Prop45
280
     0
102
RTVSPost2010PropOp45
 70
     1
102
RTVSPost2010Prop46
 90
       50
102
RTVSPost2010PropOp46
 70
     1
102
RTVSPost2010Prop47
 90
       50
102
RTVSPost2010PropOp47
 70
     1
102
RTVSPost2010Prop48
 90
       50
102
RTVSPost2010PropOp48
 70
     1
102
RTVSPost2010Prop49
280
     0
102
RTVSPost2010PropOp49
 70
     1
102
RTVSPost2010Prop50
 90
       50
102
RTVSPost2010PropOp50
 70
     1
102
RTVSPost2010Prop51ColorIndex
 90
      256
102
RTVSPost2010Prop51ColorRGB
 90
-16777216
102
RTVSPost2010PropOp51
 70
     0
102
RTVSPost2010Prop52
140
1.0
102
RTVSPost2010PropOp52
 70
     0
102
RTVSPost2010Prop53
 90
        2
102
RTVSPost2010PropOp53
 70
     1
102
RTVSPost2010Prop54
  1
strokes_ogs.tif
102
RTVSPost2010PropOp54
 70
     1
102
RTVSPost2010Prop55
280
     0
102
RTVSPost2010PropOp55
 70
     1
102
RTVSPost2010Prop56
140
1.0
102
RTVSPost2010PropOp56
 70
     1
102
RTVSPost2010Prop57
140
1.0
102
RTVSPost2010PropOp57
 70
     1
  0
XRECORD
  5
4B3
102
{ACAD_REACTORS
330
4B2
102
}
330
4B2
100
AcDbXrecord
280
     1
102
RTVSPost2010Prop28
280
     0
102
RTVSPost2010PropOp28
 70
     1
102
RTVSPost2010Prop29
280
     1
102
RTVSPost2010PropOp29
 70
     1
102
RTVSPost2010Prop30
280
     1
102
RTVSPost2010PropOp30
 70
     1
102
RTVSPost2010Prop31
280
     0
102
RTVSPost2010PropOp31
 70
     1
102
RTVSPost2010Prop32
280
     0
102
RTVSPost2010PropOp32
 70
     1
102
RTVSPost2010Prop33
280
     0
102
RTVSPost2010PropOp33
 70
     1
102
RTVSPost2010Prop34
280
     0
102
RTVSPost2010PropOp34
 70
     1
102
RTVSPost2010Prop35
280
     0
102
RTVSPost2010PropOp35
 70
     1
102
RTVSPost2010Prop36
280
     0
102
RTVSPost2010PropOp36
 70
     1
102
RTVSPost2010Prop37
 90
       50
102
RTVSPost2010PropOp37
 70
     1
102
RTVSPost2010Prop38
140
0.0
102
RTVSPost2010PropOp38
 70
     1
102
RTVSPost2010Prop39
140
1.0
102
RTVSPost2010PropOp39
 70
     1
102
RTVSPost2010Prop40
 90
        0
102
RTVSPost2010PropOp40
 70
     1
102
RTVSPost2010Prop41ColorIndex
 90
       18
102
RTVSPost2010Prop41ColorRGB
 90
        0
102
RTVSPost2010PropOp41
 70
     1
102
RTVSPost2010Prop42
 90
       50
102
RTVSPost2010PropOp42
 70
     1
102
RTVSPost2010Prop43
 90
        3
102
RTVSPost2010PropOp43
 70
     1
102
RTVSPost2010Prop44ColorIndex
 90
        5
102
RTVSPost2010Prop44ColorRGB
 90
      255
102
RTVSPost2010PropOp44
 70
     1
102
RTVSPost2010Prop45
280
     0
102
RTVSPost2010PropOp45
 70
     1
102
RTVSPost2010Prop46
 90
       50
102
RTVSPost2010PropOp46
 70
     1
102
RTVSPost2010Prop47
 90
       50
102
RTVSPost2010PropOp47
 70
     1
102
RTVSPost2010Prop48
 90
       50
102
RTVSPost2010PropOp48
 70
     1
102
RTVSPost2010Prop49
280
     0
102
RTVSPost2010PropOp49
 70
     1
102
RTVSPost2010Prop50
 90
       50
102
RTVSPost2010PropOp50
 70
     1
102
RTVSPost2010Prop51ColorIndex
 90
      256
102
RTVSPost2010Prop51ColorRGB
 90
-16777216
102
RTVSPost2010PropOp51
 70
     0
102
RTVSPost2010Prop52
140
1.0
102
RTVSPost2010PropOp52
 70
     0
102
RTVSPost2010Prop53
 90
        2
102
RTVSPost2010PropOp53
 70
     1
102
RTVSPost2010Prop54
  1
strokes_ogs.tif
102
RTVSPost2010PropOp54
 70
     1
102
RTVSPost2010Prop55
280
     0
102
RTVSPost2010PropOp55
 70
     1
102
RTVSPost2010Prop56
140
1.0
102
RTVSPost2010PropOp56
 70
     1
102
RTVSPost2010Prop57
140
1.0
102
RTVSPost2010PropOp57
 70
     1
  0
XRECORD
  5
4AD
102
{ACAD_REACTORS
330
4AC
102
}
330
4AC
100
AcDbXrecord
280
     1
102
RTVSPost2010Prop28
280
     0
102
RTVSPost2010PropOp28
 70
     1
102
RTVSPost2010Prop29
280
     1
102
RTVSPost2010PropOp29
 70
     1
102
RTVSPost2010Prop30
280
     1
102
RTVSPost2010PropOp30
 70
     1
102
RTVSPost2010Prop31
280
     0
102
RTVSPost2010PropOp31
 70
     1
102
RTVSPost2010Prop32
280
     0
102
RTVSPost2010PropOp32
 70
     1
102
RTVSPost2010Prop33
280
     0
102
RTVSPost2010PropOp33
 70
     1
102
RTVSPost2010Prop34
280
     0
102
RTVSPost2010PropOp34
 70
     1
102
RTVSPost2010Prop35
280
     0
102
RTVSPost2010PropOp35
 70
     1
102
RTVSPost2010Prop36
280
     0
102
RTVSPost2010PropOp36
 70
     1
102
RTVSPost2010Prop37
 90
       50
102
RTVSPost2010PropOp37
 70
     1
102
RTVSPost2010Prop38
140
0.0
102
RTVSPost2010PropOp38
 70
     1
102
RTVSPost2010Prop39
140
1.0
102
RTVSPost2010PropOp39
 70
     1
102
RTVSPost2010Prop40
 90
        0
102
RTVSPost2010PropOp40
 70
     1
102
RTVSPost2010Prop41ColorIndex
 90
       18
102
RTVSPost2010Prop41ColorRGB
 90
        0
102
RTVSPost2010PropOp41
 70
     1
102
RTVSPost2010Prop42
 90
       50
102
RTVSPost2010PropOp42
 70
     1
102
RTVSPost2010Prop43
 90
        3
102
RTVSPost2010PropOp43
 70
     1
102
RTVSPost2010Prop44ColorIndex
 90
        5
102
RTVSPost2010Prop44ColorRGB
 90
      255
102
RTVSPost2010PropOp44
 70
     1
102
RTVSPost2010Prop45
280
     0
102
RTVSPost2010PropOp45
 70
     1
102
RTVSPost2010Prop46
 90
       50
102
RTVSPost2010PropOp46
 70
     1
102
RTVSPost2010Prop47
 90
       50
102
RTVSPost2010PropOp47
 70
     1
102
RTVSPost2010Prop48
 90
       50
102
RTVSPost2010PropOp48
 70
     1
102
RTVSPost2010Prop49
280
     0
102
RTVSPost2010PropOp49
 70
     1
102
RTVSPost2010Prop50
 90
       50
102
RTVSPost2010PropOp50
 70
     1
102
RTVSPost2010Prop51ColorIndex
 90
      256
102
RTVSPost2010Prop51ColorRGB
 90
-16777216
102
RTVSPost2010PropOp51
 70
     0
102
RTVSPost2010Prop52
140
1.0
102
RTVSPost2010PropOp52
 70
     0
102
RTVSPost2010Prop53
 90
        2
102
RTVSPost2010PropOp53
 70
     1
102
RTVSPost2010Prop54
  1
strokes_ogs.tif
102
RTVSPost2010PropOp54
 70
     1
102
RTVSPost2010Prop55
280
     0
102
RTVSPost2010PropOp55
 70
     1
102
RTVSPost2010Prop56
140
1.0
102
RTVSPost2010PropOp56
 70
     1
102
RTVSPost2010Prop57
140
1.0
102
RTVSPost2010PropOp57
 70
     1
  0
XRECORD
  5
4AF
102
{ACAD_REACTORS
330
4AE
102
}
330
4AE
100
AcDbXrecord
280
     1
102
RTVSPost2010Prop28
280
     0
102
RTVSPost2010PropOp28
 70
     1
102
RTVSPost2010Prop29
280
     1
102
RTVSPost2010PropOp29
 70
     1
102
RTVSPost2010Prop30
280
     1
102
RTVSPost2010PropOp30
 70
     1
102
RTVSPost2010Prop31
280
     0
102
RTVSPost2010PropOp31
 70
     1
102
RTVSPost2010Prop32
280
     0
102
RTVSPost2010PropOp32
 70
     1
102
RTVSPost2010Prop33
280
     0
102
RTVSPost2010PropOp33
 70
     1
102
RTVSPost2010Prop34
280
     0
102
RTVSPost2010PropOp34
 70
     1
102
RTVSPost2010Prop35
280
     0
102
RTVSPost2010PropOp35
 70
     1
102
RTVSPost2010Prop36
280
     0
102
RTVSPost2010PropOp36
 70
     1
102
RTVSPost2010Prop37
 90
       50
102
RTVSPost2010PropOp37
 70
     1
102
RTVSPost2010Prop38
140
0.0
102
RTVSPost2010PropOp38
 70
     1
102
RTVSPost2010Prop39
140
1.0
102
RTVSPost2010PropOp39
 70
     1
102
RTVSPost2010Prop40
 90
        0
102
RTVSPost2010PropOp40
 70
     1
102
RTVSPost2010Prop41ColorIndex
 90
       18
102
RTVSPost2010Prop41ColorRGB
 90
        0
102
RTVSPost2010PropOp41
 70
     1
102
RTVSPost2010Prop42
 90
       50
102
RTVSPost2010PropOp42
 70
     1
102
RTVSPost2010Prop43
 90
        3
102
RTVSPost2010PropOp43
 70
     1
102
RTVSPost2010Prop44ColorIndex
 90
        5
102
RTVSPost2010Prop44ColorRGB
 90
      255
102
RTVSPost2010PropOp44
 70
     1
102
RTVSPost2010Prop45
280
     0
102
RTVSPost2010PropOp45
 70
     1
102
RTVSPost2010Prop46
 90
       50
102
RTVSPost2010PropOp46
 70
     1
102
RTVSPost2010Prop47
 90
       50
102
RTVSPost2010PropOp47
 70
     1
102
RTVSPost2010Prop48
 90
       50
102
RTVSPost2010PropOp48
 70
     1
102
RTVSPost2010Prop49
280
     0
102
RTVSPost2010PropOp49
 70
     1
102
RTVSPost2010Prop50
 90
       50
102
RTVSPost2010PropOp50
 70
     1
102
RTVSPost2010Prop51ColorIndex
 90
      256
102
RTVSPost2010Prop51ColorRGB
 90
-16777216
102
RTVSPost2010PropOp51
 70
     0
102
RTVSPost2010Prop52
140
1.0
102
RTVSPost2010PropOp52
 70
     0
102
RTVSPost2010Prop53
 90
        2
102
RTVSPost2010PropOp53
 70
     1
102
RTVSPost2010Prop54
  1
strokes_ogs.tif
102
RTVSPost2010PropOp54
 70
     1
102
RTVSPost2010Prop55
280
     0
102
RTVSPost2010PropOp55
 70
     1
102
RTVSPost2010Prop56
140
1.0
102
RTVSPost2010PropOp56
 70
     1
102
RTVSPost2010Prop57
140
1.0
102
RTVSPost2010PropOp57
 70
     1
  0
XRECORD
  5
4A5
102
{ACAD_REACTORS
330
4A4
102
}
330
4A4
100
AcDbXrecord
280
     1
102
RTVSPost2010Prop28
280
     0
102
RTVSPost2010PropOp28
 70
     1
102
RTVSPost2010Prop29
280
     1
102
RTVSPost2010PropOp29
 70
     1
102
RTVSPost2010Prop30
280
     1
102
RTVSPost2010PropOp30
 70
     1
102
RTVSPost2010Prop31
280
     0
102
RTVSPost2010PropOp31
 70
     1
102
RTVSPost2010Prop32
280
     0
102
RTVSPost2010PropOp32
 70
     1
102
RTVSPost2010Prop33
280
     0
102
RTVSPost2010PropOp33
 70
     1
102
RTVSPost2010Prop34
280
     0
102
RTVSPost2010PropOp34
 70
     1
102
RTVSPost2010Prop35
280
     0
102
RTVSPost2010PropOp35
 70
     1
102
RTVSPost2010Prop36
280
     0
102
RTVSPost2010PropOp36
 70
     1
102
RTVSPost2010Prop37
 90
       50
102
RTVSPost2010PropOp37
 70
     1
102
RTVSPost2010Prop38
140
0.0
102
RTVSPost2010PropOp38
 70
     1
102
RTVSPost2010Prop39
140
1.0
102
RTVSPost2010PropOp39
 70
     1
102
RTVSPost2010Prop40
 90
        0
102
RTVSPost2010PropOp40
 70
     1
102
RTVSPost2010Prop41ColorIndex
 90
       18
102
RTVSPost2010Prop41ColorRGB
 90
        0
102
RTVSPost2010PropOp41
 70
     1
102
RTVSPost2010Prop42
 90
       50
102
RTVSPost2010PropOp42
 70
     1
102
RTVSPost2010Prop43
 90
        3
102
RTVSPost2010PropOp43
 70
     1
102
RTVSPost2010Prop44ColorIndex
 90
        5
102
RTVSPost2010Prop44ColorRGB
 90
      255
102
RTVSPost2010PropOp44
 70
     1
102
RTVSPost2010Prop45
280
     0
102
RTVSPost2010PropOp45
 70
     1
102
RTVSPost2010Prop46
 90
       50
102
RTVSPost2010PropOp46
 70
     1
102
RTVSPost2010Prop47
 90
       50
102
RTVSPost2010PropOp47
 70
     1
102
RTVSPost2010Prop48
 90
       50
102
RTVSPost2010PropOp48
 70
     1
102
RTVSPost2010Prop49
280
     0
102
RTVSPost2010PropOp49
 70
     1
102
RTVSPost2010Prop50
 90
       50
102
RTVSPost2010PropOp50
 70
     1
102
RTVSPost2010Prop51ColorIndex
 90
      256
102
RTVSPost2010Prop51ColorRGB
 90
-16777216
102
RTVSPost2010PropOp51
 70
     0
102
RTVSPost2010Prop52
140
1.0
102
RTVSPost2010PropOp52
 70
     0
102
RTVSPost2010Prop53
 90
        2
102
RTVSPost2010PropOp53
 70
     1
102
RTVSPost2010Prop54
  1
strokes_ogs.tif
102
RTVSPost2010PropOp54
 70
     1
102
RTVSPost2010Prop55
280
     0
102
RTVSPost2010PropOp55
 70
     1
102
RTVSPost2010Prop56
140
1.0
102
RTVSPost2010PropOp56
 70
     1
102
RTVSPost2010Prop57
140
1.0
102
RTVSPost2010PropOp57
 70
     1
  0
XRECORD
  5
499
102
{ACAD_REACTORS
330
498
102
}
330
498
100
AcDbXrecord
280
     1
102
RTVSPost2010Prop28
280
     0
102
RTVSPost2010PropOp28
 70
     1
102
RTVSPost2010Prop29
280
     1
102
RTVSPost2010PropOp29
 70
     1
102
RTVSPost2010Prop30
280
     1
102
RTVSPost2010PropOp30
 70
     1
102
RTVSPost2010Prop31
280
     0
102
RTVSPost2010PropOp31
 70
     1
102
RTVSPost2010Prop32
280
     0
102
RTVSPost2010PropOp32
 70
     1
102
RTVSPost2010Prop33
280
     0
102
RTVSPost2010PropOp33
 70
     1
102
RTVSPost2010Prop34
280
     0
102
RTVSPost2010PropOp34
 70
     1
102
RTVSPost2010Prop35
280
     0
102
RTVSPost2010PropOp35
 70
     1
102
RTVSPost2010Prop36
280
     0
102
RTVSPost2010PropOp36
 70
     1
102
RTVSPost2010Prop37
 90
       50
102
RTVSPost2010PropOp37
 70
     1
102
RTVSPost2010Prop38
140
0.0
102
RTVSPost2010PropOp38
 70
     1
102
RTVSPost2010Prop39
140
1.0
102
RTVSPost2010PropOp39
 70
     1
102
RTVSPost2010Prop40
 90
        0
102
RTVSPost2010PropOp40
 70
     1
102
RTVSPost2010Prop41ColorIndex
 90
       18
102
RTVSPost2010Prop41ColorRGB
 90
        0
102
RTVSPost2010PropOp41
 70
     1
102
RTVSPost2010Prop42
 90
       50
102
RTVSPost2010PropOp42
 70
     1
102
RTVSPost2010Prop43
 90
        3
102
RTVSPost2010PropOp43
 70
     1
102
RTVSPost2010Prop44ColorIndex
 90
        5
102
RTVSPost2010Prop44ColorRGB
 90
      255
102
RTVSPost2010PropOp44
 70
     1
102
RTVSPost2010Prop45
280
     0
102
RTVSPost2010PropOp45
 70
     1
102
RTVSPost2010Prop46
 90
       50
102
RTVSPost2010PropOp46
 70
     1
102
RTVSPost2010Prop47
 90
       50
102
RTVSPost2010PropOp47
 70
     1
102
RTVSPost2010Prop48
 90
       50
102
RTVSPost2010PropOp48
 70
     1
102
RTVSPost2010Prop49
280
     0
102
RTVSPost2010PropOp49
 70
     1
102
RTVSPost2010Prop50
 90
       50
102
RTVSPost2010PropOp50
 70
     1
102
RTVSPost2010Prop51ColorIndex
 90
      256
102
RTVSPost2010Prop51ColorRGB
 90
-16777216
102
RTVSPost2010PropOp51
 70
     0
102
RTVSPost2010Prop52
140
1.0
102
RTVSPost2010PropOp52
 70
     0
102
RTVSPost2010Prop53
 90
        2
102
RTVSPost2010PropOp53
 70
     1
102
RTVSPost2010Prop54
  1
strokes_ogs.tif
102
RTVSPost2010PropOp54
 70
     1
102
RTVSPost2010Prop55
280
     0
102
RTVSPost2010PropOp55
 70
     1
102
RTVSPost2010Prop56
140
1.0
102
RTVSPost2010PropOp56
 70
     1
102
RTVSPost2010Prop57
140
1.0
102
RTVSPost2010PropOp57
 70
     1
  0
XRECORD
  5
4B1
102
{ACAD_REACTORS
330
4B0
102
}
330
4B0
100
AcDbXrecord
280
     1
102
RTVSPost2010Prop28
280
     0
102
RTVSPost2010PropOp28
 70
     1
102
RTVSPost2010Prop29
280
     1
102
RTVSPost2010PropOp29
 70
     1
102
RTVSPost2010Prop30
280
     1
102
RTVSPost2010PropOp30
 70
     1
102
RTVSPost2010Prop31
280
     0
102
RTVSPost2010PropOp31
 70
     1
102
RTVSPost2010Prop32
280
     0
102
RTVSPost2010PropOp32
 70
     1
102
RTVSPost2010Prop33
280
     0
102
RTVSPost2010PropOp33
 70
     1
102
RTVSPost2010Prop34
280
     0
102
RTVSPost2010PropOp34
 70
     1
102
RTVSPost2010Prop35
280
     0
102
RTVSPost2010PropOp35
 70
     1
102
RTVSPost2010Prop36
280
     0
102
RTVSPost2010PropOp36
 70
     1
102
RTVSPost2010Prop37
 90
       50
102
RTVSPost2010PropOp37
 70
     1
102
RTVSPost2010Prop38
140
0.0
102
RTVSPost2010PropOp38
 70
     1
102
RTVSPost2010Prop39
140
1.0
102
RTVSPost2010PropOp39
 70
     1
102
RTVSPost2010Prop40
 90
        0
102
RTVSPost2010PropOp40
 70
     1
102
RTVSPost2010Prop41ColorIndex
 90
       18
102
RTVSPost2010Prop41ColorRGB
 90
        0
102
RTVSPost2010PropOp41
 70
     1
102
RTVSPost2010Prop42
 90
       50
102
RTVSPost2010PropOp42
 70
     1
102
RTVSPost2010Prop43
 90
        3
102
RTVSPost2010PropOp43
 70
     1
102
RTVSPost2010Prop44ColorIndex
 90
        5
102
RTVSPost2010Prop44ColorRGB
 90
      255
102
RTVSPost2010PropOp44
 70
     1
102
RTVSPost2010Prop45
280
     0
102
RTVSPost2010PropOp45
 70
     1
102
RTVSPost2010Prop46
 90
       50
102
RTVSPost2010PropOp46
 70
     1
102
RTVSPost2010Prop47
 90
       50
102
RTVSPost2010PropOp47
 70
     1
102
RTVSPost2010Prop48
 90
       50
102
RTVSPost2010PropOp48
 70
     1
102
RTVSPost2010Prop49
280
     0
102
RTVSPost2010PropOp49
 70
     1
102
RTVSPost2010Prop50
 90
       50
102
RTVSPost2010PropOp50
 70
     1
102
RTVSPost2010Prop51ColorIndex
 90
      256
102
RTVSPost2010Prop51ColorRGB
 90
-16777216
102
RTVSPost2010PropOp51
 70
     0
102
RTVSPost2010Prop52
140
1.0
102
RTVSPost2010PropOp52
 70
     0
102
RTVSPost2010Prop53
 90
        2
102
RTVSPost2010PropOp53
 70
     1
102
RTVSPost2010Prop54
  1
strokes_ogs.tif
102
RTVSPost2010PropOp54
 70
     1
102
RTVSPost2010Prop55
280
     0
102
RTVSPost2010PropOp55
 70
     1
102
RTVSPost2010Prop56
140
1.0
102
RTVSPost2010PropOp56
 70
     1
102
RTVSPost2010Prop57
140
1.0
102
RTVSPost2010PropOp57
 70
     1
  0
ENDSEC
  0
EOF
