  0
SECTION
  2
HEADER
  9
$ACADVER
  1
AC1018
  9
$ACADMAINTVER
 70
   104
  9
$DWGCODEPAGE
  3
ANSI_1252
  9
$LASTSAVEDBY
  1
kaschu
  9
$INSBASE
 10
0.0
 20
0.0
 30
0.0
  9
$EXTMIN
 10
-1730.600000006998
 20
-1523.600000007
 30
-0.0000000000000602
  9
$EXTMAX
 10
1730.600000006998
 20
252.000000005
 30
0.000000000000239
  9
$LIMMIN
 10
0.0
 20
0.0
  9
$LIMMAX
 10
12.0
 20
9.0
  9
$ORTHOMODE
 70
     1
  9
$REGENMODE
 70
     1
  9
$FILLMODE
 70
     1
  9
$QTEXTMODE
 70
     0
  9
$MIRRTEXT
 70
     1
  9
$LTSCALE
 40
1.0
  9
$ATTMODE
 70
     1
  9
$TEXTSIZE
 40
0.2
  9
$TRACEWID
 40
0.05
  9
$TEXTSTYLE
  7
STANDARD
  9
$CLAYER
  8
0
  9
$CELTYPE
  6
BYLAYER
  9
$CECOLOR
 62
   256
  9
$CELTSCALE
 40
1.0
  9
$DISPSILH
 70
     0
  9
$DIMSCALE
 40
1.0
  9
$DIMASZ
 40
0.18
  9
$DIMEXO
 40
0.0625
  9
$DIMDLI
 40
0.38
  9
$DIMRND
 40
0.0
  9
$DIMDLE
 40
0.0
  9
$DIMEXE
 40
0.18
  9
$DIMTP
 40
0.0
  9
$DIMTM
 40
0.0
  9
$DIMTXT
 40
0.18
  9
$DIMCEN
 40
0.09
  9
$DIMTSZ
 40
0.0
  9
$DIMTOL
 70
     0
  9
$DIMLIM
 70
     0
  9
$DIMTIH
 70
     1
  9
$DIMTOH
 70
     1
  9
$DIMSE1
 70
     0
  9
$DIMSE2
 70
     0
  9
$DIMTAD
 70
     0
  9
$DIMZIN
 70
     0
  9
$DIMBLK
  1

  9
$DIMASO
 70
     1
  9
$DIMSHO
 70
     1
  9
$DIMPOST
  1

  9
$DIMAPOST
  1

  9
$DIMALT
 70
     0
  9
$DIMALTD
 70
     2
  9
$DIMALTF
 40
25.4
  9
$DIMLFAC
 40
1.0
  9
$DIMTOFL
 70
     0
  9
$DIMTVP
 40
0.0
  9
$DIMTIX
 70
     0
  9
$DIMSOXD
 70
     0
  9
$DIMSAH
 70
     0
  9
$DIMBLK1
  1

  9
$DIMBLK2
  1

  9
$DIMSTYLE
  2
STANDARD
  9
$DIMCLRD
 70
     0
  9
$DIMCLRE
 70
     0
  9
$DIMCLRT
 70
     0
  9
$DIMTFAC
 40
1.0
  9
$DIMGAP
 40
0.09
  9
$DIMJUST
 70
     0
  9
$DIMSD1
 70
     0
  9
$DIMSD2
 70
     0
  9
$DIMTOLJ
 70
     1
  9
$DIMTZIN
 70
     0
  9
$DIMALTZ
 70
     0
  9
$DIMALTTZ
 70
     0
  9
$DIMUPT
 70
     0
  9
$DIMDEC
 70
     4
  9
$DIMTDEC
 70
     4
  9
$DIMALTU
 70
     2
  9
$DIMALTTD
 70
     2
  9
$DIMTXSTY
  7
STANDARD
  9
$DIMAUNIT
 70
     0
  9
$DIMADEC
 70
     0
  9
$DIMALTRND
 40
0.0
  9
$DIMAZIN
 70
     0
  9
$DIMDSEP
 70
    46
  9
$DIMATFIT
 70
     3
  9
$DIMFRAC
 70
     0
  9
$DIMLDRBLK
  1

  9
$DIMLUNIT
 70
     2
  9
$DIMLWD
 70
    -2
  9
$DIMLWE
 70
    -2
  9
$DIMTMOVE
 70
     0
  9
$LUNITS
 70
     2
  9
$LUPREC
 70
     4
  9
$SKETCHINC
 40
0.1
  9
$FILLETRAD
 40
0.5
  9
$AUNITS
 70
     0
  9
$AUPREC
 70
     0
  9
$MENU
  1
.
  9
$ELEVATION
 40
0.0
  9
$PELEVATION
 40
0.0
  9
$THICKNESS
 40
0.0
  9
$LIMCHECK
 70
     0
  9
$CHAMFERA
 40
0.5
  9
$CHAMFERB
 40
0.5
  9
$CHAMFERC
 40
1.0
  9
$CHAMFERD
 40
0.0
  9
$SKPOLY
 70
     0
  9
$TDCREATE
 40
2451762.447253704
  9
$TDUCREATE
 40
2451762.363920371
  9
$TDUPDATE
 40
2456770.483868287
  9
$TDUUPDATE
 40
2456770.400534954
  9
$TDINDWG
 40
0.0062240625
  9
$TDUSRTIMER
 40
0.0062238426
  9
$USRTIMER
 70
     1
  9
$ANGBASE
 50
0.0
  9
$ANGDIR
 70
     0
  9
$PDMODE
 70
     0
  9
$PDSIZE
 40
0.0
  9
$PLINEWID
 40
0.0
  9
$SPLFRAME
 70
     0
  9
$SPLINETYPE
 70
     6
  9
$SPLINESEGS
 70
     8
  9
$HANDSEED
  5
599
  9
$SURFTAB1
 70
     6
  9
$SURFTAB2
 70
     6
  9
$SURFTYPE
 70
     6
  9
$SURFU
 70
     6
  9
$SURFV
 70
     6
  9
$UCSBASE
  2

  9
$UCSNAME
  2

  9
$UCSORG
 10
0.0
 20
0.0
 30
0.0
  9
$UCSXDIR
 10
1.0
 20
0.0
 30
0.0
  9
$UCSYDIR
 10
0.0
 20
1.0
 30
0.0
  9
$UCSORTHOREF
  2

  9
$UCSORTHOVIEW
 70
     0
  9
$UCSORGTOP
 10
0.0
 20
0.0
 30
0.0
  9
$UCSORGBOTTOM
 10
0.0
 20
0.0
 30
0.0
  9
$UCSORGLEFT
 10
0.0
 20
0.0
 30
0.0
  9
$UCSORGRIGHT
 10
0.0
 20
0.0
 30
0.0
  9
$UCSORGFRONT
 10
0.0
 20
0.0
 30
0.0
  9
$UCSORGBACK
 10
0.0
 20
0.0
 30
0.0
  9
$PUCSBASE
  2

  9
$PUCSNAME
  2

  9
$PUCSORG
 10
0.0
 20
0.0
 30
0.0
  9
$PUCSXDIR
 10
1.0
 20
0.0
 30
0.0
  9
$PUCSYDIR
 10
0.0
 20
1.0
 30
0.0
  9
$PUCSORTHOREF
  2

  9
$PUCSORTHOVIEW
 70
     0
  9
$PUCSORGTOP
 10
0.0
 20
0.0
 30
0.0
  9
$PUCSORGBOTTOM
 10
0.0
 20
0.0
 30
0.0
  9
$PUCSORGLEFT
 10
0.0
 20
0.0
 30
0.0
  9
$PUCSORGRIGHT
 10
0.0
 20
0.0
 30
0.0
  9
$PUCSORGFRONT
 10
0.0
 20
0.0
 30
0.0
  9
$PUCSORGBACK
 10
0.0
 20
0.0
 30
0.0
  9
$USERI1
 70
     0
  9
$USERI2
 70
     0
  9
$USERI3
 70
     0
  9
$USERI4
 70
     0
  9
$USERI5
 70
     0
  9
$USERR1
 40
0.0
  9
$USERR2
 40
0.0
  9
$USERR3
 40
0.0
  9
$USERR4
 40
0.0
  9
$USERR5
 40
0.0
  9
$WORLDVIEW
 70
     1
  9
$SHADEDGE
 70
     3
  9
$SHADEDIF
 70
    70
  9
$TILEMODE
 70
     1
  9
$MAXACTVP
 70
    64
  9
$PINSBASE
 10
0.0
 20
0.0
 30
0.0
  9
$PLIMCHECK
 70
     0
  9
$PEXTMIN
 10
1.000000000000000E+20
 20
1.000000000000000E+20
 30
1.000000000000000E+20
  9
$PEXTMAX
 10
-1.000000000000000E+20
 20
-1.000000000000000E+20
 30
-1.000000000000000E+20
  9
$PLIMMIN
 10
0.0
 20
0.0
  9
$PLIMMAX
 10
12.0
 20
9.0
  9
$UNITMODE
 70
     0
  9
$VISRETAIN
 70
     1
  9
$PLINEGEN
 70
     0
  9
$PSLTSCALE
 70
     1
  9
$TREEDEPTH
 70
  3020
  9
$CMLSTYLE
  2
STANDARD
  9
$CMLJUST
 70
     0
  9
$CMLSCALE
 40
1.0
  9
$PROXYGRAPHICS
 70
     1
  9
$MEASUREMENT
 70
     0
  9
$CELWEIGHT
370
    -1
  9
$ENDCAPS
280
     0
  9
$JOINSTYLE
280
     0
  9
$LWDISPLAY
290
     0
  9
$INSUNITS
 70
     0
  9
$HYPERLINKBASE
  1

  9
$STYLESHEET
  1

  9
$XEDIT
290
     1
  9
$CEPSNTYPE
380
     0
  9
$PSTYLEMODE
290
     1
  9
$FINGERPRINTGUID
  2
{28E85FCD-B6F2-490B-9D72-C365709F6F59}
  9
$VERSIONGUID
  2
{437ADA20-A39A-49BC-967D-6D2AA80C66B5}
  9
$EXTNAMES
290
     1
  9
$PSVPSCALE
 40
0.0
  9
$OLESTARTUP
290
     0
  9
$SORTENTS
280
   127
  9
$INDEXCTL
280
     0
  9
$HIDETEXT
280
     0
  9
$XCLIPFRAME
290
     0
  9
$HALOGAP
280
     0
  9
$OBSCOLOR
 70
   257
  9
$OBSLTYPE
280
     0
  9
$INTERSECTIONDISPLAY
280
     0
  9
$INTERSECTIONCOLOR
 70
   257
  9
$DIMASSOC
280
     1
  9
$PROJECTNAME
  1

  0
ENDSEC
  0
SECTION
  2
CLASSES
  0
CLASS
  1
ACDBDICTIONARYWDFLT
  2
AcDbDictionaryWithDefault
  3
ObjectDBX Classes
 90
        0
 91
        1
280
     0
281
     0
  0
CLASS
  1
MATERIAL
  2
AcDbMaterial
  3
ObjectDBX Classes
 90
     1153
 91
        3
280
     0
281
     0
  0
CLASS
  1
VISUALSTYLE
  2
AcDbVisualStyle
  3
ObjectDBX Classes
 90
     4095
 91
       24
280
     0
281
     0
  0
CLASS
  1
TABLESTYLE
  2
AcDbTableStyle
  3
ObjectDBX Classes
 90
     4095
 91
        1
280
     0
281
     0
  0
CLASS
  1
SCALE
  2
AcDbScale
  3
ObjectDBX Classes
 90
     1153
 91
       17
280
     0
281
     0
  0
CLASS
  1
MLEADERSTYLE
  2
AcDbMLeaderStyle
  3
ACDB_MLEADERSTYLE_CLASS
 90
     4095
 91
        1
280
     0
281
     0
  0
CLASS
  1
ACDBSECTIONVIEWSTYLE
  2
AcDbSectionViewStyle
  3
ObjectDBX Classes
 90
     1025
 91
        1
280
     0
281
     0
  0
CLASS
  1
ACDBDETAILVIEWSTYLE
  2
AcDbDetailViewStyle
  3
ObjectDBX Classes
 90
     1025
 91
        1
280
     0
281
     0
  0
CLASS
  1
DICTIONARYVAR
  2
AcDbDictionaryVar
  3
ObjectDBX Classes
 90
        0
 91
        7
280
     0
281
     0
  0
CLASS
  1
CELLSTYLEMAP
  2
AcDbCellStyleMap
  3
ObjectDBX Classes
 90
     1152
 91
        3
280
     0
281
     0
  0
ENDSEC
  0
SECTION
  2
TABLES
  0
TABLE
  2
VPORT
  5
8
330
0
100
AcDbSymbolTable
 70
     1
  0
VPORT
  5
446
330
8
100
AcDbSymbolTableRecord
100
AcDbViewportTableRecord
  2
*ACTIVE
 70
     0
 10
0.0
 20
0.0
 11
1.0
 21
1.0
 12
221.7892886870718
 22
-943.6185418942455
 13
0.0
 23
0.0
 14
0.5
 24
0.5
 15
0.5
 25
0.5
 16
0.0
 26
0.0
 36
1.0
 17
0.0
 27
0.0
 37
0.0
 40
2877.770227800657
 41
1.663500678426051
 42
50.0
 43
0.0
 44
0.0
 50
0.0
 51
0.0
 71
     0
 72
   100
 73
     1
 74
     3
 75
     0
 76
     0
 77
     0
 78
     0
281
     0
 65
     1
110
0.0
120
0.0
130
0.0
111
1.0
121
0.0
131
0.0
112
0.0
122
1.0
132
0.0
 79
     0
146
0.0
1001
ACAD_NAV_VCDISPLAY
1070
     3
  0
ENDTAB
  0
TABLE
  2
LTYPE
  5
5
330
0
100
AcDbSymbolTable
 70
     4
  0
LTYPE
  5
14
330
5
100
AcDbSymbolTableRecord
100
AcDbLinetypeTableRecord
  2
BYBLOCK
 70
     0
  3

 72
    65
 73
     0
 40
0.0
  0
LTYPE
  5
15
330
5
100
AcDbSymbolTableRecord
100
AcDbLinetypeTableRecord
  2
BYLAYER
 70
     0
  3

 72
    65
 73
     0
 40
0.0
  0
LTYPE
  5
16
330
5
100
AcDbSymbolTableRecord
100
AcDbLinetypeTableRecord
  2
CONTINUOUS
 70
     0
  3
Solid line
 72
    65
 73
     0
 40
0.0
  0
LTYPE
  5
420
330
5
100
AcDbSymbolTableRecord
100
AcDbLinetypeTableRecord
  2
ACAD_ISO02W100
 70
     0
  3
ISO Strichlinie __ __ __ __ __ __ __ __ __ __ _
 72
    65
 73
     2
 40
15.0
 49
12.0
 74
     0
 49
-3.0
 74
     0
  0
LTYPE
  5
4B5
330
5
100
AcDbSymbolTableRecord
100
AcDbLinetypeTableRecord
  2
PHANTOM2
 70
     0
  3
___ _ _ ___ _ _ ___ _ _ ___ _ _
 72
    65
 73
     6
 40
1.25
 49
0.625
 74
     0
 49
-0.125
 74
     0
 49
0.125
 74
     0
 49
-0.125
 74
     0
 49
0.125
 74
     0
 49
-0.125
 74
     0
  0
ENDTAB
  0
TABLE
  2
LAYER
  5
2
330
0
100
AcDbSymbolTable
 70
     4
  0
LAYER
  5
10
102
{ACAD_XDICTIONARY
360
4D0
102
}
330
2
100
AcDbSymbolTableRecord
100
AcDbLayerTableRecord
  2
0
 70
     0
 62
     7
  6
CONTINUOUS
370
    -3
390
216
  0
LAYER
  5
3ED
330
2
100
AcDbSymbolTableRecord
100
AcDbLayerTableRecord
  2
DEFPOINTS
 70
     0
 62
     7
  6
CONTINUOUS
290
     0
370
    -3
390
216
  0
LAYER
  5
421
102
{ACAD_XDICTIONARY
360
4D2
102
}
330
2
100
AcDbSymbolTableRecord
100
AcDbLayerTableRecord
  2
MITTELLINIE
 70
     0
 62
     4
  6
ACAD_ISO02W100
370
    -3
390
216
  0
LAYER
  5
4BF
102
{ACAD_XDICTIONARY
360
4D4
102
}
330
2
100
AcDbSymbolTableRecord
100
AcDbLayerTableRecord
  2
HEWI
 70
     0
 62
     7
  6
CONTINUOUS
370
    -3
390
216
1001
AcAecLayerStandard
1000

1000

1001
AcCmTransparency
1071
        0
  0
ENDTAB
  0
TABLE
  2
STYLE
  5
3
330
0
100
AcDbSymbolTable
 70
     2
  0
STYLE
  5
11
330
3
100
AcDbSymbolTableRecord
100
AcDbTextStyleTableRecord
  2
STANDARD
 70
     0
 40
0.0
 41
1.0
 50
0.0
 71
     0
 42
0.2
  3
txt
  4

  0
STYLE
  5
41F
330
3
100
AcDbSymbolTableRecord
100
AcDbTextStyleTableRecord
  2

 70
     1
 40
0.0
 41
1.0
 50
0.0
 71
     0
 42
0.2
  3
ltypeshp.shx
  4

  0
ENDTAB
  0
TABLE
  2
VIEW
  5
6
330
0
100
AcDbSymbolTable
 70
     0
  0
ENDTAB
  0
TABLE
  2
UCS
  5
7
330
0
100
AcDbSymbolTable
 70
     0
  0
ENDTAB
  0
TABLE
  2
APPID
  5
9
330
0
100
AcDbSymbolTable
 70
     6
  0
APPID
  5
12
330
9
100
AcDbSymbolTableRecord
100
AcDbRegAppTableRecord
  2
ACAD
 70
     0
  0
APPID
  5
4C0
330
9
100
AcDbSymbolTableRecord
100
AcDbRegAppTableRecord
  2
AcAecLayerStandard
 70
     0
  0
APPID
  5
4C1
330
9
100
AcDbSymbolTableRecord
100
AcDbRegAppTableRecord
  2
AcCmTransparency
 70
     0
  0
APPID
  5
4DD
330
9
100
AcDbSymbolTableRecord
100
AcDbRegAppTableRecord
  2
ACAD_NAV_VCDISPLAY
 70
     0
  0
APPID
  5
515
330
9
100
AcDbSymbolTableRecord
100
AcDbRegAppTableRecord
  2
ACAD_MLEADERVER
 70
     0
  0
APPID
  5
55F
330
9
100
AcDbSymbolTableRecord
100
AcDbRegAppTableRecord
  2
ACAD_EXEMPT_FROM_CAD_STANDARDS
 70
     0
  0
ENDTAB
  0
TABLE
  2
DIMSTYLE
  5
A
330
0
100
AcDbSymbolTable
 70
     1
100
AcDbDimStyleTable
 71
     1
340
27
  0
DIMSTYLE
105
27
330
A
100
AcDbSymbolTableRecord
100
AcDbDimStyleTableRecord
  2
STANDARD
 70
     0
340
11
  0
ENDTAB
  0
TABLE
  2
BLOCK_RECORD
  5
1
330
0
100
AcDbSymbolTable
 70
     2
  0
BLOCK_RECORD
  5
1F
102
{ACAD_XDICTIONARY
360
20F
102
}
330
1
100
AcDbSymbolTableRecord
100
AcDbBlockTableRecord
  2
*MODEL_SPACE
340
4B9
  0
BLOCK_RECORD
  5
1B
102
{ACAD_XDICTIONARY
360
20D
102
}
330
1
100
AcDbSymbolTableRecord
100
AcDbBlockTableRecord
  2
*PAPER_SPACE
340
4BA
  0
BLOCK_RECORD
  5
4C3
330
1
100
AcDbSymbolTableRecord
100
AcDbBlockTableRecord
  2
*D0
340
0
  0
ENDTAB
  0
ENDSEC
  0
SECTION
  2
BLOCKS
  0
BLOCK
  5
20
330
1F
100
AcDbEntity
  8
0
100
AcDbBlockBegin
  2
*MODEL_SPACE
 70
     0
 10
0.0
 20
0.0
 30
0.0
  3
*MODEL_SPACE
  1

  0
ENDBLK
  5
21
330
1F
100
AcDbEntity
  8
0
100
AcDbBlockEnd
  0
BLOCK
  5
1C
330
1B
100
AcDbEntity
 67
     1
  8
0
100
AcDbBlockBegin
  2
*PAPER_SPACE
 70
     0
 10
0.0
 20
0.0
 30
0.0
  3
*PAPER_SPACE
  1

  0
ENDBLK
  5
1D
330
1B
100
AcDbEntity
 67
     1
  8
0
100
AcDbBlockEnd
  0
BLOCK
  5
4C4
330
4C3
100
AcDbEntity
  8
0
100
AcDbBlockBegin
  2
*D0
 70
     1
 10
0.0
 20
0.0
 30
0.0
  3
*D0
  1

  0
LINE
  5
4C6
330
4C3
100
AcDbEntity
  8
0
 62
     0
440
 16777216
370
    -2
100
AcDbLine
 10
-462.6973454395426
 20
-264.4374999949999
 30
0.0
 11
-462.6973454395426
 21
488.2073642842421
 31
0.0
  0
LINE
  5
4C7
330
4C3
100
AcDbEntity
  8
0
 62
     0
440
 16777216
370
    -2
100
AcDbLine
 10
509.0000000049998
 20
-247.9374999949999
 30
0.0
 11
509.0000000049998
 21
488.207364284242
 31
0.0
  0
LINE
  5
4C8
330
4C3
100
AcDbEntity
  8
0
 62
     0
440
 16777216
370
    -2
100
AcDbLine
 10
-462.5173454395426
 20
488.027364284242
 30
0.0
 11
22.46132728272863
 21
488.027364284242
 31
0.0
  0
LINE
  5
4C9
330
4C3
100
AcDbEntity
  8
0
 62
     0
440
 16777216
370
    -2
100
AcDbLine
 10
508.8200000049998
 20
488.027364284242
 30
0.0
 11
23.84132728272863
 21
488.027364284242
 31
0.0
  0
SOLID
  5
4CA
330
4C3
100
AcDbEntity
  8
0
 62
     0
440
 16777216
100
AcDbTrace
 10
-462.5173454395426
 20
488.0573642842421
 30
0.0
 11
-462.5173454395426
 21
487.9973642842421
 31
0.0
 12
-462.6973454395426
 22
488.027364284242
 32
0.0
 13
-462.6973454395426
 23
488.027364284242
 33
0.0
  0
SOLID
  5
4CB
330
4C3
100
AcDbEntity
  8
0
 62
     0
440
 16777216
100
AcDbTrace
 10
508.8200000049998
 20
488.0573642842421
 30
0.0
 11
508.8200000049998
 21
487.9973642842421
 31
0.0
 12
509.0000000049998
 22
488.027364284242
 32
0.0
 13
509.0000000049998
 23
488.027364284242
 33
0.0
  0
MTEXT
  5
4CC
330
4C3
100
AcDbEntity
  8
0
 62
     0
440
 16777216
100
AcDbMText
 10
23.15132728272863
 20
488.027364284242
 30
0.0
 40
0.18
 41
0.0
 71
     5
 72
     1
  1
\A1;971.6973
 73
     1
 44
1.0
  0
POINT
  5
4CD
330
4C3
100
AcDbEntity
  8
DEFPOINTS
 62
     0
440
 16777216
100
AcDbPoint
 10
-462.6973454395426
 20
-264.499999995
 30
0.0
  0
POINT
  5
4CE
330
4C3
100
AcDbEntity
  8
DEFPOINTS
 62
     0
440
 16777216
100
AcDbPoint
 10
509.0000000049998
 20
-247.9999999949999
 30
0.0000000000001204
  0
POINT
  5
4CF
330
4C3
100
AcDbEntity
  8
DEFPOINTS
 62
     0
440
 16777216
100
AcDbPoint
 10
509.0000000049998
 20
488.027364284242
 30
0.0
  0
ENDBLK
  5
4C5
330
4C3
100
AcDbEntity
  8
0
100
AcDbBlockEnd
  0
ENDSEC
  0
SECTION
  2
ENTITIES
  0
LINE
  5
21C
330
1F
100
AcDbEntity
  8
HEWI
100
AcDbLine
 10
-1656.050000007
 20
-200.147392545687
 30
-0.0000000000000578
 11
-1668.150000006999
 21
-200.147392545687
 31
-0.0000000000000585
210
0.0
220
1.0
230
0.0
  0
LINE
  5
21D
330
1F
100
AcDbEntity
  8
HEWI
100
AcDbLine
 10
-1697.100000007
 20
251.9999999999999
 30
-0.0000000000000021
 11
-1627.100000006999
 21
251.9999999999999
 31
0.0000000000000022
210
0.0
220
1.0
230
0.0
  0
LINE
  5
21E
330
1F
100
AcDbEntity
  8
HEWI
100
AcDbLine
 10
-1695.100000006999
 20
239.9999999999999
 30
-0.000000000000002
 11
-1629.100000006999
 21
239.9999999999999
 31
0.0000000000000021
210
0.0
220
1.0
230
0.0
  0
CIRCLE
  5
21F
330
1F
100
AcDbEntity
  8
HEWI
100
AcDbCircle
 10
-1695.600000006998
 20
-248.0
 30
-0.0000000000000602
 40
16.5
  0
LINE
  5
220
330
1F
100
AcDbEntity
  8
HEWI
100
AcDbLine
 10
-1582.100000007
 20
-264.5
 30
-0.0000000000000532
 11
-1582.100000007
 21
-231.4999999999999
 31
-0.0000000000000532
210
0.0
220
1.0
230
0.0
  0
LINE
  5
221
330
1F
100
AcDbEntity
  8
HEWI
100
AcDbLine
 10
-1582.100000007
 20
-231.4999999999999
 30
-0.0000000000000532
 11
-1582.100000007
 21
-264.5
 31
-0.0000000000000532
210
0.0
220
1.0
230
0.0
  0
LINE
  5
222
330
1F
100
AcDbEntity
  8
HEWI
100
AcDbLine
 10
-1410.600000007
 20
-296.0
 30
-0.0000000000000427
 11
-1410.600000007
 21
-277.2068277077088
 31
-0.0000000000000427
210
0.0
220
1.0
230
0.0
  0
SPLINE
  5
223
330
1F
100
AcDbEntity
  8
HEWI
100
AcDbSpline
210
0.0
220
0.0
230
1.0
 70
     8
 71
     3
 72
    19
 73
    15
 74
     0
 42
0.0000000001
 43
0.0000000001
 40
-1.946346350516163
 40
-1.946346350516163
 40
-1.946346350516163
 40
-1.946346350516163
 40
-1.842933541421799
 40
-1.842933541421799
 40
-0.9214667707108999
 40
-0.9214667707108999
 40
0.0
 40
0.0
 40
0.0
 40
0.9214667707108663
 40
0.9214667707108663
 40
1.842933541421732
 40
1.842933541421732
 40
1.946346350516163
 40
1.946346350516163
 40
1.946346350516163
 40
1.946346350516163
 10
-1414.600000007
 20
-277.2068277077088
 30
-0.000000000000043
 10
-1414.567862752138
 20
-277.2210339991821
 30
-0.000000000000043
 10
-1414.535860250602
 20
-277.2347725250126
 30
-0.000000000000043
 10
-1414.22056383517
 20
-277.3662900299096
 30
-0.000000000000043
 10
-1413.899271849984
 20
-277.4673620233683
 30
-0.0000000000000429
 10
-1413.242568457423
 20
-277.5989936648165
 30
-0.0000000000000429
 10
-1412.907155597237
 20
-277.6295460646969
 30
-0.0000000000000429
 10
-1412.600000007
 20
-277.6295460646969
 30
-0.0000000000000429
 10
-1412.292844416762
 20
-277.6295460646969
 30
-0.0000000000000428
 10
-1411.957431556576
 20
-277.5989936648165
 30
-0.0000000000000428
 10
-1411.300728164015
 20
-277.4673620233683
 30
-0.0000000000000428
 10
-1410.979436178828
 20
-277.3662900299096
 30
-0.0000000000000428
 10
-1410.664139763396
 20
-277.2347725250126
 30
-0.0000000000000427
 10
-1410.632137261861
 20
-277.2210339991821
 30
-0.0000000000000427
 10
-1410.600000007
 20
-277.2068277077088
 30
-0.0000000000000427
  0
LINE
  5
224
330
1F
100
AcDbEntity
  8
HEWI
100
AcDbLine
 10
-1410.600000007
 20
-302.0
 30
-0.0000000000000427
 11
-1410.600000007
 21
-295.9999999999999
 31
-0.0000000000000427
210
0.0
220
1.0
230
0.0
  0
LINE
  5
225
330
1F
100
AcDbEntity
  8
HEWI
100
AcDbLine
 10
-1414.600000007
 20
-296.0
 30
-0.000000000000043
 11
-1414.600000007
 21
-277.2068277077088
 31
-0.000000000000043
210
0.0
220
1.0
230
0.0
  0
LINE
  5
226
330
1F
100
AcDbEntity
  8
HEWI
100
AcDbLine
 10
-1414.600000007
 20
-295.9999999999999
 30
-0.000000000000043
 11
-1414.600000007
 21
-302.0
 31
-0.000000000000043
210
0.0
220
1.0
230
0.0
  0
LINE
  5
227
330
1F
100
AcDbEntity
  8
HEWI
100
AcDbLine
 10
-1310.600000006999
 20
-296.0
 30
-0.0000000000000366
 11
-1310.600000006999
 21
-277.2068277077088
 31
-0.0000000000000366
210
0.0
220
1.0
230
0.0
  0
SPLINE
  5
228
330
1F
100
AcDbEntity
  8
HEWI
100
AcDbSpline
210
0.0
220
0.0
230
1.0
 70
     8
 71
     3
 72
    19
 73
    15
 74
     0
 42
0.0000000001
 43
0.0000000001
 40
-1.946346350516163
 40
-1.946346350516163
 40
-1.946346350516163
 40
-1.946346350516163
 40
-1.842933541421799
 40
-1.842933541421799
 40
-0.9214667707108999
 40
-0.9214667707108999
 40
0.0
 40
0.0
 40
0.0
 40
0.9214667707108663
 40
0.9214667707108663
 40
1.842933541421732
 40
1.842933541421732
 40
1.946346350516163
 40
1.946346350516163
 40
1.946346350516163
 40
1.946346350516163
 10
-1314.600000006999
 20
-277.2068277077088
 30
-0.0000000000000369
 10
-1314.567862752137
 20
-277.2210339991821
 30
-0.0000000000000369
 10
-1314.535860250602
 20
-277.2347725250126
 30
-0.0000000000000369
 10
-1314.220563835171
 20
-277.3662900299096
 30
-0.0000000000000368
 10
-1313.899271849984
 20
-277.4673620233683
 30
-0.0000000000000368
 10
-1313.242568457423
 20
-277.5989936648165
 30
-0.0000000000000368
 10
-1312.907155597236
 20
-277.6295460646969
 30
-0.0000000000000368
 10
-1312.600000006999
 20
-277.6295460646969
 30
-0.0000000000000367
 10
-1312.292844416762
 20
-277.6295460646969
 30
-0.0000000000000367
 10
-1311.957431556576
 20
-277.5989936648165
 30
-0.0000000000000367
 10
-1311.300728164015
 20
-277.4673620233683
 30
-0.0000000000000367
 10
-1310.979436178827
 20
-277.3662900299096
 30
-0.0000000000000366
 10
-1310.664139763397
 20
-277.2347725250126
 30
-0.0000000000000366
 10
-1310.632137261862
 20
-277.2210339991821
 30
-0.0000000000000366
 10
-1310.600000006999
 20
-277.2068277077088
 30
-0.0000000000000366
  0
LINE
  5
229
330
1F
100
AcDbEntity
  8
HEWI
100
AcDbLine
 10
-1310.600000006999
 20
-302.0
 30
-0.0000000000000366
 11
-1310.600000006999
 21
-295.9999999999999
 31
-0.0000000000000366
210
0.0
220
1.0
230
0.0
  0
LINE
  5
22A
330
1F
100
AcDbEntity
  8
HEWI
100
AcDbLine
 10
-1314.600000006999
 20
-296.0
 30
-0.0000000000000369
 11
-1314.600000006999
 21
-277.2068277077088
 31
-0.0000000000000369
210
0.0
220
1.0
230
0.0
  0
LINE
  5
22B
330
1F
100
AcDbEntity
  8
HEWI
100
AcDbLine
 10
-1314.600000006999
 20
-295.9999999999999
 30
-0.0000000000000369
 11
-1314.600000006999
 21
-302.0
 31
-0.0000000000000369
210
0.0
220
1.0
230
0.0
  0
LINE
  5
22C
330
1F
100
AcDbEntity
  8
HEWI
100
AcDbLine
 10
-1210.600000006999
 20
-296.0
 30
-0.0000000000000305
 11
-1210.600000006999
 21
-277.2068277077088
 31
-0.0000000000000305
210
0.0
220
1.0
230
0.0
  0
SPLINE
  5
22D
330
1F
100
AcDbEntity
  8
HEWI
100
AcDbSpline
210
0.0
220
0.0
230
1.0
 70
     8
 71
     3
 72
    19
 73
    15
 74
     0
 42
0.0000000001
 43
0.0000000001
 40
-1.946346350516163
 40
-1.946346350516163
 40
-1.946346350516163
 40
-1.946346350516163
 40
-1.842933541421799
 40
-1.842933541421799
 40
-0.9214667707108999
 40
-0.9214667707108999
 40
0.0
 40
0.0
 40
0.0
 40
0.9214667707108663
 40
0.9214667707108663
 40
1.842933541421732
 40
1.842933541421732
 40
1.946346350516163
 40
1.946346350516163
 40
1.946346350516163
 40
1.946346350516163
 10
-1214.600000006999
 20
-277.2068277077088
 30
-0.0000000000000307
 10
-1214.567862752137
 20
-277.2210339991821
 30
-0.0000000000000307
 10
-1214.535860250602
 20
-277.2347725250126
 30
-0.0000000000000307
 10
-1214.220563835171
 20
-277.3662900299096
 30
-0.0000000000000307
 10
-1213.899271849983
 20
-277.4673620233683
 30
-0.0000000000000307
 10
-1213.242568457423
 20
-277.5989936648165
 30
-0.0000000000000307
 10
-1212.907155597236
 20
-277.6295460646969
 30
-0.0000000000000306
 10
-1212.600000006999
 20
-277.6295460646969
 30
-0.0000000000000306
 10
-1212.292844416761
 20
-277.6295460646969
 30
-0.0000000000000306
 10
-1211.957431556576
 20
-277.5989936648165
 30
-0.0000000000000306
 10
-1211.300728164015
 20
-277.4673620233683
 30
-0.0000000000000305
 10
-1210.979436178827
 20
-277.3662900299096
 30
-0.0000000000000305
 10
-1210.664139763397
 20
-277.2347725250126
 30
-0.0000000000000305
 10
-1210.632137261862
 20
-277.2210339991821
 30
-0.0000000000000305
 10
-1210.600000006999
 20
-277.2068277077088
 30
-0.0000000000000305
  0
LINE
  5
22E
330
1F
100
AcDbEntity
  8
HEWI
100
AcDbLine
 10
-1210.600000006999
 20
-302.0
 30
-0.0000000000000305
 11
-1210.600000006999
 21
-295.9999999999999
 31
-0.0000000000000305
210
0.0
220
1.0
230
0.0
  0
LINE
  5
22F
330
1F
100
AcDbEntity
  8
HEWI
100
AcDbLine
 10
-1214.600000006999
 20
-296.0
 30
-0.0000000000000307
 11
-1214.600000006999
 21
-277.2068277077088
 31
-0.0000000000000307
210
0.0
220
1.0
230
0.0
  0
LINE
  5
230
330
1F
100
AcDbEntity
  8
HEWI
100
AcDbLine
 10
-1214.600000006999
 20
-295.9999999999999
 30
-0.0000000000000307
 11
-1214.600000006999
 21
-302.0
 31
-0.0000000000000307
210
0.0
220
1.0
230
0.0
  0
LINE
  5
231
330
1F
100
AcDbEntity
  8
HEWI
100
AcDbLine
 10
-712.6000000069998
 20
-213.0
 30
0.0
 11
-712.6000000069998
 21
-283.0
 31
0.0
210
0.0
220
1.0
230
0.0
  0
LINE
  5
232
330
1F
100
AcDbEntity
  8
HEWI
100
AcDbLine
 10
-724.6000000069998
 20
-215.0
 30
-0.0000000000000007
 11
-724.6000000069998
 21
-281.0
 31
-0.0000000000000007
210
0.0
220
1.0
230
0.0
  0
LINE
  5
233
330
1F
100
AcDbEntity
  8
HEWI
100
AcDbLine
 10
-1110.600000006999
 20
-296.0
 30
-0.0000000000000244
 11
-1110.600000006999
 21
-277.2068277077088
 31
-0.0000000000000244
210
0.0
220
1.0
230
0.0
  0
SPLINE
  5
234
330
1F
100
AcDbEntity
  8
HEWI
100
AcDbSpline
210
0.0
220
0.0
230
1.0
 70
     8
 71
     3
 72
    19
 73
    15
 74
     0
 42
0.0000000001
 43
0.0000000001
 40
-1.946346350516163
 40
-1.946346350516163
 40
-1.946346350516163
 40
-1.946346350516163
 40
-1.842933541421799
 40
-1.842933541421799
 40
-0.9214667707108999
 40
-0.9214667707108999
 40
0.0
 40
0.0
 40
0.0
 40
0.9214667707108663
 40
0.9214667707108663
 40
1.842933541421732
 40
1.842933541421732
 40
1.946346350516163
 40
1.946346350516163
 40
1.946346350516163
 40
1.946346350516163
 10
-1114.600000006999
 20
-277.2068277077088
 30
-0.0000000000000246
 10
-1114.567862752137
 20
-277.2210339991821
 30
-0.0000000000000246
 10
-1114.535860250602
 20
-277.2347725250126
 30
-0.0000000000000246
 10
-1114.220563835171
 20
-277.3662900299096
 30
-0.0000000000000246
 10
-1113.899271849984
 20
-277.4673620233683
 30
-0.0000000000000246
 10
-1113.242568457422
 20
-277.5989936648165
 30
-0.0000000000000245
 10
-1112.907155597236
 20
-277.6295460646969
 30
-0.0000000000000245
 10
-1112.600000006999
 20
-277.6295460646969
 30
-0.0000000000000245
 10
-1112.292844416762
 20
-277.6295460646969
 30
-0.0000000000000245
 10
-1111.957431556576
 20
-277.5989936648165
 30
-0.0000000000000245
 10
-1111.300728164015
 20
-277.4673620233683
 30
-0.0000000000000244
 10
-1110.979436178827
 20
-277.3662900299096
 30
-0.0000000000000244
 10
-1110.664139763397
 20
-277.2347725250126
 30
-0.0000000000000244
 10
-1110.632137261861
 20
-277.2210339991821
 30
-0.0000000000000244
 10
-1110.600000006999
 20
-277.2068277077088
 30
-0.0000000000000244
  0
LINE
  5
235
330
1F
100
AcDbEntity
  8
HEWI
100
AcDbLine
 10
-1110.600000006999
 20
-302.0
 30
-0.0000000000000244
 11
-1110.600000006999
 21
-295.9999999999999
 31
-0.0000000000000244
210
0.0
220
1.0
230
0.0
  0
LINE
  5
236
330
1F
100
AcDbEntity
  8
HEWI
100
AcDbLine
 10
-1114.600000006999
 20
-296.0
 30
-0.0000000000000246
 11
-1114.600000006999
 21
-277.2068277077088
 31
-0.0000000000000246
210
0.0
220
1.0
230
0.0
  0
LINE
  5
237
330
1F
100
AcDbEntity
  8
HEWI
100
AcDbLine
 10
-1114.600000006999
 20
-295.9999999999999
 30
-0.0000000000000246
 11
-1114.600000006999
 21
-302.0
 31
-0.0000000000000246
210
0.0
220
1.0
230
0.0
  0
LINE
  5
238
330
1F
100
AcDbEntity
  8
HEWI
100
AcDbLine
 10
-1010.600000006999
 20
-296.0
 30
-0.0000000000000182
 11
-1010.600000006999
 21
-277.2068277077088
 31
-0.0000000000000182
210
0.0
220
1.0
230
0.0
  0
SPLINE
  5
239
330
1F
100
AcDbEntity
  8
HEWI
100
AcDbSpline
210
0.0
220
0.0
230
1.0
 70
     8
 71
     3
 72
    19
 73
    15
 74
     0
 42
0.0000000001
 43
0.0000000001
 40
-1.946346350516163
 40
-1.946346350516163
 40
-1.946346350516163
 40
-1.946346350516163
 40
-1.842933541421799
 40
-1.842933541421799
 40
-0.9214667707108999
 40
-0.9214667707108999
 40
0.0
 40
0.0
 40
0.0
 40
0.9214667707108663
 40
0.9214667707108663
 40
1.842933541421732
 40
1.842933541421732
 40
1.946346350516163
 40
1.946346350516163
 40
1.946346350516163
 40
1.946346350516163
 10
-1014.600000006999
 20
-277.2068277077088
 30
-0.0000000000000185
 10
-1014.567862752137
 20
-277.2210339991821
 30
-0.0000000000000185
 10
-1014.535860250602
 20
-277.2347725250126
 30
-0.0000000000000185
 10
-1014.220563835171
 20
-277.3662900299096
 30
-0.0000000000000185
 10
-1013.899271849983
 20
-277.4673620233683
 30
-0.0000000000000184
 10
-1013.242568457423
 20
-277.5989936648165
 30
-0.0000000000000184
 10
-1012.907155597236
 20
-277.6295460646969
 30
-0.0000000000000184
 10
-1012.600000006999
 20
-277.6295460646969
 30
-0.0000000000000184
 10
-1012.292844416762
 20
-277.6295460646969
 30
-0.0000000000000184
 10
-1011.957431556575
 20
-277.5989936648165
 30
-0.0000000000000183
 10
-1011.300728164015
 20
-277.4673620233683
 30
-0.0000000000000183
 10
-1010.979436178828
 20
-277.3662900299096
 30
-0.0000000000000183
 10
-1010.664139763397
 20
-277.2347725250126
 30
-0.0000000000000183
 10
-1010.632137261862
 20
-277.2210339991821
 30
-0.0000000000000182
 10
-1010.600000006999
 20
-277.2068277077088
 30
-0.0000000000000182
  0
LINE
  5
23A
330
1F
100
AcDbEntity
  8
HEWI
100
AcDbLine
 10
-1010.600000006999
 20
-302.0
 30
-0.0000000000000182
 11
-1010.600000006999
 21
-295.9999999999999
 31
-0.0000000000000182
210
0.0
220
1.0
230
0.0
  0
LINE
  5
23B
330
1F
100
AcDbEntity
  8
HEWI
100
AcDbLine
 10
-1014.600000006999
 20
-296.0
 30
-0.0000000000000185
 11
-1014.600000006999
 21
-277.2068277077088
 31
-0.0000000000000185
210
0.0
220
1.0
230
0.0
  0
LINE
  5
23C
330
1F
100
AcDbEntity
  8
HEWI
100
AcDbLine
 10
-1014.600000006999
 20
-295.9999999999999
 30
-0.0000000000000185
 11
-1014.600000006999
 21
-302.0
 31
-0.0000000000000185
210
0.0
220
1.0
230
0.0
  0
LINE
  5
23D
330
1F
100
AcDbEntity
  8
HEWI
100
AcDbLine
 10
-910.6000000069998
 20
-296.0
 30
-0.0000000000000121
 11
-910.6000000069998
 21
-277.2068277077088
 31
-0.0000000000000121
210
0.0
220
1.0
230
0.0
  0
SPLINE
  5
23E
330
1F
100
AcDbEntity
  8
HEWI
100
AcDbSpline
210
0.0
220
0.0
230
1.0
 70
     8
 71
     3
 72
    19
 73
    15
 74
     0
 42
0.0000000001
 43
0.0000000001
 40
-1.946346350516163
 40
-1.946346350516163
 40
-1.946346350516163
 40
-1.946346350516163
 40
-1.842933541421799
 40
-1.842933541421799
 40
-0.9214667707108999
 40
-0.9214667707108999
 40
0.0
 40
0.0
 40
0.0
 40
0.9214667707108663
 40
0.9214667707108663
 40
1.842933541421732
 40
1.842933541421732
 40
1.946346350516163
 40
1.946346350516163
 40
1.946346350516163
 40
1.946346350516163
 10
-914.6000000069998
 20
-277.2068277077088
 30
-0.0000000000000124
 10
-914.5678627521375
 20
-277.2210339991821
 30
-0.0000000000000124
 10
-914.535860250602
 20
-277.2347725250126
 30
-0.0000000000000124
 10
-914.2205638351711
 20
-277.3662900299096
 30
-0.0000000000000123
 10
-913.8992718499839
 20
-277.4673620233683
 30
-0.0000000000000123
 10
-913.2425684574231
 20
-277.5989936648165
 30
-0.0000000000000123
 10
-912.9071555972368
 20
-277.6295460646969
 30
-0.0000000000000123
 10
-912.6000000069998
 20
-277.6295460646969
 30
-0.0000000000000122
 10
-912.2928444167627
 20
-277.6295460646969
 30
-0.0000000000000122
 10
-911.9574315565767
 20
-277.5989936648165
 30
-0.0000000000000122
 10
-911.3007281640157
 20
-277.4673620233683
 30
-0.0000000000000122
 10
-910.9794361788285
 20
-277.3662900299096
 30
-0.0000000000000121
 10
-910.6641397633977
 20
-277.2347725250126
 30
-0.0000000000000121
 10
-910.6321372618619
 20
-277.2210339991821
 30
-0.0000000000000121
 10
-910.6000000069998
 20
-277.2068277077088
 30
-0.0000000000000121
  0
LINE
  5
23F
330
1F
100
AcDbEntity
  8
HEWI
100
AcDbLine
 10
-910.6000000069998
 20
-302.0
 30
-0.0000000000000121
 11
-910.6000000069998
 21
-295.9999999999999
 31
-0.0000000000000121
210
0.0
220
1.0
230
0.0
  0
LINE
  5
240
330
1F
100
AcDbEntity
  8
HEWI
100
AcDbLine
 10
-914.6000000069998
 20
-296.0
 30
-0.0000000000000124
 11
-914.6000000069998
 21
-277.2068277077088
 31
-0.0000000000000124
210
0.0
220
1.0
230
0.0
  0
LINE
  5
241
330
1F
100
AcDbEntity
  8
HEWI
100
AcDbLine
 10
-914.6000000069998
 20
-295.9999999999999
 30
-0.0000000000000124
 11
-914.6000000069998
 21
-302.0
 31
-0.0000000000000124
210
0.0
220
1.0
230
0.0
  0
CIRCLE
  5
242
330
1F
100
AcDbEntity
  8
HEWI
100
AcDbCircle
 10
-1695.600000006998
 20
-248.0
 30
-0.0000000000000602
 40
33.25
  0
CIRCLE
  5
243
330
1F
100
AcDbEntity
  8
HEWI
100
AcDbCircle
 10
-1695.600000006998
 20
-248.0
 30
-0.0000000000000602
 40
35.0
  0
CIRCLE
  5
244
330
1F
100
AcDbEntity
  8
HEWI
100
AcDbCircle
 10
-1695.600000006998
 20
-248.0
 30
-0.0000000000000602
 40
16.8
  0
CIRCLE
  5
245
330
1F
100
AcDbEntity
  8
HEWI
100
AcDbCircle
 10
-1695.600000006998
 20
-248.0
 30
-0.0000000000000602
 40
32.25
  0
LINE
  5
246
330
1F
100
AcDbEntity
  8
HEWI
100
AcDbLine
 10
-914.6000000069998
 20
-302.0
 30
-0.0000000000000124
 11
-910.6000000069998
 21
-302.0
 31
-0.0000000000000121
210
0.0
220
1.0
230
0.0
  0
ARC
  5
247
330
1F
100
AcDbEntity
  8
HEWI
100
AcDbCircle
 10
-912.6000000069998
 20
-225.257660478055
 30
-0.0000000000000122
 40
5.0
100
AcDbArc
 50
0.0
 51
180.0
  0
LINE
  5
248
330
1F
100
AcDbEntity
  8
HEWI
100
AcDbLine
 10
-1014.600000006999
 20
-302.0
 30
-0.0000000000000185
 11
-1010.600000006999
 21
-302.0
 31
-0.0000000000000182
210
0.0
220
1.0
230
0.0
  0
ARC
  5
249
330
1F
100
AcDbEntity
  8
HEWI
100
AcDbCircle
 10
-1012.600000006999
 20
-225.257660478055
 30
-0.0000000000000184
 40
5.0
100
AcDbArc
 50
0.0
 51
180.0
  0
LINE
  5
24A
330
1F
100
AcDbEntity
  8
HEWI
100
AcDbLine
 10
-1114.600000006999
 20
-302.0
 30
-0.0000000000000246
 11
-1110.600000006999
 21
-302.0
 31
-0.0000000000000244
210
0.0
220
1.0
230
0.0
  0
ARC
  5
24B
330
1F
100
AcDbEntity
  8
HEWI
100
AcDbCircle
 10
-1112.600000006999
 20
-225.257660478055
 30
-0.0000000000000245
 40
5.0
100
AcDbArc
 50
0.0
 51
180.0
  0
LINE
  5
24C
330
1F
100
AcDbEntity
  8
HEWI
100
AcDbLine
 10
-722.6000000069998
 20
-283.0
 30
-0.0000000000000006
 11
-712.6000000069998
 21
-283.0
 31
0.0
210
0.0
220
1.0
230
0.0
  0
LINE
  5
24D
330
1F
100
AcDbEntity
  8
HEWI
100
AcDbLine
 10
-722.6000000069998
 20
-213.0
 30
-0.0000000000000006
 11
-712.6000000069998
 21
-213.0
 31
0.0
210
0.0
220
1.0
230
0.0
  0
LINE
  5
24E
330
1F
100
AcDbEntity
  8
HEWI
100
AcDbLine
 10
-1214.600000006999
 20
-302.0
 30
-0.0000000000000307
 11
-1210.600000006999
 21
-302.0
 31
-0.0000000000000305
210
0.0
220
1.0
230
0.0
  0
ARC
  5
24F
330
1F
100
AcDbEntity
  8
HEWI
100
AcDbCircle
 10
-1212.600000006999
 20
-225.257660478055
 30
-0.0000000000000306
 40
5.0
100
AcDbArc
 50
0.0
 51
180.0
  0
LINE
  5
250
330
1F
100
AcDbEntity
  8
HEWI
100
AcDbLine
 10
-1314.600000006999
 20
-302.0
 30
-0.0000000000000369
 11
-1310.600000006999
 21
-302.0
 31
-0.0000000000000366
210
0.0
220
1.0
230
0.0
  0
ARC
  5
251
330
1F
100
AcDbEntity
  8
HEWI
100
AcDbCircle
 10
-1312.600000006999
 20
-225.257660478055
 30
-0.0000000000000367
 40
5.0
100
AcDbArc
 50
0.0
 51
180.0
  0
LINE
  5
252
330
1F
100
AcDbEntity
  8
HEWI
100
AcDbLine
 10
-1414.600000007
 20
-302.0
 30
-0.000000000000043
 11
-1410.600000007
 21
-302.0
 31
-0.0000000000000427
210
0.0
220
1.0
230
0.0
  0
ARC
  5
253
330
1F
100
AcDbEntity
  8
HEWI
100
AcDbCircle
 10
-1412.600000007
 20
-225.257660478055
 30
-0.0000000000000429
 40
5.0
100
AcDbArc
 50
0.0
 51
180.0
  0
LINE
  5
254
330
1F
100
AcDbEntity
  8
HEWI
100
AcDbLine
 10
-724.6000000069998
 20
-231.4999999999999
 30
-0.0000000000000007
 11
-907.6000000069999
 21
-231.4999999999999
 31
-0.0000000000000119
210
0.0
220
1.0
230
0.0
  0
LINE
  5
255
330
1F
100
AcDbEntity
  8
HEWI
100
AcDbLine
 10
-917.6000000069999
 20
-231.4999999999999
 30
-0.0000000000000126
 11
-1007.600000007
 21
-231.4999999999999
 31
-0.0000000000000181
210
0.0
220
1.0
230
0.0
  0
LINE
  5
256
330
1F
100
AcDbEntity
  8
HEWI
100
AcDbLine
 10
-1017.600000007
 20
-231.4999999999999
 30
-0.0000000000000187
 11
-1107.600000006999
 21
-231.4999999999999
 31
-0.0000000000000242
210
0.0
220
1.0
230
0.0
  0
LINE
  5
257
330
1F
100
AcDbEntity
  8
HEWI
100
AcDbLine
 10
-1117.600000006999
 20
-231.4999999999999
 30
-0.0000000000000248
 11
-1207.600000006999
 21
-231.4999999999999
 31
-0.0000000000000303
210
0.0
220
1.0
230
0.0
  0
LINE
  5
258
330
1F
100
AcDbEntity
  8
HEWI
100
AcDbLine
 10
-1217.600000006999
 20
-231.4999999999999
 30
-0.0000000000000309
 11
-1307.600000006999
 21
-231.4999999999999
 31
-0.0000000000000364
210
0.0
220
1.0
230
0.0
  0
LINE
  5
259
330
1F
100
AcDbEntity
  8
HEWI
100
AcDbLine
 10
-1317.600000006999
 20
-231.4999999999999
 30
-0.000000000000037
 11
-1407.600000006999
 21
-231.4999999999999
 31
-0.0000000000000426
210
0.0
220
1.0
230
0.0
  0
LINE
  5
25A
330
1F
100
AcDbEntity
  8
HEWI
100
AcDbLine
 10
-1417.600000006999
 20
-231.4999999999999
 30
-0.0000000000000432
 11
-1582.100000007
 21
-231.4999999999999
 31
-0.0000000000000532
210
0.0
220
1.0
230
0.0
  0
LINE
  5
25B
330
1F
100
AcDbEntity
  8
HEWI
100
AcDbLine
 10
-724.6000000069998
 20
-264.5
 30
-0.0000000000000007
 11
-907.6000000069999
 21
-264.5
 31
-0.0000000000000119
210
0.0
220
1.0
230
0.0
  0
LINE
  5
25C
330
1F
100
AcDbEntity
  8
HEWI
100
AcDbLine
 10
-917.6000000069999
 20
-264.5
 30
-0.0000000000000126
 11
-1007.600000007
 21
-264.5
 31
-0.0000000000000181
210
0.0
220
1.0
230
0.0
  0
LINE
  5
25D
330
1F
100
AcDbEntity
  8
HEWI
100
AcDbLine
 10
-1017.600000007
 20
-264.5
 30
-0.0000000000000187
 11
-1107.600000006999
 21
-264.5
 31
-0.0000000000000242
210
0.0
220
1.0
230
0.0
  0
LINE
  5
25E
330
1F
100
AcDbEntity
  8
HEWI
100
AcDbLine
 10
-1117.600000006999
 20
-264.5
 30
-0.0000000000000248
 11
-1207.600000006999
 21
-264.5
 31
-0.0000000000000303
210
0.0
220
1.0
230
0.0
  0
LINE
  5
25F
330
1F
100
AcDbEntity
  8
HEWI
100
AcDbLine
 10
-1217.600000006999
 20
-264.5
 30
-0.0000000000000309
 11
-1307.600000006999
 21
-264.5
 31
-0.0000000000000364
210
0.0
220
1.0
230
0.0
  0
LINE
  5
260
330
1F
100
AcDbEntity
  8
HEWI
100
AcDbLine
 10
-1317.600000006999
 20
-264.5
 30
-0.000000000000037
 11
-1407.600000006999
 21
-264.5
 31
-0.0000000000000426
210
0.0
220
1.0
230
0.0
  0
LINE
  5
261
330
1F
100
AcDbEntity
  8
HEWI
100
AcDbLine
 10
-1417.600000006999
 20
-264.5
 30
-0.0000000000000432
 11
-1582.100000007
 21
-264.5
 31
-0.0000000000000532
210
0.0
220
1.0
230
0.0
  0
LINE
  5
262
330
1F
100
AcDbEntity
  8
HEWI
100
AcDbLine
 10
-1627.100000006999
 20
241.9999999999999
 30
0.0000000000000022
 11
-1627.100000006999
 21
251.9999999999999
 31
0.0000000000000022
210
0.0
220
1.0
230
0.0
  0
LINE
  5
263
330
1F
100
AcDbEntity
  8
HEWI
100
AcDbLine
 10
-1697.100000007
 20
241.9999999999999
 30
-0.0000000000000021
 11
-1697.100000007
 21
251.9999999999999
 31
-0.0000000000000021
210
0.0
220
1.0
230
0.0
  0
LINE
  5
264
330
1F
100
AcDbEntity
  8
HEWI
100
AcDbLine
 10
-1678.600000007
 20
240.0
 30
-0.0000000000000591
 11
-1678.600000007
 21
-198.1106531685483
 31
-0.0000000000000591
210
0.0
220
1.0
230
0.0
  0
LINE
  5
265
330
1F
100
AcDbEntity
  8
HEWI
100
AcDbLine
 10
-1645.600000006998
 20
240.0
 30
-0.0000000000000571
 11
-1645.600000006998
 21
-198.1106531685483
 31
-0.0000000000000571
210
0.0
220
1.0
230
0.0
  0
ARC
  5
266
330
1F
100
AcDbEntity
  8
HEWI
100
AcDbCircle
 10
-1662.100000006999
 20
-80.3000000000001
 30
-0.0000000000000581
 40
120.0
100
AcDbArc
 50
262.6004459104684
 51
267.1101126279998
  0
ARC
  5
267
330
1F
100
AcDbEntity
  8
HEWI
100
AcDbCircle
 10
-1662.100000006999
 20
-80.3000000000001
 30
-0.0000000000000581
 40
119.9999999999999
100
AcDbArc
 50
272.8898873720002
 51
277.3995540895314
  0
LINE
  5
268
330
1F
100
AcDbEntity
  8
HEWI
100
AcDbLine
 10
-1668.150000006999
 20
-200.147392545687
 30
-0.0000000000000585
 11
-1668.150000006999
 21
-226.2860068158802
 31
-0.0000000000000585
210
0.0
220
1.0
230
0.0
  0
LINE
  5
269
330
1F
100
AcDbEntity
  8
HEWI
100
AcDbLine
 10
-1656.050000007
 20
-200.147392545687
 30
-0.0000000000000578
 11
-1656.050000007
 21
-233.0
 31
-0.0000000000000578
210
0.0
220
1.0
230
0.0
  0
LINE
  5
26A
330
1F
100
AcDbEntity
  8
HEWI
100
AcDbLine
 10
-907.6000000069996
 20
-273.0
 30
-0.0000000000000119
 11
-907.6000000069996
 21
-225.257660478055
 31
-0.0000000000000119
210
0.0
220
1.0
230
0.0
  0
LINE
  5
26B
330
1F
100
AcDbEntity
  8
HEWI
100
AcDbLine
 10
-917.6000000069999
 20
-225.257660478055
 30
-0.0000000000000126
 11
-917.6000000069999
 21
-273.0
 31
-0.0000000000000126
210
0.0
220
1.0
230
0.0
  0
ARC
  5
26C
330
1F
100
AcDbEntity
  8
HEWI
100
AcDbCircle
 10
-912.6000000069998
 20
-273.0
 30
-0.0000000000000122
 40
5.0
100
AcDbArc
 50
179.9999999999983
 51
246.4218215217993
  0
ARC
  5
26D
330
1F
100
AcDbEntity
  8
HEWI
100
AcDbCircle
 10
-912.6000000069998
 20
-273.0
 30
-0.0000000000000122
 40
5.0
100
AcDbArc
 50
293.5781784782004
 51
0.0
  0
LINE
  5
26E
330
1F
100
AcDbEntity
  8
HEWI
100
AcDbLine
 10
-1007.600000007
 20
-273.0
 30
-0.0000000000000181
 11
-1007.600000007
 21
-225.257660478055
 31
-0.0000000000000181
210
0.0
220
1.0
230
0.0
  0
LINE
  5
26F
330
1F
100
AcDbEntity
  8
HEWI
100
AcDbLine
 10
-1017.600000007
 20
-225.257660478055
 30
-0.0000000000000187
 11
-1017.600000007
 21
-273.0
 31
-0.0000000000000187
210
0.0
220
1.0
230
0.0
  0
ARC
  5
270
330
1F
100
AcDbEntity
  8
HEWI
100
AcDbCircle
 10
-1012.600000006999
 20
-273.0
 30
-0.0000000000000184
 40
5.0
100
AcDbArc
 50
179.9999999999983
 51
246.4218215217993
  0
ARC
  5
271
330
1F
100
AcDbEntity
  8
HEWI
100
AcDbCircle
 10
-1012.600000006999
 20
-273.0
 30
-0.0000000000000184
 40
5.0
100
AcDbArc
 50
293.5781784782004
 51
0.0
  0
LINE
  5
272
330
1F
100
AcDbEntity
  8
HEWI
100
AcDbLine
 10
-1107.600000006999
 20
-273.0
 30
-0.0000000000000242
 11
-1107.600000006999
 21
-225.257660478055
 31
-0.0000000000000242
210
0.0
220
1.0
230
0.0
  0
LINE
  5
273
330
1F
100
AcDbEntity
  8
HEWI
100
AcDbLine
 10
-1117.600000006999
 20
-225.257660478055
 30
-0.0000000000000248
 11
-1117.600000006999
 21
-273.0
 31
-0.0000000000000248
210
0.0
220
1.0
230
0.0
  0
ARC
  5
274
330
1F
100
AcDbEntity
  8
HEWI
100
AcDbCircle
 10
-1112.600000006999
 20
-273.0
 30
-0.0000000000000245
 40
5.0
100
AcDbArc
 50
179.9999999999983
 51
246.4218215217993
  0
ARC
  5
275
330
1F
100
AcDbEntity
  8
HEWI
100
AcDbCircle
 10
-1112.600000006999
 20
-273.0
 30
-0.0000000000000245
 40
5.0
100
AcDbArc
 50
293.5781784782004
 51
0.0
  0
ARC
  5
276
330
1F
100
AcDbEntity
  8
HEWI
100
AcDbCircle
 10
-722.6000000069998
 20
-215.0
 30
-0.0000000000000006
 40
2.0
100
AcDbArc
 50
90.0
 51
180.0000000000015
  0
ARC
  5
277
330
1F
100
AcDbEntity
  8
HEWI
100
AcDbCircle
 10
-722.6000000069998
 20
-281.0
 30
-0.0000000000000006
 40
2.0
100
AcDbArc
 50
179.9999999999983
 51
270.0
  0
LINE
  5
278
330
1F
100
AcDbEntity
  8
HEWI
100
AcDbLine
 10
-1207.600000006999
 20
-273.0
 30
-0.0000000000000303
 11
-1207.600000006999
 21
-225.257660478055
 31
-0.0000000000000303
210
0.0
220
1.0
230
0.0
  0
LINE
  5
279
330
1F
100
AcDbEntity
  8
HEWI
100
AcDbLine
 10
-1217.600000006999
 20
-225.257660478055
 30
-0.0000000000000309
 11
-1217.600000006999
 21
-273.0
 31
-0.0000000000000309
210
0.0
220
1.0
230
0.0
  0
ARC
  5
27A
330
1F
100
AcDbEntity
  8
HEWI
100
AcDbCircle
 10
-1212.600000006999
 20
-273.0
 30
-0.0000000000000306
 40
5.0
100
AcDbArc
 50
179.9999999999983
 51
246.4218215217993
  0
ARC
  5
27B
330
1F
100
AcDbEntity
  8
HEWI
100
AcDbCircle
 10
-1212.600000006999
 20
-273.0
 30
-0.0000000000000306
 40
5.0
100
AcDbArc
 50
293.5781784782004
 51
0.0
  0
LINE
  5
27C
330
1F
100
AcDbEntity
  8
HEWI
100
AcDbLine
 10
-1307.600000006999
 20
-273.0
 30
-0.0000000000000364
 11
-1307.600000006999
 21
-225.257660478055
 31
-0.0000000000000364
210
0.0
220
1.0
230
0.0
  0
LINE
  5
27D
330
1F
100
AcDbEntity
  8
HEWI
100
AcDbLine
 10
-1317.600000006999
 20
-225.257660478055
 30
-0.000000000000037
 11
-1317.600000006999
 21
-273.0
 31
-0.000000000000037
210
0.0
220
1.0
230
0.0
  0
ARC
  5
27E
330
1F
100
AcDbEntity
  8
HEWI
100
AcDbCircle
 10
-1312.600000006999
 20
-273.0
 30
-0.0000000000000367
 40
5.0
100
AcDbArc
 50
179.9999999999983
 51
246.4218215217993
  0
ARC
  5
27F
330
1F
100
AcDbEntity
  8
HEWI
100
AcDbCircle
 10
-1312.600000006999
 20
-273.0
 30
-0.0000000000000367
 40
5.0
100
AcDbArc
 50
293.5781784782004
 51
0.0
  0
LINE
  5
280
330
1F
100
AcDbEntity
  8
HEWI
100
AcDbLine
 10
-1407.600000006999
 20
-273.0
 30
-0.0000000000000426
 11
-1407.600000006999
 21
-225.257660478055
 31
-0.0000000000000426
210
0.0
220
1.0
230
0.0
  0
LINE
  5
281
330
1F
100
AcDbEntity
  8
HEWI
100
AcDbLine
 10
-1417.600000006999
 20
-225.257660478055
 30
-0.0000000000000432
 11
-1417.600000006999
 21
-273.0
 31
-0.0000000000000432
210
0.0
220
1.0
230
0.0
  0
ARC
  5
282
330
1F
100
AcDbEntity
  8
HEWI
100
AcDbCircle
 10
-1412.600000007
 20
-273.0
 30
-0.0000000000000429
 40
5.0
100
AcDbArc
 50
179.9999999999983
 51
246.4218215217993
  0
ARC
  5
283
330
1F
100
AcDbEntity
  8
HEWI
100
AcDbCircle
 10
-1412.600000007
 20
-273.0
 30
-0.0000000000000429
 40
5.0
100
AcDbArc
 50
293.5781784782004
 51
0.0
  0
LINE
  5
284
330
1F
100
AcDbEntity
  8
HEWI
100
AcDbLine
 10
-1582.100000007
 20
-231.4999999999999
 30
-0.0000000000000532
 11
-1656.050000007
 21
-231.4999999999999
 31
-0.0000000000000578
210
0.0
220
1.0
230
0.0
  0
LINE
  5
285
330
1F
100
AcDbEntity
  8
HEWI
100
AcDbLine
 10
-1692.439303881144
 20
-231.4999999999999
 30
-0.00000000000006
 11
-1695.600000006998
 21
-231.4999999999999
 31
-0.0000000000000602
210
0.0
220
1.0
230
0.0
  0
LINE
  5
286
330
1F
100
AcDbEntity
  8
HEWI
100
AcDbLine
 10
-1695.600000006998
 20
-264.5
 30
-0.0000000000000602
 11
-1692.439303881144
 21
-264.5
 31
-0.00000000000006
210
0.0
220
1.0
230
0.0
  0
LINE
  5
287
330
1F
100
AcDbEntity
  8
HEWI
100
AcDbLine
 10
-1664.733351338897
 20
-264.5
 30
-0.0000000000000583
 11
-1582.100000007
 21
-264.5
 31
-0.0000000000000532
210
0.0
220
1.0
230
0.0
  0
ARC
  5
288
330
1F
100
AcDbEntity
  8
HEWI
100
AcDbCircle
 10
-1695.100000006999
 20
241.9999999999999
 30
-0.000000000000002
 40
2.0
100
AcDbArc
 50
180.0
 51
270.0
  0
ARC
  5
289
330
1F
100
AcDbEntity
  8
HEWI
100
AcDbCircle
 10
-1629.100000006999
 20
241.9999999999999
 30
0.0000000000000021
 40
2.0
100
AcDbArc
 50
270.0
 51
0.0
  0
ARC
  5
28A
330
1F
100
AcDbEntity
  8
HEWI
100
AcDbCircle
 10
-1646.800000007
 20
-198.1106531685483
 30
-0.0000000000000572
 40
1.199999999999999
100
AcDbArc
 50
277.3995540895378
 51
0.0
  0
ARC
  5
28B
330
1F
100
AcDbEntity
  8
HEWI
100
AcDbCircle
 10
-1677.400000007
 20
-198.1106531685483
 30
-0.0000000000000591
 40
1.199999999999999
100
AcDbArc
 50
180.0
 51
262.6004459104621
  0
LINE
  5
28D
330
1F
100
AcDbEntity
  8
HEWI
100
AcDbLine
 10
-434.449999995
 20
-200.1473925406869
 30
0.0000000000000048
 11
-446.549999995
 21
-200.1473925406869
 31
0.0000000000000034
210
0.0
220
1.0
230
0.0
  0
LINE
  5
28E
330
1F
100
AcDbEntity
  8
HEWI
100
AcDbLine
 10
-475.4999999949998
 20
252.000000005
 30
0.000000000000058
 11
-405.4999999949997
 21
252.000000005
 31
0.0000000000000666
210
0.0
220
1.0
230
0.0
  0
LINE
  5
28F
330
1F
100
AcDbEntity
  8
HEWI
100
AcDbLine
 10
-473.499999995
 20
240.0000000049999
 30
0.0000000000000583
 11
-407.499999995
 21
240.0000000049999
 31
0.0000000000000663
210
0.0
220
1.0
230
0.0
  0
LINE
  5
290
330
1F
100
AcDbEntity
  8
HEWI
100
AcDbLine
 10
-360.4999999949998
 20
-264.499999995
 30
0.0000000000000139
 11
-360.4999999949998
 21
-231.4999999949999
 31
0.0000000000000139
210
0.0
220
1.0
230
0.0
  0
ARC
  5
291
330
1F
100
AcDbEntity
  8
HEWI
100
AcDbCircle
 10
-473.999999995
 20
-247.9999999949999
 30
0.0
 40
16.5
100
AcDbArc
 50
90.0
 51
270.0
  0
LINE
  5
292
330
1F
100
AcDbEntity
  8
HEWI
100
AcDbLine
 10
-360.4999999949998
 20
-231.4999999949999
 30
0.0000000000000139
 11
-360.4999999949998
 21
-264.499999995
 31
0.0000000000000139
210
0.0
220
1.0
230
0.0
  0
LINE
  5
293
330
1F
100
AcDbEntity
  8
HEWI
100
AcDbLine
 10
-469.299999995
 20
-295.9999999949999
 30
0.0000000000000006
 11
-469.299999995
 21
-277.2068277027087
 31
0.0000000000000006
210
0.0
220
1.0
230
0.0
  0
ARC
  5
294
330
1F
100
AcDbEntity
  8
HEWI
100
AcDbCircle
 10
-475.299999995
 20
-295.9999999949999
 30
-0.0000000000000002
 40
6.0
100
AcDbArc
 50
180.0
 51
0.0
  0
LINE
  5
295
330
1F
100
AcDbEntity
  8
HEWI
100
AcDbLine
 10
-481.299999995
 20
-295.9999999949999
 30
-0.0000000000000009
 11
-481.299999995
 21
-287.9999999949999
 31
-0.0000000000000009
210
0.0
220
1.0
230
0.0
  0
ARC
  5
296
330
1F
100
AcDbEntity
  8
HEWI
100
AcDbCircle
 10
-480.2999999949998
 20
-287.9999999949999
 30
-0.0000000000000008
 40
1.0
100
AcDbArc
 50
90.0
 51
180.0
  0
LINE
  5
297
330
1F
100
AcDbEntity
  8
HEWI
100
AcDbLine
 10
-480.2999999949998
 20
-286.9999999949998
 30
-0.0000000000000008
 11
-479.7280956254156
 21
-286.9999999949998
 31
-0.0000000000000007
210
0.0
220
1.0
230
0.0
  0
ARC
  5
298
330
1F
100
AcDbEntity
  8
HEWI
100
AcDbCircle
 10
-482.2698893076973
 20
-291.3057269808541
 30
-0.000000000000001
 40
4.999999999999999
100
AcDbArc
 50
324.1818597325742
 51
59.44543228519009
  0
ARC
  5
299
330
1F
100
AcDbEntity
  8
HEWI
100
AcDbCircle
 10
-475.7880042471578
 20
-295.9945474969789
 30
-0.0000000000000002
 40
3.0
100
AcDbArc
 50
144.0143379942923
 51
28.97259099486197
  0
ARC
  5
29A
330
1F
100
AcDbEntity
  8
HEWI
100
AcDbCircle
 10
-468.799999995
 20
-292.0999999949998
 30
0.0000000000000006
 40
5.0
100
AcDbArc
 50
180.0
 51
209.2272521580103
  0
LINE
  5
29B
330
1F
100
AcDbEntity
  8
HEWI
100
AcDbLine
 10
-473.799999995
 20
-292.0999999949998
 30
0.0
 11
-473.799999995
 21
-277.5818996085776
 31
0.0
210
0.0
220
1.0
230
0.0
  0
ARC
  5
29C
330
1F
100
AcDbEntity
  8
HEWI
100
AcDbCircle
 10
-473.999999995
 20
-247.9999999949999
 30
0.0
 40
29.58257569495584
100
AcDbArc
 50
270.3873646202258
 51
279.1417371986806
  0
ARC
  5
29D
330
1F
100
AcDbEntity
  8
HEWI
100
AcDbCircle
 10
-473.999999995
 20
-247.9999999949999
 30
0.0
 40
35.0
100
AcDbArc
 50
38.34533625290071
 51
180.0
  0
ARC
  5
29E
330
1F
100
AcDbEntity
  8
HEWI
100
AcDbCircle
 10
-473.999999995
 20
-247.9999999949999
 30
0.0
 40
35.0
100
AcDbArc
 50
277.7173182460545
 51
331.8729317813942
  0
ARC
  5
29F
330
1F
100
AcDbEntity
  8
HEWI
100
AcDbCircle
 10
-473.999999995
 20
-247.9999999949999
 30
0.0
 40
35.0
100
AcDbArc
 50
180.0
 51
270.3274062361774
  0
ARC
  5
2A0
330
1F
100
AcDbEntity
  8
HEWI
100
AcDbCircle
 10
-473.999999995
 20
-247.9999999949999
 30
0.0
 40
16.8
100
AcDbArc
 50
79.15593743630224
 51
180.0
  0
ARC
  5
2A1
330
1F
100
AcDbEntity
  8
HEWI
100
AcDbCircle
 10
-473.999999995
 20
-247.9999999949999
 30
0.0
 40
16.8
100
AcDbArc
 50
179.9999999999983
 51
280.8440625636944
  0
LINE
  5
2A2
330
1F
100
AcDbEntity
  8
HEWI
100
AcDbLine
 10
509.0000000049998
 20
-212.9999999949999
 30
0.0000000000001204
 11
509.0000000049998
 21
-282.9999999949998
 31
0.0000000000001204
210
0.0
220
1.0
230
0.0
  0
LINE
  5
2A3
330
1F
100
AcDbEntity
  8
HEWI
100
AcDbLine
 10
497.0000000049998
 20
-214.9999999949999
 30
0.0000000000001189
 11
497.0000000049998
 21
-280.9999999949999
 31
0.0000000000001189
210
0.0
220
1.0
230
0.0
  0
LINE
  5
2A4
330
1F
100
AcDbEntity
  8
HEWI
100
AcDbLine
 10
499.000000005
 20
-282.9999999949998
 30
0.0000000000001192
 11
509.0000000049998
 21
-282.9999999949998
 31
0.0000000000001204
210
0.0
220
1.0
230
0.0
  0
LINE
  5
2A5
330
1F
100
AcDbEntity
  8
HEWI
100
AcDbLine
 10
499.000000005
 20
-212.9999999949999
 30
0.0000000000001192
 11
509.0000000049998
 21
-212.9999999949999
 31
0.0000000000001204
210
0.0
220
1.0
230
0.0
  0
ARC
  5
2A6
330
1F
100
AcDbEntity
  8
HEWI
100
AcDbCircle
 10
-494.6122845284711
 20
-233.8531372222425
 30
-0.0000000000000025
 40
5.0
100
AcDbArc
 50
325.5369590328136
 51
145.5369590328155
  0
ARC
  5
2A7
330
1F
100
AcDbEntity
  8
HEWI
100
AcDbCircle
 10
-463.6179966686381
 20
-225.2576604730549
 30
0.0000000000000013
 40
4.999999999999999
100
AcDbArc
 50
65.46304096718457
 51
245.4630409671845
  0
LINE
  5
2A8
330
1F
100
AcDbEntity
  8
HEWI
100
AcDbLine
 10
497.0000000049998
 20
-231.4999999949999
 30
0.0000000000001189
 11
-360.4999999949998
 21
-231.4999999949999
 31
0.0000000000000139
210
0.0
220
1.0
230
0.0
  0
LINE
  5
2A9
330
1F
100
AcDbEntity
  8
HEWI
100
AcDbLine
 10
497.0000000049998
 20
-264.499999995
 30
0.0000000000001189
 11
-360.4999999949998
 21
-264.499999995
 31
0.0000000000000139
210
0.0
220
1.0
230
0.0
  0
LINE
  5
2AA
330
1F
100
AcDbEntity
  8
HEWI
100
AcDbLine
 10
-405.4999999949997
 20
242.0000000049999
 30
0.0000000000000666
 11
-405.4999999949997
 21
252.000000005
 31
0.0000000000000666
210
0.0
220
1.0
230
0.0
  0
LINE
  5
2AB
330
1F
100
AcDbEntity
  8
HEWI
100
AcDbLine
 10
-475.4999999949998
 20
242.0000000049999
 30
0.000000000000058
 11
-475.4999999949998
 21
252.000000005
 31
0.000000000000058
210
0.0
220
1.0
230
0.0
  0
LINE
  5
2AC
330
1F
100
AcDbEntity
  8
HEWI
100
AcDbLine
 10
-456.999999995
 20
240.0000000049999
 30
0.0000000000000021
 11
-456.999999995
 21
-198.1106531635481
 31
0.0000000000000021
210
0.0
220
1.0
230
0.0
  0
LINE
  5
2AD
330
1F
100
AcDbEntity
  8
HEWI
100
AcDbLine
 10
-423.999999995
 20
240.0000000049999
 30
0.0000000000000061
 11
-423.999999995
 21
-198.1106531635481
 31
0.0000000000000061
210
0.0
220
1.0
230
0.0
  0
ARC
  5
2AE
330
1F
100
AcDbEntity
  8
HEWI
100
AcDbCircle
 10
-440.499999995
 20
-80.29999999500002
 30
0.0000000000000041
 40
119.9999999999999
100
AcDbArc
 50
262.6004459104684
 51
267.1101126280031
  0
ARC
  5
2AF
330
1F
100
AcDbEntity
  8
HEWI
100
AcDbCircle
 10
-440.499999995
 20
-80.29999999500002
 30
0.0000000000000041
 40
119.9999999999999
100
AcDbArc
 50
272.8898873719969
 51
277.3995540895314
  0
LINE
  5
2B0
330
1F
100
AcDbEntity
  8
HEWI
100
AcDbLine
 10
-446.549999995
 20
-200.1473925406869
 30
0.0000000000000034
 11
-446.549999995
 21
-232.9999999949999
 31
0.0000000000000034
210
0.0
220
1.0
230
0.0
  0
LINE
  5
2B1
330
1F
100
AcDbEntity
  8
HEWI
100
AcDbLine
 10
-434.449999995
 20
-200.1473925406869
 30
0.0000000000000048
 11
-434.449999995
 21
-231.4999999949999
 31
0.0000000000000048
210
0.0
220
1.0
230
0.0
  0
ARC
  5
2B2
330
1F
100
AcDbEntity
  8
HEWI
100
AcDbCircle
 10
499.000000005
 20
-214.9999999949999
 30
0.0000000000001192
 40
2.0
100
AcDbArc
 50
90.0
 51
180.0000000000015
  0
ARC
  5
2B3
330
1F
100
AcDbEntity
  8
HEWI
100
AcDbCircle
 10
499.000000005
 20
-280.9999999949999
 30
0.0000000000001192
 40
2.0
100
AcDbArc
 50
179.9999999999983
 51
270.0
  0
ARC
  5
2B4
330
1F
100
AcDbEntity
  8
HEWI
100
AcDbCircle
 10
-473.999999995
 20
-247.9999999949999
 30
0.0
 40
20.0
100
AcDbArc
 50
55.58849133022899
 51
65.46304096718457
  0
ARC
  5
2B5
330
1F
100
AcDbEntity
  8
HEWI
100
AcDbCircle
 10
-473.999999995
 20
-247.9999999949999
 30
0.0
 40
20.0
100
AcDbArc
 50
145.5369590328138
 51
304.411508669771
  0
ARC
  5
2B6
330
1F
100
AcDbEntity
  8
HEWI
100
AcDbCircle
 10
-473.999999995
 20
-247.9999999949999
 30
0.0
 40
30.0
100
AcDbArc
 50
145.536959032817
 51
270.381974692901
  0
ARC
  5
2B7
330
1F
100
AcDbEntity
  8
HEWI
100
AcDbCircle
 10
-473.999999995
 20
-247.9999999949999
 30
0.0
 40
30.0
100
AcDbArc
 50
279.0134702622998
 51
326.6329870307672
  0
ARC
  5
2B8
330
1F
100
AcDbEntity
  8
HEWI
100
AcDbCircle
 10
-473.999999995
 20
-247.9999999949999
 30
0.0
 40
30.0
100
AcDbArc
 50
33.36701296923276
 51
65.46304096718457
  0
LINE
  5
2B9
330
1F
100
AcDbEntity
  8
HEWI
100
AcDbLine
 10
-360.4999999950003
 20
-231.4999999949999
 30
0.0000000000000139
 11
-436.367031351507
 21
-231.4999999949999
 31
0.0000000000000046
210
0.0
220
1.0
230
0.0
  0
LINE
  5
2BA
330
1F
100
AcDbEntity
  8
HEWI
100
AcDbLine
 10
-446.549999995
 20
-231.4999999949999
 30
0.0000000000000034
 11
-473.999999995
 21
-231.4999999949999
 31
0.0
210
0.0
220
1.0
230
0.0
  0
LINE
  5
2BB
330
1F
100
AcDbEntity
  8
HEWI
100
AcDbLine
 10
-473.999999995
 20
-264.499999995
 30
0.0
 11
-360.4999999950003
 21
-264.499999995
 31
0.0000000000000139
210
0.0
220
1.0
230
0.0
  0
ARC
  5
2BC
330
1F
100
AcDbEntity
  8
HEWI
100
AcDbCircle
 10
-473.499999995
 20
242.0000000049999
 30
0.0000000000000583
 40
2.0
100
AcDbArc
 50
180.0
 51
270.0
  0
ARC
  5
2BD
330
1F
100
AcDbEntity
  8
HEWI
100
AcDbCircle
 10
-407.499999995
 20
242.0000000049999
 30
0.0000000000000663
 40
2.0
100
AcDbArc
 50
269.9999999999966
 51
0.0
  0
ARC
  5
2BE
330
1F
100
AcDbEntity
  8
HEWI
100
AcDbCircle
 10
-425.1999999949998
 20
-198.1106531635481
 30
0.000000000000006
 40
1.199999999999999
100
AcDbArc
 50
277.3995540895314
 51
0.0
  0
ARC
  5
2BF
330
1F
100
AcDbEntity
  8
HEWI
100
AcDbCircle
 10
-455.7999999949998
 20
-198.1106531635481
 30
0.0000000000000022
 40
1.199999999999999
100
AcDbArc
 50
180.0
 51
262.6004459104653
  0
LINE
  5
2C1
330
1F
100
AcDbEntity
  8
HEWI
100
AcDbLine
 10
1662.100000006999
 20
-200.147392545687
 30
0.0000000000001744
 11
1656.050000007
 21
-200.147392545687
 31
0.0000000000001733
210
0.0
220
1.0
230
0.0
  0
LINE
  5
2C2
330
1F
100
AcDbEntity
  8
HEWI
100
AcDbLine
 10
1668.150000006999
 20
-200.147392545687
 30
0.0000000000001755
 11
1662.100000006999
 21
-200.147392545687
 31
0.0000000000001744
210
0.0
220
1.0
230
0.0
  0
LINE
  5
2C3
330
1F
100
AcDbEntity
  8
HEWI
100
AcDbLine
 10
1662.100000006999
 20
251.9999999999999
 30
0.0000000000002326
 11
1697.100000007
 21
251.9999999999999
 31
0.000000000000239
210
0.0
220
1.0
230
0.0
  0
LINE
  5
2C4
330
1F
100
AcDbEntity
  8
HEWI
100
AcDbLine
 10
1627.100000006999
 20
251.9999999999999
 30
0.0000000000002262
 11
1662.100000007
 21
251.9999999999999
 31
0.0000000000002326
210
0.0
220
1.0
230
0.0
  0
LINE
  5
2C5
330
1F
100
AcDbEntity
  8
HEWI
100
AcDbLine
 10
1662.100000006999
 20
239.9999999999999
 30
0.0000000000002326
 11
1695.100000007
 21
239.9999999999999
 31
0.0000000000002387
210
0.0
220
1.0
230
0.0
  0
LINE
  5
2C6
330
1F
100
AcDbEntity
  8
HEWI
100
AcDbLine
 10
1629.100000006999
 20
239.9999999999999
 30
0.0000000000002266
 11
1662.100000007
 21
239.9999999999999
 31
0.0000000000002326
210
0.0
220
1.0
230
0.0
  0
LINE
  5
2C8
330
1F
100
AcDbEntity
  8
HEWI
100
AcDbLine
 10
1582.100000007
 20
-247.9999999999995
 30
0.0000000000001597
 11
1582.100000007
 21
-264.5
 31
0.0000000000001597
210
0.0
220
1.0
230
0.0
  0
LINE
  5
2C9
330
1F
100
AcDbEntity
  8
HEWI
100
AcDbLine
 10
1582.100000007
 20
-231.4999999999999
 30
0.0000000000001597
 11
1582.100000007
 21
-247.9999999999999
 31
0.0000000000001597
210
0.0
220
1.0
230
0.0
  0
LINE
  5
2CA
330
1F
100
AcDbEntity
  8
HEWI
100
AcDbLine
 10
1582.100000007
 20
-264.5
 30
0.0000000000001597
 11
1582.100000007
 21
-231.4999999999999
 31
0.0000000000001597
210
0.0
220
1.0
230
0.0
  0
ARC
  5
2CB
330
1F
100
AcDbEntity
  8
HEWI
100
AcDbCircle
 10
1695.600000006998
 20
-248.0
 30
0.0000000000001806
 40
16.5
100
AcDbArc
 50
270.0
 51
90.0
  0
LINE
  5
2CC
330
1F
100
AcDbEntity
  8
HEWI
100
AcDbLine
 10
1410.600000007
 20
-296.0
 30
0.0000000000001282
 11
1410.600000007
 21
-302.0
 31
0.0000000000001282
210
0.0
220
1.0
230
0.0
  0
LINE
  5
2CD
330
1F
100
AcDbEntity
  8
HEWI
100
AcDbLine
 10
1410.600000007
 20
-288.0
 30
0.0000000000001282
 11
1410.600000007
 21
-296.0
 31
0.0000000000001282
210
0.0
220
1.0
230
0.0
  0
LINE
  5
2CE
330
1F
100
AcDbEntity
  8
HEWI
100
AcDbLine
 10
1410.600000007
 20
-287.0
 30
0.0000000000001282
 11
1410.600000007
 21
-288.0
 31
0.0000000000001282
210
0.0
220
1.0
230
0.0
  0
LINE
  5
2CF
330
1F
100
AcDbEntity
  8
HEWI
100
AcDbLine
 10
1414.600000007
 20
-287.0
 30
0.000000000000129
 11
1410.600000007
 21
-287.0
 31
0.0000000000001282
210
0.0
220
1.0
230
0.0
  0
LINE
  5
2D0
330
1F
100
AcDbEntity
  8
HEWI
100
AcDbLine
 10
1410.600000007
 20
-277.5825756949558
 30
0.0000000000001282
 11
1410.600000007
 21
-287.0
 31
0.0000000000001282
210
0.0
220
1.0
230
0.0
  0
LINE
  5
2D1
330
1F
100
AcDbEntity
  8
HEWI
100
AcDbLine
 10
1414.600000007
 20
-302.0
 30
0.000000000000129
 11
1414.600000007
 21
-296.0
 31
0.000000000000129
210
0.0
220
1.0
230
0.0
  0
LINE
  5
2D2
330
1F
100
AcDbEntity
  8
HEWI
100
AcDbLine
 10
1414.600000007
 20
-296.0
 30
0.000000000000129
 11
1414.600000007
 21
-288.0
 31
0.000000000000129
210
0.0
220
1.0
230
0.0
  0
LINE
  5
2D3
330
1F
100
AcDbEntity
  8
HEWI
100
AcDbLine
 10
1414.600000007
 20
-288.0
 30
0.000000000000129
 11
1414.600000007
 21
-287.0
 31
0.000000000000129
210
0.0
220
1.0
230
0.0
  0
LINE
  5
2D4
330
1F
100
AcDbEntity
  8
HEWI
100
AcDbLine
 10
1414.600000007
 20
-287.0
 30
0.000000000000129
 11
1414.600000007
 21
-277.5825756949558
 31
0.000000000000129
210
0.0
220
1.0
230
0.0
  0
LINE
  5
2D5
330
1F
100
AcDbEntity
  8
HEWI
100
AcDbLine
 10
1310.600000006999
 20
-296.0
 30
0.0000000000001098
 11
1310.600000006999
 21
-302.0
 31
0.0000000000001098
210
0.0
220
1.0
230
0.0
  0
LINE
  5
2D6
330
1F
100
AcDbEntity
  8
HEWI
100
AcDbLine
 10
1310.600000006999
 20
-288.0
 30
0.0000000000001098
 11
1310.600000006999
 21
-296.0
 31
0.0000000000001098
210
0.0
220
1.0
230
0.0
  0
LINE
  5
2D7
330
1F
100
AcDbEntity
  8
HEWI
100
AcDbLine
 10
1310.600000006999
 20
-287.0
 30
0.0000000000001098
 11
1310.600000006999
 21
-288.0
 31
0.0000000000001098
210
0.0
220
1.0
230
0.0
  0
LINE
  5
2D8
330
1F
100
AcDbEntity
  8
HEWI
100
AcDbLine
 10
1314.600000006999
 20
-287.0
 30
0.0000000000001106
 11
1310.600000006999
 21
-287.0
 31
0.0000000000001098
210
0.0
220
1.0
230
0.0
  0
LINE
  5
2D9
330
1F
100
AcDbEntity
  8
HEWI
100
AcDbLine
 10
1310.600000006999
 20
-277.5825756949558
 30
0.0000000000001098
 11
1310.600000006999
 21
-287.0
 31
0.0000000000001098
210
0.0
220
1.0
230
0.0
  0
LINE
  5
2DA
330
1F
100
AcDbEntity
  8
HEWI
100
AcDbLine
 10
1314.600000006999
 20
-302.0
 30
0.0000000000001106
 11
1314.600000006999
 21
-296.0
 31
0.0000000000001106
210
0.0
220
1.0
230
0.0
  0
LINE
  5
2DB
330
1F
100
AcDbEntity
  8
HEWI
100
AcDbLine
 10
1314.600000006999
 20
-296.0
 30
0.0000000000001106
 11
1314.600000006999
 21
-288.0
 31
0.0000000000001106
210
0.0
220
1.0
230
0.0
  0
LINE
  5
2DC
330
1F
100
AcDbEntity
  8
HEWI
100
AcDbLine
 10
1314.600000006999
 20
-288.0
 30
0.0000000000001106
 11
1314.600000006999
 21
-287.0
 31
0.0000000000001106
210
0.0
220
1.0
230
0.0
  0
LINE
  5
2DD
330
1F
100
AcDbEntity
  8
HEWI
100
AcDbLine
 10
1314.600000006999
 20
-287.0
 30
0.0000000000001106
 11
1314.600000006999
 21
-277.5825756949558
 31
0.0000000000001106
210
0.0
220
1.0
230
0.0
  0
LINE
  5
2DE
330
1F
100
AcDbEntity
  8
HEWI
100
AcDbLine
 10
1210.600000006999
 20
-296.0
 30
0.0000000000000915
 11
1210.600000006999
 21
-302.0
 31
0.0000000000000915
210
0.0
220
1.0
230
0.0
  0
LINE
  5
2DF
330
1F
100
AcDbEntity
  8
HEWI
100
AcDbLine
 10
1210.600000006999
 20
-288.0
 30
0.0000000000000915
 11
1210.600000006999
 21
-296.0
 31
0.0000000000000915
210
0.0
220
1.0
230
0.0
  0
LINE
  5
2E0
330
1F
100
AcDbEntity
  8
HEWI
100
AcDbLine
 10
1210.600000006999
 20
-287.0
 30
0.0000000000000915
 11
1210.600000006999
 21
-288.0
 31
0.0000000000000915
210
0.0
220
1.0
230
0.0
  0
LINE
  5
2E1
330
1F
100
AcDbEntity
  8
HEWI
100
AcDbLine
 10
1214.600000006999
 20
-287.0
 30
0.0000000000000922
 11
1210.600000006999
 21
-287.0
 31
0.0000000000000915
210
0.0
220
1.0
230
0.0
  0
LINE
  5
2E2
330
1F
100
AcDbEntity
  8
HEWI
100
AcDbLine
 10
1210.600000006999
 20
-277.5825756949558
 30
0.0000000000000915
 11
1210.600000006999
 21
-287.0
 31
0.0000000000000915
210
0.0
220
1.0
230
0.0
  0
LINE
  5
2E3
330
1F
100
AcDbEntity
  8
HEWI
100
AcDbLine
 10
1214.600000006999
 20
-302.0
 30
0.0000000000000922
 11
1214.600000006999
 21
-296.0
 31
0.0000000000000922
210
0.0
220
1.0
230
0.0
  0
LINE
  5
2E4
330
1F
100
AcDbEntity
  8
HEWI
100
AcDbLine
 10
1214.600000006999
 20
-296.0
 30
0.0000000000000922
 11
1214.600000006999
 21
-288.0
 31
0.0000000000000922
210
0.0
220
1.0
230
0.0
  0
LINE
  5
2E5
330
1F
100
AcDbEntity
  8
HEWI
100
AcDbLine
 10
1214.600000006999
 20
-288.0
 30
0.0000000000000922
 11
1214.600000006999
 21
-287.0
 31
0.0000000000000922
210
0.0
220
1.0
230
0.0
  0
LINE
  5
2E6
330
1F
100
AcDbEntity
  8
HEWI
100
AcDbLine
 10
1214.600000006999
 20
-287.0
 30
0.0000000000000922
 11
1214.600000006999
 21
-277.5825756949558
 31
0.0000000000000922
210
0.0
220
1.0
230
0.0
  0
LINE
  5
2E7
330
1F
100
AcDbEntity
  8
HEWI
100
AcDbLine
 10
712.6000000069998
 20
-248.0
 30
0.0
 11
712.6000000069998
 21
-213.0
 31
0.0
210
0.0
220
1.0
230
0.0
  0
LINE
  5
2E8
330
1F
100
AcDbEntity
  8
HEWI
100
AcDbLine
 10
712.6000000069998
 20
-283.0
 30
0.0
 11
712.6000000069998
 21
-247.9999999999995
 31
0.0
210
0.0
220
1.0
230
0.0
  0
LINE
  5
2E9
330
1F
100
AcDbEntity
  8
HEWI
100
AcDbLine
 10
724.6000000069998
 20
-248.0
 30
0.0000000000000022
 11
724.6000000069998
 21
-215.0
 31
0.0000000000000022
210
0.0
220
1.0
230
0.0
  0
LINE
  5
2EA
330
1F
100
AcDbEntity
  8
HEWI
100
AcDbLine
 10
724.6000000069998
 20
-281.0
 30
0.0000000000000022
 11
724.6000000069998
 21
-247.9999999999995
 31
0.0000000000000022
210
0.0
220
1.0
230
0.0
  0
LINE
  5
2EB
330
1F
100
AcDbEntity
  8
HEWI
100
AcDbLine
 10
1110.600000006999
 20
-296.0
 30
0.0000000000000731
 11
1110.600000006999
 21
-302.0
 31
0.0000000000000731
210
0.0
220
1.0
230
0.0
  0
LINE
  5
2EC
330
1F
100
AcDbEntity
  8
HEWI
100
AcDbLine
 10
1110.600000006999
 20
-288.0
 30
0.0000000000000731
 11
1110.600000006999
 21
-296.0
 31
0.0000000000000731
210
0.0
220
1.0
230
0.0
  0
LINE
  5
2ED
330
1F
100
AcDbEntity
  8
HEWI
100
AcDbLine
 10
1110.600000006999
 20
-287.0
 30
0.0000000000000731
 11
1110.600000006999
 21
-288.0
 31
0.0000000000000731
210
0.0
220
1.0
230
0.0
  0
LINE
  5
2EE
330
1F
100
AcDbEntity
  8
HEWI
100
AcDbLine
 10
1114.600000006999
 20
-287.0
 30
0.0000000000000738
 11
1110.600000006999
 21
-287.0
 31
0.0000000000000731
210
0.0
220
1.0
230
0.0
  0
LINE
  5
2EF
330
1F
100
AcDbEntity
  8
HEWI
100
AcDbLine
 10
1110.600000006999
 20
-277.5825756949558
 30
0.0000000000000731
 11
1110.600000006999
 21
-287.0
 31
0.0000000000000731
210
0.0
220
1.0
230
0.0
  0
LINE
  5
2F0
330
1F
100
AcDbEntity
  8
HEWI
100
AcDbLine
 10
1114.600000006999
 20
-302.0
 30
0.0000000000000738
 11
1114.600000006999
 21
-296.0
 31
0.0000000000000738
210
0.0
220
1.0
230
0.0
  0
LINE
  5
2F1
330
1F
100
AcDbEntity
  8
HEWI
100
AcDbLine
 10
1114.600000006999
 20
-296.0
 30
0.0000000000000738
 11
1114.600000006999
 21
-288.0
 31
0.0000000000000738
210
0.0
220
1.0
230
0.0
  0
LINE
  5
2F2
330
1F
100
AcDbEntity
  8
HEWI
100
AcDbLine
 10
1114.600000006999
 20
-288.0
 30
0.0000000000000738
 11
1114.600000006999
 21
-287.0
 31
0.0000000000000738
210
0.0
220
1.0
230
0.0
  0
LINE
  5
2F3
330
1F
100
AcDbEntity
  8
HEWI
100
AcDbLine
 10
1114.600000006999
 20
-287.0
 30
0.0000000000000738
 11
1114.600000006999
 21
-277.5825756949558
 31
0.0000000000000738
210
0.0
220
1.0
230
0.0
  0
LINE
  5
2F4
330
1F
100
AcDbEntity
  8
HEWI
100
AcDbLine
 10
1010.600000006999
 20
-296.0
 30
0.0000000000000547
 11
1010.600000006999
 21
-302.0
 31
0.0000000000000547
210
0.0
220
1.0
230
0.0
  0
LINE
  5
2F5
330
1F
100
AcDbEntity
  8
HEWI
100
AcDbLine
 10
1010.600000006999
 20
-288.0
 30
0.0000000000000547
 11
1010.600000006999
 21
-296.0
 31
0.0000000000000547
210
0.0
220
1.0
230
0.0
  0
LINE
  5
2F6
330
1F
100
AcDbEntity
  8
HEWI
100
AcDbLine
 10
1010.600000006999
 20
-287.0
 30
0.0000000000000547
 11
1010.600000006999
 21
-288.0
 31
0.0000000000000547
210
0.0
220
1.0
230
0.0
  0
LINE
  5
2F7
330
1F
100
AcDbEntity
  8
HEWI
100
AcDbLine
 10
1014.600000006999
 20
-287.0
 30
0.0000000000000555
 11
1010.600000006999
 21
-287.0
 31
0.0000000000000547
210
0.0
220
1.0
230
0.0
  0
LINE
  5
2F8
330
1F
100
AcDbEntity
  8
HEWI
100
AcDbLine
 10
1010.600000006999
 20
-277.5825756949558
 30
0.0000000000000547
 11
1010.600000006999
 21
-287.0
 31
0.0000000000000547
210
0.0
220
1.0
230
0.0
  0
LINE
  5
2F9
330
1F
100
AcDbEntity
  8
HEWI
100
AcDbLine
 10
1014.600000006999
 20
-302.0
 30
0.0000000000000555
 11
1014.600000006999
 21
-296.0
 31
0.0000000000000555
210
0.0
220
1.0
230
0.0
  0
LINE
  5
2FA
330
1F
100
AcDbEntity
  8
HEWI
100
AcDbLine
 10
1014.600000006999
 20
-296.0
 30
0.0000000000000555
 11
1014.600000006999
 21
-288.0
 31
0.0000000000000555
210
0.0
220
1.0
230
0.0
  0
LINE
  5
2FB
330
1F
100
AcDbEntity
  8
HEWI
100
AcDbLine
 10
1014.600000006999
 20
-288.0
 30
0.0000000000000555
 11
1014.600000006999
 21
-287.0
 31
0.0000000000000555
210
0.0
220
1.0
230
0.0
  0
LINE
  5
2FC
330
1F
100
AcDbEntity
  8
HEWI
100
AcDbLine
 10
1014.600000006999
 20
-287.0
 30
0.0000000000000555
 11
1014.600000006999
 21
-277.5825756949558
 31
0.0000000000000555
210
0.0
220
1.0
230
0.0
  0
LINE
  5
2FD
330
1F
100
AcDbEntity
  8
HEWI
100
AcDbLine
 10
910.6000000069998
 20
-296.0
 30
0.0000000000000364
 11
910.6000000069998
 21
-302.0
 31
0.0000000000000364
210
0.0
220
1.0
230
0.0
  0
LINE
  5
2FE
330
1F
100
AcDbEntity
  8
HEWI
100
AcDbLine
 10
910.6000000069998
 20
-288.0
 30
0.0000000000000364
 11
910.6000000069998
 21
-296.0
 31
0.0000000000000364
210
0.0
220
1.0
230
0.0
  0
LINE
  5
2FF
330
1F
100
AcDbEntity
  8
HEWI
100
AcDbLine
 10
910.6000000069998
 20
-287.0
 30
0.0000000000000364
 11
910.6000000069998
 21
-288.0
 31
0.0000000000000364
210
0.0
220
1.0
230
0.0
  0
LINE
  5
300
330
1F
100
AcDbEntity
  8
HEWI
100
AcDbLine
 10
914.6000000069998
 20
-287.0
 30
0.0000000000000371
 11
910.6000000069998
 21
-287.0
 31
0.0000000000000364
210
0.0
220
1.0
230
0.0
  0
LINE
  5
301
330
1F
100
AcDbEntity
  8
HEWI
100
AcDbLine
 10
910.6000000069998
 20
-277.5825756949558
 30
0.0000000000000364
 11
910.6000000069998
 21
-287.0
 31
0.0000000000000364
210
0.0
220
1.0
230
0.0
  0
LINE
  5
302
330
1F
100
AcDbEntity
  8
HEWI
100
AcDbLine
 10
914.6000000069998
 20
-302.0
 30
0.0000000000000371
 11
914.6000000069998
 21
-296.0
 31
0.0000000000000371
210
0.0
220
1.0
230
0.0
  0
LINE
  5
303
330
1F
100
AcDbEntity
  8
HEWI
100
AcDbLine
 10
914.6000000069998
 20
-296.0
 30
0.0000000000000371
 11
914.6000000069998
 21
-288.0
 31
0.0000000000000371
210
0.0
220
1.0
230
0.0
  0
LINE
  5
304
330
1F
100
AcDbEntity
  8
HEWI
100
AcDbLine
 10
914.6000000069998
 20
-288.0
 30
0.0000000000000371
 11
914.6000000069998
 21
-287.0
 31
0.0000000000000371
210
0.0
220
1.0
230
0.0
  0
LINE
  5
305
330
1F
100
AcDbEntity
  8
HEWI
100
AcDbLine
 10
914.6000000069998
 20
-287.0
 30
0.0000000000000371
 11
914.6000000069998
 21
-277.5825756949558
 31
0.0000000000000371
210
0.0
220
1.0
230
0.0
  0
ARC
  5
306
330
1F
100
AcDbEntity
  8
HEWI
100
AcDbCircle
 10
1695.600000006998
 20
-248.0
 30
0.0000000000001806
 40
35.0
100
AcDbArc
 50
208.1270682186044
 51
141.6546637470991
  0
ARC
  5
307
330
1F
100
AcDbEntity
  8
HEWI
100
AcDbCircle
 10
1695.600000006998
 20
-248.0
 30
0.0000000000001806
 40
16.8
100
AcDbArc
 50
259.1559374363054
 51
100.8440625636944
  0
LINE
  5
308
330
1F
100
AcDbEntity
  8
HEWI
100
AcDbLine
 10
914.6000000069998
 20
-302.0
 30
0.0000000000000371
 11
910.6000000069998
 21
-302.0
 31
0.0000000000000364
210
0.0
220
1.0
230
0.0
  0
ARC
  5
309
330
1F
100
AcDbEntity
  8
HEWI
100
AcDbCircle
 10
912.6000000069998
 20
-233.8531372272427
 30
0.0000000000000367
 40
5.0
100
AcDbArc
 50
0.0
 51
180.0
  0
ARC
  5
30A
330
1F
100
AcDbEntity
  8
HEWI
100
AcDbCircle
 10
912.6000000069998
 20
-225.257660478055
 30
0.0000000000000367
 40
5.0
100
AcDbArc
 50
0.0
 51
180.0
  0
LINE
  5
30B
330
1F
100
AcDbEntity
  8
HEWI
100
AcDbLine
 10
1014.600000006999
 20
-302.0
 30
0.0000000000000555
 11
1010.600000006999
 21
-302.0
 31
0.0000000000000547
210
0.0
220
1.0
230
0.0
  0
ARC
  5
30C
330
1F
100
AcDbEntity
  8
HEWI
100
AcDbCircle
 10
1012.600000006999
 20
-233.8531372272427
 30
0.0000000000000551
 40
5.0
100
AcDbArc
 50
0.0
 51
180.0
  0
ARC
  5
30D
330
1F
100
AcDbEntity
  8
HEWI
100
AcDbCircle
 10
1012.600000006999
 20
-225.257660478055
 30
0.0000000000000551
 40
5.0
100
AcDbArc
 50
0.0
 51
180.0
  0
LINE
  5
30E
330
1F
100
AcDbEntity
  8
HEWI
100
AcDbLine
 10
1114.600000006999
 20
-302.0
 30
0.0000000000000738
 11
1110.600000006999
 21
-302.0
 31
0.0000000000000731
210
0.0
220
1.0
230
0.0
  0
ARC
  5
30F
330
1F
100
AcDbEntity
  8
HEWI
100
AcDbCircle
 10
1112.600000006999
 20
-233.8531372272427
 30
0.0000000000000735
 40
5.0
100
AcDbArc
 50
0.0
 51
180.0
  0
ARC
  5
310
330
1F
100
AcDbEntity
  8
HEWI
100
AcDbCircle
 10
1112.600000006999
 20
-225.257660478055
 30
0.0000000000000735
 40
5.0
100
AcDbArc
 50
0.0
 51
180.0
  0
LINE
  5
311
330
1F
100
AcDbEntity
  8
HEWI
100
AcDbLine
 10
722.6000000069998
 20
-213.0
 30
0.0000000000000018
 11
712.6000000069998
 21
-213.0
 31
0.0
210
0.0
220
1.0
230
0.0
  0
LINE
  5
312
330
1F
100
AcDbEntity
  8
HEWI
100
AcDbLine
 10
722.6000000069998
 20
-283.0
 30
0.0000000000000018
 11
712.6000000069998
 21
-283.0
 31
0.0
210
0.0
220
1.0
230
0.0
  0
LINE
  5
313
330
1F
100
AcDbEntity
  8
HEWI
100
AcDbLine
 10
1214.600000006999
 20
-302.0
 30
0.0000000000000922
 11
1210.600000006999
 21
-302.0
 31
0.0000000000000915
210
0.0
220
1.0
230
0.0
  0
ARC
  5
314
330
1F
100
AcDbEntity
  8
HEWI
100
AcDbCircle
 10
1212.600000006999
 20
-233.8531372272427
 30
0.0000000000000918
 40
5.0
100
AcDbArc
 50
0.0
 51
180.0
  0
ARC
  5
315
330
1F
100
AcDbEntity
  8
HEWI
100
AcDbCircle
 10
1212.600000006999
 20
-225.257660478055
 30
0.0000000000000918
 40
5.0
100
AcDbArc
 50
0.0
 51
180.0
  0
LINE
  5
316
330
1F
100
AcDbEntity
  8
HEWI
100
AcDbLine
 10
1314.600000006999
 20
-302.0
 30
0.0000000000001106
 11
1310.600000006999
 21
-302.0
 31
0.0000000000001098
210
0.0
220
1.0
230
0.0
  0
ARC
  5
317
330
1F
100
AcDbEntity
  8
HEWI
100
AcDbCircle
 10
1312.600000006999
 20
-233.8531372272427
 30
0.0000000000001102
 40
5.0
100
AcDbArc
 50
0.0
 51
180.0
  0
ARC
  5
318
330
1F
100
AcDbEntity
  8
HEWI
100
AcDbCircle
 10
1312.600000006999
 20
-225.257660478055
 30
0.0000000000001102
 40
5.0
100
AcDbArc
 50
0.0
 51
180.0
  0
LINE
  5
319
330
1F
100
AcDbEntity
  8
HEWI
100
AcDbLine
 10
1414.600000007
 20
-302.0
 30
0.000000000000129
 11
1410.600000007
 21
-302.0
 31
0.0000000000001282
210
0.0
220
1.0
230
0.0
  0
ARC
  5
31A
330
1F
100
AcDbEntity
  8
HEWI
100
AcDbCircle
 10
1412.600000007
 20
-233.8531372272427
 30
0.0000000000001286
 40
5.0
100
AcDbArc
 50
0.0
 51
180.0
  0
ARC
  5
31B
330
1F
100
AcDbEntity
  8
HEWI
100
AcDbCircle
 10
1412.600000007
 20
-225.257660478055
 30
0.0000000000001286
 40
5.0
100
AcDbArc
 50
0.0
 51
180.0
  0
LINE
  5
31C
330
1F
100
AcDbEntity
  8
HEWI
100
AcDbLine
 10
724.6000000069998
 20
-264.5
 30
0.0000000000000022
 11
907.6000000069999
 21
-264.5
 31
0.0000000000000358
210
0.0
220
1.0
230
0.0
  0
LINE
  5
31D
330
1F
100
AcDbEntity
  8
HEWI
100
AcDbLine
 10
917.6000000069999
 20
-264.5
 30
0.0000000000000377
 11
1007.600000007
 21
-264.5
 31
0.0000000000000542
210
0.0
220
1.0
230
0.0
  0
LINE
  5
31E
330
1F
100
AcDbEntity
  8
HEWI
100
AcDbLine
 10
1017.600000007
 20
-264.5
 30
0.000000000000056
 11
1107.600000006999
 21
-264.5
 31
0.0000000000000726
210
0.0
220
1.0
230
0.0
  0
LINE
  5
31F
330
1F
100
AcDbEntity
  8
HEWI
100
AcDbLine
 10
1117.600000006999
 20
-264.5
 30
0.0000000000000744
 11
1207.600000006999
 21
-264.5
 31
0.0000000000000909
210
0.0
220
1.0
230
0.0
  0
LINE
  5
320
330
1F
100
AcDbEntity
  8
HEWI
100
AcDbLine
 10
1217.600000006999
 20
-264.5
 30
0.0000000000000928
 11
1307.600000006999
 21
-264.5
 31
0.0000000000001093
210
0.0
220
1.0
230
0.0
  0
LINE
  5
321
330
1F
100
AcDbEntity
  8
HEWI
100
AcDbLine
 10
1317.600000006999
 20
-264.5
 30
0.0000000000001111
 11
1407.600000006999
 21
-264.5
 31
0.0000000000001277
210
0.0
220
1.0
230
0.0
  0
LINE
  5
322
330
1F
100
AcDbEntity
  8
HEWI
100
AcDbLine
 10
1417.600000006999
 20
-264.5
 30
0.0000000000001295
 11
1582.100000007
 21
-264.5
 31
0.0000000000001597
210
0.0
220
1.0
230
0.0
  0
LINE
  5
323
330
1F
100
AcDbEntity
  8
HEWI
100
AcDbLine
 10
724.6000000069998
 20
-231.4999999999999
 30
0.0000000000000022
 11
908.1883398671246
 21
-231.4999999999999
 31
0.0000000000000359
210
0.0
220
1.0
230
0.0
  0
LINE
  5
324
330
1F
100
AcDbEntity
  8
HEWI
100
AcDbLine
 10
917.011660146875
 20
-231.4999999999999
 30
0.0000000000000375
 11
1008.188339867124
 21
-231.4999999999999
 31
0.0000000000000543
210
0.0
220
1.0
230
0.0
  0
LINE
  5
325
330
1F
100
AcDbEntity
  8
HEWI
100
AcDbLine
 10
1017.011660146875
 20
-231.4999999999999
 30
0.0000000000000559
 11
1108.188339867124
 21
-231.4999999999999
 31
0.0000000000000727
210
0.0
220
1.0
230
0.0
  0
LINE
  5
326
330
1F
100
AcDbEntity
  8
HEWI
100
AcDbLine
 10
1117.011660146875
 20
-231.4999999999999
 30
0.0000000000000743
 11
1208.188339867124
 21
-231.4999999999999
 31
0.000000000000091
210
0.0
220
1.0
230
0.0
  0
LINE
  5
327
330
1F
100
AcDbEntity
  8
HEWI
100
AcDbLine
 10
1217.011660146875
 20
-231.4999999999999
 30
0.0000000000000927
 11
1308.188339867124
 21
-231.4999999999999
 31
0.0000000000001094
210
0.0
220
1.0
230
0.0
  0
LINE
  5
328
330
1F
100
AcDbEntity
  8
HEWI
100
AcDbLine
 10
1317.011660146875
 20
-231.4999999999999
 30
0.000000000000111
 11
1408.188339867124
 21
-231.4999999999999
 31
0.0000000000001278
210
0.0
220
1.0
230
0.0
  0
LINE
  5
329
330
1F
100
AcDbEntity
  8
HEWI
100
AcDbLine
 10
1417.011660146875
 20
-231.4999999999999
 30
0.0000000000001294
 11
1582.100000007
 21
-231.4999999999999
 31
0.0000000000001597
210
0.0
220
1.0
230
0.0
  0
LINE
  5
32A
330
1F
100
AcDbEntity
  8
HEWI
100
AcDbLine
 10
1697.100000007
 20
241.9999999999999
 30
0.000000000000239
 11
1697.100000007
 21
251.9999999999999
 31
0.000000000000239
210
0.0
220
1.0
230
0.0
  0
LINE
  5
32B
330
1F
100
AcDbEntity
  8
HEWI
100
AcDbLine
 10
1627.100000006999
 20
241.9999999999999
 30
0.0000000000002262
 11
1627.100000006999
 21
251.9999999999999
 31
0.0000000000002262
210
0.0
220
1.0
230
0.0
  0
LINE
  5
32C
330
1F
100
AcDbEntity
  8
HEWI
100
AcDbLine
 10
1645.600000006998
 20
239.9999999999999
 30
0.0000000000001714
 11
1645.600000006998
 21
-198.1106531685483
 31
0.0000000000001714
210
0.0
220
1.0
230
0.0
  0
LINE
  5
32D
330
1F
100
AcDbEntity
  8
HEWI
100
AcDbLine
 10
1678.600000007
 20
239.9999999999999
 30
0.0000000000001774
 11
1678.600000007
 21
-198.1106531685483
 31
0.0000000000001774
210
0.0
220
1.0
230
0.0
  0
ARC
  5
32E
330
1F
100
AcDbEntity
  8
HEWI
100
AcDbCircle
 10
1662.100000006999
 20
-80.3000000000001
 30
0.0000000000001744
 40
120.0
100
AcDbArc
 50
262.6004459104684
 51
267.1101126279998
  0
ARC
  5
32F
330
1F
100
AcDbEntity
  8
HEWI
100
AcDbCircle
 10
1662.100000006999
 20
-80.3000000000001
 30
0.0000000000001744
 40
119.9999999999999
100
AcDbArc
 50
272.8898873720002
 51
277.3995540895314
  0
LINE
  5
330
330
1F
100
AcDbEntity
  8
HEWI
100
AcDbLine
 10
1656.050000007
 20
-200.147392545687
 30
0.0000000000001733
 11
1656.050000007
 21
-231.4999999999999
 31
0.0000000000001733
210
0.0
220
1.0
230
0.0
  0
LINE
  5
331
330
1F
100
AcDbEntity
  8
HEWI
100
AcDbLine
 10
1668.150000006999
 20
-200.147392545687
 30
0.0000000000001755
 11
1668.150000006999
 21
-233.0
 31
0.0000000000001755
210
0.0
220
1.0
230
0.0
  0
LINE
  5
332
330
1F
100
AcDbEntity
  8
HEWI
100
AcDbLine
 10
907.6000000069996
 20
-225.257660478055
 30
0.0000000000000358
 11
907.6000000069996
 21
-231.4999999999999
 31
0.0000000000000358
210
0.0
220
1.0
230
0.0
  0
LINE
  5
333
330
1F
100
AcDbEntity
  8
HEWI
100
AcDbLine
 10
907.6000000069996
 20
-233.8531372272427
 30
0.0000000000000358
 11
907.6000000069996
 21
-273.0
 31
0.0000000000000358
210
0.0
220
1.0
230
0.0
  0
LINE
  5
334
330
1F
100
AcDbEntity
  8
HEWI
100
AcDbLine
 10
917.6000000069999
 20
-273.0
 30
0.0000000000000377
 11
917.6000000069999
 21
-233.8531372272427
 31
0.0000000000000377
210
0.0
220
1.0
230
0.0
  0
LINE
  5
335
330
1F
100
AcDbEntity
  8
HEWI
100
AcDbLine
 10
917.6000000069999
 20
-231.4999999999999
 30
0.0000000000000377
 11
917.6000000069999
 21
-225.257660478055
 31
0.0000000000000377
210
0.0
220
1.0
230
0.0
  0
ARC
  5
336
330
1F
100
AcDbEntity
  8
HEWI
100
AcDbCircle
 10
912.6000000069998
 20
-273.0
 30
0.0000000000000367
 40
5.0
100
AcDbArc
 50
180.0
 51
0.0000000000016284
  0
LINE
  5
337
330
1F
100
AcDbEntity
  8
HEWI
100
AcDbLine
 10
1007.600000007
 20
-225.257660478055
 30
0.0000000000000542
 11
1007.600000007
 21
-231.4999999999999
 31
0.0000000000000542
210
0.0
220
1.0
230
0.0
  0
LINE
  5
338
330
1F
100
AcDbEntity
  8
HEWI
100
AcDbLine
 10
1007.600000007
 20
-233.8531372272427
 30
0.0000000000000542
 11
1007.600000007
 21
-273.0
 31
0.0000000000000542
210
0.0
220
1.0
230
0.0
  0
LINE
  5
339
330
1F
100
AcDbEntity
  8
HEWI
100
AcDbLine
 10
1017.600000007
 20
-273.0
 30
0.000000000000056
 11
1017.600000007
 21
-233.8531372272427
 31
0.000000000000056
210
0.0
220
1.0
230
0.0
  0
LINE
  5
33A
330
1F
100
AcDbEntity
  8
HEWI
100
AcDbLine
 10
1017.600000007
 20
-231.4999999999999
 30
0.000000000000056
 11
1017.600000007
 21
-225.257660478055
 31
0.000000000000056
210
0.0
220
1.0
230
0.0
  0
ARC
  5
33B
330
1F
100
AcDbEntity
  8
HEWI
100
AcDbCircle
 10
1012.600000006999
 20
-273.0
 30
0.0000000000000551
 40
5.0
100
AcDbArc
 50
180.0
 51
0.0000000000016284
  0
LINE
  5
33C
330
1F
100
AcDbEntity
  8
HEWI
100
AcDbLine
 10
1107.600000006999
 20
-225.257660478055
 30
0.0000000000000726
 11
1107.600000006999
 21
-231.4999999999999
 31
0.0000000000000726
210
0.0
220
1.0
230
0.0
  0
LINE
  5
33D
330
1F
100
AcDbEntity
  8
HEWI
100
AcDbLine
 10
1107.600000006999
 20
-233.8531372272427
 30
0.0000000000000726
 11
1107.600000006999
 21
-273.0
 31
0.0000000000000726
210
0.0
220
1.0
230
0.0
  0
LINE
  5
33E
330
1F
100
AcDbEntity
  8
HEWI
100
AcDbLine
 10
1117.600000006999
 20
-273.0
 30
0.0000000000000744
 11
1117.600000006999
 21
-233.8531372272427
 31
0.0000000000000744
210
0.0
220
1.0
230
0.0
  0
LINE
  5
33F
330
1F
100
AcDbEntity
  8
HEWI
100
AcDbLine
 10
1117.600000006999
 20
-231.4999999999999
 30
0.0000000000000744
 11
1117.600000006999
 21
-225.257660478055
 31
0.0000000000000744
210
0.0
220
1.0
230
0.0
  0
ARC
  5
340
330
1F
100
AcDbEntity
  8
HEWI
100
AcDbCircle
 10
1112.600000006999
 20
-273.0
 30
0.0000000000000735
 40
5.0
100
AcDbArc
 50
180.0
 51
0.0000000000016284
  0
ARC
  5
341
330
1F
100
AcDbEntity
  8
HEWI
100
AcDbCircle
 10
722.6000000069998
 20
-281.0
 30
0.0000000000000018
 40
2.0
100
AcDbArc
 50
270.0
 51
0.0000000000016284
  0
ARC
  5
342
330
1F
100
AcDbEntity
  8
HEWI
100
AcDbCircle
 10
722.6000000069998
 20
-215.0
 30
0.0000000000000018
 40
2.0
100
AcDbArc
 50
359.9999999999983
 51
90.0
  0
LINE
  5
343
330
1F
100
AcDbEntity
  8
HEWI
100
AcDbLine
 10
1207.600000006999
 20
-225.257660478055
 30
0.0000000000000909
 11
1207.600000006999
 21
-231.4999999999999
 31
0.0000000000000909
210
0.0
220
1.0
230
0.0
  0
LINE
  5
344
330
1F
100
AcDbEntity
  8
HEWI
100
AcDbLine
 10
1207.600000006999
 20
-233.8531372272427
 30
0.0000000000000909
 11
1207.600000006999
 21
-273.0
 31
0.0000000000000909
210
0.0
220
1.0
230
0.0
  0
LINE
  5
345
330
1F
100
AcDbEntity
  8
HEWI
100
AcDbLine
 10
1217.600000006999
 20
-273.0
 30
0.0000000000000928
 11
1217.600000006999
 21
-233.8531372272427
 31
0.0000000000000928
210
0.0
220
1.0
230
0.0
  0
LINE
  5
346
330
1F
100
AcDbEntity
  8
HEWI
100
AcDbLine
 10
1217.600000006999
 20
-231.4999999999999
 30
0.0000000000000928
 11
1217.600000006999
 21
-225.257660478055
 31
0.0000000000000928
210
0.0
220
1.0
230
0.0
  0
ARC
  5
347
330
1F
100
AcDbEntity
  8
HEWI
100
AcDbCircle
 10
1212.600000006999
 20
-273.0
 30
0.0000000000000918
 40
5.0
100
AcDbArc
 50
180.0
 51
0.0000000000016284
  0
LINE
  5
348
330
1F
100
AcDbEntity
  8
HEWI
100
AcDbLine
 10
1307.600000006999
 20
-225.257660478055
 30
0.0000000000001093
 11
1307.600000006999
 21
-231.4999999999999
 31
0.0000000000001093
210
0.0
220
1.0
230
0.0
  0
LINE
  5
349
330
1F
100
AcDbEntity
  8
HEWI
100
AcDbLine
 10
1307.600000006999
 20
-233.8531372272427
 30
0.0000000000001093
 11
1307.600000006999
 21
-273.0
 31
0.0000000000001093
210
0.0
220
1.0
230
0.0
  0
LINE
  5
34A
330
1F
100
AcDbEntity
  8
HEWI
100
AcDbLine
 10
1317.600000006999
 20
-273.0
 30
0.0000000000001111
 11
1317.600000006999
 21
-233.8531372272427
 31
0.0000000000001111
210
0.0
220
1.0
230
0.0
  0
LINE
  5
34B
330
1F
100
AcDbEntity
  8
HEWI
100
AcDbLine
 10
1317.600000006999
 20
-231.4999999999999
 30
0.0000000000001111
 11
1317.600000006999
 21
-225.257660478055
 31
0.0000000000001111
210
0.0
220
1.0
230
0.0
  0
ARC
  5
34C
330
1F
100
AcDbEntity
  8
HEWI
100
AcDbCircle
 10
1312.600000006999
 20
-273.0
 30
0.0000000000001102
 40
5.0
100
AcDbArc
 50
180.0
 51
0.0000000000016284
  0
LINE
  5
34D
330
1F
100
AcDbEntity
  8
HEWI
100
AcDbLine
 10
1407.600000006999
 20
-225.257660478055
 30
0.0000000000001277
 11
1407.600000006999
 21
-231.4999999999999
 31
0.0000000000001277
210
0.0
220
1.0
230
0.0
  0
LINE
  5
34E
330
1F
100
AcDbEntity
  8
HEWI
100
AcDbLine
 10
1407.600000006999
 20
-233.8531372272427
 30
0.0000000000001277
 11
1407.600000006999
 21
-273.0
 31
0.0000000000001277
210
0.0
220
1.0
230
0.0
  0
LINE
  5
34F
330
1F
100
AcDbEntity
  8
HEWI
100
AcDbLine
 10
1417.600000006999
 20
-273.0
 30
0.0000000000001295
 11
1417.600000006999
 21
-233.8531372272427
 31
0.0000000000001295
210
0.0
220
1.0
230
0.0
  0
LINE
  5
350
330
1F
100
AcDbEntity
  8
HEWI
100
AcDbLine
 10
1417.600000006999
 20
-231.4999999999999
 30
0.0000000000001295
 11
1417.600000006999
 21
-225.257660478055
 31
0.0000000000001295
210
0.0
220
1.0
230
0.0
  0
ARC
  5
351
330
1F
100
AcDbEntity
  8
HEWI
100
AcDbCircle
 10
1412.600000007
 20
-273.0
 30
0.0000000000001286
 40
5.0
100
AcDbArc
 50
180.0
 51
0.0000000000016284
  0
LINE
  5
352
330
1F
100
AcDbEntity
  8
HEWI
100
AcDbLine
 10
1695.600000006998
 20
-231.4999999999999
 30
0.0000000000001806
 11
1668.150000006999
 21
-231.4999999999999
 31
0.0000000000001755
210
0.0
220
1.0
230
0.0
  0
LINE
  5
353
330
1F
100
AcDbEntity
  8
HEWI
100
AcDbLine
 10
1657.967031363505
 20
-231.4999999999999
 30
0.0000000000001737
 11
1582.100000006999
 21
-231.4999999999999
 31
0.0000000000001597
210
0.0
220
1.0
230
0.0
  0
LINE
  5
354
330
1F
100
AcDbEntity
  8
HEWI
100
AcDbLine
 10
1582.100000006999
 20
-264.5
 30
0.0000000000001597
 11
1695.600000006998
 21
-264.5
 31
0.0000000000001806
210
0.0
220
1.0
230
0.0
  0
ARC
  5
355
330
1F
100
AcDbEntity
  8
HEWI
100
AcDbCircle
 10
1629.100000006999
 20
241.9999999999999
 30
0.0000000000002266
 40
2.0
100
AcDbArc
 50
180.0
 51
270.0
  0
ARC
  5
356
330
1F
100
AcDbEntity
  8
HEWI
100
AcDbCircle
 10
1695.100000007
 20
241.9999999999999
 30
0.0000000000002387
 40
2.0
100
AcDbArc
 50
270.0
 51
0.0
  0
ARC
  5
357
330
1F
100
AcDbEntity
  8
HEWI
100
AcDbCircle
 10
1677.400000007
 20
-198.1106531685483
 30
0.0000000000001772
 40
1.199999999999999
100
AcDbArc
 50
277.3995540895378
 51
0.0
  0
ARC
  5
358
330
1F
100
AcDbEntity
  8
HEWI
100
AcDbCircle
 10
1646.800000007
 20
-198.1106531685483
 30
0.0000000000001716
 40
1.199999999999999
100
AcDbArc
 50
180.0
 51
262.6004459104621
  0
CIRCLE
  5
35A
330
1F
100
AcDbEntity
  8
HEWI
100
AcDbCircle
 10
-440.499999995
 20
-1455.100000007
 30
0.0
 40
16.5
  0
CIRCLE
  5
35B
330
1F
100
AcDbEntity
  8
HEWI
100
AcDbCircle
 10
-440.499999995
 20
-1455.100000007
 30
0.0
 40
33.25
  0
CIRCLE
  5
35C
330
1F
100
AcDbEntity
  8
HEWI
100
AcDbCircle
 10
-440.499999995
 20
-1455.100000007
 30
0.0
 40
35.0
  0
CIRCLE
  5
35D
330
1F
100
AcDbEntity
  8
HEWI
100
AcDbCircle
 10
-440.499999995
 20
-1455.100000007
 30
0.0
 40
16.8
  0
CIRCLE
  5
35E
330
1F
100
AcDbEntity
  8
HEWI
100
AcDbCircle
 10
-440.499999995
 20
-1455.100000007
 30
0.0
 40
32.25
  0
LINE
  5
35F
330
1F
100
AcDbEntity
  8
HEWI
100
AcDbLine
 10
-360.4999999949998
 20
-1505.100000007
 30
0.0
 11
-360.4999999949998
 21
-1472.100000007
 31
0.0
  0
LINE
  5
360
330
1F
100
AcDbEntity
  8
HEWI
100
AcDbLine
 10
-457.499999995
 20
-1375.100000007
 30
0.0
 11
-490.499999995
 21
-1375.100000007
 31
0.0
  0
LINE
  5
361
330
1F
100
AcDbEntity
  8
HEWI
100
AcDbLine
 10
-490.499999995
 20
-1375.100000007
 30
0.0
 11
-457.499999995
 21
-1375.100000007
 31
0.0
  0
LINE
  5
362
330
1F
100
AcDbEntity
  8
HEWI
100
AcDbLine
 10
-360.4999999949998
 20
-1472.100000007
 30
0.0
 11
-360.4999999949998
 21
-1505.100000007
 31
0.0
  0
LINE
  5
363
330
1F
100
AcDbEntity
  8
HEWI
100
AcDbLine
 10
-508.9999999949998
 20
-505.6000000069999
 30
0.0
 11
-438.9999999949998
 21
-505.6000000069999
 31
0.0
  0
LINE
  5
364
330
1F
100
AcDbEntity
  8
HEWI
100
AcDbLine
 10
-506.999999995
 20
-517.6000000070001
 30
0.0
 11
-440.999999995
 21
-517.6000000070001
 31
0.0
  0
LINE
  5
365
330
1F
100
AcDbEntity
  8
HEWI
100
AcDbLine
 10
509.0000000049998
 20
-1453.600000007
 30
0.0
 11
509.0000000049998
 21
-1523.600000007
 31
0.0
  0
LINE
  5
366
330
1F
100
AcDbEntity
  8
HEWI
100
AcDbLine
 10
497.0000000049998
 20
-1455.600000007
 30
0.0
 11
497.0000000049998
 21
-1521.600000007
 31
0.0
  0
LINE
  5
367
330
1F
100
AcDbEntity
  8
HEWI
100
AcDbLine
 10
499.000000005
 20
-1523.600000007
 30
0.0
 11
509.0000000049998
 21
-1523.600000007
 31
0.0
  0
LINE
  5
368
330
1F
100
AcDbEntity
  8
HEWI
100
AcDbLine
 10
499.000000005
 20
-1453.600000007
 30
0.0
 11
509.0000000049998
 21
-1453.600000007
 31
0.0
  0
ARC
  5
369
330
1F
100
AcDbEntity
  8
HEWI
100
AcDbCircle
 10
-494.6122845284711
 20
-705.6000000069998
 30
0.0
 40
5.0
100
AcDbArc
 50
270.0
 51
90.0
  0
ARC
  5
36A
330
1F
100
AcDbEntity
  8
HEWI
100
AcDbCircle
 10
-463.6179966686381
 20
-705.6000000069998
 30
0.0
 40
5.0
100
AcDbArc
 50
90.0
 51
270.0
  0
ARC
  5
36B
330
1F
100
AcDbEntity
  8
HEWI
100
AcDbCircle
 10
-494.6122845284711
 20
-805.6000000069998
 30
0.0
 40
5.0
100
AcDbArc
 50
270.0
 51
90.0
  0
ARC
  5
36C
330
1F
100
AcDbEntity
  8
HEWI
100
AcDbCircle
 10
-463.6179966686381
 20
-805.6000000069998
 30
0.0
 40
5.0
100
AcDbArc
 50
90.0
 51
270.0
  0
ARC
  5
36D
330
1F
100
AcDbEntity
  8
HEWI
100
AcDbCircle
 10
-494.6122845284711
 20
-905.6000000069998
 30
0.0
 40
5.0
100
AcDbArc
 50
270.0
 51
90.0
  0
ARC
  5
36E
330
1F
100
AcDbEntity
  8
HEWI
100
AcDbCircle
 10
-463.6179966686381
 20
-905.6000000069998
 30
0.0
 40
5.0
100
AcDbArc
 50
90.0
 51
270.0
  0
LINE
  5
36F
330
1F
100
AcDbEntity
  8
HEWI
100
AcDbLine
 10
-438.9999999949998
 20
-515.6000000069999
 30
0.0
 11
-438.9999999949998
 21
-505.6000000069999
 31
0.0
  0
LINE
  5
370
330
1F
100
AcDbEntity
  8
HEWI
100
AcDbLine
 10
-508.9999999949998
 20
-515.6000000069999
 30
0.0
 11
-508.9999999949998
 21
-505.6000000069999
 31
0.0
  0
ARC
  5
371
330
1F
100
AcDbEntity
  8
HEWI
100
AcDbCircle
 10
-494.6122845284711
 20
-1005.600000007
 30
0.0
 40
5.0
100
AcDbArc
 50
270.0
 51
90.0
  0
ARC
  5
372
330
1F
100
AcDbEntity
  8
HEWI
100
AcDbCircle
 10
-463.6179966686381
 20
-1005.600000007
 30
0.0
 40
5.0
100
AcDbArc
 50
90.0
 51
270.0
  0
ARC
  5
373
330
1F
100
AcDbEntity
  8
HEWI
100
AcDbCircle
 10
-494.6122845284711
 20
-1105.600000007
 30
0.0
 40
5.0
100
AcDbArc
 50
270.0
 51
90.0
  0
ARC
  5
374
330
1F
100
AcDbEntity
  8
HEWI
100
AcDbCircle
 10
-463.6179966686381
 20
-1105.600000007
 30
0.0
 40
5.0
100
AcDbArc
 50
90.0
 51
270.0
  0
ARC
  5
375
330
1F
100
AcDbEntity
  8
HEWI
100
AcDbCircle
 10
-494.6122845284711
 20
-1205.600000007
 30
0.0
 40
5.0
100
AcDbArc
 50
270.0
 51
90.0
  0
ARC
  5
376
330
1F
100
AcDbEntity
  8
HEWI
100
AcDbCircle
 10
-463.6179966686381
 20
-1205.600000007
 30
0.0
 40
5.0
100
AcDbArc
 50
90.0
 51
270.0
  0
LINE
  5
377
330
1F
100
AcDbEntity
  8
HEWI
100
AcDbLine
 10
-490.499999995
 20
-517.6000000070001
 30
0.0
 11
-490.499999995
 21
-702.7558628943111
 31
0.0
  0
LINE
  5
378
330
1F
100
AcDbEntity
  8
HEWI
100
AcDbLine
 10
-490.499999995
 20
-708.4441371196888
 30
0.0
 11
-490.499999995
 21
-802.7558628943111
 31
0.0
  0
LINE
  5
379
330
1F
100
AcDbEntity
  8
HEWI
100
AcDbLine
 10
-490.499999995
 20
-808.4441371196888
 30
0.0
 11
-490.499999995
 21
-902.7558628943111
 31
0.0
  0
LINE
  5
37A
330
1F
100
AcDbEntity
  8
HEWI
100
AcDbLine
 10
-490.499999995
 20
-908.4441371196888
 30
0.0
 11
-490.499999995
 21
-1002.755862894311
 31
0.0
  0
LINE
  5
37B
330
1F
100
AcDbEntity
  8
HEWI
100
AcDbLine
 10
-490.499999995
 20
-1008.444137119687
 30
0.0
 11
-490.499999995
 21
-1102.755862894311
 31
0.0
  0
LINE
  5
37C
330
1F
100
AcDbEntity
  8
HEWI
100
AcDbLine
 10
-490.499999995
 20
-1108.444137119688
 30
0.0
 11
-490.499999995
 21
-1202.755862894311
 31
0.0
  0
LINE
  5
37D
330
1F
100
AcDbEntity
  8
HEWI
100
AcDbLine
 10
-490.499999995
 20
-1208.444137119688
 30
0.0
 11
-490.499999995
 21
-1375.100000007
 31
0.0
  0
LINE
  5
37E
330
1F
100
AcDbEntity
  8
HEWI
100
AcDbLine
 10
-457.499999995
 20
-517.6000000070001
 30
0.0
 11
-457.499999995
 21
-700.6000000070002
 31
0.0
  0
LINE
  5
37F
330
1F
100
AcDbEntity
  8
HEWI
100
AcDbLine
 10
-457.499999995
 20
-710.6000000069998
 30
0.0
 11
-457.499999995
 21
-800.6000000070001
 31
0.0
  0
LINE
  5
380
330
1F
100
AcDbEntity
  8
HEWI
100
AcDbLine
 10
-457.499999995
 20
-810.6000000069998
 30
0.0
 11
-457.499999995
 21
-900.6000000070001
 31
0.0
  0
LINE
  5
381
330
1F
100
AcDbEntity
  8
HEWI
100
AcDbLine
 10
-457.499999995
 20
-910.6000000069998
 30
0.0
 11
-457.499999995
 21
-1000.600000006999
 31
0.0
  0
LINE
  5
382
330
1F
100
AcDbEntity
  8
HEWI
100
AcDbLine
 10
-457.499999995
 20
-1010.600000006999
 30
0.0
 11
-457.499999995
 21
-1100.600000007
 31
0.0
  0
LINE
  5
383
330
1F
100
AcDbEntity
  8
HEWI
100
AcDbLine
 10
-457.499999995
 20
-1110.600000007
 30
0.0
 11
-457.499999995
 21
-1200.600000007
 31
0.0
  0
LINE
  5
384
330
1F
100
AcDbEntity
  8
HEWI
100
AcDbLine
 10
-457.499999995
 20
-1210.600000007
 30
0.0
 11
-457.499999995
 21
-1375.100000007
 31
0.0
  0
LINE
  5
385
330
1F
100
AcDbEntity
  8
HEWI
100
AcDbLine
 10
497.0000000049998
 20
-1472.100000007
 30
0.0
 11
-360.4999999949998
 21
-1472.100000007
 31
0.0
  0
LINE
  5
386
330
1F
100
AcDbEntity
  8
HEWI
100
AcDbLine
 10
497.0000000049998
 20
-1505.100000007
 30
0.0
 11
-360.4999999949998
 21
-1505.100000007
 31
0.0
  0
ARC
  5
387
330
1F
100
AcDbEntity
  8
HEWI
100
AcDbCircle
 10
499.000000005
 20
-1455.600000007
 30
0.0
 40
2.0
100
AcDbArc
 50
90.0
 51
180.0
  0
ARC
  5
388
330
1F
100
AcDbEntity
  8
HEWI
100
AcDbCircle
 10
499.000000005
 20
-1521.600000007
 30
0.0
 40
2.0
100
AcDbArc
 50
180.0
 51
270.0
  0
LINE
  5
389
330
1F
100
AcDbEntity
  8
HEWI
100
AcDbLine
 10
-490.499999995
 20
-700.6000000069998
 30
0.0
 11
-494.6122845284711
 21
-700.6000000069998
 31
0.0
  0
LINE
  5
38A
330
1F
100
AcDbEntity
  8
HEWI
100
AcDbLine
 10
-494.6122845284711
 20
-700.6000000069998
 30
0.0
 11
-498.999999995
 21
-700.6000000069998
 31
0.0
  0
LINE
  5
38B
330
1F
100
AcDbEntity
  8
HEWI
100
AcDbLine
 10
-448.999999995
 20
-700.6000000069998
 30
0.0
 11
-463.6179966686381
 21
-700.6000000069998
 31
0.0
  0
LINE
  5
38C
330
1F
100
AcDbEntity
  8
HEWI
100
AcDbLine
 10
-463.6179966686381
 20
-710.6000000069998
 30
0.0
 11
-448.999999995
 21
-710.6000000069998
 31
0.0
  0
LINE
  5
38D
330
1F
100
AcDbEntity
  8
HEWI
100
AcDbLine
 10
-498.999999995
 20
-710.6000000069998
 30
0.0
 11
-494.6122845284711
 21
-710.6000000069998
 31
0.0
  0
LINE
  5
38E
330
1F
100
AcDbEntity
  8
HEWI
100
AcDbLine
 10
-494.6122845284711
 20
-710.6000000069998
 30
0.0
 11
-490.499999995
 21
-710.6000000069998
 31
0.0
  0
ARC
  5
38F
330
1F
100
AcDbEntity
  8
HEWI
100
AcDbCircle
 10
-498.999999995
 20
-705.6000000069998
 30
0.0
 40
5.0
100
AcDbArc
 50
90.0
 51
270.0
  0
ARC
  5
390
330
1F
100
AcDbEntity
  8
HEWI
100
AcDbCircle
 10
-448.999999995
 20
-705.6000000069998
 30
0.0
 40
5.0
100
AcDbArc
 50
269.9999999999966
 51
90.0
  0
LINE
  5
391
330
1F
100
AcDbEntity
  8
HEWI
100
AcDbLine
 10
-490.499999995
 20
-800.6000000069999
 30
0.0
 11
-494.6122845284711
 21
-800.6000000069999
 31
0.0
  0
LINE
  5
392
330
1F
100
AcDbEntity
  8
HEWI
100
AcDbLine
 10
-494.6122845284711
 20
-800.6000000069999
 30
0.0
 11
-498.999999995
 21
-800.6000000069999
 31
0.0
  0
LINE
  5
393
330
1F
100
AcDbEntity
  8
HEWI
100
AcDbLine
 10
-448.999999995
 20
-800.6000000069999
 30
0.0
 11
-463.6179966686381
 21
-800.6000000069999
 31
0.0
  0
LINE
  5
394
330
1F
100
AcDbEntity
  8
HEWI
100
AcDbLine
 10
-463.6179966686381
 20
-810.6000000069998
 30
0.0
 11
-448.999999995
 21
-810.6000000069998
 31
0.0
  0
LINE
  5
395
330
1F
100
AcDbEntity
  8
HEWI
100
AcDbLine
 10
-498.999999995
 20
-810.6000000069998
 30
0.0
 11
-494.6122845284711
 21
-810.6000000069998
 31
0.0
  0
LINE
  5
396
330
1F
100
AcDbEntity
  8
HEWI
100
AcDbLine
 10
-494.6122845284711
 20
-810.6000000069998
 30
0.0
 11
-490.499999995
 21
-810.6000000069998
 31
0.0
  0
ARC
  5
397
330
1F
100
AcDbEntity
  8
HEWI
100
AcDbCircle
 10
-498.999999995
 20
-805.6000000069998
 30
0.0
 40
5.0
100
AcDbArc
 50
90.0
 51
270.0
  0
ARC
  5
398
330
1F
100
AcDbEntity
  8
HEWI
100
AcDbCircle
 10
-448.999999995
 20
-805.6000000069998
 30
0.0
 40
5.0
100
AcDbArc
 50
269.9999999999966
 51
90.0
  0
LINE
  5
399
330
1F
100
AcDbEntity
  8
HEWI
100
AcDbLine
 10
-490.499999995
 20
-900.6000000069999
 30
0.0
 11
-494.6122845284711
 21
-900.6000000069999
 31
0.0
  0
LINE
  5
39A
330
1F
100
AcDbEntity
  8
HEWI
100
AcDbLine
 10
-494.6122845284711
 20
-900.6000000069999
 30
0.0
 11
-498.999999995
 21
-900.6000000069999
 31
0.0
  0
LINE
  5
39B
330
1F
100
AcDbEntity
  8
HEWI
100
AcDbLine
 10
-448.999999995
 20
-900.6000000069999
 30
0.0
 11
-463.6179966686381
 21
-900.6000000069999
 31
0.0
  0
LINE
  5
39C
330
1F
100
AcDbEntity
  8
HEWI
100
AcDbLine
 10
-463.6179966686381
 20
-910.6000000069998
 30
0.0
 11
-448.999999995
 21
-910.6000000069998
 31
0.0
  0
LINE
  5
39D
330
1F
100
AcDbEntity
  8
HEWI
100
AcDbLine
 10
-498.999999995
 20
-910.6000000069998
 30
0.0
 11
-494.6122845284711
 21
-910.6000000069998
 31
0.0
  0
LINE
  5
39E
330
1F
100
AcDbEntity
  8
HEWI
100
AcDbLine
 10
-494.6122845284711
 20
-910.6000000069998
 30
0.0
 11
-490.499999995
 21
-910.6000000069998
 31
0.0
  0
ARC
  5
39F
330
1F
100
AcDbEntity
  8
HEWI
100
AcDbCircle
 10
-498.999999995
 20
-905.6000000069998
 30
0.0
 40
5.0
100
AcDbArc
 50
90.0
 51
270.0
  0
ARC
  5
3A0
330
1F
100
AcDbEntity
  8
HEWI
100
AcDbCircle
 10
-448.999999995
 20
-905.6000000069998
 30
0.0
 40
5.0
100
AcDbArc
 50
269.9999999999966
 51
90.0
  0
ARC
  5
3A1
330
1F
100
AcDbEntity
  8
HEWI
100
AcDbCircle
 10
-506.999999995
 20
-515.6000000069999
 30
0.0
 40
2.0
100
AcDbArc
 50
180.0
 51
270.0
  0
ARC
  5
3A2
330
1F
100
AcDbEntity
  8
HEWI
100
AcDbCircle
 10
-440.999999995
 20
-515.6000000069999
 30
0.0
 40
2.0
100
AcDbArc
 50
269.9999999999966
 51
0.0
  0
LINE
  5
3A3
330
1F
100
AcDbEntity
  8
HEWI
100
AcDbLine
 10
-490.499999995
 20
-1000.600000006999
 30
0.0
 11
-494.6122845284711
 21
-1000.600000006999
 31
0.0
  0
LINE
  5
3A4
330
1F
100
AcDbEntity
  8
HEWI
100
AcDbLine
 10
-494.6122845284711
 20
-1000.600000006999
 30
0.0
 11
-498.999999995
 21
-1000.600000006999
 31
0.0
  0
LINE
  5
3A5
330
1F
100
AcDbEntity
  8
HEWI
100
AcDbLine
 10
-448.999999995
 20
-1000.600000006999
 30
0.0
 11
-463.6179966686381
 21
-1000.600000006999
 31
0.0
  0
LINE
  5
3A6
330
1F
100
AcDbEntity
  8
HEWI
100
AcDbLine
 10
-463.6179966686381
 20
-1010.600000006999
 30
0.0
 11
-448.999999995
 21
-1010.600000006999
 31
0.0
  0
LINE
  5
3A7
330
1F
100
AcDbEntity
  8
HEWI
100
AcDbLine
 10
-498.999999995
 20
-1010.600000006999
 30
0.0
 11
-494.6122845284711
 21
-1010.600000006999
 31
0.0
  0
LINE
  5
3A8
330
1F
100
AcDbEntity
  8
HEWI
100
AcDbLine
 10
-494.6122845284711
 20
-1010.600000006999
 30
0.0
 11
-490.499999995
 21
-1010.600000006999
 31
0.0
  0
ARC
  5
3A9
330
1F
100
AcDbEntity
  8
HEWI
100
AcDbCircle
 10
-498.999999995
 20
-1005.600000007
 30
0.0
 40
5.0
100
AcDbArc
 50
90.0
 51
270.0
  0
ARC
  5
3AA
330
1F
100
AcDbEntity
  8
HEWI
100
AcDbCircle
 10
-448.999999995
 20
-1005.600000007
 30
0.0
 40
5.0
100
AcDbArc
 50
269.9999999999966
 51
90.0
  0
LINE
  5
3AB
330
1F
100
AcDbEntity
  8
HEWI
100
AcDbLine
 10
-490.499999995
 20
-1100.600000007
 30
0.0
 11
-494.6122845284711
 21
-1100.600000007
 31
0.0
  0
LINE
  5
3AC
330
1F
100
AcDbEntity
  8
HEWI
100
AcDbLine
 10
-494.6122845284711
 20
-1100.600000007
 30
0.0
 11
-498.999999995
 21
-1100.600000007
 31
0.0
  0
LINE
  5
3AD
330
1F
100
AcDbEntity
  8
HEWI
100
AcDbLine
 10
-448.999999995
 20
-1100.600000007
 30
0.0
 11
-463.6179966686381
 21
-1100.600000007
 31
0.0
  0
LINE
  5
3AE
330
1F
100
AcDbEntity
  8
HEWI
100
AcDbLine
 10
-463.6179966686381
 20
-1110.600000007
 30
0.0
 11
-448.999999995
 21
-1110.600000007
 31
0.0
  0
LINE
  5
3AF
330
1F
100
AcDbEntity
  8
HEWI
100
AcDbLine
 10
-498.999999995
 20
-1110.600000007
 30
0.0
 11
-494.6122845284711
 21
-1110.600000007
 31
0.0
  0
LINE
  5
3B0
330
1F
100
AcDbEntity
  8
HEWI
100
AcDbLine
 10
-494.6122845284711
 20
-1110.600000007
 30
0.0
 11
-490.499999995
 21
-1110.600000007
 31
0.0
  0
ARC
  5
3B1
330
1F
100
AcDbEntity
  8
HEWI
100
AcDbCircle
 10
-498.999999995
 20
-1105.600000007
 30
0.0
 40
5.0
100
AcDbArc
 50
90.0
 51
270.0
  0
ARC
  5
3B2
330
1F
100
AcDbEntity
  8
HEWI
100
AcDbCircle
 10
-448.999999995
 20
-1105.600000007
 30
0.0
 40
5.0
100
AcDbArc
 50
269.9999999999966
 51
90.0
  0
LINE
  5
3B3
330
1F
100
AcDbEntity
  8
HEWI
100
AcDbLine
 10
-490.499999995
 20
-1200.600000007
 30
0.0
 11
-494.6122845284711
 21
-1200.600000007
 31
0.0
  0
LINE
  5
3B4
330
1F
100
AcDbEntity
  8
HEWI
100
AcDbLine
 10
-494.6122845284711
 20
-1200.600000007
 30
0.0
 11
-498.999999995
 21
-1200.600000007
 31
0.0
  0
LINE
  5
3B5
330
1F
100
AcDbEntity
  8
HEWI
100
AcDbLine
 10
-448.999999995
 20
-1200.600000007
 30
0.0
 11
-463.6179966686381
 21
-1200.600000007
 31
0.0
  0
LINE
  5
3B6
330
1F
100
AcDbEntity
  8
HEWI
100
AcDbLine
 10
-463.6179966686381
 20
-1210.600000007
 30
0.0
 11
-448.999999995
 21
-1210.600000007
 31
0.0
  0
LINE
  5
3B7
330
1F
100
AcDbEntity
  8
HEWI
100
AcDbLine
 10
-498.999999995
 20
-1210.600000007
 30
0.0
 11
-494.6122845284711
 21
-1210.600000007
 31
0.0
  0
LINE
  5
3B8
330
1F
100
AcDbEntity
  8
HEWI
100
AcDbLine
 10
-494.6122845284711
 20
-1210.600000007
 30
0.0
 11
-490.499999995
 21
-1210.600000007
 31
0.0
  0
ARC
  5
3B9
330
1F
100
AcDbEntity
  8
HEWI
100
AcDbCircle
 10
-498.999999995
 20
-1205.600000007
 30
0.0
 40
5.0
100
AcDbArc
 50
90.0
 51
270.0
  0
ARC
  5
3BA
330
1F
100
AcDbEntity
  8
HEWI
100
AcDbCircle
 10
-448.999999995
 20
-1205.600000007
 30
0.0
 40
5.0
100
AcDbArc
 50
269.9999999999966
 51
90.0
  0
ARC
  5
3BB
330
1F
100
AcDbEntity
  8
HEWI
100
AcDbCircle
 10
-360.4999999949998
 20
-1375.100000007
 30
0.0
 40
130.0
100
AcDbArc
 50
179.9999999999966
 51
210.4713646668521
  0
ARC
  5
3BC
330
1F
100
AcDbEntity
  8
HEWI
100
AcDbCircle
 10
-360.4999999949998
 20
-1375.100000007
 30
0.0
 40
130.0
100
AcDbArc
 50
239.5286353331478
 51
270.0
  0
ARC
  5
3BD
330
1F
100
AcDbEntity
  8
HEWI
100
AcDbCircle
 10
-360.4999999949998
 20
-1375.100000007
 30
0.0
 40
97.0
100
AcDbArc
 50
242.0494416404213
 51
270.0
  0
ARC
  5
3BE
330
1F
100
AcDbEntity
  8
HEWI
100
AcDbCircle
 10
-360.4999999949998
 20
-1375.100000007
 30
0.0
 40
97.0
100
AcDbArc
 50
226.8824001638119
 51
227.5558878241005
  0
ARC
  5
3BF
330
1F
100
AcDbEntity
  8
HEWI
100
AcDbCircle
 10
-360.4999999949998
 20
-1375.100000007
 30
0.0
 40
97.0
100
AcDbArc
 50
222.4441121758994
 51
223.117599836188
  0
ARC
  5
3C0
330
1F
100
AcDbEntity
  8
HEWI
100
AcDbCircle
 10
-360.4999999949998
 20
-1375.100000007
 30
0.0
 40
97.0
100
AcDbArc
 50
179.9999999999966
 51
207.9505583595786
  0
LINE
  5
526
330
1F
100
AcDbEntity
  8
0
 62
   252
100
AcDbLine
 10
1424.421923549629
 20
-293.86059605522
 30
0.0000000000001324
 11
898.9349045711643
 21
-293.86059605522
 31
0.0000000000000358
  0
LINE
  5
527
330
1F
100
AcDbEntity
  8
0
 62
   252
100
AcDbLine
 10
898.9349045711643
 20
-293.86059605522
 30
0.0000000000000358
 11
898.9349045711643
 21
-796.1478128513244
 31
0.0000000000000358
  0
LINE
  5
528
330
1F
100
AcDbEntity
  8
0
 62
   252
100
AcDbLine
 10
1424.421923549629
 20
-293.86059605522
 30
0.0000000000001324
 11
1424.421923549629
 21
-756.2433599853248
 31
0.0000000000001324
  0
SPLINE
  5
529
330
1F
100
AcDbEntity
  8
0
 62
   252
100
AcDbSpline
210
0.0
220
0.0
230
1.0
 70
  1064
 71
     3
 72
    10
 73
     6
 74
     4
 42
0.000000001
 43
0.0000000001
 44
0.0000000001
 40
0.0
 40
0.0
 40
0.0
 40
0.0
 40
209.2019776195457
 40
459.1840068755437
 40
536.3294204420941
 40
536.3294204420941
 40
536.3294204420941
 40
536.3294204420941
 10
898.9349045711643
 20
-796.1478128513244
 30
0.0000000000000358
 10
967.1828103661225
 20
-778.097937221061
 30
0.0000000000000208
 10
1116.982287409238
 20
-738.4796969452326
 30
-0.000000000000012
 10
1304.338276541824
 20
-824.4748347135164
 30
0.0000000000000008
 10
1401.50694802112
 20
-769.2636388711666
 30
0.0000000000000002
 10
1424.421923549629
 20
-756.2433599853248
 30
0.0
 11
898.9349045711643
 21
-796.1478128513244
 31
0.0000000000000358
 11
1105.880346172218
 21
-765.5038633592357
 31
0.0
 11
1354.725615936184
 21
-789.316605054506
 31
0.0
 11
1424.421923549629
 21
-756.2433599853248
 31
0.0
  0
MTEXT
  5
52A
330
1F
100
AcDbEntity
  8
0
 62
   252
100
AcDbMText
 10
928.7770638528709
 20
-592.2479428338465
 30
0.0
 40
15.0
 41
419.5954842621977
 71
     1
 72
     5
  1
{\fArial|b0|i0|c0|p34;Duschvorhang\PShower curtain\PRideau de douche\PDouchegordijn\P2900 x 2000 mm}
 73
     1
 44
1.0
1001
ACAD
1000
ACAD_MTEXT_COLUMN_INFO_BEGIN
1070
    75
1070
     2
1070
    79
1070
     0
1070
    76
1070
     1
1070
    78
1070
     0
1070
    48
1040
419.5954842621977
1070
    49
1040
1.0
1070
    50
1070
     1
1040
0.0
1000
ACAD_MTEXT_COLUMN_INFO_END
  0
LINE
  5
561
330
1F
100
AcDbEntity
  8
0
 62
   252
100
AcDbLine
 10
-900.8877395230246
 20
-293.86059605522
 30
0.0000000000001324
 11
-1426.37475850149
 21
-293.86059605522
 31
0.0000000000000358
  0
LINE
  5
562
330
1F
100
AcDbEntity
  8
0
 62
   252
100
AcDbLine
 10
-1426.37475850149
 20
-293.86059605522
 30
0.0000000000000358
 11
-1426.37475850149
 21
-796.1478128513244
 31
0.0000000000000358
  0
LINE
  5
563
330
1F
100
AcDbEntity
  8
0
 62
   252
100
AcDbLine
 10
-900.8877395230246
 20
-293.86059605522
 30
0.0000000000001324
 11
-900.8877395230246
 21
-756.2433599853248
 31
0.0000000000001324
  0
SPLINE
  5
564
330
1F
100
AcDbEntity
  8
0
 62
   252
100
AcDbSpline
210
0.0
220
0.0
230
1.0
 70
  1064
 71
     3
 72
    10
 73
     6
 74
     4
 42
0.000000001
 43
0.0000000001
 44
0.0000000001
 40
0.0
 40
0.0
 40
0.0
 40
0.0
 40
209.2019776195457
 40
459.1840068755437
 40
536.3294204420941
 40
536.3294204420941
 40
536.3294204420941
 40
536.3294204420941
 10
-1426.37475850149
 20
-796.1478128513244
 30
0.0000000000000358
 10
-1358.126852706531
 20
-778.097937221061
 30
0.0000000000000208
 10
-1208.327375663415
 20
-738.4796969452326
 30
-0.000000000000012
 10
-1020.97138653083
 20
-824.4748347135162
 30
0.0000000000000008
 10
-923.8027150515341
 20
-769.2636388711666
 30
0.0000000000000002
 10
-900.8877395230246
 20
-756.2433599853248
 30
0.0
 11
-1426.37475850149
 21
-796.1478128513244
 31
0.0000000000000358
 11
-1219.429316900436
 21
-765.5038633592357
 31
0.0
 11
-970.58404713647
 21
-789.316605054506
 31
0.0
 11
-900.8877395230246
 21
-756.2433599853248
 31
0.0
  0
MTEXT
  5
565
330
1F
100
AcDbEntity
  8
0
 62
   252
100
AcDbMText
 10
-1396.532599219783
 20
-592.2479428338465
 30
0.0
 40
15.0
 41
419.5954842621977
 71
     1
 72
     5
  1
{\fArial|b0|i0|c0|p34;Duschvorhang\PShower curtain\PRideau de douche\PDouchegordijn\P2900 x 2000 mm}
 73
     1
 44
1.0
1001
ACAD
1000
ACAD_MTEXT_COLUMN_INFO_BEGIN
1070
    75
1070
     2
1070
    79
1070
     0
1070
    76
1070
     1
1070
    78
1070
     0
1070
    48
1040
419.5954842621977
1070
    49
1040
1.0
1070
    50
1070
     1
1040
0.0
1000
ACAD_MTEXT_COLUMN_INFO_END
  0
ENDSEC
  0
SECTION
  2
OBJECTS
  0
DICTIONARY
  5
C
330
0
100
AcDbDictionary
281
     1
  3
ACAD_CIP_PREVIOUS_PRODUCT_INFO
350
4BE
  3
ACAD_COLOR
350
49D
  3
ACAD_DETAILVIEWSTYLE
350
4B7
  3
ACAD_GROUP
350
D
  3
ACAD_LAYOUT
350
1A
  3
ACAD_MATERIAL
350
46B
  3
ACAD_MLEADERSTYLE
350
4B2
  3
ACAD_MLINESTYLE
350
17
  3
ACAD_PLOTSETTINGS
350
19
  3
ACAD_PLOTSTYLENAME
350
215
  3
ACAD_SCALELIST
350
4A0
  3
ACAD_SECTIONVIEWSTYLE
350
4B4
  3
ACAD_TABLESTYLE
350
49E
  3
ACAD_VISUALSTYLE
350
484
  3
ACDB_RECOMPOSE_DATA
350
567
  3
AcDbVariableDictionary
350
4D6
  0
DICTIONARY
  5
4D0
330
10
100
AcDbDictionary
280
     1
281
     1
  3
ADSK_XREC_LAYER_RECONCILED
360
4D1
  0
DICTIONARY
  5
4D2
330
421
100
AcDbDictionary
280
     1
281
     1
  3
ADSK_XREC_LAYER_RECONCILED
360
4D3
  0
DICTIONARY
  5
4D4
330
4BF
100
AcDbDictionary
280
     1
281
     1
  3
ADSK_XREC_LAYER_RECONCILED
360
4D5
  0
DICTIONARY
  5
20F
330
1F
100
AcDbDictionary
280
     1
281
     1
  3
ACAD_LAYOUTSELFREF
360
468
  0
DICTIONARY
  5
20D
330
1B
100
AcDbDictionary
280
     1
281
     1
  3
ACAD_LAYOUTSELFREF
360
467
  0
XRECORD
  5
4BE
102
{ACAD_REACTORS
330
C
102
}
330
C
100
AcDbXrecord
280
     1
300
ACDLT
300
2013
300
ACDLT_F_S
  0
DICTIONARY
  5
49D
102
{ACAD_REACTORS
330
C
102
}
330
C
100
AcDbDictionary
281
     1
  0
DICTIONARY
  5
4B7
102
{ACAD_REACTORS
330
C
102
}
330
C
100
AcDbDictionary
281
     1
  3
Imperial24
350
4B8
  0
DICTIONARY
  5
D
102
{ACAD_REACTORS
330
C
102
}
330
C
100
AcDbDictionary
281
     1
  0
DICTIONARY
  5
1A
102
{ACAD_REACTORS
330
C
102
}
330
C
100
AcDbDictionary
281
     1
  3
Layout1
350
4BA
  3
Model
350
4B9
  0
DICTIONARY
  5
46B
102
{ACAD_REACTORS
330
C
102
}
330
C
100
AcDbDictionary
281
     1
  3
ByBlock
350
474
  3
ByLayer
350
46C
  3
Global
350
47C
  0
DICTIONARY
  5
4B2
102
{ACAD_REACTORS
330
C
102
}
330
C
100
AcDbDictionary
281
     1
  3
Standard
350
4B3
  0
DICTIONARY
  5
17
102
{ACAD_REACTORS
330
C
102
}
330
C
100
AcDbDictionary
281
     1
  3
STANDARD
350
18
  0
DICTIONARY
  5
19
102
{ACAD_REACTORS
330
C
102
}
330
C
100
AcDbDictionary
281
     1
  0
ACDBDICTIONARYWDFLT
  5
215
102
{ACAD_REACTORS
330
C
102
}
330
C
100
AcDbDictionary
281
     1
  3
Normal
350
216
100
AcDbDictionaryWithDefault
340
216
  0
DICTIONARY
  5
4A0
102
{ACAD_REACTORS
330
C
102
}
330
C
100
AcDbDictionary
281
     1
  3
A0
350
4A1
  3
A1
350
4A2
  3
A2
350
4A3
  3
A3
350
4A4
  3
A4
350
4A5
  3
A5
350
4A6
  3
A6
350
4A7
  3
A7
350
4A8
  3
A8
350
4A9
  3
A9
350
4AA
  3
B0
350
4AB
  3
B1
350
4AC
  3
B2
350
4AD
  3
B3
350
4AE
  3
B4
350
4AF
  3
B5
350
4B0
  3
B6
350
4B1
  0
DICTIONARY
  5
4B4
102
{ACAD_REACTORS
330
C
102
}
330
C
100
AcDbDictionary
281
     1
  3
Imperial24
350
4B6
  0
DICTIONARY
  5
49E
102
{ACAD_REACTORS
330
C
102
}
330
C
100
AcDbDictionary
281
     1
  3
Standard
350
49F
  0
DICTIONARY
  5
484
102
{ACAD_REACTORS
330
C
102
}
330
C
100
AcDbDictionary
281
     1
  3
2dWireframe
350
48A
  3
Basic
350
489
  3
Brighten
350
490
  3
ColorChange
350
494
  3
Conceptual
350
48D
  3
Dim
350
48F
  3
EdgeColorOff
350
49C
  3
Facepattern
350
493
  3
Flat
350
485
  3
FlatWithEdges
350
486
  3
Gouraud
350
487
  3
GouraudWithEdges
350
488
  3
Hidden
350
48C
  3
JitterOff
350
49A
  3
Linepattern
350
492
  3
OverhangOff
350
49B
  3
Realistic
350
48E
  3
Shaded
350
499
  3
Shaded with edges
350
498
  3
Shades of Gray
350
495
  3
Sketchy
350
496
  3
Thicken
350
491
  3
Wireframe
350
48B
  3
X-Ray
350
497
  0
XRECORD
  5
567
102
{ACAD_REACTORS
330
C
102
}
330
C
100
AcDbXrecord
280
     1
 90
        1
330
49F
330
52A
330
565
  0
DICTIONARY
  5
4D6
102
{ACAD_REACTORS
330
C
102
}
330
C
100
AcDbDictionary
281
     1
  3
CANNOSCALE
350
4DB
  3
CMLEADERSTYLE
350
4D8
  3
CTABLESTYLE
350
4D7
  3
CVIEWDETAILSTYLE
350
4D9
  3
CVIEWSECTIONSTYLE
350
4DA
  3
XCLIPFRAME
350
52B
  0
XRECORD
  5
4D1
102
{ACAD_REACTORS
330
4D0
102
}
330
4D0
100
AcDbXrecord
280
     1
290
     1
  0
XRECORD
  5
4D3
102
{ACAD_REACTORS
330
4D2
102
}
330
4D2
100
AcDbXrecord
280
     1
290
     1
  0
XRECORD
  5
4D5
102
{ACAD_REACTORS
330
4D4
102
}
330
4D4
100
AcDbXrecord
280
     1
290
     1
  0
XRECORD
  5
468
102
{ACAD_REACTORS
330
20F
102
}
330
20F
100
AcDbXrecord
280
     1
340
1F
  0
XRECORD
  5
467
102
{ACAD_REACTORS
330
20D
102
}
330
20D
100
AcDbXrecord
280
     1
340
1B
  0
ACDBDETAILVIEWSTYLE
  5
4B8
102
{ACAD_REACTORS
330
4B7
102
}
330
4B7
100
AcDbModelDocViewStyle
 70
     0
  3
Imperial24
290
     0
100
AcDbDetailViewStyle
 70
     0
 71
     0
 90
        3
 71
     1
340
11
 62
   256
 40
0.24
340
0
 62
   256
 40
0.24
300

 40
0.36
280
     3
 71
     2
340
16
 90
       25
 62
   256
 71
     3
340
11
 62
   256
 40
0.24
 90
        1
 40
0.75
 90
        1
300
%<\AcVar ViewType \f "%tc1">% %<\AcVar ViewDetailId>%\PVARIA %<\AcVar ViewScale \f "%sn">%
 71
     4
340
16
 90
       25
 62
   256
340
16
 90
       25
 62
   256
280
     0
  0
LAYOUT
  5
4BA
102
{ACAD_REACTORS
330
1A
102
}
330
1A
100
AcDbPlotSettings
  1

  2
\\srvadruck01\MFSA15
  4

  6

 40
0.0
 41
0.0
 42
0.0
 43
0.0
 44
0.0
 45
0.0
 46
0.0
 47
0.0
 48
0.0
 49
0.0
140
0.0
141
0.0
142
1.0
143
1.0
 70
   688
 72
     0
 73
     0
 74
     5
  7

 75
    16
147
1.0
 76
     0
 77
     2
 78
   300
148
0.0
149
0.0
100
AcDbLayout
  1
Layout1
 70
     1
 71
     1
 10
0.0
 20
0.0
 11
12.0
 21
9.0
 12
0.0
 22
0.0
 32
0.0
 14
1.000000000000000E+20
 24
1.000000000000000E+20
 34
1.000000000000000E+20
 15
-1.000000000000000E+20
 25
-1.000000000000000E+20
 35
-1.000000000000000E+20
146
0.0
 13
0.0
 23
0.0
 33
0.0
 16
1.0
 26
0.0
 36
0.0
 17
0.0
 27
1.0
 37
0.0
 76
     0
330
1B
  0
LAYOUT
  5
4B9
102
{ACAD_REACTORS
330
1A
102
}
330
1A
100
AcDbPlotSettings
  1

  2
\\srvadruck01\MFSA15
  4

  6

 40
0.0
 41
0.0
 42
0.0
 43
0.0
 44
0.0
 45
0.0
 46
0.0
 47
0.0
 48
0.0
 49
0.0
140
0.0
141
0.0
142
1.0
143
1.0
 70
  1712
 72
     0
 73
     0
 74
     0
  7

 75
     0
147
1.0
 76
     0
 77
     2
 78
   300
148
0.0
149
0.0
100
AcDbLayout
  1
Model
 70
     1
 71
     0
 10
0.0
 20
0.0
 11
12.0
 21
9.0
 12
0.0
 22
0.0
 32
0.0
 14
0.0
 24
0.0
 34
0.0
 15
0.0
 25
0.0
 35
0.0
146
0.0
 13
0.0
 23
0.0
 33
0.0
 16
1.0
 26
0.0
 36
0.0
 17
0.0
 27
1.0
 37
0.0
 76
     0
330
1F
331
446
  0
MATERIAL
  5
474
102
{ACAD_XDICTIONARY
360
475
102
}
102
{ACAD_REACTORS
330
46B
102
}
330
46B
100
AcDbMaterial
  1
ByBlock
 72
     0
 43
0.0208333333333333
 43
0.0
 43
0.0
 43
0.0
 43
0.0
 43
0.0208333333333333
 43
0.0
 43
0.0
 43
0.0
 43
0.0
 43
1.0
 43
0.0
 43
0.0
 43
0.0
 43
0.0
 43
1.0
 77
     0
 47
0.0208333333333333
 47
0.0
 47
0.0
 47
0.0
 47
0.0
 47
0.0208333333333333
 47
0.0
 47
0.0
 47
0.0
 47
0.0
 47
1.0
 47
0.0
 47
0.0
 47
0.0
 47
0.0
 47
1.0
171
     0
 49
0.0208333333333333
 49
0.0
 49
0.0
 49
0.0
 49
0.0
 49
0.0208333333333333
 49
0.0
 49
0.0
 49
0.0
 49
0.0
 49
1.0
 49
0.0
 49
0.0
 49
0.0
 49
0.0
 49
1.0
175
     0
142
0.0208333333333333
142
0.0
142
0.0
142
0.0
142
0.0
142
0.0208333333333333
142
0.0
142
0.0
142
0.0
142
0.0
142
1.0
142
0.0
142
0.0
142
0.0
142
0.0
142
1.0
179
     0
144
0.0208333333333333
144
0.0
144
0.0
144
0.0
144
0.0
144
0.0208333333333333
144
0.0
144
0.0
144
0.0
144
0.0
144
1.0
144
0.0
144
0.0
144
0.0
144
0.0
144
1.0
147
0.0208333333333333
147
0.0
147
0.0
147
0.0
147
0.0
147
0.0208333333333333
147
0.0
147
0.0
147
0.0
147
0.0
147
1.0
147
0.0
147
0.0
147
0.0
147
0.0
147
1.0
  0
MATERIAL
  5
46C
102
{ACAD_XDICTIONARY
360
46D
102
}
102
{ACAD_REACTORS
330
46B
102
}
330
46B
100
AcDbMaterial
  1
ByLayer
 72
     0
 43
0.0208333333333333
 43
0.0
 43
0.0
 43
0.0
 43
0.0
 43
0.0208333333333333
 43
0.0
 43
0.0
 43
0.0
 43
0.0
 43
1.0
 43
0.0
 43
0.0
 43
0.0
 43
0.0
 43
1.0
 77
     0
 47
0.0208333333333333
 47
0.0
 47
0.0
 47
0.0
 47
0.0
 47
0.0208333333333333
 47
0.0
 47
0.0
 47
0.0
 47
0.0
 47
1.0
 47
0.0
 47
0.0
 47
0.0
 47
0.0
 47
1.0
171
     0
 49
0.0208333333333333
 49
0.0
 49
0.0
 49
0.0
 49
0.0
 49
0.0208333333333333
 49
0.0
 49
0.0
 49
0.0
 49
0.0
 49
1.0
 49
0.0
 49
0.0
 49
0.0
 49
0.0
 49
1.0
175
     0
142
0.0208333333333333
142
0.0
142
0.0
142
0.0
142
0.0
142
0.0208333333333333
142
0.0
142
0.0
142
0.0
142
0.0
142
1.0
142
0.0
142
0.0
142
0.0
142
0.0
142
1.0
179
     0
144
0.0208333333333333
144
0.0
144
0.0
144
0.0
144
0.0
144
0.0208333333333333
144
0.0
144
0.0
144
0.0
144
0.0
144
1.0
144
0.0
144
0.0
144
0.0
144
0.0
144
1.0
147
0.0208333333333333
147
0.0
147
0.0
147
0.0
147
0.0
147
0.0208333333333333
147
0.0
147
0.0
147
0.0
147
0.0
147
1.0
147
0.0
147
0.0
147
0.0
147
0.0
147
1.0
  0
MATERIAL
  5
47C
102
{ACAD_XDICTIONARY
360
47D
102
}
102
{ACAD_REACTORS
330
46B
102
}
330
46B
100
AcDbMaterial
  1
Global
 72
     0
 43
0.0208333333333333
 43
0.0
 43
0.0
 43
0.0
 43
0.0
 43
0.0208333333333333
 43
0.0
 43
0.0
 43
0.0
 43
0.0
 43
1.0
 43
0.0
 43
0.0
 43
0.0
 43
0.0
 43
1.0
 77
     0
 47
0.0208333333333333
 47
0.0
 47
0.0
 47
0.0
 47
0.0
 47
0.0208333333333333
 47
0.0
 47
0.0
 47
0.0
 47
0.0
 47
1.0
 47
0.0
 47
0.0
 47
0.0
 47
0.0
 47
1.0
171
     0
 49
0.0208333333333333
 49
0.0
 49
0.0
 49
0.0
 49
0.0
 49
0.0208333333333333
 49
0.0
 49
0.0
 49
0.0
 49
0.0
 49
1.0
 49
0.0
 49
0.0
 49
0.0
 49
0.0
 49
1.0
175
     0
142
0.0208333333333333
142
0.0
142
0.0
142
0.0
142
0.0
142
0.0208333333333333
142
0.0
142
0.0
142
0.0
142
0.0
142
1.0
142
0.0
142
0.0
142
0.0
142
0.0
142
1.0
179
     0
144
0.0208333333333333
144
0.0
144
0.0
144
0.0
144
0.0
144
0.0208333333333333
144
0.0
144
0.0
144
0.0
144
0.0
144
1.0
144
0.0
144
0.0
144
0.0
144
0.0
144
1.0
147
0.0208333333333333
147
0.0
147
0.0
147
0.0
147
0.0
147
0.0208333333333333
147
0.0
147
0.0
147
0.0
147
0.0
147
1.0
147
0.0
147
0.0
147
0.0
147
0.0
147
1.0
  0
MLEADERSTYLE
  5
4B3
102
{ACAD_REACTORS
330
4B2
102
}
330
4B2
100
AcDbMLeaderStyle
170
     2
171
     1
172
     0
 90
        2
 40
0.0
 41
0.0
173
     1
 91
-1056964608
340
14
 92
       -2
290
     1
 42
0.09
291
     1
 43
0.36
  3
Standard
 44
0.18
300

342
11
174
     1
178
     6
175
     1
176
     0
 93
-1056964608
 45
0.18
292
     0
297
     0
 46
0.18
 94
-1056964608
 47
1.0
 49
1.0
140
1.0
293
     1
141
0.0
294
     1
177
     0
142
1.0
295
     0
296
     0
143
0.125
1001
ACAD_MLEADERVER
1070
     2
  0
MLINESTYLE
  5
18
102
{ACAD_REACTORS
330
17
102
}
330
17
100
AcDbMlineStyle
  2
STANDARD
 70
     0
  3

 62
   256
 51
90.0
 52
90.0
 71
     2
 49
0.5
 62
   256
  6
BYLAYER
 49
-0.5
 62
   256
  6
BYLAYER
  0
ACDBPLACEHOLDER
  5
216
102
{ACAD_REACTORS
330
215
102
}
330
215
  0
SCALE
  5
4A1
102
{ACAD_REACTORS
330
4A0
102
}
330
4A0
100
AcDbScale
 70
     0
300
1:1
140
1.0
141
1.0
290
     1
  0
SCALE
  5
4A2
102
{ACAD_REACTORS
330
4A0
102
}
330
4A0
100
AcDbScale
 70
     0
300
1/128" = 1'-0"
140
0.0078125
141
12.0
290
     0
  0
SCALE
  5
4A3
102
{ACAD_REACTORS
330
4A0
102
}
330
4A0
100
AcDbScale
 70
     0
300
1/64" = 1'-0"
140
0.015625
141
12.0
290
     0
  0
SCALE
  5
4A4
102
{ACAD_REACTORS
330
4A0
102
}
330
4A0
100
AcDbScale
 70
     0
300
1/32" = 1'-0"
140
0.03125
141
12.0
290
     0
  0
SCALE
  5
4A5
102
{ACAD_REACTORS
330
4A0
102
}
330
4A0
100
AcDbScale
 70
     0
300
1/16" = 1'-0"
140
0.0625
141
12.0
290
     0
  0
SCALE
  5
4A6
102
{ACAD_REACTORS
330
4A0
102
}
330
4A0
100
AcDbScale
 70
     0
300
3/32" = 1'-0"
140
0.09375
141
12.0
290
     0
  0
SCALE
  5
4A7
102
{ACAD_REACTORS
330
4A0
102
}
330
4A0
100
AcDbScale
 70
     0
300
1/8" = 1'-0"
140
0.125
141
12.0
290
     0
  0
SCALE
  5
4A8
102
{ACAD_REACTORS
330
4A0
102
}
330
4A0
100
AcDbScale
 70
     0
300
3/16" = 1'-0"
140
0.1875
141
12.0
290
     0
  0
SCALE
  5
4A9
102
{ACAD_REACTORS
330
4A0
102
}
330
4A0
100
AcDbScale
 70
     0
300
1/4" = 1'-0"
140
0.25
141
12.0
290
     0
  0
SCALE
  5
4AA
102
{ACAD_REACTORS
330
4A0
102
}
330
4A0
100
AcDbScale
 70
     0
300
3/8" = 1'-0"
140
0.375
141
12.0
290
     0
  0
SCALE
  5
4AB
102
{ACAD_REACTORS
330
4A0
102
}
330
4A0
100
AcDbScale
 70
     0
300
1/2" = 1'-0"
140
0.5
141
12.0
290
     0
  0
SCALE
  5
4AC
102
{ACAD_REACTORS
330
4A0
102
}
330
4A0
100
AcDbScale
 70
     0
300
3/4" = 1'-0"
140
0.75
141
12.0
290
     0
  0
SCALE
  5
4AD
102
{ACAD_REACTORS
330
4A0
102
}
330
4A0
100
AcDbScale
 70
     0
300
1" = 1'-0"
140
1.0
141
12.0
290
     0
  0
SCALE
  5
4AE
102
{ACAD_REACTORS
330
4A0
102
}
330
4A0
100
AcDbScale
 70
     0
300
1-1/2" = 1'-0"
140
1.5
141
12.0
290
     0
  0
SCALE
  5
4AF
102
{ACAD_REACTORS
330
4A0
102
}
330
4A0
100
AcDbScale
 70
     0
300
3" = 1'-0"
140
3.0
141
12.0
290
     0
  0
SCALE
  5
4B0
102
{ACAD_REACTORS
330
4A0
102
}
330
4A0
100
AcDbScale
 70
     0
300
6" = 1'-0"
140
6.0
141
12.0
290
     0
  0
SCALE
  5
4B1
102
{ACAD_REACTORS
330
4A0
102
}
330
4A0
100
AcDbScale
 70
     0
300
1'-0" = 1'-0"
140
12.0
141
12.0
290
     0
  0
ACDBSECTIONVIEWSTYLE
  5
4B6
102
{ACAD_REACTORS
330
4B4
102
}
330
4B4
100
AcDbModelDocViewStyle
 70
     0
  3
Imperial24
290
     0
100
AcDbSectionViewStyle
 70
     0
 71
     0
 90
       78
 71
     1
340
11
 62
   256
 40
0.24
340
0
340
0
 62
   256
 40
0.24
300
I, O, Q, S, X, Z
 40
0.48
 90
        3
 40
0.18
 90
        1
 71
     2
340
4B5
 90
       25
 62
   256
340
16
 90
       50
 62
   256
 40
0.24
 40
0.0
 40
0.24
 71
     3
340
11
 62
   256
 40
0.24
 90
        1
 40
0.75
 90
        1
300
%<\AcVar ViewType \f "%tc1">% %<\AcVar ViewSectionStartId>%-%<\AcVar ViewSectionEndId>%\PVARIA %<\AcVar ViewScale \f "%sn">%
 71
     4
 62
   256
 62
   257
300
ANSI31
 40
1.0
 90
        0
290
     0
290
     0
 90
        6
 40
0.0
 40
1.570796326794896
 40
0.2617993877991494
 40
1.308996938995747
 40
-0.2617993877991494
 40
1.832595714594045
  0
TABLESTYLE
  5
49F
102
{ACAD_XDICTIONARY
360
4DE
102
}
102
{ACAD_REACTORS
330
49E
102
}
330
49E
100
AcDbTableStyle
  3
Standard
 70
     0
 71
     0
 40
0.06
 41
0.06
280
     0
281
     0
  7
STANDARD
140
0.18
170
     2
 62
     0
 63
     7
283
     0
274
    -2
284
     1
 64
     0
275
    -2
285
     1
 65
     0
276
    -2
286
     1
 66
     0
277
    -2
287
     1
 67
     0
278
    -2
288
     1
 68
     0
279
    -2
289
     1
 69
     0
  7
STANDARD
140
0.25
170
     5
 62
     0
 63
     7
283
     0
274
    -2
284
     1
 64
     0
275
    -2
285
     1
 65
     0
276
    -2
286
     1
 66
     0
277
    -2
287
     1
 67
     0
278
    -2
288
     1
 68
     0
279
    -2
289
     1
 69
     0
  7
STANDARD
140
0.18
170
     5
 62
     0
 63
     7
283
     0
274
    -2
284
     1
 64
     0
275
    -2
285
     1
 65
     0
276
    -2
286
     1
 66
     0
277
    -2
287
     1
 67
     0
278
    -2
288
     1
 68
     0
279
    -2
289
     1
 69
     0
  0
VISUALSTYLE
  5
48A
102
{ACAD_XDICTIONARY
360
572
102
}
102
{ACAD_REACTORS
330
484
102
}
330
484
100
AcDbVisualStyle
  2

 70
     4
 71
     0
 72
     2
 73
     0
 90
        0
 40
-0.6
 41
-30.0
 62
     5
 63
     7
421
 16777215
 74
     1
 91
        4
 64
     7
 65
   257
 75
     1
175
     1
 42
1.0
 92
        0
 66
   257
 43
1.0
 76
     1
 77
     6
 78
     2
 67
     7
 79
     5
170
     0
171
     0
290
     0
174
     0
 93
        1
 44
0.0
173
     0
291
     0
 45
0.0
1001
ACAD
1000
AcDbSavedByObjectVersion
1070
     0
  0
VISUALSTYLE
  5
489
102
{ACAD_XDICTIONARY
360
570
102
}
102
{ACAD_REACTORS
330
484
102
}
330
484
100
AcDbVisualStyle
  2

 70
     7
 71
     1
 72
     0
 73
     1
 90
        0
 40
-0.6
 41
-30.0
 62
     5
 63
     7
421
 16777215
 74
     0
 91
        4
 64
     7
 65
   257
 75
     1
175
     1
 42
1.0
 92
        8
 66
     7
 43
1.0
 76
     1
 77
     6
 78
     2
 67
     7
 79
     5
170
     0
171
     0
290
     0
174
     0
 93
        1
 44
0.0
173
     0
291
     1
 45
0.0
1001
ACAD
1000
AcDbSavedByObjectVersion
1070
     0
  0
VISUALSTYLE
  5
490
102
{ACAD_XDICTIONARY
360
57E
102
}
102
{ACAD_REACTORS
330
484
102
}
330
484
100
AcDbVisualStyle
  2

 70
    12
 71
     2
 72
     2
 73
     0
 90
        0
 40
-0.6
 41
-30.0
 62
     5
 63
     7
421
 16777215
 74
     1
 91
        4
 64
     7
 65
   257
 75
     1
175
     1
 42
1.0
 92
        8
 66
     7
 43
1.0
 76
     1
 77
     6
 78
     2
 67
     7
 79
     5
170
     0
171
     0
290
     0
174
     0
 93
        1
 44
50.0
173
     0
291
     1
 45
0.0
1001
ACAD
1000
AcDbSavedByObjectVersion
1070
     0
  0
VISUALSTYLE
  5
494
102
{ACAD_XDICTIONARY
360
586
102
}
102
{ACAD_REACTORS
330
484
102
}
330
484
100
AcDbVisualStyle
  2

 70
    16
 71
     2
 72
     2
 73
     3
 90
        0
 40
-0.6
 41
-30.0
 62
     5
 63
     8
421
  8421504
 74
     1
 91
        4
 64
     7
 65
   257
 75
     1
175
     1
 42
1.0
 92
        8
 66
     8
424
  8421504
 43
1.0
 76
     1
 77
     6
 78
     2
 67
     7
 79
     5
170
     0
171
     0
290
     0
174
     0
 93
        1
 44
0.0
173
     0
291
     1
 45
0.0
1001
ACAD
1000
AcDbSavedByObjectVersion
1070
     0
  0
VISUALSTYLE
  5
48D
102
{ACAD_XDICTIONARY
360
578
102
}
102
{ACAD_REACTORS
330
484
102
}
330
484
100
AcDbVisualStyle
  2

 70
     9
 71
     3
 72
     2
 73
     0
 90
        0
 40
-0.6
 41
-30.0
 62
     5
 63
     7
421
 16777215
 74
     2
 91
        2
 64
     7
 65
   257
 75
     1
175
     1
 42
179.0
 92
        8
 66
     7
 43
1.0
 76
     1
 77
     6
 78
     2
 67
     7
 79
     3
170
     0
171
     0
290
     0
174
     0
 93
        1
 44
0.0
173
     0
291
     0
 45
0.0
1001
ACAD
1000
AcDbSavedByObjectVersion
1070
     0
  0
VISUALSTYLE
  5
48F
102
{ACAD_XDICTIONARY
360
57C
102
}
102
{ACAD_REACTORS
330
484
102
}
330
484
100
AcDbVisualStyle
  2

 70
    11
 71
     2
 72
     2
 73
     0
 90
        0
 40
-0.6
 41
-30.0
 62
     5
 63
     7
421
 16777215
 74
     1
 91
        4
 64
     7
 65
   257
 75
     1
175
     1
 42
1.0
 92
        8
 66
     7
 43
1.0
 76
     1
 77
     6
 78
     2
 67
     7
 79
     5
170
     0
171
     0
290
     0
174
     0
 93
        1
 44
-50.0
173
     0
291
     1
 45
0.0
1001
ACAD
1000
AcDbSavedByObjectVersion
1070
     0
  0
VISUALSTYLE
  5
49C
102
{ACAD_XDICTIONARY
360
596
102
}
102
{ACAD_REACTORS
330
484
102
}
330
484
100
AcDbVisualStyle
  2

 70
    22
 71
     2
 72
     2
 73
     0
 90
        0
 40
-0.6
 41
-30.0
 62
     5
 63
     7
421
 16777215
 74
     1
 91
        4
 64
     7
 65
   257
 75
     1
175
     1
 42
1.0
 92
        8
 66
     7
 43
1.0
 76
     1
 77
     6
 78
     2
 67
     7
 79
     5
170
     0
171
     0
290
     0
174
     0
 93
        1
 44
0.0
173
     0
291
     1
 45
0.0
1001
ACAD
1000
AcDbSavedByObjectVersion
1070
     0
  0
VISUALSTYLE
  5
493
102
{ACAD_XDICTIONARY
360
584
102
}
102
{ACAD_REACTORS
330
484
102
}
330
484
100
AcDbVisualStyle
  2

 70
    15
 71
     2
 72
     2
 73
     0
 90
        0
 40
-0.6
 41
-30.0
 62
     5
 63
     7
421
 16777215
 74
     1
 91
        4
 64
     7
 65
   257
 75
     1
175
     1
 42
1.0
 92
        8
 66
     7
 43
1.0
 76
     1
 77
     6
 78
     2
 67
     7
 79
     5
170
     0
171
     0
290
     0
174
     0
 93
        1
 44
0.0
173
     0
291
     1
 45
0.0
1001
ACAD
1000
AcDbSavedByObjectVersion
1070
     0
  0
VISUALSTYLE
  5
485
102
{ACAD_XDICTIONARY
360
568
102
}
102
{ACAD_REACTORS
330
484
102
}
330
484
100
AcDbVisualStyle
  2

 70
     0
 71
     2
 72
     1
 73
     1
 90
        2
 40
-0.6
 41
30.0
 62
     5
 63
     7
421
 16777215
 74
     0
 91
        0
 64
     7
 65
   257
 75
     1
175
     1
 42
1.0
 92
        8
 66
     7
 43
1.0
 76
     1
 77
     6
 78
     2
 67
     7
 79
     5
170
     0
171
     0
290
     0
174
     0
 93
       13
 44
0.0
173
     0
291
     1
 45
0.0
1001
ACAD
1000
AcDbSavedByObjectVersion
1070
     0
  0
VISUALSTYLE
  5
486
102
{ACAD_XDICTIONARY
360
56A
102
}
102
{ACAD_REACTORS
330
484
102
}
330
484
100
AcDbVisualStyle
  2

 70
     1
 71
     2
 72
     1
 73
     1
 90
        2
 40
-0.6
 41
30.0
 62
     5
 63
     7
421
 16777215
 74
     1
 91
        0
 64
     7
 65
   257
 75
     1
175
     1
 42
1.0
 92
        0
 66
   257
 43
1.0
 76
     1
 77
     6
 78
     2
 67
     7
 79
     5
170
     0
171
     0
290
     0
174
     0
 93
       13
 44
0.0
173
     0
291
     1
 45
0.0
1001
ACAD
1000
AcDbSavedByObjectVersion
1070
     0
  0
VISUALSTYLE
  5
487
102
{ACAD_XDICTIONARY
360
56C
102
}
102
{ACAD_REACTORS
330
484
102
}
330
484
100
AcDbVisualStyle
  2

 70
     2
 71
     2
 72
     2
 73
     1
 90
        2
 40
-0.6
 41
30.0
 62
     5
 63
     7
421
 16777215
 74
     0
 91
        0
 64
     7
 65
   257
 75
     1
175
     1
 42
1.0
 92
        0
 66
     7
 43
1.0
 76
     1
 77
     6
 78
     2
 67
     7
 79
     5
170
     0
171
     0
290
     0
174
     0
 93
       13
 44
0.0
173
     0
291
     1
 45
0.0
1001
ACAD
1000
AcDbSavedByObjectVersion
1070
     0
  0
VISUALSTYLE
  5
488
102
{ACAD_XDICTIONARY
360
56E
102
}
102
{ACAD_REACTORS
330
484
102
}
330
484
100
AcDbVisualStyle
  2

 70
     3
 71
     2
 72
     2
 73
     1
 90
        2
 40
-0.6
 41
30.0
 62
     5
 63
     7
421
 16777215
 74
     1
 91
        0
 64
     7
 65
   257
 75
     1
175
     1
 42
1.0
 92
        0
 66
   257
 43
1.0
 76
     1
 77
     6
 78
     2
 67
     7
 79
     5
170
     0
171
     0
290
     0
174
     0
 93
       13
 44
0.0
173
     0
291
     1
 45
0.0
1001
ACAD
1000
AcDbSavedByObjectVersion
1070
     0
  0
VISUALSTYLE
  5
48C
102
{ACAD_XDICTIONARY
360
576
102
}
102
{ACAD_REACTORS
330
484
102
}
330
484
100
AcDbVisualStyle
  2

 70
     6
 71
     1
 72
     2
 73
     2
 90
        0
 40
-0.6
 41
-30.0
 62
     5
 63
     7
421
 16777215
 74
     2
 91
        2
 64
     7
 65
   257
 75
     2
175
     1
 42
40.0
 92
        0
 66
   257
 43
1.0
 76
     1
 77
     6
 78
     2
 67
     7
 79
     3
170
     0
171
     0
290
     0
174
     0
 93
        1
 44
0.0
173
     0
291
     0
 45
0.0
1001
ACAD
1000
AcDbSavedByObjectVersion
1070
     0
  0
VISUALSTYLE
  5
49A
102
{ACAD_XDICTIONARY
360
592
102
}
102
{ACAD_REACTORS
330
484
102
}
330
484
100
AcDbVisualStyle
  2

 70
    20
 71
     2
 72
     2
 73
     0
 90
        0
 40
-0.6
 41
-30.0
 62
     5
 63
     7
421
 16777215
 74
     1
 91
        4
 64
     7
 65
   257
 75
     1
175
     1
 42
1.0
 92
       10
 66
     7
 43
1.0
 76
     1
 77
     6
 78
     2
 67
     7
 79
     5
170
     0
171
     0
290
     0
174
     0
 93
        1
 44
0.0
173
     0
291
     1
 45
0.0
1001
ACAD
1000
AcDbSavedByObjectVersion
1070
     0
  0
VISUALSTYLE
  5
492
102
{ACAD_XDICTIONARY
360
582
102
}
102
{ACAD_REACTORS
330
484
102
}
330
484
100
AcDbVisualStyle
  2

 70
    14
 71
     2
 72
     2
 73
     0
 90
        0
 40
-0.6
 41
-30.0
 62
     5
 63
     7
421
 16777215
 74
     1
 91
        4
 64
     7
 65
   257
 75
     7
175
     7
 42
1.0
 92
        8
 66
     7
 43
1.0
 76
     1
 77
     6
 78
     2
 67
     7
 79
     5
170
     0
171
     0
290
     0
174
     0
 93
        1
 44
0.0
173
     0
291
     1
 45
0.0
1001
ACAD
1000
AcDbSavedByObjectVersion
1070
     0
  0
VISUALSTYLE
  5
49B
102
{ACAD_XDICTIONARY
360
594
102
}
102
{ACAD_REACTORS
330
484
102
}
330
484
100
AcDbVisualStyle
  2

 70
    21
 71
     2
 72
     2
 73
     0
 90
        0
 40
-0.6
 41
-30.0
 62
     5
 63
     7
421
 16777215
 74
     1
 91
        4
 64
     7
 65
   257
 75
     1
175
     1
 42
1.0
 92
        9
 66
     7
 43
1.0
 76
     1
 77
     6
 78
     2
 67
     7
 79
     5
170
     0
171
     0
290
     0
174
     0
 93
        1
 44
0.0
173
     0
291
     1
 45
0.0
1001
ACAD
1000
AcDbSavedByObjectVersion
1070
     0
  0
VISUALSTYLE
  5
48E
102
{ACAD_XDICTIONARY
360
57A
102
}
102
{ACAD_REACTORS
330
484
102
}
330
484
100
AcDbVisualStyle
  2

 70
     8
 71
     2
 72
     3
 73
     0
 90
        2
 40
-0.6
 41
30.0
 62
     5
 63
     7
421
 16777215
 74
     0
 91
        0
 64
     7
 65
   257
 75
     1
175
     1
 42
1.0
 92
        8
 66
   257
 43
1.0
 76
     1
 77
     6
 78
     2
 67
     7
 79
     3
170
     0
171
     0
290
     0
174
     0
 93
       13
 44
0.0
173
     0
291
     0
 45
0.0
1001
ACAD
1000
AcDbSavedByObjectVersion
1070
     0
  0
VISUALSTYLE
  5
499
102
{ACAD_XDICTIONARY
360
590
102
}
102
{ACAD_REACTORS
330
484
102
}
330
484
100
AcDbVisualStyle
  2

 70
    27
 71
     2
 72
     2
 73
     1
 90
        2
 40
-0.6
 41
30.0
 62
     5
 63
     7
421
 16777215
 74
     0
 91
        4
 64
     7
 65
   257
 75
     1
175
     1
 42
1.0
 92
        8
 66
   257
 43
1.0
 76
     1
 77
     6
 78
     2
 67
     8
425
  7895160
 79
     3
170
     0
171
     0
290
     0
174
     0
 93
        5
 44
0.0
173
     0
291
     0
 45
0.0
1001
ACAD
1000
AcDbSavedByObjectVersion
1070
     0
  0
VISUALSTYLE
  5
498
102
{ACAD_XDICTIONARY
360
58E
102
}
102
{ACAD_REACTORS
330
484
102
}
330
484
100
AcDbVisualStyle
  2

 70
    26
 71
     2
 72
     2
 73
     1
 90
        2
 40
-0.6
 41
30.0
 62
     5
 63
     7
421
 16777215
 74
     1
 91
       10
 64
     7
 65
   257
 75
     2
175
     1
 42
1.0
 92
        8
 66
   257
 43
1.0
 76
     1
 77
     6
 78
     2
 67
     7
 79
     3
170
     0
171
     0
290
     0
174
     0
 93
        5
 44
0.0
173
     0
291
     0
 45
0.0
1001
ACAD
1000
AcDbSavedByObjectVersion
1070
     0
  0
VISUALSTYLE
  5
495
102
{ACAD_XDICTIONARY
360
588
102
}
102
{ACAD_REACTORS
330
484
102
}
330
484
100
AcDbVisualStyle
  2

 70
    23
 71
     2
 72
     2
 73
     3
 90
        0
 40
-0.6
 41
-30.0
 62
     5
 63
     7
421
 16777215
 74
     2
 91
        2
 64
     7
 65
     7
 75
     1
175
     1
 42
40.0
 92
        8
 66
     7
 43
1.0
 76
     1
 77
     6
 78
     2
 67
     7
 79
     3
170
     0
171
     0
290
     0
174
     0
 93
        1
 44
0.0
173
     0
291
     0
 45
0.0
1001
ACAD
1000
AcDbSavedByObjectVersion
1070
     0
  0
VISUALSTYLE
  5
496
102
{ACAD_XDICTIONARY
360
58A
102
}
102
{ACAD_REACTORS
330
484
102
}
330
484
100
AcDbVisualStyle
  2

 70
    24
 71
     1
 72
     2
 73
     2
 90
        0
 40
-0.6
 41
-30.0
 62
     5
 63
     7
421
 16777215
 74
     2
 91
        2
 64
     7
 65
     7
 75
     1
175
     1
 42
40.0
 92
       11
 66
     7
 43
1.0
 76
     1
 77
     6
 78
     2
 67
     7
 79
     6
170
     0
171
     0
290
     0
174
     0
 93
        1
 44
0.0
173
     0
291
     0
 45
0.0
1001
ACAD
1000
AcDbSavedByObjectVersion
1070
     0
  0
VISUALSTYLE
  5
491
102
{ACAD_XDICTIONARY
360
580
102
}
102
{ACAD_REACTORS
330
484
102
}
330
484
100
AcDbVisualStyle
  2

 70
    13
 71
     2
 72
     2
 73
     0
 90
        0
 40
-0.6
 41
-30.0
 62
     5
 63
     7
421
 16777215
 74
     1
 91
        4
 64
     7
 65
   257
 75
     1
175
     1
 42
1.0
 92
       12
 66
     7
 43
1.0
 76
     1
 77
     6
 78
     2
 67
     7
 79
     5
170
     0
171
     0
290
     0
174
     0
 93
        1
 44
0.0
173
     0
291
     1
 45
0.0
1001
ACAD
1000
AcDbSavedByObjectVersion
1070
     0
  0
VISUALSTYLE
  5
48B
102
{ACAD_XDICTIONARY
360
574
102
}
102
{ACAD_REACTORS
330
484
102
}
330
484
100
AcDbVisualStyle
  2

 70
     5
 71
     0
 72
     2
 73
     0
 90
        0
 40
-0.6
 41
-30.0
 62
     5
 63
     7
421
 16777215
 74
     1
 91
        4
 64
     7
 65
   257
 75
     1
175
     1
 42
1.0
 92
        0
 66
   257
 43
1.0
 76
     1
 77
     6
 78
     2
 67
     7
 79
     3
170
     0
171
     0
290
     0
174
     0
 93
        1
 44
0.0
173
     0
291
     0
 45
0.0
1001
ACAD
1000
AcDbSavedByObjectVersion
1070
     0
  0
VISUALSTYLE
  5
497
102
{ACAD_XDICTIONARY
360
58C
102
}
102
{ACAD_REACTORS
330
484
102
}
330
484
100
AcDbVisualStyle
  2

 70
    25
 71
     2
 72
     2
 73
     1
 90
        1
 40
0.5
 41
-30.0
 62
     5
 63
     7
421
 16777215
 74
     1
 91
        0
 64
     7
 65
   257
 75
     1
175
     1
 42
1.0
 92
        8
 66
     7
 43
1.0
 76
     1
 77
     6
 78
     2
 67
     7
 79
     3
170
     0
171
     0
290
     0
174
     0
 93
       13
 44
0.0
173
     0
291
     0
 45
0.0
1001
ACAD
1000
AcDbSavedByObjectVersion
1070
     0
  0
DICTIONARYVAR
  5
4DB
102
{ACAD_REACTORS
330
4D6
102
}
330
4D6
100
DictionaryVariables
280
     0
  1
1:1
  0
DICTIONARYVAR
  5
4D8
102
{ACAD_REACTORS
330
4D6
102
}
330
4D6
100
DictionaryVariables
280
     0
  1
STANDARD
  0
DICTIONARYVAR
  5
4D7
102
{ACAD_REACTORS
330
4D6
102
}
330
4D6
100
DictionaryVariables
280
     0
  1
STANDARD
  0
DICTIONARYVAR
  5
4D9
102
{ACAD_REACTORS
330
4D6
102
}
330
4D6
100
DictionaryVariables
280
     0
  1
Imperial24
  0
DICTIONARYVAR
  5
4DA
102
{ACAD_REACTORS
330
4D6
102
}
330
4D6
100
DictionaryVariables
280
     0
  1
Imperial24
  0
DICTIONARYVAR
  5
52B
102
{ACAD_REACTORS
330
4D6
102
}
330
4D6
100
DictionaryVariables
280
     0
  1
2
  0
DICTIONARY
  5
475
330
474
100
AcDbDictionary
280
     1
281
     1
  3
ACAD_XREC_ROUNDTRIP
360
4E2
  3
BUMPTILE
360
477
  3
DIFFUSETILE
360
476
  3
OPACITYTILE
360
47A
  3
REFLECTIONTILE
360
479
  3
REFRACTIONTILE
360
47B
  3
SPECULARTILE
360
478
  0
DICTIONARY
  5
46D
330
46C
100
AcDbDictionary
280
     1
281
     1
  3
ACAD_XREC_ROUNDTRIP
360
4E1
  3
BUMPTILE
360
46F
  3
DIFFUSETILE
360
46E
  3
OPACITYTILE
360
472
  3
REFLECTIONTILE
360
471
  3
REFRACTIONTILE
360
473
  3
SPECULARTILE
360
470
  0
DICTIONARY
  5
47D
330
47C
100
AcDbDictionary
280
     1
281
     1
  3
ACAD_XREC_ROUNDTRIP
360
4E3
  3
BUMPTILE
360
47F
  3
DIFFUSETILE
360
47E
  3
OPACITYTILE
360
482
  3
REFLECTIONTILE
360
481
  3
REFRACTIONTILE
360
483
  3
SPECULARTILE
360
480
  0
DICTIONARY
  5
4DE
330
49F
100
AcDbDictionary
280
     1
281
     1
  3
ACAD_ROUNDTRIP_2008_TABLESTYLE_CELLSTYLEMAP
360
566
  3
ACAD_XREC_ROUNDTRIP
360
598
  0
DICTIONARY
  5
572
330
48A
100
AcDbDictionary
280
     1
281
     1
  3
ACAD_XREC_ROUNDTRIP
360
573
  0
DICTIONARY
  5
570
330
489
100
AcDbDictionary
280
     1
281
     1
  3
ACAD_XREC_ROUNDTRIP
360
571
  0
DICTIONARY
  5
57E
330
490
100
AcDbDictionary
280
     1
281
     1
  3
ACAD_XREC_ROUNDTRIP
360
57F
  0
DICTIONARY
  5
586
330
494
100
AcDbDictionary
280
     1
281
     1
  3
ACAD_XREC_ROUNDTRIP
360
587
  0
DICTIONARY
  5
578
330
48D
100
AcDbDictionary
280
     1
281
     1
  3
ACAD_XREC_ROUNDTRIP
360
579
  0
DICTIONARY
  5
57C
330
48F
100
AcDbDictionary
280
     1
281
     1
  3
ACAD_XREC_ROUNDTRIP
360
57D
  0
DICTIONARY
  5
596
330
49C
100
AcDbDictionary
280
     1
281
     1
  3
ACAD_XREC_ROUNDTRIP
360
597
  0
DICTIONARY
  5
584
330
493
100
AcDbDictionary
280
     1
281
     1
  3
ACAD_XREC_ROUNDTRIP
360
585
  0
DICTIONARY
  5
568
330
485
100
AcDbDictionary
280
     1
281
     1
  3
ACAD_XREC_ROUNDTRIP
360
569
  0
DICTIONARY
  5
56A
330
486
100
AcDbDictionary
280
     1
281
     1
  3
ACAD_XREC_ROUNDTRIP
360
56B
  0
DICTIONARY
  5
56C
330
487
100
AcDbDictionary
280
     1
281
     1
  3
ACAD_XREC_ROUNDTRIP
360
56D
  0
DICTIONARY
  5
56E
330
488
100
AcDbDictionary
280
     1
281
     1
  3
ACAD_XREC_ROUNDTRIP
360
56F
  0
DICTIONARY
  5
576
330
48C
100
AcDbDictionary
280
     1
281
     1
  3
ACAD_XREC_ROUNDTRIP
360
577
  0
DICTIONARY
  5
592
330
49A
100
AcDbDictionary
280
     1
281
     1
  3
ACAD_XREC_ROUNDTRIP
360
593
  0
DICTIONARY
  5
582
330
492
100
AcDbDictionary
280
     1
281
     1
  3
ACAD_XREC_ROUNDTRIP
360
583
  0
DICTIONARY
  5
594
330
49B
100
AcDbDictionary
280
     1
281
     1
  3
ACAD_XREC_ROUNDTRIP
360
595
  0
DICTIONARY
  5
57A
330
48E
100
AcDbDictionary
280
     1
281
     1
  3
ACAD_XREC_ROUNDTRIP
360
57B
  0
DICTIONARY
  5
590
330
499
100
AcDbDictionary
280
     1
281
     1
  3
ACAD_XREC_ROUNDTRIP
360
591
  0
DICTIONARY
  5
58E
330
498
100
AcDbDictionary
280
     1
281
     1
  3
ACAD_XREC_ROUNDTRIP
360
58F
  0
DICTIONARY
  5
588
330
495
100
AcDbDictionary
280
     1
281
     1
  3
ACAD_XREC_ROUNDTRIP
360
589
  0
DICTIONARY
  5
58A
330
496
100
AcDbDictionary
280
     1
281
     1
  3
ACAD_XREC_ROUNDTRIP
360
58B
  0
DICTIONARY
  5
580
330
491
100
AcDbDictionary
280
     1
281
     1
  3
ACAD_XREC_ROUNDTRIP
360
581
  0
DICTIONARY
  5
574
330
48B
100
AcDbDictionary
280
     1
281
     1
  3
ACAD_XREC_ROUNDTRIP
360
575
  0
DICTIONARY
  5
58C
330
497
100
AcDbDictionary
280
     1
281
     1
  3
ACAD_XREC_ROUNDTRIP
360
58D
  0
XRECORD
  5
4E2
102
{ACAD_REACTORS
330
475
102
}
330
475
100
AcDbXrecord
280
     1
102
MATERIAL
148
0.0
149
0.0
149
0.0
 93
        0
 94
      127
282
     0
 72
     0
 77
     0
171
     0
175
     0
179
     0
273
     0
  0
XRECORD
  5
477
102
{ACAD_REACTORS
330
475
102
}
330
475
100
AcDbXrecord
280
     1
270
     1
271
     1
  0
XRECORD
  5
476
102
{ACAD_REACTORS
330
475
102
}
330
475
100
AcDbXrecord
280
     1
270
     1
271
     1
  0
XRECORD
  5
47A
102
{ACAD_REACTORS
330
475
102
}
330
475
100
AcDbXrecord
280
     1
270
     1
271
     1
  0
XRECORD
  5
479
102
{ACAD_REACTORS
330
475
102
}
330
475
100
AcDbXrecord
280
     1
270
     1
271
     1
  0
XRECORD
  5
47B
102
{ACAD_REACTORS
330
475
102
}
330
475
100
AcDbXrecord
280
     1
270
     1
271
     1
  0
XRECORD
  5
478
102
{ACAD_REACTORS
330
475
102
}
330
475
100
AcDbXrecord
280
     1
270
     1
271
     1
  0
XRECORD
  5
4E1
102
{ACAD_REACTORS
330
46D
102
}
330
46D
100
AcDbXrecord
280
     1
102
MATERIAL
148
0.0
149
0.0
149
0.0
 93
        0
 94
      127
282
     0
 72
     0
 77
     0
171
     0
175
     0
179
     0
273
     0
  0
XRECORD
  5
46F
102
{ACAD_REACTORS
330
46D
102
}
330
46D
100
AcDbXrecord
280
     1
270
     1
271
     1
  0
XRECORD
  5
46E
102
{ACAD_REACTORS
330
46D
102
}
330
46D
100
AcDbXrecord
280
     1
270
     1
271
     1
  0
XRECORD
  5
472
102
{ACAD_REACTORS
330
46D
102
}
330
46D
100
AcDbXrecord
280
     1
270
     1
271
     1
  0
XRECORD
  5
471
102
{ACAD_REACTORS
330
46D
102
}
330
46D
100
AcDbXrecord
280
     1
270
     1
271
     1
  0
XRECORD
  5
473
102
{ACAD_REACTORS
330
46D
102
}
330
46D
100
AcDbXrecord
280
     1
270
     1
271
     1
  0
XRECORD
  5
470
102
{ACAD_REACTORS
330
46D
102
}
330
46D
100
AcDbXrecord
280
     1
270
     1
271
     1
  0
XRECORD
  5
4E3
102
{ACAD_REACTORS
330
47D
102
}
330
47D
100
AcDbXrecord
280
     1
102
MATERIAL
148
0.0
149
0.0
149
0.0
 93
        0
 94
      127
282
     0
 72
     0
 77
     0
171
     0
175
     0
179
     0
273
     0
  0
XRECORD
  5
47F
102
{ACAD_REACTORS
330
47D
102
}
330
47D
100
AcDbXrecord
280
     1
270
     1
271
     1
  0
XRECORD
  5
47E
102
{ACAD_REACTORS
330
47D
102
}
330
47D
100
AcDbXrecord
280
     1
270
     1
271
     1
  0
XRECORD
  5
482
102
{ACAD_REACTORS
330
47D
102
}
330
47D
100
AcDbXrecord
280
     1
270
     1
271
     1
  0
XRECORD
  5
481
102
{ACAD_REACTORS
330
47D
102
}
330
47D
100
AcDbXrecord
280
     1
270
     1
271
     1
  0
XRECORD
  5
483
102
{ACAD_REACTORS
330
47D
102
}
330
47D
100
AcDbXrecord
280
     1
270
     1
271
     1
  0
XRECORD
  5
480
102
{ACAD_REACTORS
330
47D
102
}
330
47D
100
AcDbXrecord
280
     1
270
     1
271
     1
  0
CELLSTYLEMAP
  5
566
102
{ACAD_REACTORS
330
4DE
102
}
330
4DE
100
AcDbCellStyleMap
 90
        3
300
CELLSTYLE
  1
TABLEFORMAT_BEGIN
 90
        5
170
     1
 91
        0
 92
    32768
 62
   257
 93
        1
300
CONTENTFORMAT
  1
CONTENTFORMAT_BEGIN
 90
        0
 91
        0
 92
      512
 93
        0
300

 40
0.0
140
1.0
 94
        5
 62
     0
340
11
144
0.25
309
CONTENTFORMAT_END
171
     1
301
MARGIN
  1
CELLMARGIN_BEGIN
 40
0.06
 40
0.06
 40
0.06
 40
0.06
 40
0.18
 40
0.18
309
CELLMARGIN_END
 94
        6
 95
        1
302
GRIDFORMAT
  1
GRIDFORMAT_BEGIN
 90
        0
 91
        1
 62
     0
 92
       -2
340
0
 93
        0
 40
0.045
309
GRIDFORMAT_END
 95
        2
302
GRIDFORMAT
  1
GRIDFORMAT_BEGIN
 90
        0
 91
        1
 62
     0
 92
       -2
340
0
 93
        0
 40
0.045
309
GRIDFORMAT_END
 95
        4
302
GRIDFORMAT
  1
GRIDFORMAT_BEGIN
 90
        0
 91
        1
 62
     0
 92
       -2
340
0
 93
        0
 40
0.045
309
GRIDFORMAT_END
 95
        8
302
GRIDFORMAT
  1
GRIDFORMAT_BEGIN
 90
        0
 91
        1
 62
     0
 92
       -2
340
0
 93
        0
 40
0.045
309
GRIDFORMAT_END
 95
       16
302
GRIDFORMAT
  1
GRIDFORMAT_BEGIN
 90
        0
 91
        1
 62
     0
 92
       -2
340
0
 93
        0
 40
0.045
309
GRIDFORMAT_END
 95
       32
302
GRIDFORMAT
  1
GRIDFORMAT_BEGIN
 90
        0
 91
        1
 62
     0
 92
       -2
340
0
 93
        0
 40
0.045
309
GRIDFORMAT_END
309
TABLEFORMAT_END
  1
CELLSTYLE_BEGIN
 90
        1
 91
        1
300
_TITLE
309
CELLSTYLE_END
300
CELLSTYLE
  1
TABLEFORMAT_BEGIN
 90
        5
170
     1
 91
        0
 92
        0
 62
   257
 93
        1
300
CONTENTFORMAT
  1
CONTENTFORMAT_BEGIN
 90
        0
 91
        0
 92
      512
 93
        0
300

 40
0.0
140
1.0
 94
        5
 62
     0
340
11
144
0.18
309
CONTENTFORMAT_END
171
     1
301
MARGIN
  1
CELLMARGIN_BEGIN
 40
0.06
 40
0.06
 40
0.06
 40
0.06
 40
0.18
 40
0.18
309
CELLMARGIN_END
 94
        6
 95
        1
302
GRIDFORMAT
  1
GRIDFORMAT_BEGIN
 90
        0
 91
        1
 62
     0
 92
       -2
340
0
 93
        0
 40
0.045
309
GRIDFORMAT_END
 95
        2
302
GRIDFORMAT
  1
GRIDFORMAT_BEGIN
 90
        0
 91
        1
 62
     0
 92
       -2
340
0
 93
        0
 40
0.045
309
GRIDFORMAT_END
 95
        4
302
GRIDFORMAT
  1
GRIDFORMAT_BEGIN
 90
        0
 91
        1
 62
     0
 92
       -2
340
0
 93
        0
 40
0.045
309
GRIDFORMAT_END
 95
        8
302
GRIDFORMAT
  1
GRIDFORMAT_BEGIN
 90
        0
 91
        1
 62
     0
 92
       -2
340
0
 93
        0
 40
0.045
309
GRIDFORMAT_END
 95
       16
302
GRIDFORMAT
  1
GRIDFORMAT_BEGIN
 90
        0
 91
        1
 62
     0
 92
       -2
340
0
 93
        0
 40
0.045
309
GRIDFORMAT_END
 95
       32
302
GRIDFORMAT
  1
GRIDFORMAT_BEGIN
 90
        0
 91
        1
 62
     0
 92
       -2
340
0
 93
        0
 40
0.045
309
GRIDFORMAT_END
309
TABLEFORMAT_END
  1
CELLSTYLE_BEGIN
 90
        2
 91
        1
300
_HEADER
309
CELLSTYLE_END
300
CELLSTYLE
  1
TABLEFORMAT_BEGIN
 90
        5
170
     1
 91
        0
 92
        0
 62
   257
 93
        1
300
CONTENTFORMAT
  1
CONTENTFORMAT_BEGIN
 90
        0
 91
        0
 92
      512
 93
        0
300

 40
0.0
140
1.0
 94
        2
 62
     0
340
11
144
0.18
309
CONTENTFORMAT_END
171
     1
301
MARGIN
  1
CELLMARGIN_BEGIN
 40
0.06
 40
0.06
 40
0.06
 40
0.06
 40
0.18
 40
0.18
309
CELLMARGIN_END
 94
        6
 95
        1
302
GRIDFORMAT
  1
GRIDFORMAT_BEGIN
 90
        0
 91
        1
 62
     0
 92
       -2
340
0
 93
        0
 40
0.045
309
GRIDFORMAT_END
 95
        2
302
GRIDFORMAT
  1
GRIDFORMAT_BEGIN
 90
        0
 91
        1
 62
     0
 92
       -2
340
0
 93
        0
 40
0.045
309
GRIDFORMAT_END
 95
        4
302
GRIDFORMAT
  1
GRIDFORMAT_BEGIN
 90
        0
 91
        1
 62
     0
 92
       -2
340
0
 93
        0
 40
0.045
309
GRIDFORMAT_END
 95
        8
302
GRIDFORMAT
  1
GRIDFORMAT_BEGIN
 90
        0
 91
        1
 62
     0
 92
       -2
340
0
 93
        0
 40
0.045
309
GRIDFORMAT_END
 95
       16
302
GRIDFORMAT
  1
GRIDFORMAT_BEGIN
 90
        0
 91
        1
 62
     0
 92
       -2
340
0
 93
        0
 40
0.045
309
GRIDFORMAT_END
 95
       32
302
GRIDFORMAT
  1
GRIDFORMAT_BEGIN
 90
        0
 91
        1
 62
     0
 92
       -2
340
0
 93
        0
 40
0.045
309
GRIDFORMAT_END
309
TABLEFORMAT_END
  1
CELLSTYLE_BEGIN
 90
        3
 91
        2
300
_DATA
309
CELLSTYLE_END
  0
XRECORD
  5
598
102
{ACAD_REACTORS
330
4DE
102
}
330
4DE
100
AcDbXrecord
280
     1
102
ACAD_ROUNDTRIP_PRE2007_TABLESTYLE
 90
      512
 91
        0
  1

 92
      512
 93
        0
  2

 94
      512
 95
        0
  3

  0
XRECORD
  5
573
102
{ACAD_REACTORS
330
572
102
}
330
572
100
AcDbXrecord
280
     1
102
RTVSPost2010Prop28
280
     1
102
RTVSPost2010PropOp28
 70
     1
102
RTVSPost2010Prop29
280
     1
102
RTVSPost2010PropOp29
 70
     1
102
RTVSPost2010Prop30
280
     0
102
RTVSPost2010PropOp30
 70
     1
102
RTVSPost2010Prop31
280
     0
102
RTVSPost2010PropOp31
 70
     1
102
RTVSPost2010Prop32
280
     0
102
RTVSPost2010PropOp32
 70
     1
102
RTVSPost2010Prop33
280
     0
102
RTVSPost2010PropOp33
 70
     1
102
RTVSPost2010Prop34
280
     0
102
RTVSPost2010PropOp34
 70
     1
102
RTVSPost2010Prop35
280
     0
102
RTVSPost2010PropOp35
 70
     1
102
RTVSPost2010Prop36
280
     0
102
RTVSPost2010PropOp36
 70
     1
102
RTVSPost2010Prop37
 90
       50
102
RTVSPost2010PropOp37
 70
     1
102
RTVSPost2010Prop38
140
0.0
102
RTVSPost2010PropOp38
 70
     1
102
RTVSPost2010Prop39
140
1.0
102
RTVSPost2010PropOp39
 70
     1
102
RTVSPost2010Prop40
 90
        0
102
RTVSPost2010PropOp40
 70
     1
102
RTVSPost2010Prop41ColorIndex
 90
       18
102
RTVSPost2010Prop41ColorRGB
 90
        0
102
RTVSPost2010PropOp41
 70
     1
102
RTVSPost2010Prop42
 90
       50
102
RTVSPost2010PropOp42
 70
     1
102
RTVSPost2010Prop43
 90
        3
102
RTVSPost2010PropOp43
 70
     1
102
RTVSPost2010Prop44ColorIndex
 90
        5
102
RTVSPost2010Prop44ColorRGB
 90
      255
102
RTVSPost2010PropOp44
 70
     1
102
RTVSPost2010Prop45
280
     0
102
RTVSPost2010PropOp45
 70
     1
102
RTVSPost2010Prop46
 90
       50
102
RTVSPost2010PropOp46
 70
     1
102
RTVSPost2010Prop47
 90
       50
102
RTVSPost2010PropOp47
 70
     1
102
RTVSPost2010Prop48
 90
       50
102
RTVSPost2010PropOp48
 70
     1
102
RTVSPost2010Prop49
280
     0
102
RTVSPost2010PropOp49
 70
     1
102
RTVSPost2010Prop50
 90
       50
102
RTVSPost2010PropOp50
 70
     1
102
RTVSPost2010Prop51ColorIndex
 90
      256
102
RTVSPost2010Prop51ColorRGB
 90
-16777216
102
RTVSPost2010PropOp51
 70
     0
102
RTVSPost2010Prop52
140
1.0
102
RTVSPost2010PropOp52
 70
     0
102
RTVSPost2010Prop53
 90
        2
102
RTVSPost2010PropOp53
 70
     1
102
RTVSPost2010Prop54
  1
strokes_ogs.tif
102
RTVSPost2010PropOp54
 70
     1
102
RTVSPost2010Prop55
280
     0
102
RTVSPost2010PropOp55
 70
     1
102
RTVSPost2010Prop56
140
1.0
102
RTVSPost2010PropOp56
 70
     1
102
RTVSPost2010Prop57
140
1.0
102
RTVSPost2010PropOp57
 70
     1
102
RTVSPropertyOp0
 70
     1
102
RTVSPropertyOp1
 70
     1
102
RTVSPropertyOp2
 70
     1
102
RTVSPropertyOp3
 70
     1
102
RTVSPropertyOp4
 70
     1
102
RTVSPropertyOp5
 70
     1
102
RTVSPropertyOp6
 70
     1
102
RTVSPropertyOp7
 70
     1
102
RTVSPropertyOp8
 70
     1
102
RTVSPropertyOp9
 70
     1
102
RTVSPropertyOp10
 70
     1
102
RTVSPropertyOp11
 70
     1
102
RTVSPropertyOp12
 70
     1
102
RTVSPropertyOp13
 70
     1
102
RTVSPropertyOp14
 70
     1
102
RTVSPropertyOp15
 70
     1
102
RTVSPropertyOp16
 70
     1
102
RTVSPropertyOp17
 70
     1
102
RTVSPropertyOp18
 70
     1
102
RTVSPropertyOp19
 70
     1
102
RTVSPropertyOp20
 70
     1
102
RTVSPropertyOp21
 70
     1
102
RTVSPropertyOp22
 70
     1
102
RTVSPropertyOp23
 70
     1
102
RTVSPropertyOp24
 70
     1
102
RTVSPropertyOp25
 70
     1
102
RTVSPropertyOp26
 70
     1
102
RTVSPropertyOp27
 70
     1
102
RTVSPropertyOp28
 70
     1
102
RTVSPropertyOp29
 70
     1
102
RTVSPropertyOp30
 70
     1
102
RTVSPropertyOp31
 70
     1
102
RTVSPropertyOp32
 70
     1
102
RTVSPropertyOp33
 70
     1
102
RTVSPropertyOp34
 70
     1
102
RTVSPropertyOp35
 70
     1
102
RTVSPropertyOp36
 70
     1
102
RTVSPropertyOp37
 70
     1
102
RTVSPropertyOp38
 70
     1
102
RTVSPropertyOp39
 70
     1
102
RTVSPropertyOp40
 70
     1
102
RTVSPropertyOp41
 70
     1
102
RTVSPropertyOp42
 70
     1
102
RTVSPropertyOp43
 70
     1
102
RTVSPropertyOp44
 70
     1
102
RTVSPropertyOp45
 70
     1
102
RTVSPropertyOp46
 70
     1
102
RTVSPropertyOp47
 70
     1
102
RTVSPropertyOp48
 70
     1
102
RTVSPropertyOp49
 70
     1
102
RTVSPropertyOp50
 70
     1
102
RTVSPropertyOp51
 70
     0
102
RTVSPropertyOp52
 70
     0
102
RTVSPropertyOp53
 70
     1
102
RTVSPropertyOp54
 70
     1
102
RTVSPropertyOp55
 70
     1
102
RTVSPropertyOp56
 70
     1
102
RTVSPropertyOp57
 70
     1
102
RTVSPropertyOp58
 70
     1
102
RTVSPropertyOp59
 70
     1
102
RTVSPropertyOp60
 70
     1
102
RTVSPropertyOp61
 70
     1
102
RTVSPropertyOp62
 70
     1
  0
XRECORD
  5
571
102
{ACAD_REACTORS
330
570
102
}
330
570
100
AcDbXrecord
280
     1
102
RTVSPost2010Prop28
280
     0
102
RTVSPost2010PropOp28
 70
     1
102
RTVSPost2010Prop29
280
     1
102
RTVSPost2010PropOp29
 70
     1
102
RTVSPost2010Prop30
280
     1
102
RTVSPost2010PropOp30
 70
     1
102
RTVSPost2010Prop31
280
     0
102
RTVSPost2010PropOp31
 70
     1
102
RTVSPost2010Prop32
280
     0
102
RTVSPost2010PropOp32
 70
     1
102
RTVSPost2010Prop33
280
     0
102
RTVSPost2010PropOp33
 70
     1
102
RTVSPost2010Prop34
280
     0
102
RTVSPost2010PropOp34
 70
     1
102
RTVSPost2010Prop35
280
     0
102
RTVSPost2010PropOp35
 70
     1
102
RTVSPost2010Prop36
280
     0
102
RTVSPost2010PropOp36
 70
     1
102
RTVSPost2010Prop37
 90
       50
102
RTVSPost2010PropOp37
 70
     1
102
RTVSPost2010Prop38
140
0.0
102
RTVSPost2010PropOp38
 70
     1
102
RTVSPost2010Prop39
140
1.0
102
RTVSPost2010PropOp39
 70
     1
102
RTVSPost2010Prop40
 90
        0
102
RTVSPost2010PropOp40
 70
     1
102
RTVSPost2010Prop41ColorIndex
 90
       18
102
RTVSPost2010Prop41ColorRGB
 90
        0
102
RTVSPost2010PropOp41
 70
     1
102
RTVSPost2010Prop42
 90
       50
102
RTVSPost2010PropOp42
 70
     1
102
RTVSPost2010Prop43
 90
        3
102
RTVSPost2010PropOp43
 70
     1
102
RTVSPost2010Prop44ColorIndex
 90
        5
102
RTVSPost2010Prop44ColorRGB
 90
      255
102
RTVSPost2010PropOp44
 70
     1
102
RTVSPost2010Prop45
280
     0
102
RTVSPost2010PropOp45
 70
     1
102
RTVSPost2010Prop46
 90
       50
102
RTVSPost2010PropOp46
 70
     1
102
RTVSPost2010Prop47
 90
       50
102
RTVSPost2010PropOp47
 70
     1
102
RTVSPost2010Prop48
 90
       50
102
RTVSPost2010PropOp48
 70
     1
102
RTVSPost2010Prop49
280
     0
102
RTVSPost2010PropOp49
 70
     1
102
RTVSPost2010Prop50
 90
       50
102
RTVSPost2010PropOp50
 70
     1
102
RTVSPost2010Prop51ColorIndex
 90
      256
102
RTVSPost2010Prop51ColorRGB
 90
-16777216
102
RTVSPost2010PropOp51
 70
     0
102
RTVSPost2010Prop52
140
1.0
102
RTVSPost2010PropOp52
 70
     0
102
RTVSPost2010Prop53
 90
        2
102
RTVSPost2010PropOp53
 70
     1
102
RTVSPost2010Prop54
  1
strokes_ogs.tif
102
RTVSPost2010PropOp54
 70
     1
102
RTVSPost2010Prop55
280
     0
102
RTVSPost2010PropOp55
 70
     1
102
RTVSPost2010Prop56
140
1.0
102
RTVSPost2010PropOp56
 70
     1
102
RTVSPost2010Prop57
140
1.0
102
RTVSPost2010PropOp57
 70
     1
102
RTVSPropertyOp0
 70
     1
102
RTVSPropertyOp1
 70
     1
102
RTVSPropertyOp2
 70
     1
102
RTVSPropertyOp3
 70
     1
102
RTVSPropertyOp4
 70
     1
102
RTVSPropertyOp5
 70
     1
102
RTVSPropertyOp6
 70
     1
102
RTVSPropertyOp7
 70
     1
102
RTVSPropertyOp8
 70
     1
102
RTVSPropertyOp9
 70
     1
102
RTVSPropertyOp10
 70
     1
102
RTVSPropertyOp11
 70
     1
102
RTVSPropertyOp12
 70
     1
102
RTVSPropertyOp13
 70
     1
102
RTVSPropertyOp14
 70
     1
102
RTVSPropertyOp15
 70
     1
102
RTVSPropertyOp16
 70
     1
102
RTVSPropertyOp17
 70
     1
102
RTVSPropertyOp18
 70
     1
102
RTVSPropertyOp19
 70
     1
102
RTVSPropertyOp20
 70
     1
102
RTVSPropertyOp21
 70
     1
102
RTVSPropertyOp22
 70
     1
102
RTVSPropertyOp23
 70
     1
102
RTVSPropertyOp24
 70
     1
102
RTVSPropertyOp25
 70
     1
102
RTVSPropertyOp26
 70
     1
102
RTVSPropertyOp27
 70
     1
102
RTVSPropertyOp28
 70
     1
102
RTVSPropertyOp29
 70
     1
102
RTVSPropertyOp30
 70
     1
102
RTVSPropertyOp31
 70
     1
102
RTVSPropertyOp32
 70
     1
102
RTVSPropertyOp33
 70
     1
102
RTVSPropertyOp34
 70
     1
102
RTVSPropertyOp35
 70
     1
102
RTVSPropertyOp36
 70
     1
102
RTVSPropertyOp37
 70
     1
102
RTVSPropertyOp38
 70
     1
102
RTVSPropertyOp39
 70
     1
102
RTVSPropertyOp40
 70
     1
102
RTVSPropertyOp41
 70
     1
102
RTVSPropertyOp42
 70
     1
102
RTVSPropertyOp43
 70
     1
102
RTVSPropertyOp44
 70
     1
102
RTVSPropertyOp45
 70
     1
102
RTVSPropertyOp46
 70
     1
102
RTVSPropertyOp47
 70
     1
102
RTVSPropertyOp48
 70
     1
102
RTVSPropertyOp49
 70
     1
102
RTVSPropertyOp50
 70
     1
102
RTVSPropertyOp51
 70
     0
102
RTVSPropertyOp52
 70
     0
102
RTVSPropertyOp53
 70
     1
102
RTVSPropertyOp54
 70
     1
102
RTVSPropertyOp55
 70
     1
102
RTVSPropertyOp56
 70
     1
102
RTVSPropertyOp57
 70
     1
102
RTVSPropertyOp58
 70
     1
102
RTVSPropertyOp59
 70
     1
102
RTVSPropertyOp60
 70
     1
102
RTVSPropertyOp61
 70
     1
102
RTVSPropertyOp62
 70
     1
  0
XRECORD
  5
57F
102
{ACAD_REACTORS
330
57E
102
}
330
57E
100
AcDbXrecord
280
     1
102
RTVSPost2010Prop28
280
     0
102
RTVSPost2010PropOp28
 70
     1
102
RTVSPost2010Prop29
280
     1
102
RTVSPost2010PropOp29
 70
     1
102
RTVSPost2010Prop30
280
     1
102
RTVSPost2010PropOp30
 70
     1
102
RTVSPost2010Prop31
280
     0
102
RTVSPost2010PropOp31
 70
     1
102
RTVSPost2010Prop32
280
     0
102
RTVSPost2010PropOp32
 70
     1
102
RTVSPost2010Prop33
280
     0
102
RTVSPost2010PropOp33
 70
     1
102
RTVSPost2010Prop34
280
     0
102
RTVSPost2010PropOp34
 70
     1
102
RTVSPost2010Prop35
280
     0
102
RTVSPost2010PropOp35
 70
     1
102
RTVSPost2010Prop36
280
     0
102
RTVSPost2010PropOp36
 70
     1
102
RTVSPost2010Prop37
 90
       50
102
RTVSPost2010PropOp37
 70
     1
102
RTVSPost2010Prop38
140
0.0
102
RTVSPost2010PropOp38
 70
     1
102
RTVSPost2010Prop39
140
1.0
102
RTVSPost2010PropOp39
 70
     1
102
RTVSPost2010Prop40
 90
        0
102
RTVSPost2010PropOp40
 70
     1
102
RTVSPost2010Prop41ColorIndex
 90
       18
102
RTVSPost2010Prop41ColorRGB
 90
        0
102
RTVSPost2010PropOp41
 70
     1
102
RTVSPost2010Prop42
 90
       50
102
RTVSPost2010PropOp42
 70
     1
102
RTVSPost2010Prop43
 90
        3
102
RTVSPost2010PropOp43
 70
     1
102
RTVSPost2010Prop44ColorIndex
 90
        5
102
RTVSPost2010Prop44ColorRGB
 90
      255
102
RTVSPost2010PropOp44
 70
     1
102
RTVSPost2010Prop45
280
     0
102
RTVSPost2010PropOp45
 70
     1
102
RTVSPost2010Prop46
 90
       50
102
RTVSPost2010PropOp46
 70
     1
102
RTVSPost2010Prop47
 90
       50
102
RTVSPost2010PropOp47
 70
     1
102
RTVSPost2010Prop48
 90
       50
102
RTVSPost2010PropOp48
 70
     1
102
RTVSPost2010Prop49
280
     0
102
RTVSPost2010PropOp49
 70
     1
102
RTVSPost2010Prop50
 90
       50
102
RTVSPost2010PropOp50
 70
     1
102
RTVSPost2010Prop51ColorIndex
 90
      256
102
RTVSPost2010Prop51ColorRGB
 90
-16777216
102
RTVSPost2010PropOp51
 70
     0
102
RTVSPost2010Prop52
140
1.0
102
RTVSPost2010PropOp52
 70
     0
102
RTVSPost2010Prop53
 90
        2
102
RTVSPost2010PropOp53
 70
     1
102
RTVSPost2010Prop54
  1
strokes_ogs.tif
102
RTVSPost2010PropOp54
 70
     1
102
RTVSPost2010Prop55
280
     0
102
RTVSPost2010PropOp55
 70
     1
102
RTVSPost2010Prop56
140
1.0
102
RTVSPost2010PropOp56
 70
     1
102
RTVSPost2010Prop57
140
1.0
102
RTVSPost2010PropOp57
 70
     1
102
RTVSPropertyOp0
 70
     1
102
RTVSPropertyOp1
 70
     1
102
RTVSPropertyOp2
 70
     1
102
RTVSPropertyOp3
 70
     1
102
RTVSPropertyOp4
 70
     1
102
RTVSPropertyOp5
 70
     1
102
RTVSPropertyOp6
 70
     1
102
RTVSPropertyOp7
 70
     1
102
RTVSPropertyOp8
 70
     1
102
RTVSPropertyOp9
 70
     1
102
RTVSPropertyOp10
 70
     1
102
RTVSPropertyOp11
 70
     1
102
RTVSPropertyOp12
 70
     1
102
RTVSPropertyOp13
 70
     1
102
RTVSPropertyOp14
 70
     1
102
RTVSPropertyOp15
 70
     1
102
RTVSPropertyOp16
 70
     1
102
RTVSPropertyOp17
 70
     1
102
RTVSPropertyOp18
 70
     1
102
RTVSPropertyOp19
 70
     1
102
RTVSPropertyOp20
 70
     1
102
RTVSPropertyOp21
 70
     1
102
RTVSPropertyOp22
 70
     1
102
RTVSPropertyOp23
 70
     1
102
RTVSPropertyOp24
 70
     1
102
RTVSPropertyOp25
 70
     1
102
RTVSPropertyOp26
 70
     1
102
RTVSPropertyOp27
 70
     1
102
RTVSPropertyOp28
 70
     1
102
RTVSPropertyOp29
 70
     1
102
RTVSPropertyOp30
 70
     1
102
RTVSPropertyOp31
 70
     1
102
RTVSPropertyOp32
 70
     1
102
RTVSPropertyOp33
 70
     1
102
RTVSPropertyOp34
 70
     1
102
RTVSPropertyOp35
 70
     1
102
RTVSPropertyOp36
 70
     1
102
RTVSPropertyOp37
 70
     1
102
RTVSPropertyOp38
 70
     1
102
RTVSPropertyOp39
 70
     1
102
RTVSPropertyOp40
 70
     1
102
RTVSPropertyOp41
 70
     1
102
RTVSPropertyOp42
 70
     1
102
RTVSPropertyOp43
 70
     1
102
RTVSPropertyOp44
 70
     1
102
RTVSPropertyOp45
 70
     1
102
RTVSPropertyOp46
 70
     1
102
RTVSPropertyOp47
 70
     1
102
RTVSPropertyOp48
 70
     1
102
RTVSPropertyOp49
 70
     1
102
RTVSPropertyOp50
 70
     1
102
RTVSPropertyOp51
 70
     0
102
RTVSPropertyOp52
 70
     0
102
RTVSPropertyOp53
 70
     1
102
RTVSPropertyOp54
 70
     1
102
RTVSPropertyOp55
 70
     1
102
RTVSPropertyOp56
 70
     1
102
RTVSPropertyOp57
 70
     1
102
RTVSPropertyOp58
 70
     1
102
RTVSPropertyOp59
 70
     1
102
RTVSPropertyOp60
 70
     1
102
RTVSPropertyOp61
 70
     1
102
RTVSPropertyOp62
 70
     1
  0
XRECORD
  5
587
102
{ACAD_REACTORS
330
586
102
}
330
586
100
AcDbXrecord
280
     1
102
RTVSPost2010Prop28
280
     0
102
RTVSPost2010PropOp28
 70
     1
102
RTVSPost2010Prop29
280
     1
102
RTVSPost2010PropOp29
 70
     1
102
RTVSPost2010Prop30
280
     1
102
RTVSPost2010PropOp30
 70
     1
102
RTVSPost2010Prop31
280
     0
102
RTVSPost2010PropOp31
 70
     1
102
RTVSPost2010Prop32
280
     0
102
RTVSPost2010PropOp32
 70
     1
102
RTVSPost2010Prop33
280
     0
102
RTVSPost2010PropOp33
 70
     1
102
RTVSPost2010Prop34
280
     0
102
RTVSPost2010PropOp34
 70
     1
102
RTVSPost2010Prop35
280
     0
102
RTVSPost2010PropOp35
 70
     1
102
RTVSPost2010Prop36
280
     0
102
RTVSPost2010PropOp36
 70
     1
102
RTVSPost2010Prop37
 90
       50
102
RTVSPost2010PropOp37
 70
     1
102
RTVSPost2010Prop38
140
0.0
102
RTVSPost2010PropOp38
 70
     1
102
RTVSPost2010Prop39
140
1.0
102
RTVSPost2010PropOp39
 70
     1
102
RTVSPost2010Prop40
 90
        0
102
RTVSPost2010PropOp40
 70
     1
102
RTVSPost2010Prop41ColorIndex
 90
       18
102
RTVSPost2010Prop41ColorRGB
 90
        0
102
RTVSPost2010PropOp41
 70
     1
102
RTVSPost2010Prop42
 90
       50
102
RTVSPost2010PropOp42
 70
     1
102
RTVSPost2010Prop43
 90
        3
102
RTVSPost2010PropOp43
 70
     1
102
RTVSPost2010Prop44ColorIndex
 90
        5
102
RTVSPost2010Prop44ColorRGB
 90
      255
102
RTVSPost2010PropOp44
 70
     1
102
RTVSPost2010Prop45
280
     0
102
RTVSPost2010PropOp45
 70
     1
102
RTVSPost2010Prop46
 90
       50
102
RTVSPost2010PropOp46
 70
     1
102
RTVSPost2010Prop47
 90
       50
102
RTVSPost2010PropOp47
 70
     1
102
RTVSPost2010Prop48
 90
       50
102
RTVSPost2010PropOp48
 70
     1
102
RTVSPost2010Prop49
280
     0
102
RTVSPost2010PropOp49
 70
     1
102
RTVSPost2010Prop50
 90
       50
102
RTVSPost2010PropOp50
 70
     1
102
RTVSPost2010Prop51ColorIndex
 90
      256
102
RTVSPost2010Prop51ColorRGB
 90
-16777216
102
RTVSPost2010PropOp51
 70
     0
102
RTVSPost2010Prop52
140
1.0
102
RTVSPost2010PropOp52
 70
     0
102
RTVSPost2010Prop53
 90
        2
102
RTVSPost2010PropOp53
 70
     1
102
RTVSPost2010Prop54
  1
strokes_ogs.tif
102
RTVSPost2010PropOp54
 70
     1
102
RTVSPost2010Prop55
280
     0
102
RTVSPost2010PropOp55
 70
     1
102
RTVSPost2010Prop56
140
1.0
102
RTVSPost2010PropOp56
 70
     1
102
RTVSPost2010Prop57
140
1.0
102
RTVSPost2010PropOp57
 70
     1
102
RTVSPropertyOp0
 70
     1
102
RTVSPropertyOp1
 70
     1
102
RTVSPropertyOp2
 70
     1
102
RTVSPropertyOp3
 70
     1
102
RTVSPropertyOp4
 70
     1
102
RTVSPropertyOp5
 70
     1
102
RTVSPropertyOp6
 70
     1
102
RTVSPropertyOp7
 70
     1
102
RTVSPropertyOp8
 70
     1
102
RTVSPropertyOp9
 70
     1
102
RTVSPropertyOp10
 70
     1
102
RTVSPropertyOp11
 70
     1
102
RTVSPropertyOp12
 70
     1
102
RTVSPropertyOp13
 70
     1
102
RTVSPropertyOp14
 70
     1
102
RTVSPropertyOp15
 70
     1
102
RTVSPropertyOp16
 70
     1
102
RTVSPropertyOp17
 70
     1
102
RTVSPropertyOp18
 70
     1
102
RTVSPropertyOp19
 70
     1
102
RTVSPropertyOp20
 70
     1
102
RTVSPropertyOp21
 70
     1
102
RTVSPropertyOp22
 70
     1
102
RTVSPropertyOp23
 70
     1
102
RTVSPropertyOp24
 70
     1
102
RTVSPropertyOp25
 70
     1
102
RTVSPropertyOp26
 70
     1
102
RTVSPropertyOp27
 70
     1
102
RTVSPropertyOp28
 70
     1
102
RTVSPropertyOp29
 70
     1
102
RTVSPropertyOp30
 70
     1
102
RTVSPropertyOp31
 70
     1
102
RTVSPropertyOp32
 70
     1
102
RTVSPropertyOp33
 70
     1
102
RTVSPropertyOp34
 70
     1
102
RTVSPropertyOp35
 70
     1
102
RTVSPropertyOp36
 70
     1
102
RTVSPropertyOp37
 70
     1
102
RTVSPropertyOp38
 70
     1
102
RTVSPropertyOp39
 70
     1
102
RTVSPropertyOp40
 70
     1
102
RTVSPropertyOp41
 70
     1
102
RTVSPropertyOp42
 70
     1
102
RTVSPropertyOp43
 70
     1
102
RTVSPropertyOp44
 70
     1
102
RTVSPropertyOp45
 70
     1
102
RTVSPropertyOp46
 70
     1
102
RTVSPropertyOp47
 70
     1
102
RTVSPropertyOp48
 70
     1
102
RTVSPropertyOp49
 70
     1
102
RTVSPropertyOp50
 70
     1
102
RTVSPropertyOp51
 70
     0
102
RTVSPropertyOp52
 70
     0
102
RTVSPropertyOp53
 70
     1
102
RTVSPropertyOp54
 70
     1
102
RTVSPropertyOp55
 70
     1
102
RTVSPropertyOp56
 70
     1
102
RTVSPropertyOp57
 70
     1
102
RTVSPropertyOp58
 70
     1
102
RTVSPropertyOp59
 70
     1
102
RTVSPropertyOp60
 70
     1
102
RTVSPropertyOp61
 70
     1
102
RTVSPropertyOp62
 70
     1
  0
XRECORD
  5
579
102
{ACAD_REACTORS
330
578
102
}
330
578
100
AcDbXrecord
280
     1
102
RTVSPost2010Prop28
280
     0
102
RTVSPost2010PropOp28
 70
     1
102
RTVSPost2010Prop29
280
     1
102
RTVSPost2010PropOp29
 70
     1
102
RTVSPost2010Prop30
280
     1
102
RTVSPost2010PropOp30
 70
     1
102
RTVSPost2010Prop31
280
     0
102
RTVSPost2010PropOp31
 70
     1
102
RTVSPost2010Prop32
280
     0
102
RTVSPost2010PropOp32
 70
     1
102
RTVSPost2010Prop33
280
     0
102
RTVSPost2010PropOp33
 70
     1
102
RTVSPost2010Prop34
280
     0
102
RTVSPost2010PropOp34
 70
     1
102
RTVSPost2010Prop35
280
     0
102
RTVSPost2010PropOp35
 70
     1
102
RTVSPost2010Prop36
280
     0
102
RTVSPost2010PropOp36
 70
     1
102
RTVSPost2010Prop37
 90
       50
102
RTVSPost2010PropOp37
 70
     1
102
RTVSPost2010Prop38
140
0.0
102
RTVSPost2010PropOp38
 70
     1
102
RTVSPost2010Prop39
140
1.0
102
RTVSPost2010PropOp39
 70
     1
102
RTVSPost2010Prop40
 90
        0
102
RTVSPost2010PropOp40
 70
     1
102
RTVSPost2010Prop41ColorIndex
 90
       18
102
RTVSPost2010Prop41ColorRGB
 90
        0
102
RTVSPost2010PropOp41
 70
     1
102
RTVSPost2010Prop42
 90
       50
102
RTVSPost2010PropOp42
 70
     1
102
RTVSPost2010Prop43
 90
        3
102
RTVSPost2010PropOp43
 70
     1
102
RTVSPost2010Prop44ColorIndex
 90
        5
102
RTVSPost2010Prop44ColorRGB
 90
      255
102
RTVSPost2010PropOp44
 70
     1
102
RTVSPost2010Prop45
280
     0
102
RTVSPost2010PropOp45
 70
     1
102
RTVSPost2010Prop46
 90
       50
102
RTVSPost2010PropOp46
 70
     1
102
RTVSPost2010Prop47
 90
       50
102
RTVSPost2010PropOp47
 70
     1
102
RTVSPost2010Prop48
 90
       50
102
RTVSPost2010PropOp48
 70
     1
102
RTVSPost2010Prop49
280
     0
102
RTVSPost2010PropOp49
 70
     1
102
RTVSPost2010Prop50
 90
       50
102
RTVSPost2010PropOp50
 70
     1
102
RTVSPost2010Prop51ColorIndex
 90
      256
102
RTVSPost2010Prop51ColorRGB
 90
-16777216
102
RTVSPost2010PropOp51
 70
     0
102
RTVSPost2010Prop52
140
1.0
102
RTVSPost2010PropOp52
 70
     0
102
RTVSPost2010Prop53
 90
        2
102
RTVSPost2010PropOp53
 70
     1
102
RTVSPost2010Prop54
  1
strokes_ogs.tif
102
RTVSPost2010PropOp54
 70
     1
102
RTVSPost2010Prop55
280
     0
102
RTVSPost2010PropOp55
 70
     1
102
RTVSPost2010Prop56
140
1.0
102
RTVSPost2010PropOp56
 70
     1
102
RTVSPost2010Prop57
140
1.0
102
RTVSPost2010PropOp57
 70
     1
102
RTVSPropertyOp0
 70
     1
102
RTVSPropertyOp1
 70
     1
102
RTVSPropertyOp2
 70
     1
102
RTVSPropertyOp3
 70
     1
102
RTVSPropertyOp4
 70
     1
102
RTVSPropertyOp5
 70
     1
102
RTVSPropertyOp6
 70
     1
102
RTVSPropertyOp7
 70
     1
102
RTVSPropertyOp8
 70
     1
102
RTVSPropertyOp9
 70
     1
102
RTVSPropertyOp10
 70
     1
102
RTVSPropertyOp11
 70
     1
102
RTVSPropertyOp12
 70
     1
102
RTVSPropertyOp13
 70
     1
102
RTVSPropertyOp14
 70
     1
102
RTVSPropertyOp15
 70
     1
102
RTVSPropertyOp16
 70
     1
102
RTVSPropertyOp17
 70
     1
102
RTVSPropertyOp18
 70
     1
102
RTVSPropertyOp19
 70
     1
102
RTVSPropertyOp20
 70
     1
102
RTVSPropertyOp21
 70
     1
102
RTVSPropertyOp22
 70
     1
102
RTVSPropertyOp23
 70
     1
102
RTVSPropertyOp24
 70
     1
102
RTVSPropertyOp25
 70
     1
102
RTVSPropertyOp26
 70
     1
102
RTVSPropertyOp27
 70
     1
102
RTVSPropertyOp28
 70
     1
102
RTVSPropertyOp29
 70
     1
102
RTVSPropertyOp30
 70
     1
102
RTVSPropertyOp31
 70
     1
102
RTVSPropertyOp32
 70
     1
102
RTVSPropertyOp33
 70
     1
102
RTVSPropertyOp34
 70
     1
102
RTVSPropertyOp35
 70
     1
102
RTVSPropertyOp36
 70
     1
102
RTVSPropertyOp37
 70
     1
102
RTVSPropertyOp38
 70
     1
102
RTVSPropertyOp39
 70
     1
102
RTVSPropertyOp40
 70
     1
102
RTVSPropertyOp41
 70
     1
102
RTVSPropertyOp42
 70
     1
102
RTVSPropertyOp43
 70
     1
102
RTVSPropertyOp44
 70
     1
102
RTVSPropertyOp45
 70
     1
102
RTVSPropertyOp46
 70
     1
102
RTVSPropertyOp47
 70
     1
102
RTVSPropertyOp48
 70
     1
102
RTVSPropertyOp49
 70
     1
102
RTVSPropertyOp50
 70
     1
102
RTVSPropertyOp51
 70
     0
102
RTVSPropertyOp52
 70
     0
102
RTVSPropertyOp53
 70
     1
102
RTVSPropertyOp54
 70
     1
102
RTVSPropertyOp55
 70
     1
102
RTVSPropertyOp56
 70
     1
102
RTVSPropertyOp57
 70
     1
102
RTVSPropertyOp58
 70
     1
102
RTVSPropertyOp59
 70
     1
102
RTVSPropertyOp60
 70
     1
102
RTVSPropertyOp61
 70
     1
102
RTVSPropertyOp62
 70
     1
  0
XRECORD
  5
57D
102
{ACAD_REACTORS
330
57C
102
}
330
57C
100
AcDbXrecord
280
     1
102
RTVSPost2010Prop28
280
     0
102
RTVSPost2010PropOp28
 70
     1
102
RTVSPost2010Prop29
280
     1
102
RTVSPost2010PropOp29
 70
     1
102
RTVSPost2010Prop30
280
     1
102
RTVSPost2010PropOp30
 70
     1
102
RTVSPost2010Prop31
280
     0
102
RTVSPost2010PropOp31
 70
     1
102
RTVSPost2010Prop32
280
     0
102
RTVSPost2010PropOp32
 70
     1
102
RTVSPost2010Prop33
280
     0
102
RTVSPost2010PropOp33
 70
     1
102
RTVSPost2010Prop34
280
     0
102
RTVSPost2010PropOp34
 70
     1
102
RTVSPost2010Prop35
280
     0
102
RTVSPost2010PropOp35
 70
     1
102
RTVSPost2010Prop36
280
     0
102
RTVSPost2010PropOp36
 70
     1
102
RTVSPost2010Prop37
 90
       50
102
RTVSPost2010PropOp37
 70
     1
102
RTVSPost2010Prop38
140
0.0
102
RTVSPost2010PropOp38
 70
     1
102
RTVSPost2010Prop39
140
1.0
102
RTVSPost2010PropOp39
 70
     1
102
RTVSPost2010Prop40
 90
        0
102
RTVSPost2010PropOp40
 70
     1
102
RTVSPost2010Prop41ColorIndex
 90
       18
102
RTVSPost2010Prop41ColorRGB
 90
        0
102
RTVSPost2010PropOp41
 70
     1
102
RTVSPost2010Prop42
 90
       50
102
RTVSPost2010PropOp42
 70
     1
102
RTVSPost2010Prop43
 90
        3
102
RTVSPost2010PropOp43
 70
     1
102
RTVSPost2010Prop44ColorIndex
 90
        5
102
RTVSPost2010Prop44ColorRGB
 90
      255
102
RTVSPost2010PropOp44
 70
     1
102
RTVSPost2010Prop45
280
     0
102
RTVSPost2010PropOp45
 70
     1
102
RTVSPost2010Prop46
 90
       50
102
RTVSPost2010PropOp46
 70
     1
102
RTVSPost2010Prop47
 90
       50
102
RTVSPost2010PropOp47
 70
     1
102
RTVSPost2010Prop48
 90
       50
102
RTVSPost2010PropOp48
 70
     1
102
RTVSPost2010Prop49
280
     0
102
RTVSPost2010PropOp49
 70
     1
102
RTVSPost2010Prop50
 90
       50
102
RTVSPost2010PropOp50
 70
     1
102
RTVSPost2010Prop51ColorIndex
 90
      256
102
RTVSPost2010Prop51ColorRGB
 90
-16777216
102
RTVSPost2010PropOp51
 70
     0
102
RTVSPost2010Prop52
140
1.0
102
RTVSPost2010PropOp52
 70
     0
102
RTVSPost2010Prop53
 90
        2
102
RTVSPost2010PropOp53
 70
     1
102
RTVSPost2010Prop54
  1
strokes_ogs.tif
102
RTVSPost2010PropOp54
 70
     1
102
RTVSPost2010Prop55
280
     0
102
RTVSPost2010PropOp55
 70
     1
102
RTVSPost2010Prop56
140
1.0
102
RTVSPost2010PropOp56
 70
     1
102
RTVSPost2010Prop57
140
1.0
102
RTVSPost2010PropOp57
 70
     1
102
RTVSPropertyOp0
 70
     1
102
RTVSPropertyOp1
 70
     1
102
RTVSPropertyOp2
 70
     1
102
RTVSPropertyOp3
 70
     1
102
RTVSPropertyOp4
 70
     1
102
RTVSPropertyOp5
 70
     1
102
RTVSPropertyOp6
 70
     1
102
RTVSPropertyOp7
 70
     1
102
RTVSPropertyOp8
 70
     1
102
RTVSPropertyOp9
 70
     1
102
RTVSPropertyOp10
 70
     1
102
RTVSPropertyOp11
 70
     1
102
RTVSPropertyOp12
 70
     1
102
RTVSPropertyOp13
 70
     1
102
RTVSPropertyOp14
 70
     1
102
RTVSPropertyOp15
 70
     1
102
RTVSPropertyOp16
 70
     1
102
RTVSPropertyOp17
 70
     1
102
RTVSPropertyOp18
 70
     1
102
RTVSPropertyOp19
 70
     1
102
RTVSPropertyOp20
 70
     1
102
RTVSPropertyOp21
 70
     1
102
RTVSPropertyOp22
 70
     1
102
RTVSPropertyOp23
 70
     1
102
RTVSPropertyOp24
 70
     1
102
RTVSPropertyOp25
 70
     1
102
RTVSPropertyOp26
 70
     1
102
RTVSPropertyOp27
 70
     1
102
RTVSPropertyOp28
 70
     1
102
RTVSPropertyOp29
 70
     1
102
RTVSPropertyOp30
 70
     1
102
RTVSPropertyOp31
 70
     1
102
RTVSPropertyOp32
 70
     1
102
RTVSPropertyOp33
 70
     1
102
RTVSPropertyOp34
 70
     1
102
RTVSPropertyOp35
 70
     1
102
RTVSPropertyOp36
 70
     1
102
RTVSPropertyOp37
 70
     1
102
RTVSPropertyOp38
 70
     1
102
RTVSPropertyOp39
 70
     1
102
RTVSPropertyOp40
 70
     1
102
RTVSPropertyOp41
 70
     1
102
RTVSPropertyOp42
 70
     1
102
RTVSPropertyOp43
 70
     1
102
RTVSPropertyOp44
 70
     1
102
RTVSPropertyOp45
 70
     1
102
RTVSPropertyOp46
 70
     1
102
RTVSPropertyOp47
 70
     1
102
RTVSPropertyOp48
 70
     1
102
RTVSPropertyOp49
 70
     1
102
RTVSPropertyOp50
 70
     1
102
RTVSPropertyOp51
 70
     0
102
RTVSPropertyOp52
 70
     0
102
RTVSPropertyOp53
 70
     1
102
RTVSPropertyOp54
 70
     1
102
RTVSPropertyOp55
 70
     1
102
RTVSPropertyOp56
 70
     1
102
RTVSPropertyOp57
 70
     1
102
RTVSPropertyOp58
 70
     1
102
RTVSPropertyOp59
 70
     1
102
RTVSPropertyOp60
 70
     1
102
RTVSPropertyOp61
 70
     1
102
RTVSPropertyOp62
 70
     1
  0
XRECORD
  5
597
102
{ACAD_REACTORS
330
596
102
}
330
596
100
AcDbXrecord
280
     1
102
RTVSPost2010Prop28
280
     0
102
RTVSPost2010PropOp28
 70
     1
102
RTVSPost2010Prop29
280
     1
102
RTVSPost2010PropOp29
 70
     1
102
RTVSPost2010Prop30
280
     1
102
RTVSPost2010PropOp30
 70
     1
102
RTVSPost2010Prop31
280
     0
102
RTVSPost2010PropOp31
 70
     1
102
RTVSPost2010Prop32
280
     0
102
RTVSPost2010PropOp32
 70
     1
102
RTVSPost2010Prop33
280
     0
102
RTVSPost2010PropOp33
 70
     1
102
RTVSPost2010Prop34
280
     0
102
RTVSPost2010PropOp34
 70
     1
102
RTVSPost2010Prop35
280
     0
102
RTVSPost2010PropOp35
 70
     1
102
RTVSPost2010Prop36
280
     0
102
RTVSPost2010PropOp36
 70
     1
102
RTVSPost2010Prop37
 90
       50
102
RTVSPost2010PropOp37
 70
     0
102
RTVSPost2010Prop38
140
0.0
102
RTVSPost2010PropOp38
 70
     0
102
RTVSPost2010Prop39
140
1.0
102
RTVSPost2010PropOp39
 70
     0
102
RTVSPost2010Prop40
 90
        0
102
RTVSPost2010PropOp40
 70
     0
102
RTVSPost2010Prop41ColorIndex
 90
       18
102
RTVSPost2010Prop41ColorRGB
 90
        0
102
RTVSPost2010PropOp41
 70
     0
102
RTVSPost2010Prop42
 90
       50
102
RTVSPost2010PropOp42
 70
     0
102
RTVSPost2010Prop43
 90
        3
102
RTVSPost2010PropOp43
 70
     0
102
RTVSPost2010Prop44ColorIndex
 90
        5
102
RTVSPost2010Prop44ColorRGB
 90
      255
102
RTVSPost2010PropOp44
 70
     0
102
RTVSPost2010Prop45
280
     0
102
RTVSPost2010PropOp45
 70
     1
102
RTVSPost2010Prop46
 90
       50
102
RTVSPost2010PropOp46
 70
     0
102
RTVSPost2010Prop47
 90
       50
102
RTVSPost2010PropOp47
 70
     0
102
RTVSPost2010Prop48
 90
       50
102
RTVSPost2010PropOp48
 70
     0
102
RTVSPost2010Prop49
280
     0
102
RTVSPost2010PropOp49
 70
     1
102
RTVSPost2010Prop50
 90
       50
102
RTVSPost2010PropOp50
 70
     0
102
RTVSPost2010Prop51ColorIndex
 90
      256
102
RTVSPost2010Prop51ColorRGB
 90
-16777216
102
RTVSPost2010PropOp51
 70
     0
102
RTVSPost2010Prop52
140
1.0
102
RTVSPost2010PropOp52
 70
     0
102
RTVSPost2010Prop53
 90
        2
102
RTVSPost2010PropOp53
 70
     0
102
RTVSPost2010Prop54
  1
strokes_ogs.tif
102
RTVSPost2010PropOp54
 70
     0
102
RTVSPost2010Prop55
280
     0
102
RTVSPost2010PropOp55
 70
     1
102
RTVSPost2010Prop56
140
1.0
102
RTVSPost2010PropOp56
 70
     0
102
RTVSPost2010Prop57
140
1.0
102
RTVSPost2010PropOp57
 70
     0
102
RTVSPropertyOp0
 70
     0
102
RTVSPropertyOp1
 70
     0
102
RTVSPropertyOp2
 70
     0
102
RTVSPropertyOp3
 70
     0
102
RTVSPropertyOp4
 70
     0
102
RTVSPropertyOp5
 70
     0
102
RTVSPropertyOp6
 70
     0
102
RTVSPropertyOp7
 70
     0
102
RTVSPropertyOp8
 70
     0
102
RTVSPropertyOp9
 70
     0
102
RTVSPropertyOp10
 70
     0
102
RTVSPropertyOp11
 70
     0
102
RTVSPropertyOp12
 70
     0
102
RTVSPropertyOp13
 70
     0
102
RTVSPropertyOp14
 70
     2
102
RTVSPropertyOp15
 70
     0
102
RTVSPropertyOp16
 70
     0
102
RTVSPropertyOp17
 70
     0
102
RTVSPropertyOp18
 70
     0
102
RTVSPropertyOp19
 70
     0
102
RTVSPropertyOp20
 70
     0
102
RTVSPropertyOp21
 70
     0
102
RTVSPropertyOp22
 70
     0
102
RTVSPropertyOp23
 70
     0
102
RTVSPropertyOp24
 70
     0
102
RTVSPropertyOp25
 70
     0
102
RTVSPropertyOp26
 70
     0
102
RTVSPropertyOp27
 70
     0
102
RTVSPropertyOp28
 70
     1
102
RTVSPropertyOp29
 70
     1
102
RTVSPropertyOp30
 70
     1
102
RTVSPropertyOp31
 70
     1
102
RTVSPropertyOp32
 70
     1
102
RTVSPropertyOp33
 70
     1
102
RTVSPropertyOp34
 70
     1
102
RTVSPropertyOp35
 70
     1
102
RTVSPropertyOp36
 70
     1
102
RTVSPropertyOp37
 70
     0
102
RTVSPropertyOp38
 70
     0
102
RTVSPropertyOp39
 70
     0
102
RTVSPropertyOp40
 70
     0
102
RTVSPropertyOp41
 70
     0
102
RTVSPropertyOp42
 70
     0
102
RTVSPropertyOp43
 70
     0
102
RTVSPropertyOp44
 70
     0
102
RTVSPropertyOp45
 70
     1
102
RTVSPropertyOp46
 70
     0
102
RTVSPropertyOp47
 70
     0
102
RTVSPropertyOp48
 70
     0
102
RTVSPropertyOp49
 70
     1
102
RTVSPropertyOp50
 70
     0
102
RTVSPropertyOp51
 70
     0
102
RTVSPropertyOp52
 70
     0
102
RTVSPropertyOp53
 70
     0
102
RTVSPropertyOp54
 70
     0
102
RTVSPropertyOp55
 70
     1
102
RTVSPropertyOp56
 70
     0
102
RTVSPropertyOp57
 70
     0
102
RTVSPropertyOp58
 70
     0
102
RTVSPropertyOp59
 70
     0
102
RTVSPropertyOp60
 70
     0
102
RTVSPropertyOp61
 70
     0
102
RTVSPropertyOp62
 70
     0
  0
XRECORD
  5
585
102
{ACAD_REACTORS
330
584
102
}
330
584
100
AcDbXrecord
280
     1
102
RTVSPost2010Prop28
280
     0
102
RTVSPost2010PropOp28
 70
     1
102
RTVSPost2010Prop29
280
     1
102
RTVSPost2010PropOp29
 70
     1
102
RTVSPost2010Prop30
280
     1
102
RTVSPost2010PropOp30
 70
     1
102
RTVSPost2010Prop31
280
     0
102
RTVSPost2010PropOp31
 70
     1
102
RTVSPost2010Prop32
280
     0
102
RTVSPost2010PropOp32
 70
     1
102
RTVSPost2010Prop33
280
     0
102
RTVSPost2010PropOp33
 70
     1
102
RTVSPost2010Prop34
280
     0
102
RTVSPost2010PropOp34
 70
     1
102
RTVSPost2010Prop35
280
     0
102
RTVSPost2010PropOp35
 70
     1
102
RTVSPost2010Prop36
280
     0
102
RTVSPost2010PropOp36
 70
     1
102
RTVSPost2010Prop37
 90
       50
102
RTVSPost2010PropOp37
 70
     1
102
RTVSPost2010Prop38
140
0.0
102
RTVSPost2010PropOp38
 70
     1
102
RTVSPost2010Prop39
140
1.0
102
RTVSPost2010PropOp39
 70
     1
102
RTVSPost2010Prop40
 90
        0
102
RTVSPost2010PropOp40
 70
     1
102
RTVSPost2010Prop41ColorIndex
 90
       18
102
RTVSPost2010Prop41ColorRGB
 90
        0
102
RTVSPost2010PropOp41
 70
     1
102
RTVSPost2010Prop42
 90
       50
102
RTVSPost2010PropOp42
 70
     1
102
RTVSPost2010Prop43
 90
        3
102
RTVSPost2010PropOp43
 70
     1
102
RTVSPost2010Prop44ColorIndex
 90
        5
102
RTVSPost2010Prop44ColorRGB
 90
      255
102
RTVSPost2010PropOp44
 70
     1
102
RTVSPost2010Prop45
280
     0
102
RTVSPost2010PropOp45
 70
     1
102
RTVSPost2010Prop46
 90
       50
102
RTVSPost2010PropOp46
 70
     1
102
RTVSPost2010Prop47
 90
       50
102
RTVSPost2010PropOp47
 70
     1
102
RTVSPost2010Prop48
 90
       50
102
RTVSPost2010PropOp48
 70
     1
102
RTVSPost2010Prop49
280
     0
102
RTVSPost2010PropOp49
 70
     1
102
RTVSPost2010Prop50
 90
       50
102
RTVSPost2010PropOp50
 70
     1
102
RTVSPost2010Prop51ColorIndex
 90
      256
102
RTVSPost2010Prop51ColorRGB
 90
-16777216
102
RTVSPost2010PropOp51
 70
     0
102
RTVSPost2010Prop52
140
1.0
102
RTVSPost2010PropOp52
 70
     0
102
RTVSPost2010Prop53
 90
        2
102
RTVSPost2010PropOp53
 70
     1
102
RTVSPost2010Prop54
  1
strokes_ogs.tif
102
RTVSPost2010PropOp54
 70
     1
102
RTVSPost2010Prop55
280
     0
102
RTVSPost2010PropOp55
 70
     1
102
RTVSPost2010Prop56
140
1.0
102
RTVSPost2010PropOp56
 70
     1
102
RTVSPost2010Prop57
140
1.0
102
RTVSPost2010PropOp57
 70
     1
102
RTVSPropertyOp0
 70
     1
102
RTVSPropertyOp1
 70
     1
102
RTVSPropertyOp2
 70
     1
102
RTVSPropertyOp3
 70
     1
102
RTVSPropertyOp4
 70
     1
102
RTVSPropertyOp5
 70
     1
102
RTVSPropertyOp6
 70
     1
102
RTVSPropertyOp7
 70
     1
102
RTVSPropertyOp8
 70
     1
102
RTVSPropertyOp9
 70
     1
102
RTVSPropertyOp10
 70
     1
102
RTVSPropertyOp11
 70
     1
102
RTVSPropertyOp12
 70
     1
102
RTVSPropertyOp13
 70
     1
102
RTVSPropertyOp14
 70
     1
102
RTVSPropertyOp15
 70
     1
102
RTVSPropertyOp16
 70
     1
102
RTVSPropertyOp17
 70
     1
102
RTVSPropertyOp18
 70
     1
102
RTVSPropertyOp19
 70
     1
102
RTVSPropertyOp20
 70
     1
102
RTVSPropertyOp21
 70
     1
102
RTVSPropertyOp22
 70
     1
102
RTVSPropertyOp23
 70
     1
102
RTVSPropertyOp24
 70
     1
102
RTVSPropertyOp25
 70
     1
102
RTVSPropertyOp26
 70
     1
102
RTVSPropertyOp27
 70
     1
102
RTVSPropertyOp28
 70
     1
102
RTVSPropertyOp29
 70
     1
102
RTVSPropertyOp30
 70
     1
102
RTVSPropertyOp31
 70
     1
102
RTVSPropertyOp32
 70
     1
102
RTVSPropertyOp33
 70
     1
102
RTVSPropertyOp34
 70
     1
102
RTVSPropertyOp35
 70
     1
102
RTVSPropertyOp36
 70
     1
102
RTVSPropertyOp37
 70
     1
102
RTVSPropertyOp38
 70
     1
102
RTVSPropertyOp39
 70
     1
102
RTVSPropertyOp40
 70
     1
102
RTVSPropertyOp41
 70
     1
102
RTVSPropertyOp42
 70
     1
102
RTVSPropertyOp43
 70
     1
102
RTVSPropertyOp44
 70
     1
102
RTVSPropertyOp45
 70
     1
102
RTVSPropertyOp46
 70
     1
102
RTVSPropertyOp47
 70
     1
102
RTVSPropertyOp48
 70
     1
102
RTVSPropertyOp49
 70
     1
102
RTVSPropertyOp50
 70
     1
102
RTVSPropertyOp51
 70
     0
102
RTVSPropertyOp52
 70
     0
102
RTVSPropertyOp53
 70
     1
102
RTVSPropertyOp54
 70
     1
102
RTVSPropertyOp55
 70
     1
102
RTVSPropertyOp56
 70
     1
102
RTVSPropertyOp57
 70
     1
102
RTVSPropertyOp58
 70
     1
102
RTVSPropertyOp59
 70
     1
102
RTVSPropertyOp60
 70
     1
102
RTVSPropertyOp61
 70
     1
102
RTVSPropertyOp62
 70
     1
  0
XRECORD
  5
569
102
{ACAD_REACTORS
330
568
102
}
330
568
100
AcDbXrecord
280
     1
102
RTVSPost2010Prop28
280
     0
102
RTVSPost2010PropOp28
 70
     1
102
RTVSPost2010Prop29
280
     1
102
RTVSPost2010PropOp29
 70
     1
102
RTVSPost2010Prop30
280
     1
102
RTVSPost2010PropOp30
 70
     1
102
RTVSPost2010Prop31
280
     0
102
RTVSPost2010PropOp31
 70
     1
102
RTVSPost2010Prop32
280
     0
102
RTVSPost2010PropOp32
 70
     1
102
RTVSPost2010Prop33
280
     0
102
RTVSPost2010PropOp33
 70
     1
102
RTVSPost2010Prop34
280
     0
102
RTVSPost2010PropOp34
 70
     1
102
RTVSPost2010Prop35
280
     0
102
RTVSPost2010PropOp35
 70
     1
102
RTVSPost2010Prop36
280
     0
102
RTVSPost2010PropOp36
 70
     1
102
RTVSPost2010Prop37
 90
       50
102
RTVSPost2010PropOp37
 70
     1
102
RTVSPost2010Prop38
140
0.0
102
RTVSPost2010PropOp38
 70
     1
102
RTVSPost2010Prop39
140
1.0
102
RTVSPost2010PropOp39
 70
     1
102
RTVSPost2010Prop40
 90
        0
102
RTVSPost2010PropOp40
 70
     1
102
RTVSPost2010Prop41ColorIndex
 90
       18
102
RTVSPost2010Prop41ColorRGB
 90
        0
102
RTVSPost2010PropOp41
 70
     1
102
RTVSPost2010Prop42
 90
       50
102
RTVSPost2010PropOp42
 70
     1
102
RTVSPost2010Prop43
 90
        3
102
RTVSPost2010PropOp43
 70
     1
102
RTVSPost2010Prop44ColorIndex
 90
        5
102
RTVSPost2010Prop44ColorRGB
 90
      255
102
RTVSPost2010PropOp44
 70
     1
102
RTVSPost2010Prop45
280
     0
102
RTVSPost2010PropOp45
 70
     1
102
RTVSPost2010Prop46
 90
       50
102
RTVSPost2010PropOp46
 70
     1
102
RTVSPost2010Prop47
 90
       50
102
RTVSPost2010PropOp47
 70
     1
102
RTVSPost2010Prop48
 90
       50
102
RTVSPost2010PropOp48
 70
     1
102
RTVSPost2010Prop49
280
     0
102
RTVSPost2010PropOp49
 70
     1
102
RTVSPost2010Prop50
 90
       50
102
RTVSPost2010PropOp50
 70
     1
102
RTVSPost2010Prop51ColorIndex
 90
      256
102
RTVSPost2010Prop51ColorRGB
 90
-16777216
102
RTVSPost2010PropOp51
 70
     0
102
RTVSPost2010Prop52
140
1.0
102
RTVSPost2010PropOp52
 70
     0
102
RTVSPost2010Prop53
 90
        2
102
RTVSPost2010PropOp53
 70
     1
102
RTVSPost2010Prop54
  1
strokes_ogs.tif
102
RTVSPost2010PropOp54
 70
     1
102
RTVSPost2010Prop55
280
     0
102
RTVSPost2010PropOp55
 70
     1
102
RTVSPost2010Prop56
140
1.0
102
RTVSPost2010PropOp56
 70
     1
102
RTVSPost2010Prop57
140
1.0
102
RTVSPost2010PropOp57
 70
     1
102
RTVSPropertyOp0
 70
     1
102
RTVSPropertyOp1
 70
     1
102
RTVSPropertyOp2
 70
     1
102
RTVSPropertyOp3
 70
     1
102
RTVSPropertyOp4
 70
     1
102
RTVSPropertyOp5
 70
     1
102
RTVSPropertyOp6
 70
     1
102
RTVSPropertyOp7
 70
     1
102
RTVSPropertyOp8
 70
     1
102
RTVSPropertyOp9
 70
     1
102
RTVSPropertyOp10
 70
     1
102
RTVSPropertyOp11
 70
     1
102
RTVSPropertyOp12
 70
     1
102
RTVSPropertyOp13
 70
     1
102
RTVSPropertyOp14
 70
     1
102
RTVSPropertyOp15
 70
     1
102
RTVSPropertyOp16
 70
     1
102
RTVSPropertyOp17
 70
     1
102
RTVSPropertyOp18
 70
     1
102
RTVSPropertyOp19
 70
     1
102
RTVSPropertyOp20
 70
     1
102
RTVSPropertyOp21
 70
     1
102
RTVSPropertyOp22
 70
     1
102
RTVSPropertyOp23
 70
     1
102
RTVSPropertyOp24
 70
     1
102
RTVSPropertyOp25
 70
     1
102
RTVSPropertyOp26
 70
     1
102
RTVSPropertyOp27
 70
     1
102
RTVSPropertyOp28
 70
     1
102
RTVSPropertyOp29
 70
     1
102
RTVSPropertyOp30
 70
     1
102
RTVSPropertyOp31
 70
     1
102
RTVSPropertyOp32
 70
     1
102
RTVSPropertyOp33
 70
     1
102
RTVSPropertyOp34
 70
     1
102
RTVSPropertyOp35
 70
     1
102
RTVSPropertyOp36
 70
     1
102
RTVSPropertyOp37
 70
     1
102
RTVSPropertyOp38
 70
     1
102
RTVSPropertyOp39
 70
     1
102
RTVSPropertyOp40
 70
     1
102
RTVSPropertyOp41
 70
     1
102
RTVSPropertyOp42
 70
     1
102
RTVSPropertyOp43
 70
     1
102
RTVSPropertyOp44
 70
     1
102
RTVSPropertyOp45
 70
     1
102
RTVSPropertyOp46
 70
     1
102
RTVSPropertyOp47
 70
     1
102
RTVSPropertyOp48
 70
     1
102
RTVSPropertyOp49
 70
     1
102
RTVSPropertyOp50
 70
     1
102
RTVSPropertyOp51
 70
     0
102
RTVSPropertyOp52
 70
     0
102
RTVSPropertyOp53
 70
     1
102
RTVSPropertyOp54
 70
     1
102
RTVSPropertyOp55
 70
     1
102
RTVSPropertyOp56
 70
     1
102
RTVSPropertyOp57
 70
     1
102
RTVSPropertyOp58
 70
     1
102
RTVSPropertyOp59
 70
     1
102
RTVSPropertyOp60
 70
     1
102
RTVSPropertyOp61
 70
     1
102
RTVSPropertyOp62
 70
     1
  0
XRECORD
  5
56B
102
{ACAD_REACTORS
330
56A
102
}
330
56A
100
AcDbXrecord
280
     1
102
RTVSPost2010Prop28
280
     0
102
RTVSPost2010PropOp28
 70
     1
102
RTVSPost2010Prop29
280
     1
102
RTVSPost2010PropOp29
 70
     1
102
RTVSPost2010Prop30
280
     1
102
RTVSPost2010PropOp30
 70
     1
102
RTVSPost2010Prop31
280
     0
102
RTVSPost2010PropOp31
 70
     1
102
RTVSPost2010Prop32
280
     0
102
RTVSPost2010PropOp32
 70
     1
102
RTVSPost2010Prop33
280
     0
102
RTVSPost2010PropOp33
 70
     1
102
RTVSPost2010Prop34
280
     0
102
RTVSPost2010PropOp34
 70
     1
102
RTVSPost2010Prop35
280
     0
102
RTVSPost2010PropOp35
 70
     1
102
RTVSPost2010Prop36
280
     0
102
RTVSPost2010PropOp36
 70
     1
102
RTVSPost2010Prop37
 90
       50
102
RTVSPost2010PropOp37
 70
     1
102
RTVSPost2010Prop38
140
0.0
102
RTVSPost2010PropOp38
 70
     1
102
RTVSPost2010Prop39
140
1.0
102
RTVSPost2010PropOp39
 70
     1
102
RTVSPost2010Prop40
 90
        0
102
RTVSPost2010PropOp40
 70
     1
102
RTVSPost2010Prop41ColorIndex
 90
       18
102
RTVSPost2010Prop41ColorRGB
 90
        0
102
RTVSPost2010PropOp41
 70
     1
102
RTVSPost2010Prop42
 90
       50
102
RTVSPost2010PropOp42
 70
     1
102
RTVSPost2010Prop43
 90
        3
102
RTVSPost2010PropOp43
 70
     1
102
RTVSPost2010Prop44ColorIndex
 90
        5
102
RTVSPost2010Prop44ColorRGB
 90
      255
102
RTVSPost2010PropOp44
 70
     1
102
RTVSPost2010Prop45
280
     0
102
RTVSPost2010PropOp45
 70
     1
102
RTVSPost2010Prop46
 90
       50
102
RTVSPost2010PropOp46
 70
     1
102
RTVSPost2010Prop47
 90
       50
102
RTVSPost2010PropOp47
 70
     1
102
RTVSPost2010Prop48
 90
       50
102
RTVSPost2010PropOp48
 70
     1
102
RTVSPost2010Prop49
280
     0
102
RTVSPost2010PropOp49
 70
     1
102
RTVSPost2010Prop50
 90
       50
102
RTVSPost2010PropOp50
 70
     1
102
RTVSPost2010Prop51ColorIndex
 90
      256
102
RTVSPost2010Prop51ColorRGB
 90
-16777216
102
RTVSPost2010PropOp51
 70
     0
102
RTVSPost2010Prop52
140
1.0
102
RTVSPost2010PropOp52
 70
     0
102
RTVSPost2010Prop53
 90
        2
102
RTVSPost2010PropOp53
 70
     1
102
RTVSPost2010Prop54
  1
strokes_ogs.tif
102
RTVSPost2010PropOp54
 70
     1
102
RTVSPost2010Prop55
280
     0
102
RTVSPost2010PropOp55
 70
     1
102
RTVSPost2010Prop56
140
1.0
102
RTVSPost2010PropOp56
 70
     1
102
RTVSPost2010Prop57
140
1.0
102
RTVSPost2010PropOp57
 70
     1
102
RTVSPropertyOp0
 70
     1
102
RTVSPropertyOp1
 70
     1
102
RTVSPropertyOp2
 70
     1
102
RTVSPropertyOp3
 70
     1
102
RTVSPropertyOp4
 70
     1
102
RTVSPropertyOp5
 70
     1
102
RTVSPropertyOp6
 70
     1
102
RTVSPropertyOp7
 70
     1
102
RTVSPropertyOp8
 70
     1
102
RTVSPropertyOp9
 70
     1
102
RTVSPropertyOp10
 70
     1
102
RTVSPropertyOp11
 70
     1
102
RTVSPropertyOp12
 70
     1
102
RTVSPropertyOp13
 70
     1
102
RTVSPropertyOp14
 70
     1
102
RTVSPropertyOp15
 70
     1
102
RTVSPropertyOp16
 70
     1
102
RTVSPropertyOp17
 70
     1
102
RTVSPropertyOp18
 70
     1
102
RTVSPropertyOp19
 70
     1
102
RTVSPropertyOp20
 70
     1
102
RTVSPropertyOp21
 70
     1
102
RTVSPropertyOp22
 70
     1
102
RTVSPropertyOp23
 70
     1
102
RTVSPropertyOp24
 70
     1
102
RTVSPropertyOp25
 70
     1
102
RTVSPropertyOp26
 70
     1
102
RTVSPropertyOp27
 70
     1
102
RTVSPropertyOp28
 70
     1
102
RTVSPropertyOp29
 70
     1
102
RTVSPropertyOp30
 70
     1
102
RTVSPropertyOp31
 70
     1
102
RTVSPropertyOp32
 70
     1
102
RTVSPropertyOp33
 70
     1
102
RTVSPropertyOp34
 70
     1
102
RTVSPropertyOp35
 70
     1
102
RTVSPropertyOp36
 70
     1
102
RTVSPropertyOp37
 70
     1
102
RTVSPropertyOp38
 70
     1
102
RTVSPropertyOp39
 70
     1
102
RTVSPropertyOp40
 70
     1
102
RTVSPropertyOp41
 70
     1
102
RTVSPropertyOp42
 70
     1
102
RTVSPropertyOp43
 70
     1
102
RTVSPropertyOp44
 70
     1
102
RTVSPropertyOp45
 70
     1
102
RTVSPropertyOp46
 70
     1
102
RTVSPropertyOp47
 70
     1
102
RTVSPropertyOp48
 70
     1
102
RTVSPropertyOp49
 70
     1
102
RTVSPropertyOp50
 70
     1
102
RTVSPropertyOp51
 70
     0
102
RTVSPropertyOp52
 70
     0
102
RTVSPropertyOp53
 70
     1
102
RTVSPropertyOp54
 70
     1
102
RTVSPropertyOp55
 70
     1
102
RTVSPropertyOp56
 70
     1
102
RTVSPropertyOp57
 70
     1
102
RTVSPropertyOp58
 70
     1
102
RTVSPropertyOp59
 70
     1
102
RTVSPropertyOp60
 70
     1
102
RTVSPropertyOp61
 70
     1
102
RTVSPropertyOp62
 70
     1
  0
XRECORD
  5
56D
102
{ACAD_REACTORS
330
56C
102
}
330
56C
100
AcDbXrecord
280
     1
102
RTVSPost2010Prop28
280
     0
102
RTVSPost2010PropOp28
 70
     1
102
RTVSPost2010Prop29
280
     1
102
RTVSPost2010PropOp29
 70
     1
102
RTVSPost2010Prop30
280
     1
102
RTVSPost2010PropOp30
 70
     1
102
RTVSPost2010Prop31
280
     0
102
RTVSPost2010PropOp31
 70
     1
102
RTVSPost2010Prop32
280
     0
102
RTVSPost2010PropOp32
 70
     1
102
RTVSPost2010Prop33
280
     0
102
RTVSPost2010PropOp33
 70
     1
102
RTVSPost2010Prop34
280
     0
102
RTVSPost2010PropOp34
 70
     1
102
RTVSPost2010Prop35
280
     0
102
RTVSPost2010PropOp35
 70
     1
102
RTVSPost2010Prop36
280
     0
102
RTVSPost2010PropOp36
 70
     1
102
RTVSPost2010Prop37
 90
       50
102
RTVSPost2010PropOp37
 70
     1
102
RTVSPost2010Prop38
140
0.0
102
RTVSPost2010PropOp38
 70
     1
102
RTVSPost2010Prop39
140
1.0
102
RTVSPost2010PropOp39
 70
     1
102
RTVSPost2010Prop40
 90
        0
102
RTVSPost2010PropOp40
 70
     1
102
RTVSPost2010Prop41ColorIndex
 90
       18
102
RTVSPost2010Prop41ColorRGB
 90
        0
102
RTVSPost2010PropOp41
 70
     1
102
RTVSPost2010Prop42
 90
       50
102
RTVSPost2010PropOp42
 70
     1
102
RTVSPost2010Prop43
 90
        3
102
RTVSPost2010PropOp43
 70
     1
102
RTVSPost2010Prop44ColorIndex
 90
        5
102
RTVSPost2010Prop44ColorRGB
 90
      255
102
RTVSPost2010PropOp44
 70
     1
102
RTVSPost2010Prop45
280
     0
102
RTVSPost2010PropOp45
 70
     1
102
RTVSPost2010Prop46
 90
       50
102
RTVSPost2010PropOp46
 70
     1
102
RTVSPost2010Prop47
 90
       50
102
RTVSPost2010PropOp47
 70
     1
102
RTVSPost2010Prop48
 90
       50
102
RTVSPost2010PropOp48
 70
     1
102
RTVSPost2010Prop49
280
     0
102
RTVSPost2010PropOp49
 70
     1
102
RTVSPost2010Prop50
 90
       50
102
RTVSPost2010PropOp50
 70
     1
102
RTVSPost2010Prop51ColorIndex
 90
      256
102
RTVSPost2010Prop51ColorRGB
 90
-16777216
102
RTVSPost2010PropOp51
 70
     0
102
RTVSPost2010Prop52
140
1.0
102
RTVSPost2010PropOp52
 70
     0
102
RTVSPost2010Prop53
 90
        2
102
RTVSPost2010PropOp53
 70
     1
102
RTVSPost2010Prop54
  1
strokes_ogs.tif
102
RTVSPost2010PropOp54
 70
     1
102
RTVSPost2010Prop55
280
     0
102
RTVSPost2010PropOp55
 70
     1
102
RTVSPost2010Prop56
140
1.0
102
RTVSPost2010PropOp56
 70
     1
102
RTVSPost2010Prop57
140
1.0
102
RTVSPost2010PropOp57
 70
     1
102
RTVSPropertyOp0
 70
     1
102
RTVSPropertyOp1
 70
     1
102
RTVSPropertyOp2
 70
     1
102
RTVSPropertyOp3
 70
     1
102
RTVSPropertyOp4
 70
     1
102
RTVSPropertyOp5
 70
     1
102
RTVSPropertyOp6
 70
     1
102
RTVSPropertyOp7
 70
     1
102
RTVSPropertyOp8
 70
     1
102
RTVSPropertyOp9
 70
     1
102
RTVSPropertyOp10
 70
     1
102
RTVSPropertyOp11
 70
     1
102
RTVSPropertyOp12
 70
     1
102
RTVSPropertyOp13
 70
     1
102
RTVSPropertyOp14
 70
     1
102
RTVSPropertyOp15
 70
     1
102
RTVSPropertyOp16
 70
     1
102
RTVSPropertyOp17
 70
     1
102
RTVSPropertyOp18
 70
     1
102
RTVSPropertyOp19
 70
     1
102
RTVSPropertyOp20
 70
     1
102
RTVSPropertyOp21
 70
     1
102
RTVSPropertyOp22
 70
     1
102
RTVSPropertyOp23
 70
     1
102
RTVSPropertyOp24
 70
     1
102
RTVSPropertyOp25
 70
     1
102
RTVSPropertyOp26
 70
     1
102
RTVSPropertyOp27
 70
     1
102
RTVSPropertyOp28
 70
     1
102
RTVSPropertyOp29
 70
     1
102
RTVSPropertyOp30
 70
     1
102
RTVSPropertyOp31
 70
     1
102
RTVSPropertyOp32
 70
     1
102
RTVSPropertyOp33
 70
     1
102
RTVSPropertyOp34
 70
     1
102
RTVSPropertyOp35
 70
     1
102
RTVSPropertyOp36
 70
     1
102
RTVSPropertyOp37
 70
     1
102
RTVSPropertyOp38
 70
     1
102
RTVSPropertyOp39
 70
     1
102
RTVSPropertyOp40
 70
     1
102
RTVSPropertyOp41
 70
     1
102
RTVSPropertyOp42
 70
     1
102
RTVSPropertyOp43
 70
     1
102
RTVSPropertyOp44
 70
     1
102
RTVSPropertyOp45
 70
     1
102
RTVSPropertyOp46
 70
     1
102
RTVSPropertyOp47
 70
     1
102
RTVSPropertyOp48
 70
     1
102
RTVSPropertyOp49
 70
     1
102
RTVSPropertyOp50
 70
     1
102
RTVSPropertyOp51
 70
     0
102
RTVSPropertyOp52
 70
     0
102
RTVSPropertyOp53
 70
     1
102
RTVSPropertyOp54
 70
     1
102
RTVSPropertyOp55
 70
     1
102
RTVSPropertyOp56
 70
     1
102
RTVSPropertyOp57
 70
     1
102
RTVSPropertyOp58
 70
     1
102
RTVSPropertyOp59
 70
     1
102
RTVSPropertyOp60
 70
     1
102
RTVSPropertyOp61
 70
     1
102
RTVSPropertyOp62
 70
     1
  0
XRECORD
  5
56F
102
{ACAD_REACTORS
330
56E
102
}
330
56E
100
AcDbXrecord
280
     1
102
RTVSPost2010Prop28
280
     0
102
RTVSPost2010PropOp28
 70
     1
102
RTVSPost2010Prop29
280
     1
102
RTVSPost2010PropOp29
 70
     1
102
RTVSPost2010Prop30
280
     1
102
RTVSPost2010PropOp30
 70
     1
102
RTVSPost2010Prop31
280
     0
102
RTVSPost2010PropOp31
 70
     1
102
RTVSPost2010Prop32
280
     0
102
RTVSPost2010PropOp32
 70
     1
102
RTVSPost2010Prop33
280
     0
102
RTVSPost2010PropOp33
 70
     1
102
RTVSPost2010Prop34
280
     0
102
RTVSPost2010PropOp34
 70
     1
102
RTVSPost2010Prop35
280
     0
102
RTVSPost2010PropOp35
 70
     1
102
RTVSPost2010Prop36
280
     0
102
RTVSPost2010PropOp36
 70
     1
102
RTVSPost2010Prop37
 90
       50
102
RTVSPost2010PropOp37
 70
     1
102
RTVSPost2010Prop38
140
0.0
102
RTVSPost2010PropOp38
 70
     1
102
RTVSPost2010Prop39
140
1.0
102
RTVSPost2010PropOp39
 70
     1
102
RTVSPost2010Prop40
 90
        0
102
RTVSPost2010PropOp40
 70
     1
102
RTVSPost2010Prop41ColorIndex
 90
       18
102
RTVSPost2010Prop41ColorRGB
 90
        0
102
RTVSPost2010PropOp41
 70
     1
102
RTVSPost2010Prop42
 90
       50
102
RTVSPost2010PropOp42
 70
     1
102
RTVSPost2010Prop43
 90
        3
102
RTVSPost2010PropOp43
 70
     1
102
RTVSPost2010Prop44ColorIndex
 90
        5
102
RTVSPost2010Prop44ColorRGB
 90
      255
102
RTVSPost2010PropOp44
 70
     1
102
RTVSPost2010Prop45
280
     0
102
RTVSPost2010PropOp45
 70
     1
102
RTVSPost2010Prop46
 90
       50
102
RTVSPost2010PropOp46
 70
     1
102
RTVSPost2010Prop47
 90
       50
102
RTVSPost2010PropOp47
 70
     1
102
RTVSPost2010Prop48
 90
       50
102
RTVSPost2010PropOp48
 70
     1
102
RTVSPost2010Prop49
280
     0
102
RTVSPost2010PropOp49
 70
     1
102
RTVSPost2010Prop50
 90
       50
102
RTVSPost2010PropOp50
 70
     1
102
RTVSPost2010Prop51ColorIndex
 90
      256
102
RTVSPost2010Prop51ColorRGB
 90
-16777216
102
RTVSPost2010PropOp51
 70
     0
102
RTVSPost2010Prop52
140
1.0
102
RTVSPost2010PropOp52
 70
     0
102
RTVSPost2010Prop53
 90
        2
102
RTVSPost2010PropOp53
 70
     1
102
RTVSPost2010Prop54
  1
strokes_ogs.tif
102
RTVSPost2010PropOp54
 70
     1
102
RTVSPost2010Prop55
280
     0
102
RTVSPost2010PropOp55
 70
     1
102
RTVSPost2010Prop56
140
1.0
102
RTVSPost2010PropOp56
 70
     1
102
RTVSPost2010Prop57
140
1.0
102
RTVSPost2010PropOp57
 70
     1
102
RTVSPropertyOp0
 70
     1
102
RTVSPropertyOp1
 70
     1
102
RTVSPropertyOp2
 70
     1
102
RTVSPropertyOp3
 70
     1
102
RTVSPropertyOp4
 70
     1
102
RTVSPropertyOp5
 70
     1
102
RTVSPropertyOp6
 70
     1
102
RTVSPropertyOp7
 70
     1
102
RTVSPropertyOp8
 70
     1
102
RTVSPropertyOp9
 70
     1
102
RTVSPropertyOp10
 70
     1
102
RTVSPropertyOp11
 70
     1
102
RTVSPropertyOp12
 70
     1
102
RTVSPropertyOp13
 70
     1
102
RTVSPropertyOp14
 70
     1
102
RTVSPropertyOp15
 70
     1
102
RTVSPropertyOp16
 70
     1
102
RTVSPropertyOp17
 70
     1
102
RTVSPropertyOp18
 70
     1
102
RTVSPropertyOp19
 70
     1
102
RTVSPropertyOp20
 70
     1
102
RTVSPropertyOp21
 70
     1
102
RTVSPropertyOp22
 70
     1
102
RTVSPropertyOp23
 70
     1
102
RTVSPropertyOp24
 70
     1
102
RTVSPropertyOp25
 70
     1
102
RTVSPropertyOp26
 70
     1
102
RTVSPropertyOp27
 70
     1
102
RTVSPropertyOp28
 70
     1
102
RTVSPropertyOp29
 70
     1
102
RTVSPropertyOp30
 70
     1
102
RTVSPropertyOp31
 70
     1
102
RTVSPropertyOp32
 70
     1
102
RTVSPropertyOp33
 70
     1
102
RTVSPropertyOp34
 70
     1
102
RTVSPropertyOp35
 70
     1
102
RTVSPropertyOp36
 70
     1
102
RTVSPropertyOp37
 70
     1
102
RTVSPropertyOp38
 70
     1
102
RTVSPropertyOp39
 70
     1
102
RTVSPropertyOp40
 70
     1
102
RTVSPropertyOp41
 70
     1
102
RTVSPropertyOp42
 70
     1
102
RTVSPropertyOp43
 70
     1
102
RTVSPropertyOp44
 70
     1
102
RTVSPropertyOp45
 70
     1
102
RTVSPropertyOp46
 70
     1
102
RTVSPropertyOp47
 70
     1
102
RTVSPropertyOp48
 70
     1
102
RTVSPropertyOp49
 70
     1
102
RTVSPropertyOp50
 70
     1
102
RTVSPropertyOp51
 70
     0
102
RTVSPropertyOp52
 70
     0
102
RTVSPropertyOp53
 70
     1
102
RTVSPropertyOp54
 70
     1
102
RTVSPropertyOp55
 70
     1
102
RTVSPropertyOp56
 70
     1
102
RTVSPropertyOp57
 70
     1
102
RTVSPropertyOp58
 70
     1
102
RTVSPropertyOp59
 70
     1
102
RTVSPropertyOp60
 70
     1
102
RTVSPropertyOp61
 70
     1
102
RTVSPropertyOp62
 70
     1
  0
XRECORD
  5
577
102
{ACAD_REACTORS
330
576
102
}
330
576
100
AcDbXrecord
280
     1
102
RTVSPost2010Prop28
280
     0
102
RTVSPost2010PropOp28
 70
     1
102
RTVSPost2010Prop29
280
     1
102
RTVSPost2010PropOp29
 70
     1
102
RTVSPost2010Prop30
280
     1
102
RTVSPost2010PropOp30
 70
     1
102
RTVSPost2010Prop31
280
     0
102
RTVSPost2010PropOp31
 70
     1
102
RTVSPost2010Prop32
280
     0
102
RTVSPost2010PropOp32
 70
     1
102
RTVSPost2010Prop33
280
     0
102
RTVSPost2010PropOp33
 70
     1
102
RTVSPost2010Prop34
280
     0
102
RTVSPost2010PropOp34
 70
     1
102
RTVSPost2010Prop35
280
     0
102
RTVSPost2010PropOp35
 70
     1
102
RTVSPost2010Prop36
280
     0
102
RTVSPost2010PropOp36
 70
     1
102
RTVSPost2010Prop37
 90
       50
102
RTVSPost2010PropOp37
 70
     1
102
RTVSPost2010Prop38
140
0.0
102
RTVSPost2010PropOp38
 70
     1
102
RTVSPost2010Prop39
140
1.0
102
RTVSPost2010PropOp39
 70
     1
102
RTVSPost2010Prop40
 90
        0
102
RTVSPost2010PropOp40
 70
     1
102
RTVSPost2010Prop41ColorIndex
 90
       18
102
RTVSPost2010Prop41ColorRGB
 90
        0
102
RTVSPost2010PropOp41
 70
     1
102
RTVSPost2010Prop42
 90
       50
102
RTVSPost2010PropOp42
 70
     1
102
RTVSPost2010Prop43
 90
        3
102
RTVSPost2010PropOp43
 70
     1
102
RTVSPost2010Prop44ColorIndex
 90
        5
102
RTVSPost2010Prop44ColorRGB
 90
      255
102
RTVSPost2010PropOp44
 70
     1
102
RTVSPost2010Prop45
280
     0
102
RTVSPost2010PropOp45
 70
     1
102
RTVSPost2010Prop46
 90
       50
102
RTVSPost2010PropOp46
 70
     1
102
RTVSPost2010Prop47
 90
       50
102
RTVSPost2010PropOp47
 70
     1
102
RTVSPost2010Prop48
 90
       50
102
RTVSPost2010PropOp48
 70
     1
102
RTVSPost2010Prop49
280
     0
102
RTVSPost2010PropOp49
 70
     1
102
RTVSPost2010Prop50
 90
       50
102
RTVSPost2010PropOp50
 70
     1
102
RTVSPost2010Prop51ColorIndex
 90
      256
102
RTVSPost2010Prop51ColorRGB
 90
-16777216
102
RTVSPost2010PropOp51
 70
     0
102
RTVSPost2010Prop52
140
1.0
102
RTVSPost2010PropOp52
 70
     0
102
RTVSPost2010Prop53
 90
        2
102
RTVSPost2010PropOp53
 70
     1
102
RTVSPost2010Prop54
  1
strokes_ogs.tif
102
RTVSPost2010PropOp54
 70
     1
102
RTVSPost2010Prop55
280
     0
102
RTVSPost2010PropOp55
 70
     1
102
RTVSPost2010Prop56
140
1.0
102
RTVSPost2010PropOp56
 70
     1
102
RTVSPost2010Prop57
140
1.0
102
RTVSPost2010PropOp57
 70
     1
102
RTVSPropertyOp0
 70
     1
102
RTVSPropertyOp1
 70
     1
102
RTVSPropertyOp2
 70
     1
102
RTVSPropertyOp3
 70
     1
102
RTVSPropertyOp4
 70
     1
102
RTVSPropertyOp5
 70
     1
102
RTVSPropertyOp6
 70
     1
102
RTVSPropertyOp7
 70
     1
102
RTVSPropertyOp8
 70
     1
102
RTVSPropertyOp9
 70
     1
102
RTVSPropertyOp10
 70
     1
102
RTVSPropertyOp11
 70
     1
102
RTVSPropertyOp12
 70
     1
102
RTVSPropertyOp13
 70
     1
102
RTVSPropertyOp14
 70
     1
102
RTVSPropertyOp15
 70
     1
102
RTVSPropertyOp16
 70
     1
102
RTVSPropertyOp17
 70
     1
102
RTVSPropertyOp18
 70
     1
102
RTVSPropertyOp19
 70
     1
102
RTVSPropertyOp20
 70
     1
102
RTVSPropertyOp21
 70
     1
102
RTVSPropertyOp22
 70
     1
102
RTVSPropertyOp23
 70
     1
102
RTVSPropertyOp24
 70
     1
102
RTVSPropertyOp25
 70
     1
102
RTVSPropertyOp26
 70
     1
102
RTVSPropertyOp27
 70
     1
102
RTVSPropertyOp28
 70
     1
102
RTVSPropertyOp29
 70
     1
102
RTVSPropertyOp30
 70
     1
102
RTVSPropertyOp31
 70
     1
102
RTVSPropertyOp32
 70
     1
102
RTVSPropertyOp33
 70
     1
102
RTVSPropertyOp34
 70
     1
102
RTVSPropertyOp35
 70
     1
102
RTVSPropertyOp36
 70
     1
102
RTVSPropertyOp37
 70
     1
102
RTVSPropertyOp38
 70
     1
102
RTVSPropertyOp39
 70
     1
102
RTVSPropertyOp40
 70
     1
102
RTVSPropertyOp41
 70
     1
102
RTVSPropertyOp42
 70
     1
102
RTVSPropertyOp43
 70
     1
102
RTVSPropertyOp44
 70
     1
102
RTVSPropertyOp45
 70
     1
102
RTVSPropertyOp46
 70
     1
102
RTVSPropertyOp47
 70
     1
102
RTVSPropertyOp48
 70
     1
102
RTVSPropertyOp49
 70
     1
102
RTVSPropertyOp50
 70
     1
102
RTVSPropertyOp51
 70
     0
102
RTVSPropertyOp52
 70
     0
102
RTVSPropertyOp53
 70
     1
102
RTVSPropertyOp54
 70
     1
102
RTVSPropertyOp55
 70
     1
102
RTVSPropertyOp56
 70
     1
102
RTVSPropertyOp57
 70
     1
102
RTVSPropertyOp58
 70
     1
102
RTVSPropertyOp59
 70
     1
102
RTVSPropertyOp60
 70
     1
102
RTVSPropertyOp61
 70
     1
102
RTVSPropertyOp62
 70
     1
  0
XRECORD
  5
593
102
{ACAD_REACTORS
330
592
102
}
330
592
100
AcDbXrecord
280
     1
102
RTVSPost2010Prop28
280
     0
102
RTVSPost2010PropOp28
 70
     1
102
RTVSPost2010Prop29
280
     1
102
RTVSPost2010PropOp29
 70
     1
102
RTVSPost2010Prop30
280
     1
102
RTVSPost2010PropOp30
 70
     1
102
RTVSPost2010Prop31
280
     0
102
RTVSPost2010PropOp31
 70
     1
102
RTVSPost2010Prop32
280
     0
102
RTVSPost2010PropOp32
 70
     1
102
RTVSPost2010Prop33
280
     0
102
RTVSPost2010PropOp33
 70
     1
102
RTVSPost2010Prop34
280
     0
102
RTVSPost2010PropOp34
 70
     1
102
RTVSPost2010Prop35
280
     0
102
RTVSPost2010PropOp35
 70
     1
102
RTVSPost2010Prop36
280
     0
102
RTVSPost2010PropOp36
 70
     1
102
RTVSPost2010Prop37
 90
       50
102
RTVSPost2010PropOp37
 70
     0
102
RTVSPost2010Prop38
140
0.0
102
RTVSPost2010PropOp38
 70
     0
102
RTVSPost2010Prop39
140
1.0
102
RTVSPost2010PropOp39
 70
     0
102
RTVSPost2010Prop40
 90
        0
102
RTVSPost2010PropOp40
 70
     0
102
RTVSPost2010Prop41ColorIndex
 90
       18
102
RTVSPost2010Prop41ColorRGB
 90
        0
102
RTVSPost2010PropOp41
 70
     0
102
RTVSPost2010Prop42
 90
       50
102
RTVSPost2010PropOp42
 70
     0
102
RTVSPost2010Prop43
 90
        3
102
RTVSPost2010PropOp43
 70
     0
102
RTVSPost2010Prop44ColorIndex
 90
        5
102
RTVSPost2010Prop44ColorRGB
 90
      255
102
RTVSPost2010PropOp44
 70
     0
102
RTVSPost2010Prop45
280
     0
102
RTVSPost2010PropOp45
 70
     1
102
RTVSPost2010Prop46
 90
       50
102
RTVSPost2010PropOp46
 70
     0
102
RTVSPost2010Prop47
 90
       50
102
RTVSPost2010PropOp47
 70
     0
102
RTVSPost2010Prop48
 90
       50
102
RTVSPost2010PropOp48
 70
     0
102
RTVSPost2010Prop49
280
     0
102
RTVSPost2010PropOp49
 70
     1
102
RTVSPost2010Prop50
 90
       50
102
RTVSPost2010PropOp50
 70
     0
102
RTVSPost2010Prop51ColorIndex
 90
      256
102
RTVSPost2010Prop51ColorRGB
 90
-16777216
102
RTVSPost2010PropOp51
 70
     0
102
RTVSPost2010Prop52
140
1.0
102
RTVSPost2010PropOp52
 70
     0
102
RTVSPost2010Prop53
 90
        2
102
RTVSPost2010PropOp53
 70
     0
102
RTVSPost2010Prop54
  1
strokes_ogs.tif
102
RTVSPost2010PropOp54
 70
     0
102
RTVSPost2010Prop55
280
     0
102
RTVSPost2010PropOp55
 70
     1
102
RTVSPost2010Prop56
140
1.0
102
RTVSPost2010PropOp56
 70
     0
102
RTVSPost2010Prop57
140
1.0
102
RTVSPost2010PropOp57
 70
     0
102
RTVSPropertyOp0
 70
     0
102
RTVSPropertyOp1
 70
     0
102
RTVSPropertyOp2
 70
     0
102
RTVSPropertyOp3
 70
     0
102
RTVSPropertyOp4
 70
     0
102
RTVSPropertyOp5
 70
     0
102
RTVSPropertyOp6
 70
     0
102
RTVSPropertyOp7
 70
     0
102
RTVSPropertyOp8
 70
     0
102
RTVSPropertyOp9
 70
     0
102
RTVSPropertyOp10
 70
     0
102
RTVSPropertyOp11
 70
     0
102
RTVSPropertyOp12
 70
     0
102
RTVSPropertyOp13
 70
     0
102
RTVSPropertyOp14
 70
     2
102
RTVSPropertyOp15
 70
     0
102
RTVSPropertyOp16
 70
     0
102
RTVSPropertyOp17
 70
     0
102
RTVSPropertyOp18
 70
     0
102
RTVSPropertyOp19
 70
     0
102
RTVSPropertyOp20
 70
     0
102
RTVSPropertyOp21
 70
     0
102
RTVSPropertyOp22
 70
     0
102
RTVSPropertyOp23
 70
     0
102
RTVSPropertyOp24
 70
     0
102
RTVSPropertyOp25
 70
     0
102
RTVSPropertyOp26
 70
     0
102
RTVSPropertyOp27
 70
     0
102
RTVSPropertyOp28
 70
     1
102
RTVSPropertyOp29
 70
     1
102
RTVSPropertyOp30
 70
     1
102
RTVSPropertyOp31
 70
     1
102
RTVSPropertyOp32
 70
     1
102
RTVSPropertyOp33
 70
     1
102
RTVSPropertyOp34
 70
     1
102
RTVSPropertyOp35
 70
     1
102
RTVSPropertyOp36
 70
     1
102
RTVSPropertyOp37
 70
     0
102
RTVSPropertyOp38
 70
     0
102
RTVSPropertyOp39
 70
     0
102
RTVSPropertyOp40
 70
     0
102
RTVSPropertyOp41
 70
     0
102
RTVSPropertyOp42
 70
     0
102
RTVSPropertyOp43
 70
     0
102
RTVSPropertyOp44
 70
     0
102
RTVSPropertyOp45
 70
     1
102
RTVSPropertyOp46
 70
     0
102
RTVSPropertyOp47
 70
     0
102
RTVSPropertyOp48
 70
     0
102
RTVSPropertyOp49
 70
     1
102
RTVSPropertyOp50
 70
     0
102
RTVSPropertyOp51
 70
     0
102
RTVSPropertyOp52
 70
     0
102
RTVSPropertyOp53
 70
     0
102
RTVSPropertyOp54
 70
     0
102
RTVSPropertyOp55
 70
     1
102
RTVSPropertyOp56
 70
     0
102
RTVSPropertyOp57
 70
     0
102
RTVSPropertyOp58
 70
     0
102
RTVSPropertyOp59
 70
     0
102
RTVSPropertyOp60
 70
     0
102
RTVSPropertyOp61
 70
     0
102
RTVSPropertyOp62
 70
     0
  0
XRECORD
  5
583
102
{ACAD_REACTORS
330
582
102
}
330
582
100
AcDbXrecord
280
     1
102
RTVSPost2010Prop28
280
     0
102
RTVSPost2010PropOp28
 70
     1
102
RTVSPost2010Prop29
280
     1
102
RTVSPost2010PropOp29
 70
     1
102
RTVSPost2010Prop30
280
     1
102
RTVSPost2010PropOp30
 70
     1
102
RTVSPost2010Prop31
280
     0
102
RTVSPost2010PropOp31
 70
     1
102
RTVSPost2010Prop32
280
     0
102
RTVSPost2010PropOp32
 70
     1
102
RTVSPost2010Prop33
280
     0
102
RTVSPost2010PropOp33
 70
     1
102
RTVSPost2010Prop34
280
     0
102
RTVSPost2010PropOp34
 70
     1
102
RTVSPost2010Prop35
280
     0
102
RTVSPost2010PropOp35
 70
     1
102
RTVSPost2010Prop36
280
     0
102
RTVSPost2010PropOp36
 70
     1
102
RTVSPost2010Prop37
 90
       50
102
RTVSPost2010PropOp37
 70
     1
102
RTVSPost2010Prop38
140
0.0
102
RTVSPost2010PropOp38
 70
     1
102
RTVSPost2010Prop39
140
1.0
102
RTVSPost2010PropOp39
 70
     1
102
RTVSPost2010Prop40
 90
        0
102
RTVSPost2010PropOp40
 70
     1
102
RTVSPost2010Prop41ColorIndex
 90
       18
102
RTVSPost2010Prop41ColorRGB
 90
        0
102
RTVSPost2010PropOp41
 70
     1
102
RTVSPost2010Prop42
 90
       50
102
RTVSPost2010PropOp42
 70
     1
102
RTVSPost2010Prop43
 90
        3
102
RTVSPost2010PropOp43
 70
     1
102
RTVSPost2010Prop44ColorIndex
 90
        5
102
RTVSPost2010Prop44ColorRGB
 90
      255
102
RTVSPost2010PropOp44
 70
     1
102
RTVSPost2010Prop45
280
     0
102
RTVSPost2010PropOp45
 70
     1
102
RTVSPost2010Prop46
 90
       50
102
RTVSPost2010PropOp46
 70
     1
102
RTVSPost2010Prop47
 90
       50
102
RTVSPost2010PropOp47
 70
     1
102
RTVSPost2010Prop48
 90
       50
102
RTVSPost2010PropOp48
 70
     1
102
RTVSPost2010Prop49
280
     0
102
RTVSPost2010PropOp49
 70
     1
102
RTVSPost2010Prop50
 90
       50
102
RTVSPost2010PropOp50
 70
     1
102
RTVSPost2010Prop51ColorIndex
 90
      256
102
RTVSPost2010Prop51ColorRGB
 90
-16777216
102
RTVSPost2010PropOp51
 70
     0
102
RTVSPost2010Prop52
140
1.0
102
RTVSPost2010PropOp52
 70
     0
102
RTVSPost2010Prop53
 90
        2
102
RTVSPost2010PropOp53
 70
     1
102
RTVSPost2010Prop54
  1
strokes_ogs.tif
102
RTVSPost2010PropOp54
 70
     1
102
RTVSPost2010Prop55
280
     0
102
RTVSPost2010PropOp55
 70
     1
102
RTVSPost2010Prop56
140
1.0
102
RTVSPost2010PropOp56
 70
     1
102
RTVSPost2010Prop57
140
1.0
102
RTVSPost2010PropOp57
 70
     1
102
RTVSPropertyOp0
 70
     1
102
RTVSPropertyOp1
 70
     1
102
RTVSPropertyOp2
 70
     1
102
RTVSPropertyOp3
 70
     1
102
RTVSPropertyOp4
 70
     1
102
RTVSPropertyOp5
 70
     1
102
RTVSPropertyOp6
 70
     1
102
RTVSPropertyOp7
 70
     1
102
RTVSPropertyOp8
 70
     1
102
RTVSPropertyOp9
 70
     1
102
RTVSPropertyOp10
 70
     1
102
RTVSPropertyOp11
 70
     1
102
RTVSPropertyOp12
 70
     1
102
RTVSPropertyOp13
 70
     1
102
RTVSPropertyOp14
 70
     1
102
RTVSPropertyOp15
 70
     1
102
RTVSPropertyOp16
 70
     1
102
RTVSPropertyOp17
 70
     1
102
RTVSPropertyOp18
 70
     1
102
RTVSPropertyOp19
 70
     1
102
RTVSPropertyOp20
 70
     1
102
RTVSPropertyOp21
 70
     1
102
RTVSPropertyOp22
 70
     1
102
RTVSPropertyOp23
 70
     1
102
RTVSPropertyOp24
 70
     1
102
RTVSPropertyOp25
 70
     1
102
RTVSPropertyOp26
 70
     1
102
RTVSPropertyOp27
 70
     1
102
RTVSPropertyOp28
 70
     1
102
RTVSPropertyOp29
 70
     1
102
RTVSPropertyOp30
 70
     1
102
RTVSPropertyOp31
 70
     1
102
RTVSPropertyOp32
 70
     1
102
RTVSPropertyOp33
 70
     1
102
RTVSPropertyOp34
 70
     1
102
RTVSPropertyOp35
 70
     1
102
RTVSPropertyOp36
 70
     1
102
RTVSPropertyOp37
 70
     1
102
RTVSPropertyOp38
 70
     1
102
RTVSPropertyOp39
 70
     1
102
RTVSPropertyOp40
 70
     1
102
RTVSPropertyOp41
 70
     1
102
RTVSPropertyOp42
 70
     1
102
RTVSPropertyOp43
 70
     1
102
RTVSPropertyOp44
 70
     1
102
RTVSPropertyOp45
 70
     1
102
RTVSPropertyOp46
 70
     1
102
RTVSPropertyOp47
 70
     1
102
RTVSPropertyOp48
 70
     1
102
RTVSPropertyOp49
 70
     1
102
RTVSPropertyOp50
 70
     1
102
RTVSPropertyOp51
 70
     0
102
RTVSPropertyOp52
 70
     0
102
RTVSPropertyOp53
 70
     1
102
RTVSPropertyOp54
 70
     1
102
RTVSPropertyOp55
 70
     1
102
RTVSPropertyOp56
 70
     1
102
RTVSPropertyOp57
 70
     1
102
RTVSPropertyOp58
 70
     1
102
RTVSPropertyOp59
 70
     1
102
RTVSPropertyOp60
 70
     1
102
RTVSPropertyOp61
 70
     1
102
RTVSPropertyOp62
 70
     1
  0
XRECORD
  5
595
102
{ACAD_REACTORS
330
594
102
}
330
594
100
AcDbXrecord
280
     1
102
RTVSPost2010Prop28
280
     0
102
RTVSPost2010PropOp28
 70
     1
102
RTVSPost2010Prop29
280
     1
102
RTVSPost2010PropOp29
 70
     1
102
RTVSPost2010Prop30
280
     1
102
RTVSPost2010PropOp30
 70
     1
102
RTVSPost2010Prop31
280
     0
102
RTVSPost2010PropOp31
 70
     1
102
RTVSPost2010Prop32
280
     0
102
RTVSPost2010PropOp32
 70
     1
102
RTVSPost2010Prop33
280
     0
102
RTVSPost2010PropOp33
 70
     1
102
RTVSPost2010Prop34
280
     0
102
RTVSPost2010PropOp34
 70
     1
102
RTVSPost2010Prop35
280
     0
102
RTVSPost2010PropOp35
 70
     1
102
RTVSPost2010Prop36
280
     0
102
RTVSPost2010PropOp36
 70
     1
102
RTVSPost2010Prop37
 90
       50
102
RTVSPost2010PropOp37
 70
     0
102
RTVSPost2010Prop38
140
0.0
102
RTVSPost2010PropOp38
 70
     0
102
RTVSPost2010Prop39
140
1.0
102
RTVSPost2010PropOp39
 70
     0
102
RTVSPost2010Prop40
 90
        0
102
RTVSPost2010PropOp40
 70
     0
102
RTVSPost2010Prop41ColorIndex
 90
       18
102
RTVSPost2010Prop41ColorRGB
 90
        0
102
RTVSPost2010PropOp41
 70
     0
102
RTVSPost2010Prop42
 90
       50
102
RTVSPost2010PropOp42
 70
     0
102
RTVSPost2010Prop43
 90
        3
102
RTVSPost2010PropOp43
 70
     0
102
RTVSPost2010Prop44ColorIndex
 90
        5
102
RTVSPost2010Prop44ColorRGB
 90
      255
102
RTVSPost2010PropOp44
 70
     0
102
RTVSPost2010Prop45
280
     0
102
RTVSPost2010PropOp45
 70
     1
102
RTVSPost2010Prop46
 90
       50
102
RTVSPost2010PropOp46
 70
     0
102
RTVSPost2010Prop47
 90
       50
102
RTVSPost2010PropOp47
 70
     0
102
RTVSPost2010Prop48
 90
       50
102
RTVSPost2010PropOp48
 70
     0
102
RTVSPost2010Prop49
280
     0
102
RTVSPost2010PropOp49
 70
     1
102
RTVSPost2010Prop50
 90
       50
102
RTVSPost2010PropOp50
 70
     0
102
RTVSPost2010Prop51ColorIndex
 90
      256
102
RTVSPost2010Prop51ColorRGB
 90
-16777216
102
RTVSPost2010PropOp51
 70
     0
102
RTVSPost2010Prop52
140
1.0
102
RTVSPost2010PropOp52
 70
     0
102
RTVSPost2010Prop53
 90
        2
102
RTVSPost2010PropOp53
 70
     0
102
RTVSPost2010Prop54
  1
strokes_ogs.tif
102
RTVSPost2010PropOp54
 70
     0
102
RTVSPost2010Prop55
280
     0
102
RTVSPost2010PropOp55
 70
     1
102
RTVSPost2010Prop56
140
1.0
102
RTVSPost2010PropOp56
 70
     0
102
RTVSPost2010Prop57
140
1.0
102
RTVSPost2010PropOp57
 70
     0
102
RTVSPropertyOp0
 70
     0
102
RTVSPropertyOp1
 70
     0
102
RTVSPropertyOp2
 70
     0
102
RTVSPropertyOp3
 70
     0
102
RTVSPropertyOp4
 70
     0
102
RTVSPropertyOp5
 70
     0
102
RTVSPropertyOp6
 70
     0
102
RTVSPropertyOp7
 70
     0
102
RTVSPropertyOp8
 70
     0
102
RTVSPropertyOp9
 70
     0
102
RTVSPropertyOp10
 70
     0
102
RTVSPropertyOp11
 70
     0
102
RTVSPropertyOp12
 70
     0
102
RTVSPropertyOp13
 70
     0
102
RTVSPropertyOp14
 70
     2
102
RTVSPropertyOp15
 70
     0
102
RTVSPropertyOp16
 70
     0
102
RTVSPropertyOp17
 70
     0
102
RTVSPropertyOp18
 70
     0
102
RTVSPropertyOp19
 70
     0
102
RTVSPropertyOp20
 70
     0
102
RTVSPropertyOp21
 70
     0
102
RTVSPropertyOp22
 70
     0
102
RTVSPropertyOp23
 70
     0
102
RTVSPropertyOp24
 70
     0
102
RTVSPropertyOp25
 70
     0
102
RTVSPropertyOp26
 70
     0
102
RTVSPropertyOp27
 70
     0
102
RTVSPropertyOp28
 70
     1
102
RTVSPropertyOp29
 70
     1
102
RTVSPropertyOp30
 70
     1
102
RTVSPropertyOp31
 70
     1
102
RTVSPropertyOp32
 70
     1
102
RTVSPropertyOp33
 70
     1
102
RTVSPropertyOp34
 70
     1
102
RTVSPropertyOp35
 70
     1
102
RTVSPropertyOp36
 70
     1
102
RTVSPropertyOp37
 70
     0
102
RTVSPropertyOp38
 70
     0
102
RTVSPropertyOp39
 70
     0
102
RTVSPropertyOp40
 70
     0
102
RTVSPropertyOp41
 70
     0
102
RTVSPropertyOp42
 70
     0
102
RTVSPropertyOp43
 70
     0
102
RTVSPropertyOp44
 70
     0
102
RTVSPropertyOp45
 70
     1
102
RTVSPropertyOp46
 70
     0
102
RTVSPropertyOp47
 70
     0
102
RTVSPropertyOp48
 70
     0
102
RTVSPropertyOp49
 70
     1
102
RTVSPropertyOp50
 70
     0
102
RTVSPropertyOp51
 70
     0
102
RTVSPropertyOp52
 70
     0
102
RTVSPropertyOp53
 70
     0
102
RTVSPropertyOp54
 70
     0
102
RTVSPropertyOp55
 70
     1
102
RTVSPropertyOp56
 70
     0
102
RTVSPropertyOp57
 70
     0
102
RTVSPropertyOp58
 70
     0
102
RTVSPropertyOp59
 70
     0
102
RTVSPropertyOp60
 70
     0
102
RTVSPropertyOp61
 70
     0
102
RTVSPropertyOp62
 70
     0
  0
XRECORD
  5
57B
102
{ACAD_REACTORS
330
57A
102
}
330
57A
100
AcDbXrecord
280
     1
102
RTVSPost2010Prop28
280
     0
102
RTVSPost2010PropOp28
 70
     1
102
RTVSPost2010Prop29
280
     1
102
RTVSPost2010PropOp29
 70
     1
102
RTVSPost2010Prop30
280
     1
102
RTVSPost2010PropOp30
 70
     1
102
RTVSPost2010Prop31
280
     0
102
RTVSPost2010PropOp31
 70
     1
102
RTVSPost2010Prop32
280
     0
102
RTVSPost2010PropOp32
 70
     1
102
RTVSPost2010Prop33
280
     0
102
RTVSPost2010PropOp33
 70
     1
102
RTVSPost2010Prop34
280
     0
102
RTVSPost2010PropOp34
 70
     1
102
RTVSPost2010Prop35
280
     0
102
RTVSPost2010PropOp35
 70
     1
102
RTVSPost2010Prop36
280
     0
102
RTVSPost2010PropOp36
 70
     1
102
RTVSPost2010Prop37
 90
       50
102
RTVSPost2010PropOp37
 70
     1
102
RTVSPost2010Prop38
140
0.0
102
RTVSPost2010PropOp38
 70
     1
102
RTVSPost2010Prop39
140
1.0
102
RTVSPost2010PropOp39
 70
     1
102
RTVSPost2010Prop40
 90
        0
102
RTVSPost2010PropOp40
 70
     1
102
RTVSPost2010Prop41ColorIndex
 90
       18
102
RTVSPost2010Prop41ColorRGB
 90
        0
102
RTVSPost2010PropOp41
 70
     1
102
RTVSPost2010Prop42
 90
       50
102
RTVSPost2010PropOp42
 70
     1
102
RTVSPost2010Prop43
 90
        3
102
RTVSPost2010PropOp43
 70
     1
102
RTVSPost2010Prop44ColorIndex
 90
        5
102
RTVSPost2010Prop44ColorRGB
 90
      255
102
RTVSPost2010PropOp44
 70
     1
102
RTVSPost2010Prop45
280
     0
102
RTVSPost2010PropOp45
 70
     1
102
RTVSPost2010Prop46
 90
       50
102
RTVSPost2010PropOp46
 70
     1
102
RTVSPost2010Prop47
 90
       50
102
RTVSPost2010PropOp47
 70
     1
102
RTVSPost2010Prop48
 90
       50
102
RTVSPost2010PropOp48
 70
     1
102
RTVSPost2010Prop49
280
     0
102
RTVSPost2010PropOp49
 70
     1
102
RTVSPost2010Prop50
 90
       50
102
RTVSPost2010PropOp50
 70
     1
102
RTVSPost2010Prop51ColorIndex
 90
      256
102
RTVSPost2010Prop51ColorRGB
 90
-16777216
102
RTVSPost2010PropOp51
 70
     0
102
RTVSPost2010Prop52
140
1.0
102
RTVSPost2010PropOp52
 70
     0
102
RTVSPost2010Prop53
 90
        2
102
RTVSPost2010PropOp53
 70
     1
102
RTVSPost2010Prop54
  1
strokes_ogs.tif
102
RTVSPost2010PropOp54
 70
     1
102
RTVSPost2010Prop55
280
     0
102
RTVSPost2010PropOp55
 70
     1
102
RTVSPost2010Prop56
140
1.0
102
RTVSPost2010PropOp56
 70
     1
102
RTVSPost2010Prop57
140
1.0
102
RTVSPost2010PropOp57
 70
     1
102
RTVSPropertyOp0
 70
     1
102
RTVSPropertyOp1
 70
     1
102
RTVSPropertyOp2
 70
     1
102
RTVSPropertyOp3
 70
     1
102
RTVSPropertyOp4
 70
     1
102
RTVSPropertyOp5
 70
     1
102
RTVSPropertyOp6
 70
     1
102
RTVSPropertyOp7
 70
     1
102
RTVSPropertyOp8
 70
     1
102
RTVSPropertyOp9
 70
     1
102
RTVSPropertyOp10
 70
     1
102
RTVSPropertyOp11
 70
     1
102
RTVSPropertyOp12
 70
     1
102
RTVSPropertyOp13
 70
     1
102
RTVSPropertyOp14
 70
     1
102
RTVSPropertyOp15
 70
     1
102
RTVSPropertyOp16
 70
     1
102
RTVSPropertyOp17
 70
     1
102
RTVSPropertyOp18
 70
     1
102
RTVSPropertyOp19
 70
     1
102
RTVSPropertyOp20
 70
     1
102
RTVSPropertyOp21
 70
     1
102
RTVSPropertyOp22
 70
     1
102
RTVSPropertyOp23
 70
     1
102
RTVSPropertyOp24
 70
     1
102
RTVSPropertyOp25
 70
     1
102
RTVSPropertyOp26
 70
     1
102
RTVSPropertyOp27
 70
     1
102
RTVSPropertyOp28
 70
     1
102
RTVSPropertyOp29
 70
     1
102
RTVSPropertyOp30
 70
     1
102
RTVSPropertyOp31
 70
     1
102
RTVSPropertyOp32
 70
     1
102
RTVSPropertyOp33
 70
     1
102
RTVSPropertyOp34
 70
     1
102
RTVSPropertyOp35
 70
     1
102
RTVSPropertyOp36
 70
     1
102
RTVSPropertyOp37
 70
     1
102
RTVSPropertyOp38
 70
     1
102
RTVSPropertyOp39
 70
     1
102
RTVSPropertyOp40
 70
     1
102
RTVSPropertyOp41
 70
     1
102
RTVSPropertyOp42
 70
     1
102
RTVSPropertyOp43
 70
     1
102
RTVSPropertyOp44
 70
     1
102
RTVSPropertyOp45
 70
     1
102
RTVSPropertyOp46
 70
     1
102
RTVSPropertyOp47
 70
     1
102
RTVSPropertyOp48
 70
     1
102
RTVSPropertyOp49
 70
     1
102
RTVSPropertyOp50
 70
     1
102
RTVSPropertyOp51
 70
     0
102
RTVSPropertyOp52
 70
     0
102
RTVSPropertyOp53
 70
     1
102
RTVSPropertyOp54
 70
     1
102
RTVSPropertyOp55
 70
     1
102
RTVSPropertyOp56
 70
     1
102
RTVSPropertyOp57
 70
     1
102
RTVSPropertyOp58
 70
     1
102
RTVSPropertyOp59
 70
     1
102
RTVSPropertyOp60
 70
     1
102
RTVSPropertyOp61
 70
     1
102
RTVSPropertyOp62
 70
     1
  0
XRECORD
  5
591
102
{ACAD_REACTORS
330
590
102
}
330
590
100
AcDbXrecord
280
     1
102
RTVSPost2010Prop28
280
     0
102
RTVSPost2010PropOp28
 70
     1
102
RTVSPost2010Prop29
280
     1
102
RTVSPost2010PropOp29
 70
     1
102
RTVSPost2010Prop30
280
     1
102
RTVSPost2010PropOp30
 70
     1
102
RTVSPost2010Prop31
280
     0
102
RTVSPost2010PropOp31
 70
     1
102
RTVSPost2010Prop32
280
     0
102
RTVSPost2010PropOp32
 70
     1
102
RTVSPost2010Prop33
280
     0
102
RTVSPost2010PropOp33
 70
     1
102
RTVSPost2010Prop34
280
     0
102
RTVSPost2010PropOp34
 70
     1
102
RTVSPost2010Prop35
280
     0
102
RTVSPost2010PropOp35
 70
     1
102
RTVSPost2010Prop36
280
     0
102
RTVSPost2010PropOp36
 70
     1
102
RTVSPost2010Prop37
 90
       50
102
RTVSPost2010PropOp37
 70
     1
102
RTVSPost2010Prop38
140
0.0
102
RTVSPost2010PropOp38
 70
     1
102
RTVSPost2010Prop39
140
1.0
102
RTVSPost2010PropOp39
 70
     1
102
RTVSPost2010Prop40
 90
        0
102
RTVSPost2010PropOp40
 70
     1
102
RTVSPost2010Prop41ColorIndex
 90
       18
102
RTVSPost2010Prop41ColorRGB
 90
        0
102
RTVSPost2010PropOp41
 70
     1
102
RTVSPost2010Prop42
 90
       50
102
RTVSPost2010PropOp42
 70
     1
102
RTVSPost2010Prop43
 90
        3
102
RTVSPost2010PropOp43
 70
     1
102
RTVSPost2010Prop44ColorIndex
 90
        5
102
RTVSPost2010Prop44ColorRGB
 90
      255
102
RTVSPost2010PropOp44
 70
     1
102
RTVSPost2010Prop45
280
     0
102
RTVSPost2010PropOp45
 70
     1
102
RTVSPost2010Prop46
 90
       50
102
RTVSPost2010PropOp46
 70
     1
102
RTVSPost2010Prop47
 90
       50
102
RTVSPost2010PropOp47
 70
     1
102
RTVSPost2010Prop48
 90
       50
102
RTVSPost2010PropOp48
 70
     1
102
RTVSPost2010Prop49
280
     0
102
RTVSPost2010PropOp49
 70
     1
102
RTVSPost2010Prop50
 90
       50
102
RTVSPost2010PropOp50
 70
     1
102
RTVSPost2010Prop51ColorIndex
 90
      256
102
RTVSPost2010Prop51ColorRGB
 90
-16777216
102
RTVSPost2010PropOp51
 70
     0
102
RTVSPost2010Prop52
140
1.0
102
RTVSPost2010PropOp52
 70
     0
102
RTVSPost2010Prop53
 90
        2
102
RTVSPost2010PropOp53
 70
     1
102
RTVSPost2010Prop54
  1
strokes_ogs.tif
102
RTVSPost2010PropOp54
 70
     1
102
RTVSPost2010Prop55
280
     0
102
RTVSPost2010PropOp55
 70
     1
102
RTVSPost2010Prop56
140
1.0
102
RTVSPost2010PropOp56
 70
     1
102
RTVSPost2010Prop57
140
1.0
102
RTVSPost2010PropOp57
 70
     1
102
RTVSPropertyOp0
 70
     1
102
RTVSPropertyOp1
 70
     1
102
RTVSPropertyOp2
 70
     1
102
RTVSPropertyOp3
 70
     1
102
RTVSPropertyOp4
 70
     1
102
RTVSPropertyOp5
 70
     1
102
RTVSPropertyOp6
 70
     1
102
RTVSPropertyOp7
 70
     1
102
RTVSPropertyOp8
 70
     1
102
RTVSPropertyOp9
 70
     1
102
RTVSPropertyOp10
 70
     1
102
RTVSPropertyOp11
 70
     1
102
RTVSPropertyOp12
 70
     1
102
RTVSPropertyOp13
 70
     1
102
RTVSPropertyOp14
 70
     1
102
RTVSPropertyOp15
 70
     1
102
RTVSPropertyOp16
 70
     1
102
RTVSPropertyOp17
 70
     1
102
RTVSPropertyOp18
 70
     1
102
RTVSPropertyOp19
 70
     1
102
RTVSPropertyOp20
 70
     1
102
RTVSPropertyOp21
 70
     1
102
RTVSPropertyOp22
 70
     1
102
RTVSPropertyOp23
 70
     1
102
RTVSPropertyOp24
 70
     1
102
RTVSPropertyOp25
 70
     1
102
RTVSPropertyOp26
 70
     1
102
RTVSPropertyOp27
 70
     1
102
RTVSPropertyOp28
 70
     1
102
RTVSPropertyOp29
 70
     1
102
RTVSPropertyOp30
 70
     1
102
RTVSPropertyOp31
 70
     1
102
RTVSPropertyOp32
 70
     1
102
RTVSPropertyOp33
 70
     1
102
RTVSPropertyOp34
 70
     1
102
RTVSPropertyOp35
 70
     1
102
RTVSPropertyOp36
 70
     1
102
RTVSPropertyOp37
 70
     1
102
RTVSPropertyOp38
 70
     1
102
RTVSPropertyOp39
 70
     1
102
RTVSPropertyOp40
 70
     1
102
RTVSPropertyOp41
 70
     1
102
RTVSPropertyOp42
 70
     1
102
RTVSPropertyOp43
 70
     1
102
RTVSPropertyOp44
 70
     1
102
RTVSPropertyOp45
 70
     1
102
RTVSPropertyOp46
 70
     1
102
RTVSPropertyOp47
 70
     1
102
RTVSPropertyOp48
 70
     1
102
RTVSPropertyOp49
 70
     1
102
RTVSPropertyOp50
 70
     1
102
RTVSPropertyOp51
 70
     0
102
RTVSPropertyOp52
 70
     0
102
RTVSPropertyOp53
 70
     1
102
RTVSPropertyOp54
 70
     1
102
RTVSPropertyOp55
 70
     1
102
RTVSPropertyOp56
 70
     1
102
RTVSPropertyOp57
 70
     1
102
RTVSPropertyOp58
 70
     1
102
RTVSPropertyOp59
 70
     1
102
RTVSPropertyOp60
 70
     1
102
RTVSPropertyOp61
 70
     1
102
RTVSPropertyOp62
 70
     1
  0
XRECORD
  5
58F
102
{ACAD_REACTORS
330
58E
102
}
330
58E
100
AcDbXrecord
280
     1
102
RTVSPost2010Prop28
280
     0
102
RTVSPost2010PropOp28
 70
     1
102
RTVSPost2010Prop29
280
     1
102
RTVSPost2010PropOp29
 70
     1
102
RTVSPost2010Prop30
280
     1
102
RTVSPost2010PropOp30
 70
     1
102
RTVSPost2010Prop31
280
     0
102
RTVSPost2010PropOp31
 70
     1
102
RTVSPost2010Prop32
280
     0
102
RTVSPost2010PropOp32
 70
     1
102
RTVSPost2010Prop33
280
     0
102
RTVSPost2010PropOp33
 70
     1
102
RTVSPost2010Prop34
280
     0
102
RTVSPost2010PropOp34
 70
     1
102
RTVSPost2010Prop35
280
     0
102
RTVSPost2010PropOp35
 70
     1
102
RTVSPost2010Prop36
280
     0
102
RTVSPost2010PropOp36
 70
     1
102
RTVSPost2010Prop37
 90
       50
102
RTVSPost2010PropOp37
 70
     1
102
RTVSPost2010Prop38
140
0.0
102
RTVSPost2010PropOp38
 70
     1
102
RTVSPost2010Prop39
140
1.0
102
RTVSPost2010PropOp39
 70
     1
102
RTVSPost2010Prop40
 90
        0
102
RTVSPost2010PropOp40
 70
     1
102
RTVSPost2010Prop41ColorIndex
 90
       18
102
RTVSPost2010Prop41ColorRGB
 90
        0
102
RTVSPost2010PropOp41
 70
     1
102
RTVSPost2010Prop42
 90
       50
102
RTVSPost2010PropOp42
 70
     1
102
RTVSPost2010Prop43
 90
        3
102
RTVSPost2010PropOp43
 70
     1
102
RTVSPost2010Prop44ColorIndex
 90
        5
102
RTVSPost2010Prop44ColorRGB
 90
      255
102
RTVSPost2010PropOp44
 70
     1
102
RTVSPost2010Prop45
280
     0
102
RTVSPost2010PropOp45
 70
     1
102
RTVSPost2010Prop46
 90
       50
102
RTVSPost2010PropOp46
 70
     1
102
RTVSPost2010Prop47
 90
       50
102
RTVSPost2010PropOp47
 70
     1
102
RTVSPost2010Prop48
 90
       50
102
RTVSPost2010PropOp48
 70
     1
102
RTVSPost2010Prop49
280
     0
102
RTVSPost2010PropOp49
 70
     1
102
RTVSPost2010Prop50
 90
       50
102
RTVSPost2010PropOp50
 70
     1
102
RTVSPost2010Prop51ColorIndex
 90
      256
102
RTVSPost2010Prop51ColorRGB
 90
-16777216
102
RTVSPost2010PropOp51
 70
     0
102
RTVSPost2010Prop52
140
1.0
102
RTVSPost2010PropOp52
 70
     0
102
RTVSPost2010Prop53
 90
        2
102
RTVSPost2010PropOp53
 70
     1
102
RTVSPost2010Prop54
  1
strokes_ogs.tif
102
RTVSPost2010PropOp54
 70
     1
102
RTVSPost2010Prop55
280
     0
102
RTVSPost2010PropOp55
 70
     1
102
RTVSPost2010Prop56
140
1.0
102
RTVSPost2010PropOp56
 70
     1
102
RTVSPost2010Prop57
140
1.0
102
RTVSPost2010PropOp57
 70
     1
102
RTVSPropertyOp0
 70
     1
102
RTVSPropertyOp1
 70
     1
102
RTVSPropertyOp2
 70
     1
102
RTVSPropertyOp3
 70
     1
102
RTVSPropertyOp4
 70
     1
102
RTVSPropertyOp5
 70
     1
102
RTVSPropertyOp6
 70
     1
102
RTVSPropertyOp7
 70
     1
102
RTVSPropertyOp8
 70
     1
102
RTVSPropertyOp9
 70
     1
102
RTVSPropertyOp10
 70
     1
102
RTVSPropertyOp11
 70
     1
102
RTVSPropertyOp12
 70
     1
102
RTVSPropertyOp13
 70
     1
102
RTVSPropertyOp14
 70
     1
102
RTVSPropertyOp15
 70
     1
102
RTVSPropertyOp16
 70
     1
102
RTVSPropertyOp17
 70
     1
102
RTVSPropertyOp18
 70
     1
102
RTVSPropertyOp19
 70
     1
102
RTVSPropertyOp20
 70
     1
102
RTVSPropertyOp21
 70
     1
102
RTVSPropertyOp22
 70
     1
102
RTVSPropertyOp23
 70
     1
102
RTVSPropertyOp24
 70
     1
102
RTVSPropertyOp25
 70
     1
102
RTVSPropertyOp26
 70
     1
102
RTVSPropertyOp27
 70
     1
102
RTVSPropertyOp28
 70
     1
102
RTVSPropertyOp29
 70
     1
102
RTVSPropertyOp30
 70
     1
102
RTVSPropertyOp31
 70
     1
102
RTVSPropertyOp32
 70
     1
102
RTVSPropertyOp33
 70
     1
102
RTVSPropertyOp34
 70
     1
102
RTVSPropertyOp35
 70
     1
102
RTVSPropertyOp36
 70
     1
102
RTVSPropertyOp37
 70
     1
102
RTVSPropertyOp38
 70
     1
102
RTVSPropertyOp39
 70
     1
102
RTVSPropertyOp40
 70
     1
102
RTVSPropertyOp41
 70
     1
102
RTVSPropertyOp42
 70
     1
102
RTVSPropertyOp43
 70
     1
102
RTVSPropertyOp44
 70
     1
102
RTVSPropertyOp45
 70
     1
102
RTVSPropertyOp46
 70
     1
102
RTVSPropertyOp47
 70
     1
102
RTVSPropertyOp48
 70
     1
102
RTVSPropertyOp49
 70
     1
102
RTVSPropertyOp50
 70
     1
102
RTVSPropertyOp51
 70
     0
102
RTVSPropertyOp52
 70
     0
102
RTVSPropertyOp53
 70
     1
102
RTVSPropertyOp54
 70
     1
102
RTVSPropertyOp55
 70
     1
102
RTVSPropertyOp56
 70
     1
102
RTVSPropertyOp57
 70
     1
102
RTVSPropertyOp58
 70
     1
102
RTVSPropertyOp59
 70
     1
102
RTVSPropertyOp60
 70
     1
102
RTVSPropertyOp61
 70
     1
102
RTVSPropertyOp62
 70
     1
  0
XRECORD
  5
589
102
{ACAD_REACTORS
330
588
102
}
330
588
100
AcDbXrecord
280
     1
102
RTVSPost2010Prop28
280
     0
102
RTVSPost2010PropOp28
 70
     1
102
RTVSPost2010Prop29
280
     1
102
RTVSPost2010PropOp29
 70
     1
102
RTVSPost2010Prop30
280
     1
102
RTVSPost2010PropOp30
 70
     1
102
RTVSPost2010Prop31
280
     0
102
RTVSPost2010PropOp31
 70
     1
102
RTVSPost2010Prop32
280
     0
102
RTVSPost2010PropOp32
 70
     1
102
RTVSPost2010Prop33
280
     0
102
RTVSPost2010PropOp33
 70
     1
102
RTVSPost2010Prop34
280
     0
102
RTVSPost2010PropOp34
 70
     1
102
RTVSPost2010Prop35
280
     0
102
RTVSPost2010PropOp35
 70
     1
102
RTVSPost2010Prop36
280
     0
102
RTVSPost2010PropOp36
 70
     1
102
RTVSPost2010Prop37
 90
       50
102
RTVSPost2010PropOp37
 70
     1
102
RTVSPost2010Prop38
140
0.0
102
RTVSPost2010PropOp38
 70
     1
102
RTVSPost2010Prop39
140
1.0
102
RTVSPost2010PropOp39
 70
     1
102
RTVSPost2010Prop40
 90
        0
102
RTVSPost2010PropOp40
 70
     1
102
RTVSPost2010Prop41ColorIndex
 90
       18
102
RTVSPost2010Prop41ColorRGB
 90
        0
102
RTVSPost2010PropOp41
 70
     1
102
RTVSPost2010Prop42
 90
       50
102
RTVSPost2010PropOp42
 70
     1
102
RTVSPost2010Prop43
 90
        3
102
RTVSPost2010PropOp43
 70
     1
102
RTVSPost2010Prop44ColorIndex
 90
        5
102
RTVSPost2010Prop44ColorRGB
 90
      255
102
RTVSPost2010PropOp44
 70
     1
102
RTVSPost2010Prop45
280
     0
102
RTVSPost2010PropOp45
 70
     1
102
RTVSPost2010Prop46
 90
       50
102
RTVSPost2010PropOp46
 70
     1
102
RTVSPost2010Prop47
 90
       50
102
RTVSPost2010PropOp47
 70
     1
102
RTVSPost2010Prop48
 90
       50
102
RTVSPost2010PropOp48
 70
     1
102
RTVSPost2010Prop49
280
     0
102
RTVSPost2010PropOp49
 70
     1
102
RTVSPost2010Prop50
 90
       50
102
RTVSPost2010PropOp50
 70
     1
102
RTVSPost2010Prop51ColorIndex
 90
      256
102
RTVSPost2010Prop51ColorRGB
 90
-16777216
102
RTVSPost2010PropOp51
 70
     0
102
RTVSPost2010Prop52
140
1.0
102
RTVSPost2010PropOp52
 70
     0
102
RTVSPost2010Prop53
 90
        2
102
RTVSPost2010PropOp53
 70
     1
102
RTVSPost2010Prop54
  1
strokes_ogs.tif
102
RTVSPost2010PropOp54
 70
     1
102
RTVSPost2010Prop55
280
     0
102
RTVSPost2010PropOp55
 70
     1
102
RTVSPost2010Prop56
140
1.0
102
RTVSPost2010PropOp56
 70
     1
102
RTVSPost2010Prop57
140
1.0
102
RTVSPost2010PropOp57
 70
     1
102
RTVSPropertyOp0
 70
     1
102
RTVSPropertyOp1
 70
     1
102
RTVSPropertyOp2
 70
     1
102
RTVSPropertyOp3
 70
     1
102
RTVSPropertyOp4
 70
     1
102
RTVSPropertyOp5
 70
     1
102
RTVSPropertyOp6
 70
     1
102
RTVSPropertyOp7
 70
     1
102
RTVSPropertyOp8
 70
     1
102
RTVSPropertyOp9
 70
     1
102
RTVSPropertyOp10
 70
     1
102
RTVSPropertyOp11
 70
     1
102
RTVSPropertyOp12
 70
     1
102
RTVSPropertyOp13
 70
     1
102
RTVSPropertyOp14
 70
     1
102
RTVSPropertyOp15
 70
     1
102
RTVSPropertyOp16
 70
     1
102
RTVSPropertyOp17
 70
     1
102
RTVSPropertyOp18
 70
     1
102
RTVSPropertyOp19
 70
     1
102
RTVSPropertyOp20
 70
     1
102
RTVSPropertyOp21
 70
     1
102
RTVSPropertyOp22
 70
     1
102
RTVSPropertyOp23
 70
     1
102
RTVSPropertyOp24
 70
     1
102
RTVSPropertyOp25
 70
     1
102
RTVSPropertyOp26
 70
     1
102
RTVSPropertyOp27
 70
     1
102
RTVSPropertyOp28
 70
     1
102
RTVSPropertyOp29
 70
     1
102
RTVSPropertyOp30
 70
     1
102
RTVSPropertyOp31
 70
     1
102
RTVSPropertyOp32
 70
     1
102
RTVSPropertyOp33
 70
     1
102
RTVSPropertyOp34
 70
     1
102
RTVSPropertyOp35
 70
     1
102
RTVSPropertyOp36
 70
     1
102
RTVSPropertyOp37
 70
     1
102
RTVSPropertyOp38
 70
     1
102
RTVSPropertyOp39
 70
     1
102
RTVSPropertyOp40
 70
     1
102
RTVSPropertyOp41
 70
     1
102
RTVSPropertyOp42
 70
     1
102
RTVSPropertyOp43
 70
     1
102
RTVSPropertyOp44
 70
     1
102
RTVSPropertyOp45
 70
     1
102
RTVSPropertyOp46
 70
     1
102
RTVSPropertyOp47
 70
     1
102
RTVSPropertyOp48
 70
     1
102
RTVSPropertyOp49
 70
     1
102
RTVSPropertyOp50
 70
     1
102
RTVSPropertyOp51
 70
     0
102
RTVSPropertyOp52
 70
     0
102
RTVSPropertyOp53
 70
     1
102
RTVSPropertyOp54
 70
     1
102
RTVSPropertyOp55
 70
     1
102
RTVSPropertyOp56
 70
     1
102
RTVSPropertyOp57
 70
     1
102
RTVSPropertyOp58
 70
     1
102
RTVSPropertyOp59
 70
     1
102
RTVSPropertyOp60
 70
     1
102
RTVSPropertyOp61
 70
     1
102
RTVSPropertyOp62
 70
     1
  0
XRECORD
  5
58B
102
{ACAD_REACTORS
330
58A
102
}
330
58A
100
AcDbXrecord
280
     1
102
RTVSPost2010Prop28
280
     0
102
RTVSPost2010PropOp28
 70
     1
102
RTVSPost2010Prop29
280
     1
102
RTVSPost2010PropOp29
 70
     1
102
RTVSPost2010Prop30
280
     1
102
RTVSPost2010PropOp30
 70
     1
102
RTVSPost2010Prop31
280
     0
102
RTVSPost2010PropOp31
 70
     1
102
RTVSPost2010Prop32
280
     0
102
RTVSPost2010PropOp32
 70
     1
102
RTVSPost2010Prop33
280
     0
102
RTVSPost2010PropOp33
 70
     1
102
RTVSPost2010Prop34
280
     0
102
RTVSPost2010PropOp34
 70
     1
102
RTVSPost2010Prop35
280
     0
102
RTVSPost2010PropOp35
 70
     1
102
RTVSPost2010Prop36
280
     0
102
RTVSPost2010PropOp36
 70
     1
102
RTVSPost2010Prop37
 90
       50
102
RTVSPost2010PropOp37
 70
     1
102
RTVSPost2010Prop38
140
0.0
102
RTVSPost2010PropOp38
 70
     1
102
RTVSPost2010Prop39
140
1.0
102
RTVSPost2010PropOp39
 70
     1
102
RTVSPost2010Prop40
 90
        0
102
RTVSPost2010PropOp40
 70
     1
102
RTVSPost2010Prop41ColorIndex
 90
       18
102
RTVSPost2010Prop41ColorRGB
 90
        0
102
RTVSPost2010PropOp41
 70
     1
102
RTVSPost2010Prop42
 90
       50
102
RTVSPost2010PropOp42
 70
     1
102
RTVSPost2010Prop43
 90
        3
102
RTVSPost2010PropOp43
 70
     1
102
RTVSPost2010Prop44ColorIndex
 90
        5
102
RTVSPost2010Prop44ColorRGB
 90
      255
102
RTVSPost2010PropOp44
 70
     1
102
RTVSPost2010Prop45
280
     0
102
RTVSPost2010PropOp45
 70
     1
102
RTVSPost2010Prop46
 90
       50
102
RTVSPost2010PropOp46
 70
     1
102
RTVSPost2010Prop47
 90
       50
102
RTVSPost2010PropOp47
 70
     1
102
RTVSPost2010Prop48
 90
       50
102
RTVSPost2010PropOp48
 70
     1
102
RTVSPost2010Prop49
280
     0
102
RTVSPost2010PropOp49
 70
     1
102
RTVSPost2010Prop50
 90
       50
102
RTVSPost2010PropOp50
 70
     1
102
RTVSPost2010Prop51ColorIndex
 90
      256
102
RTVSPost2010Prop51ColorRGB
 90
-16777216
102
RTVSPost2010PropOp51
 70
     0
102
RTVSPost2010Prop52
140
1.0
102
RTVSPost2010PropOp52
 70
     0
102
RTVSPost2010Prop53
 90
        2
102
RTVSPost2010PropOp53
 70
     1
102
RTVSPost2010Prop54
  1
strokes_ogs.tif
102
RTVSPost2010PropOp54
 70
     1
102
RTVSPost2010Prop55
280
     0
102
RTVSPost2010PropOp55
 70
     1
102
RTVSPost2010Prop56
140
1.0
102
RTVSPost2010PropOp56
 70
     1
102
RTVSPost2010Prop57
140
1.0
102
RTVSPost2010PropOp57
 70
     1
102
RTVSPropertyOp0
 70
     1
102
RTVSPropertyOp1
 70
     1
102
RTVSPropertyOp2
 70
     1
102
RTVSPropertyOp3
 70
     1
102
RTVSPropertyOp4
 70
     1
102
RTVSPropertyOp5
 70
     1
102
RTVSPropertyOp6
 70
     1
102
RTVSPropertyOp7
 70
     1
102
RTVSPropertyOp8
 70
     1
102
RTVSPropertyOp9
 70
     1
102
RTVSPropertyOp10
 70
     1
102
RTVSPropertyOp11
 70
     1
102
RTVSPropertyOp12
 70
     1
102
RTVSPropertyOp13
 70
     1
102
RTVSPropertyOp14
 70
     1
102
RTVSPropertyOp15
 70
     1
102
RTVSPropertyOp16
 70
     1
102
RTVSPropertyOp17
 70
     1
102
RTVSPropertyOp18
 70
     1
102
RTVSPropertyOp19
 70
     1
102
RTVSPropertyOp20
 70
     1
102
RTVSPropertyOp21
 70
     1
102
RTVSPropertyOp22
 70
     1
102
RTVSPropertyOp23
 70
     1
102
RTVSPropertyOp24
 70
     1
102
RTVSPropertyOp25
 70
     1
102
RTVSPropertyOp26
 70
     1
102
RTVSPropertyOp27
 70
     1
102
RTVSPropertyOp28
 70
     1
102
RTVSPropertyOp29
 70
     1
102
RTVSPropertyOp30
 70
     1
102
RTVSPropertyOp31
 70
     1
102
RTVSPropertyOp32
 70
     1
102
RTVSPropertyOp33
 70
     1
102
RTVSPropertyOp34
 70
     1
102
RTVSPropertyOp35
 70
     1
102
RTVSPropertyOp36
 70
     1
102
RTVSPropertyOp37
 70
     1
102
RTVSPropertyOp38
 70
     1
102
RTVSPropertyOp39
 70
     1
102
RTVSPropertyOp40
 70
     1
102
RTVSPropertyOp41
 70
     1
102
RTVSPropertyOp42
 70
     1
102
RTVSPropertyOp43
 70
     1
102
RTVSPropertyOp44
 70
     1
102
RTVSPropertyOp45
 70
     1
102
RTVSPropertyOp46
 70
     1
102
RTVSPropertyOp47
 70
     1
102
RTVSPropertyOp48
 70
     1
102
RTVSPropertyOp49
 70
     1
102
RTVSPropertyOp50
 70
     1
102
RTVSPropertyOp51
 70
     0
102
RTVSPropertyOp52
 70
     0
102
RTVSPropertyOp53
 70
     1
102
RTVSPropertyOp54
 70
     1
102
RTVSPropertyOp55
 70
     1
102
RTVSPropertyOp56
 70
     1
102
RTVSPropertyOp57
 70
     1
102
RTVSPropertyOp58
 70
     1
102
RTVSPropertyOp59
 70
     1
102
RTVSPropertyOp60
 70
     1
102
RTVSPropertyOp61
 70
     1
102
RTVSPropertyOp62
 70
     1
  0
XRECORD
  5
581
102
{ACAD_REACTORS
330
580
102
}
330
580
100
AcDbXrecord
280
     1
102
RTVSPost2010Prop28
280
     0
102
RTVSPost2010PropOp28
 70
     1
102
RTVSPost2010Prop29
280
     1
102
RTVSPost2010PropOp29
 70
     1
102
RTVSPost2010Prop30
280
     1
102
RTVSPost2010PropOp30
 70
     1
102
RTVSPost2010Prop31
280
     0
102
RTVSPost2010PropOp31
 70
     1
102
RTVSPost2010Prop32
280
     0
102
RTVSPost2010PropOp32
 70
     1
102
RTVSPost2010Prop33
280
     0
102
RTVSPost2010PropOp33
 70
     1
102
RTVSPost2010Prop34
280
     0
102
RTVSPost2010PropOp34
 70
     1
102
RTVSPost2010Prop35
280
     0
102
RTVSPost2010PropOp35
 70
     1
102
RTVSPost2010Prop36
280
     0
102
RTVSPost2010PropOp36
 70
     1
102
RTVSPost2010Prop37
 90
       50
102
RTVSPost2010PropOp37
 70
     1
102
RTVSPost2010Prop38
140
0.0
102
RTVSPost2010PropOp38
 70
     1
102
RTVSPost2010Prop39
140
1.0
102
RTVSPost2010PropOp39
 70
     1
102
RTVSPost2010Prop40
 90
        0
102
RTVSPost2010PropOp40
 70
     1
102
RTVSPost2010Prop41ColorIndex
 90
       18
102
RTVSPost2010Prop41ColorRGB
 90
        0
102
RTVSPost2010PropOp41
 70
     1
102
RTVSPost2010Prop42
 90
       50
102
RTVSPost2010PropOp42
 70
     1
102
RTVSPost2010Prop43
 90
        3
102
RTVSPost2010PropOp43
 70
     1
102
RTVSPost2010Prop44ColorIndex
 90
        5
102
RTVSPost2010Prop44ColorRGB
 90
      255
102
RTVSPost2010PropOp44
 70
     1
102
RTVSPost2010Prop45
280
     0
102
RTVSPost2010PropOp45
 70
     1
102
RTVSPost2010Prop46
 90
       50
102
RTVSPost2010PropOp46
 70
     1
102
RTVSPost2010Prop47
 90
       50
102
RTVSPost2010PropOp47
 70
     1
102
RTVSPost2010Prop48
 90
       50
102
RTVSPost2010PropOp48
 70
     1
102
RTVSPost2010Prop49
280
     0
102
RTVSPost2010PropOp49
 70
     1
102
RTVSPost2010Prop50
 90
       50
102
RTVSPost2010PropOp50
 70
     1
102
RTVSPost2010Prop51ColorIndex
 90
      256
102
RTVSPost2010Prop51ColorRGB
 90
-16777216
102
RTVSPost2010PropOp51
 70
     0
102
RTVSPost2010Prop52
140
1.0
102
RTVSPost2010PropOp52
 70
     0
102
RTVSPost2010Prop53
 90
        2
102
RTVSPost2010PropOp53
 70
     1
102
RTVSPost2010Prop54
  1
strokes_ogs.tif
102
RTVSPost2010PropOp54
 70
     1
102
RTVSPost2010Prop55
280
     0
102
RTVSPost2010PropOp55
 70
     1
102
RTVSPost2010Prop56
140
1.0
102
RTVSPost2010PropOp56
 70
     1
102
RTVSPost2010Prop57
140
1.0
102
RTVSPost2010PropOp57
 70
     1
102
RTVSPropertyOp0
 70
     1
102
RTVSPropertyOp1
 70
     1
102
RTVSPropertyOp2
 70
     1
102
RTVSPropertyOp3
 70
     1
102
RTVSPropertyOp4
 70
     1
102
RTVSPropertyOp5
 70
     1
102
RTVSPropertyOp6
 70
     1
102
RTVSPropertyOp7
 70
     1
102
RTVSPropertyOp8
 70
     1
102
RTVSPropertyOp9
 70
     1
102
RTVSPropertyOp10
 70
     1
102
RTVSPropertyOp11
 70
     1
102
RTVSPropertyOp12
 70
     1
102
RTVSPropertyOp13
 70
     1
102
RTVSPropertyOp14
 70
     1
102
RTVSPropertyOp15
 70
     1
102
RTVSPropertyOp16
 70
     1
102
RTVSPropertyOp17
 70
     1
102
RTVSPropertyOp18
 70
     1
102
RTVSPropertyOp19
 70
     1
102
RTVSPropertyOp20
 70
     1
102
RTVSPropertyOp21
 70
     1
102
RTVSPropertyOp22
 70
     1
102
RTVSPropertyOp23
 70
     1
102
RTVSPropertyOp24
 70
     1
102
RTVSPropertyOp25
 70
     1
102
RTVSPropertyOp26
 70
     1
102
RTVSPropertyOp27
 70
     1
102
RTVSPropertyOp28
 70
     1
102
RTVSPropertyOp29
 70
     1
102
RTVSPropertyOp30
 70
     1
102
RTVSPropertyOp31
 70
     1
102
RTVSPropertyOp32
 70
     1
102
RTVSPropertyOp33
 70
     1
102
RTVSPropertyOp34
 70
     1
102
RTVSPropertyOp35
 70
     1
102
RTVSPropertyOp36
 70
     1
102
RTVSPropertyOp37
 70
     1
102
RTVSPropertyOp38
 70
     1
102
RTVSPropertyOp39
 70
     1
102
RTVSPropertyOp40
 70
     1
102
RTVSPropertyOp41
 70
     1
102
RTVSPropertyOp42
 70
     1
102
RTVSPropertyOp43
 70
     1
102
RTVSPropertyOp44
 70
     1
102
RTVSPropertyOp45
 70
     1
102
RTVSPropertyOp46
 70
     1
102
RTVSPropertyOp47
 70
     1
102
RTVSPropertyOp48
 70
     1
102
RTVSPropertyOp49
 70
     1
102
RTVSPropertyOp50
 70
     1
102
RTVSPropertyOp51
 70
     0
102
RTVSPropertyOp52
 70
     0
102
RTVSPropertyOp53
 70
     1
102
RTVSPropertyOp54
 70
     1
102
RTVSPropertyOp55
 70
     1
102
RTVSPropertyOp56
 70
     1
102
RTVSPropertyOp57
 70
     1
102
RTVSPropertyOp58
 70
     1
102
RTVSPropertyOp59
 70
     1
102
RTVSPropertyOp60
 70
     1
102
RTVSPropertyOp61
 70
     1
102
RTVSPropertyOp62
 70
     1
  0
XRECORD
  5
575
102
{ACAD_REACTORS
330
574
102
}
330
574
100
AcDbXrecord
280
     1
102
RTVSPost2010Prop28
280
     0
102
RTVSPost2010PropOp28
 70
     1
102
RTVSPost2010Prop29
280
     1
102
RTVSPost2010PropOp29
 70
     1
102
RTVSPost2010Prop30
280
     1
102
RTVSPost2010PropOp30
 70
     1
102
RTVSPost2010Prop31
280
     0
102
RTVSPost2010PropOp31
 70
     1
102
RTVSPost2010Prop32
280
     0
102
RTVSPost2010PropOp32
 70
     1
102
RTVSPost2010Prop33
280
     0
102
RTVSPost2010PropOp33
 70
     1
102
RTVSPost2010Prop34
280
     0
102
RTVSPost2010PropOp34
 70
     1
102
RTVSPost2010Prop35
280
     0
102
RTVSPost2010PropOp35
 70
     1
102
RTVSPost2010Prop36
280
     0
102
RTVSPost2010PropOp36
 70
     1
102
RTVSPost2010Prop37
 90
       50
102
RTVSPost2010PropOp37
 70
     1
102
RTVSPost2010Prop38
140
0.0
102
RTVSPost2010PropOp38
 70
     1
102
RTVSPost2010Prop39
140
1.0
102
RTVSPost2010PropOp39
 70
     1
102
RTVSPost2010Prop40
 90
        0
102
RTVSPost2010PropOp40
 70
     1
102
RTVSPost2010Prop41ColorIndex
 90
       18
102
RTVSPost2010Prop41ColorRGB
 90
        0
102
RTVSPost2010PropOp41
 70
     1
102
RTVSPost2010Prop42
 90
       50
102
RTVSPost2010PropOp42
 70
     1
102
RTVSPost2010Prop43
 90
        3
102
RTVSPost2010PropOp43
 70
     1
102
RTVSPost2010Prop44ColorIndex
 90
        5
102
RTVSPost2010Prop44ColorRGB
 90
      255
102
RTVSPost2010PropOp44
 70
     1
102
RTVSPost2010Prop45
280
     0
102
RTVSPost2010PropOp45
 70
     1
102
RTVSPost2010Prop46
 90
       50
102
RTVSPost2010PropOp46
 70
     1
102
RTVSPost2010Prop47
 90
       50
102
RTVSPost2010PropOp47
 70
     1
102
RTVSPost2010Prop48
 90
       50
102
RTVSPost2010PropOp48
 70
     1
102
RTVSPost2010Prop49
280
     0
102
RTVSPost2010PropOp49
 70
     1
102
RTVSPost2010Prop50
 90
       50
102
RTVSPost2010PropOp50
 70
     1
102
RTVSPost2010Prop51ColorIndex
 90
      256
102
RTVSPost2010Prop51ColorRGB
 90
-16777216
102
RTVSPost2010PropOp51
 70
     0
102
RTVSPost2010Prop52
140
1.0
102
RTVSPost2010PropOp52
 70
     0
102
RTVSPost2010Prop53
 90
        2
102
RTVSPost2010PropOp53
 70
     1
102
RTVSPost2010Prop54
  1
strokes_ogs.tif
102
RTVSPost2010PropOp54
 70
     1
102
RTVSPost2010Prop55
280
     0
102
RTVSPost2010PropOp55
 70
     1
102
RTVSPost2010Prop56
140
1.0
102
RTVSPost2010PropOp56
 70
     1
102
RTVSPost2010Prop57
140
1.0
102
RTVSPost2010PropOp57
 70
     1
102
RTVSPropertyOp0
 70
     1
102
RTVSPropertyOp1
 70
     1
102
RTVSPropertyOp2
 70
     1
102
RTVSPropertyOp3
 70
     1
102
RTVSPropertyOp4
 70
     1
102
RTVSPropertyOp5
 70
     1
102
RTVSPropertyOp6
 70
     1
102
RTVSPropertyOp7
 70
     1
102
RTVSPropertyOp8
 70
     1
102
RTVSPropertyOp9
 70
     1
102
RTVSPropertyOp10
 70
     1
102
RTVSPropertyOp11
 70
     1
102
RTVSPropertyOp12
 70
     1
102
RTVSPropertyOp13
 70
     1
102
RTVSPropertyOp14
 70
     1
102
RTVSPropertyOp15
 70
     1
102
RTVSPropertyOp16
 70
     1
102
RTVSPropertyOp17
 70
     1
102
RTVSPropertyOp18
 70
     1
102
RTVSPropertyOp19
 70
     1
102
RTVSPropertyOp20
 70
     1
102
RTVSPropertyOp21
 70
     1
102
RTVSPropertyOp22
 70
     1
102
RTVSPropertyOp23
 70
     1
102
RTVSPropertyOp24
 70
     1
102
RTVSPropertyOp25
 70
     1
102
RTVSPropertyOp26
 70
     1
102
RTVSPropertyOp27
 70
     1
102
RTVSPropertyOp28
 70
     1
102
RTVSPropertyOp29
 70
     1
102
RTVSPropertyOp30
 70
     1
102
RTVSPropertyOp31
 70
     1
102
RTVSPropertyOp32
 70
     1
102
RTVSPropertyOp33
 70
     1
102
RTVSPropertyOp34
 70
     1
102
RTVSPropertyOp35
 70
     1
102
RTVSPropertyOp36
 70
     1
102
RTVSPropertyOp37
 70
     1
102
RTVSPropertyOp38
 70
     1
102
RTVSPropertyOp39
 70
     1
102
RTVSPropertyOp40
 70
     1
102
RTVSPropertyOp41
 70
     1
102
RTVSPropertyOp42
 70
     1
102
RTVSPropertyOp43
 70
     1
102
RTVSPropertyOp44
 70
     1
102
RTVSPropertyOp45
 70
     1
102
RTVSPropertyOp46
 70
     1
102
RTVSPropertyOp47
 70
     1
102
RTVSPropertyOp48
 70
     1
102
RTVSPropertyOp49
 70
     1
102
RTVSPropertyOp50
 70
     1
102
RTVSPropertyOp51
 70
     0
102
RTVSPropertyOp52
 70
     0
102
RTVSPropertyOp53
 70
     1
102
RTVSPropertyOp54
 70
     1
102
RTVSPropertyOp55
 70
     1
102
RTVSPropertyOp56
 70
     1
102
RTVSPropertyOp57
 70
     1
102
RTVSPropertyOp58
 70
     1
102
RTVSPropertyOp59
 70
     1
102
RTVSPropertyOp60
 70
     1
102
RTVSPropertyOp61
 70
     1
102
RTVSPropertyOp62
 70
     1
  0
XRECORD
  5
58D
102
{ACAD_REACTORS
330
58C
102
}
330
58C
100
AcDbXrecord
280
     1
102
RTVSPost2010Prop28
280
     0
102
RTVSPost2010PropOp28
 70
     1
102
RTVSPost2010Prop29
280
     1
102
RTVSPost2010PropOp29
 70
     1
102
RTVSPost2010Prop30
280
     1
102
RTVSPost2010PropOp30
 70
     1
102
RTVSPost2010Prop31
280
     0
102
RTVSPost2010PropOp31
 70
     1
102
RTVSPost2010Prop32
280
     0
102
RTVSPost2010PropOp32
 70
     1
102
RTVSPost2010Prop33
280
     0
102
RTVSPost2010PropOp33
 70
     1
102
RTVSPost2010Prop34
280
     0
102
RTVSPost2010PropOp34
 70
     1
102
RTVSPost2010Prop35
280
     0
102
RTVSPost2010PropOp35
 70
     1
102
RTVSPost2010Prop36
280
     0
102
RTVSPost2010PropOp36
 70
     1
102
RTVSPost2010Prop37
 90
       50
102
RTVSPost2010PropOp37
 70
     1
102
RTVSPost2010Prop38
140
0.0
102
RTVSPost2010PropOp38
 70
     1
102
RTVSPost2010Prop39
140
1.0
102
RTVSPost2010PropOp39
 70
     1
102
RTVSPost2010Prop40
 90
        0
102
RTVSPost2010PropOp40
 70
     1
102
RTVSPost2010Prop41ColorIndex
 90
       18
102
RTVSPost2010Prop41ColorRGB
 90
        0
102
RTVSPost2010PropOp41
 70
     1
102
RTVSPost2010Prop42
 90
       50
102
RTVSPost2010PropOp42
 70
     1
102
RTVSPost2010Prop43
 90
        3
102
RTVSPost2010PropOp43
 70
     1
102
RTVSPost2010Prop44ColorIndex
 90
        5
102
RTVSPost2010Prop44ColorRGB
 90
      255
102
RTVSPost2010PropOp44
 70
     1
102
RTVSPost2010Prop45
280
     0
102
RTVSPost2010PropOp45
 70
     1
102
RTVSPost2010Prop46
 90
       50
102
RTVSPost2010PropOp46
 70
     1
102
RTVSPost2010Prop47
 90
       50
102
RTVSPost2010PropOp47
 70
     1
102
RTVSPost2010Prop48
 90
       50
102
RTVSPost2010PropOp48
 70
     1
102
RTVSPost2010Prop49
280
     0
102
RTVSPost2010PropOp49
 70
     1
102
RTVSPost2010Prop50
 90
       50
102
RTVSPost2010PropOp50
 70
     1
102
RTVSPost2010Prop51ColorIndex
 90
      256
102
RTVSPost2010Prop51ColorRGB
 90
-16777216
102
RTVSPost2010PropOp51
 70
     0
102
RTVSPost2010Prop52
140
1.0
102
RTVSPost2010PropOp52
 70
     0
102
RTVSPost2010Prop53
 90
        2
102
RTVSPost2010PropOp53
 70
     1
102
RTVSPost2010Prop54
  1
strokes_ogs.tif
102
RTVSPost2010PropOp54
 70
     1
102
RTVSPost2010Prop55
280
     0
102
RTVSPost2010PropOp55
 70
     1
102
RTVSPost2010Prop56
140
1.0
102
RTVSPost2010PropOp56
 70
     1
102
RTVSPost2010Prop57
140
1.0
102
RTVSPost2010PropOp57
 70
     1
102
RTVSPropertyOp0
 70
     1
102
RTVSPropertyOp1
 70
     1
102
RTVSPropertyOp2
 70
     1
102
RTVSPropertyOp3
 70
     1
102
RTVSPropertyOp4
 70
     1
102
RTVSPropertyOp5
 70
     1
102
RTVSPropertyOp6
 70
     1
102
RTVSPropertyOp7
 70
     1
102
RTVSPropertyOp8
 70
     1
102
RTVSPropertyOp9
 70
     1
102
RTVSPropertyOp10
 70
     1
102
RTVSPropertyOp11
 70
     1
102
RTVSPropertyOp12
 70
     1
102
RTVSPropertyOp13
 70
     1
102
RTVSPropertyOp14
 70
     1
102
RTVSPropertyOp15
 70
     1
102
RTVSPropertyOp16
 70
     1
102
RTVSPropertyOp17
 70
     1
102
RTVSPropertyOp18
 70
     1
102
RTVSPropertyOp19
 70
     1
102
RTVSPropertyOp20
 70
     1
102
RTVSPropertyOp21
 70
     1
102
RTVSPropertyOp22
 70
     1
102
RTVSPropertyOp23
 70
     1
102
RTVSPropertyOp24
 70
     1
102
RTVSPropertyOp25
 70
     1
102
RTVSPropertyOp26
 70
     1
102
RTVSPropertyOp27
 70
     1
102
RTVSPropertyOp28
 70
     1
102
RTVSPropertyOp29
 70
     1
102
RTVSPropertyOp30
 70
     1
102
RTVSPropertyOp31
 70
     1
102
RTVSPropertyOp32
 70
     1
102
RTVSPropertyOp33
 70
     1
102
RTVSPropertyOp34
 70
     1
102
RTVSPropertyOp35
 70
     1
102
RTVSPropertyOp36
 70
     1
102
RTVSPropertyOp37
 70
     1
102
RTVSPropertyOp38
 70
     1
102
RTVSPropertyOp39
 70
     1
102
RTVSPropertyOp40
 70
     1
102
RTVSPropertyOp41
 70
     1
102
RTVSPropertyOp42
 70
     1
102
RTVSPropertyOp43
 70
     1
102
RTVSPropertyOp44
 70
     1
102
RTVSPropertyOp45
 70
     1
102
RTVSPropertyOp46
 70
     1
102
RTVSPropertyOp47
 70
     1
102
RTVSPropertyOp48
 70
     1
102
RTVSPropertyOp49
 70
     1
102
RTVSPropertyOp50
 70
     1
102
RTVSPropertyOp51
 70
     0
102
RTVSPropertyOp52
 70
     0
102
RTVSPropertyOp53
 70
     1
102
RTVSPropertyOp54
 70
     1
102
RTVSPropertyOp55
 70
     1
102
RTVSPropertyOp56
 70
     1
102
RTVSPropertyOp57
 70
     1
102
RTVSPropertyOp58
 70
     1
102
RTVSPropertyOp59
 70
     1
102
RTVSPropertyOp60
 70
     1
102
RTVSPropertyOp61
 70
     1
102
RTVSPropertyOp62
 70
     1
  0
ENDSEC
  0
EOF
