  0
SECTION
  2
HEADER
  9
$ACADVER
  1
AC1014
  9
$ACADMAINTVER
 70
     9
  9
$DWGCODEPAGE
  3
ANSI_1252
  9
$INSBASE
 10
0.0
 20
0.0
 30
0.0
  9
$EXTMIN
 10
-1235.00000001
 20
-1244.500000009999
 30
-0.000000010000043
  9
$EXTMAX
 10
1235.00000001
 20
44.9142135573731
 30
0.0000000099999879
  9
$LIMMIN
 10
0.0
 20
0.0
  9
$LIMMAX
 10
12.0
 20
9.0
  9
$ORTHOMODE
 70
     0
  9
$REGENMODE
 70
     1
  9
$FILLMODE
 70
     1
  9
$QTEXTMODE
 70
     0
  9
$MIRRTEXT
 70
     1
  9
$DRAGMODE
 70
     2
  9
$LTSCALE
 40
1.0
  9
$OSMODE
 70
    37
  9
$ATTMODE
 70
     1
  9
$TEXTSIZE
 40
0.2
  9
$TRACEWID
 40
0.05
  9
$TEXTSTYLE
  7
STANDARD
  9
$CLAYER
  8
0
  9
$CELTYPE
  6
BYLAYER
  9
$CECOLOR
 62
   256
  9
$CELTSCALE
 40
1.0
  9
$DELOBJ
 70
     1
  9
$DISPSILH
 70
     0
  9
$DIMSCALE
 40
1.0
  9
$DIMASZ
 40
0.18
  9
$DIMEXO
 40
0.0625
  9
$DIMDLI
 40
0.38
  9
$DIMRND
 40
0.0
  9
$DIMDLE
 40
0.0
  9
$DIMEXE
 40
0.18
  9
$DIMTP
 40
0.0
  9
$DIMTM
 40
0.0
  9
$DIMTXT
 40
0.18
  9
$DIMCEN
 40
0.09
  9
$DIMTSZ
 40
0.0
  9
$DIMTOL
 70
     0
  9
$DIMLIM
 70
     0
  9
$DIMTIH
 70
     1
  9
$DIMTOH
 70
     1
  9
$DIMSE1
 70
     0
  9
$DIMSE2
 70
     0
  9
$DIMTAD
 70
     0
  9
$DIMZIN
 70
     0
  9
$DIMBLK
  1

  9
$DIMASO
 70
     1
  9
$DIMSHO
 70
     1
  9
$DIMPOST
  1

  9
$DIMAPOST
  1

  9
$DIMALT
 70
     0
  9
$DIMALTD
 70
     2
  9
$DIMALTF
 40
25.4
  9
$DIMLFAC
 40
1.0
  9
$DIMTOFL
 70
     0
  9
$DIMTVP
 40
0.0
  9
$DIMTIX
 70
     0
  9
$DIMSOXD
 70
     0
  9
$DIMSAH
 70
     0
  9
$DIMBLK1
  1

  9
$DIMBLK2
  1

  9
$DIMSTYLE
  2
STANDARD
  9
$DIMCLRD
 70
     0
  9
$DIMCLRE
 70
     0
  9
$DIMCLRT
 70
     0
  9
$DIMTFAC
 40
1.0
  9
$DIMGAP
 40
0.09
  9
$DIMJUST
 70
     0
  9
$DIMSD1
 70
     0
  9
$DIMSD2
 70
     0
  9
$DIMTOLJ
 70
     1
  9
$DIMTZIN
 70
     0
  9
$DIMALTZ
 70
     0
  9
$DIMALTTZ
 70
     0
  9
$DIMFIT
 70
     3
  9
$DIMUPT
 70
     0
  9
$DIMUNIT
 70
     2
  9
$DIMDEC
 70
     4
  9
$DIMTDEC
 70
     4
  9
$DIMALTU
 70
     2
  9
$DIMALTTD
 70
     2
  9
$DIMTXSTY
  7
STANDARD
  9
$DIMAUNIT
 70
     0
  9
$LUNITS
 70
     2
  9
$LUPREC
 70
     4
  9
$SKETCHINC
 40
0.1
  9
$FILLETRAD
 40
0.5
  9
$AUNITS
 70
     0
  9
$AUPREC
 70
     0
  9
$MENU
  1
.
  9
$ELEVATION
 40
0.0
  9
$PELEVATION
 40
0.0
  9
$THICKNESS
 40
0.0
  9
$LIMCHECK
 70
     0
  9
$BLIPMODE
 70
     0
  9
$CHAMFERA
 40
0.5
  9
$CHAMFERB
 40
0.5
  9
$CHAMFERC
 40
1.0
  9
$CHAMFERD
 40
0.0
  9
$SKPOLY
 70
     0
  9
$TDCREATE
 40
2451762.446396064
  9
$TDUPDATE
 40
2452856.632217881
  9
$TDINDWG
 40
0.0006586574
  9
$TDUSRTIMER
 40
0.0006586574
  9
$USRTIMER
 70
     1
  9
$ANGBASE
 50
0.0
  9
$ANGDIR
 70
     0
  9
$PDMODE
 70
     0
  9
$PDSIZE
 40
0.0
  9
$PLINEWID
 40
0.0
  9
$COORDS
 70
     1
  9
$SPLFRAME
 70
     0
  9
$SPLINETYPE
 70
     6
  9
$SPLINESEGS
 70
     8
  9
$ATTDIA
 70
     0
  9
$ATTREQ
 70
     1
  9
$HANDLING
 70
  4097
  9
$HANDSEED
  5
329
  9
$SURFTAB1
 70
     6
  9
$SURFTAB2
 70
     6
  9
$SURFTYPE
 70
     6
  9
$SURFU
 70
     6
  9
$SURFV
 70
     6
  9
$UCSNAME
  2

  9
$UCSORG
 10
0.0
 20
0.0
 30
0.0
  9
$UCSXDIR
 10
1.0
 20
0.0
 30
0.0
  9
$UCSYDIR
 10
0.0
 20
1.0
 30
0.0
  9
$PUCSNAME
  2

  9
$PUCSORG
 10
0.0
 20
0.0
 30
0.0
  9
$PUCSXDIR
 10
1.0
 20
0.0
 30
0.0
  9
$PUCSYDIR
 10
0.0
 20
1.0
 30
0.0
  9
$USERI1
 70
     0
  9
$USERI2
 70
     0
  9
$USERI3
 70
     0
  9
$USERI4
 70
     0
  9
$USERI5
 70
     0
  9
$USERR1
 40
0.0
  9
$USERR2
 40
0.0
  9
$USERR3
 40
0.0
  9
$USERR4
 40
0.0
  9
$USERR5
 40
0.0
  9
$WORLDVIEW
 70
     1
  9
$SHADEDGE
 70
     3
  9
$SHADEDIF
 70
    70
  9
$TILEMODE
 70
     1
  9
$MAXACTVP
 70
    64
  9
$PINSBASE
 10
0.0
 20
0.0
 30
0.0
  9
$PLIMCHECK
 70
     0
  9
$PEXTMIN
 10
1.000000000000000E+20
 20
1.000000000000000E+20
 30
1.000000000000000E+20
  9
$PEXTMAX
 10
-1.000000000000000E+20
 20
-1.000000000000000E+20
 30
-1.000000000000000E+20
  9
$PLIMMIN
 10
0.0
 20
0.0
  9
$PLIMMAX
 10
12.0
 20
9.0
  9
$UNITMODE
 70
     0
  9
$VISRETAIN
 70
     1
  9
$PLINEGEN
 70
     0
  9
$PSLTSCALE
 70
     1
  9
$TREEDEPTH
 70
  3020
  9
$PICKSTYLE
 70
     1
  9
$CMLSTYLE
  2
STANDARD
  9
$CMLJUST
 70
     0
  9
$CMLSCALE
 40
1.0
  9
$PROXYGRAPHICS
 70
     1
  9
$MEASUREMENT
 70
     0
  0
ENDSEC
  0
SECTION
  2
CLASSES
  0
CLASS
  1
ACDBDICTIONARYWDFLT
  2
AcDbDictionaryWithDefault
  3
AutoCAD 2000
 90
        0
280
     0
281
     0
  0
CLASS
  1
ACDBPLACEHOLDER
  2
AcDbPlaceHolder
  3
AutoCAD 2000
 90
        0
280
     0
281
     0
  0
CLASS
  1
LAYOUT
  2
AcDbLayout
  3
AutoCAD 2000
 90
        0
280
     0
281
     0
  0
CLASS
  1
LONG_TRANSACTION
  2
AcDbLongTransaction
  3
AutoCAD 2000
 90
        0
280
     0
281
     0
  0
CLASS
  1
LWPOLYLINE
  2
AcDbPolyline
  3
AutoCAD 2000
 90
        0
280
     0
281
     1
  0
CLASS
  1
HATCH
  2
AcDbHatch
  3
AutoCAD 2000
 90
        0
280
     0
281
     1
  0
CLASS
  1
XRECORD
  2
AcDbXrecord
  3
AutoCAD 2000
 90
        0
280
     0
281
     0
  0
CLASS
  1
LONG_TRANSACTION
  2
AcDbLongTransaction
  3
AutoCAD 2000
 90
        0
280
     0
281
     0
  0
CLASS
  1
LWPOLYLINE
  2
AcDbPolyline
  3
AutoCAD 2000
 90
        0
280
     0
281
     1
  0
CLASS
  1
HATCH
  2
AcDbHatch
  3
AutoCAD 2000
 90
        0
280
     0
281
     1
  0
CLASS
  1
XRECORD
  2
AcDbXrecord
  3
AutoCAD 2000
 90
        0
280
     0
281
     0
  0
ENDSEC
  0
SECTION
  2
TABLES
  0
TABLE
  2
VPORT
  5
8
330
0
100
AcDbSymbolTable
 70
     2
  0
VPORT
  5
306
330
8
100
AcDbSymbolTableRecord
100
AcDbViewportTableRecord
  2
*ACTIVE
 70
     0
 10
0.0
 20
0.0
 11
1.0
 21
1.0
 12
-0.0000000000004547
 22
-683.188495000148
 13
0.0
 23
0.0
 14
0.5
 24
0.5
 15
0.5
 25
0.5
 16
0.0
 26
0.0
 36
1.0
 17
0.0
 27
0.0
 37
0.0
 40
1491.04638255227
 41
1.818713450292397
 42
50.0
 43
0.0
 44
0.0
 50
0.0
 51
0.0
 71
     0
 72
   100
 73
     1
 74
     3
 75
     0
 76
     0
 77
     0
 78
     0
  0
ENDTAB
  0
TABLE
  2
LTYPE
  5
5
330
0
100
AcDbSymbolTable
 70
     1
  0
LTYPE
  5
14
330
5
100
AcDbSymbolTableRecord
100
AcDbLinetypeTableRecord
  2
BYBLOCK
 70
     0
  3

 72
    65
 73
     0
 40
0.0
  0
LTYPE
  5
15
330
5
100
AcDbSymbolTableRecord
100
AcDbLinetypeTableRecord
  2
BYLAYER
 70
     0
  3

 72
    65
 73
     0
 40
0.0
  0
LTYPE
  5
16
330
5
100
AcDbSymbolTableRecord
100
AcDbLinetypeTableRecord
  2
CONTINUOUS
 70
     0
  3
Solid line
 72
    65
 73
     0
 40
0.0
  0
ENDTAB
  0
TABLE
  2
LAYER
  5
2
330
0
100
AcDbSymbolTable
 70
     2
  0
LAYER
  5
10
330
2
100
AcDbSymbolTableRecord
100
AcDbLayerTableRecord
  2
0
 70
     0
 62
     7
  6
CONTINUOUS
  0
LAYER
  5
5A
330
2
100
AcDbSymbolTableRecord
100
AcDbLayerTableRecord
  2
PV-CA
 70
     2
 62
     7
  6
CONTINUOUS
  0
ENDTAB
  0
TABLE
  2
STYLE
  5
3
330
0
100
AcDbSymbolTable
 70
     1
  0
STYLE
  5
11
330
3
100
AcDbSymbolTableRecord
100
AcDbTextStyleTableRecord
  2
STANDARD
 70
     0
 40
0.0
 41
1.0
 50
0.0
 71
     0
 42
0.2
  3
txt
  4

  0
ENDTAB
  0
TABLE
  2
VIEW
  5
6
330
0
100
AcDbSymbolTable
 70
     0
  0
ENDTAB
  0
TABLE
  2
UCS
  5
7
330
0
100
AcDbSymbolTable
 70
     0
  0
ENDTAB
  0
TABLE
  2
APPID
  5
9
330
0
100
AcDbSymbolTable
 70
     1
  0
APPID
  5
12
330
9
100
AcDbSymbolTableRecord
100
AcDbRegAppTableRecord
  2
ACAD
 70
     0
  0
ENDTAB
  0
TABLE
  2
DIMSTYLE
  5
A
330
0
100
AcDbSymbolTable
 70
     1
  0
DIMSTYLE
105
27
330
A
100
AcDbSymbolTableRecord
100
AcDbDimStyleTableRecord
  2
STANDARD
 70
     0
  3

  4

  5

  6

  7

 40
1.0
 41
0.18
 42
0.0625
 43
0.38
 44
0.18
 45
0.0
 46
0.0
 47
0.0
 48
0.0
140
0.18
141
0.09
142
0.0
143
25.4
144
1.0
145
0.0
146
1.0
147
0.09
 71
     0
 72
     0
 73
     1
 74
     1
 75
     0
 76
     0
 77
     0
 78
     0
170
     0
171
     2
172
     0
173
     0
174
     0
175
     0
176
     0
177
     0
178
     0
270
     2
271
     4
272
     4
273
     2
274
     2
340
11
275
     0
280
     0
281
     0
282
     0
283
     1
284
     0
285
     0
286
     0
287
     3
288
     0
  0
ENDTAB
  0
TABLE
  2
BLOCK_RECORD
  5
1
330
0
100
AcDbSymbolTable
 70
     8
  0
BLOCK_RECORD
  5
1F
102
{ACAD_XDICTIONARY
360
1B2
102
}
330
1
100
AcDbSymbolTableRecord
100
AcDbBlockTableRecord
  2
*MODEL_SPACE
  0
BLOCK_RECORD
  5
1B
102
{ACAD_XDICTIONARY
360
1B0
102
}
330
1
100
AcDbSymbolTableRecord
100
AcDbBlockTableRecord
  2
*PAPER_SPACE
  0
BLOCK_RECORD
  5
48
330
1
100
AcDbSymbolTableRecord
100
AcDbBlockTableRecord
  2
*U0
  0
BLOCK_RECORD
  5
5C
330
1
100
AcDbSymbolTableRecord
100
AcDbBlockTableRecord
  2
FRONT
  0
BLOCK_RECORD
  5
61
330
1
100
AcDbSymbolTableRecord
100
AcDbBlockTableRecord
  2
*U2
  0
BLOCK_RECORD
  5
E6
330
1
100
AcDbSymbolTableRecord
100
AcDbBlockTableRecord
  2
LEFT
  0
BLOCK_RECORD
  5
EB
330
1
100
AcDbSymbolTableRecord
100
AcDbBlockTableRecord
  2
*U4
  0
BLOCK_RECORD
  5
14C
330
1
100
AcDbSymbolTableRecord
100
AcDbBlockTableRecord
  2
RIGHT
  0
BLOCK_RECORD
  5
151
330
1
100
AcDbSymbolTableRecord
100
AcDbBlockTableRecord
  2
*U6
  0
BLOCK_RECORD
  5
1AA
330
1
100
AcDbSymbolTableRecord
100
AcDbBlockTableRecord
  2
TOP
  0
ENDTAB
  0
ENDSEC
  0
SECTION
  2
BLOCKS
  0
BLOCK
  5
20
330
1F
100
AcDbEntity
  8
0
100
AcDbBlockBegin
  2
*MODEL_SPACE
 70
     0
 10
0.0
 20
0.0
 30
0.0
  3
*MODEL_SPACE
  1

  0
ENDBLK
  5
21
330
1F
100
AcDbEntity
  8
0
100
AcDbBlockEnd
  0
BLOCK
  5
1C
330
1B
100
AcDbEntity
 67
     1
  8
0
100
AcDbBlockBegin
  2
*PAPER_SPACE
 70
     0
 10
0.0
 20
0.0
 30
0.0
  3
*PAPER_SPACE
  1

  0
ENDBLK
  5
1D
330
1B
100
AcDbEntity
 67
     1
  8
0
100
AcDbBlockEnd
  0
BLOCK
  5
57
330
48
100
AcDbEntity
  8
0
100
AcDbBlockBegin
  2
*U0
 70
     1
 10
0.0
 20
0.0
 30
0.0
  3
*U0
  1
*ANON
  0
CIRCLE
  5
49
330
48
100
AcDbEntity
  8
PV-CA
100
AcDbCircle
 10
0.0
 20
0.0
 30
0.0
 40
33.25
210
0.0
220
-1.0
230
0.0
  0
CIRCLE
  5
4A
330
48
100
AcDbEntity
  8
PV-CA
100
AcDbCircle
 10
0.0
 20
0.0
 30
0.0
 40
35.0
210
0.0
220
-1.0
230
0.0
  0
CIRCLE
  5
4B
330
48
100
AcDbEntity
  8
PV-CA
100
AcDbCircle
 10
0.0
 20
0.0
 30
0.0
 40
16.8
210
0.0
220
-1.0
230
0.0
  0
CIRCLE
  5
4C
330
48
100
AcDbEntity
  8
PV-CA
100
AcDbCircle
 10
0.0
 20
0.0
 30
0.0
 40
32.25
210
0.0
220
-1.0
230
0.0
  0
CIRCLE
  5
4D
330
48
100
AcDbEntity
  8
PV-CA
100
AcDbCircle
 10
0.0
 20
0.0
 30
0.0
 40
16.5
210
0.0
220
-1.0
230
0.0
  0
LINE
  5
4E
330
48
100
AcDbEntity
  8
PV-CA
100
AcDbLine
 10
4.7
 20
0.0
 30
-48.0
 11
4.7
 21
0.0
 31
-34.68299295043609
  0
ARC
  5
4F
330
48
100
AcDbEntity
  8
PV-CA
100
AcDbCircle
 10
-1.299999999999998
 20
-48.0
 30
0.0
 40
6.0
210
0.0
220
-1.0
230
0.0
100
AcDbArc
 50
180.0
 51
0.0000000000003997
  0
LINE
  5
50
330
48
100
AcDbEntity
  8
PV-CA
100
AcDbLine
 10
-7.299999999999999
 20
0.0
 30
-48.0
 11
-7.300000000000001
 21
0.0
 31
-40.0
  0
ARC
  5
51
330
48
100
AcDbEntity
  8
PV-CA
100
AcDbCircle
 10
-6.299999999999999
 20
-40.0
 30
0.0
 40
1.0
210
0.0
220
-1.0
230
0.0
100
AcDbArc
 50
89.99999999999978
 51
180.0
  0
LINE
  5
52
330
48
100
AcDbEntity
  8
PV-CA
100
AcDbLine
 10
-6.299999999999999
 20
0.0
 30
-39.0
 11
-5.728095630415701
 21
0.0
 31
-39.0
  0
ARC
  5
53
330
48
100
AcDbEntity
  8
PV-CA
100
AcDbCircle
 10
-8.2698893126973
 20
-43.30572698585423
 30
0.0
 40
4.999999999999999
210
0.0
220
-1.0
230
0.0
100
AcDbArc
 50
324.1818597325738
 51
59.44543228519068
  0
ARC
  5
54
330
48
100
AcDbEntity
  8
PV-CA
100
AcDbCircle
 10
-1.788004252157839
 20
-47.99454750197898
 30
0.0
 40
3.0
210
0.0
220
-1.0
230
0.0
100
AcDbArc
 50
144.0143379942916
 51
28.97259099486252
  0
ARC
  5
55
330
48
100
AcDbEntity
  8
PV-CA
100
AcDbCircle
 10
5.2
 20
-44.1
 30
0.0
 40
5.0
210
0.0
220
-1.0
230
0.0
100
AcDbArc
 50
180.0
 51
209.2272521580106
  0
LINE
  5
56
330
48
100
AcDbEntity
  8
PV-CA
100
AcDbLine
 10
0.2000000000000002
 20
0.0
 30
-44.1
 11
0.2000000000000001
 21
0.0
 31
-34.99942856676376
  0
ENDBLK
  5
58
330
48
100
AcDbEntity
  8
0
100
AcDbBlockEnd
  0
BLOCK
  5
5E
330
5C
100
AcDbEntity
  8
0
100
AcDbBlockBegin
  2
FRONT
 70
     0
 10
0.0
 20
0.0
 30
0.0
  3
FRONT
  1

  0
INSERT
  5
5D
330
5C
100
AcDbEntity
  8
PV-CA
100
AcDbBlockReference
  2
*U0
 10
0.0
 20
0.0
 30
0.0
 50
180.0
210
0.0
220
1.0
230
0.0
  0
ENDBLK
  5
5F
330
5C
100
AcDbEntity
  8
0
100
AcDbBlockEnd
  0
BLOCK
  5
E4
330
61
100
AcDbEntity
  8
0
100
AcDbBlockBegin
  2
*U2
 70
     1
 10
0.0
 20
0.0
 30
0.0
  3
*U2
  1
*ANON
  0
LINE
  5
62
330
61
100
AcDbEntity
  8
PV-CA
100
AcDbLine
 10
0.0
 20
0.0
 30
0.0
 11
0.0
 21
0.0
 31
35.0
  0
LINE
  5
63
330
61
100
AcDbEntity
  8
PV-CA
100
AcDbLine
 10
0.0
 20
0.0
 30
-35.0
 11
0.0
 21
0.0
 31
0.0000000000004888
  0
LINE
  5
64
330
61
100
AcDbEntity
  8
PV-CA
100
AcDbLine
 10
0.0
 20
-12.0
 30
0.0
 11
0.0
 21
-12.0
 31
33.0
  0
LINE
  5
65
330
61
100
AcDbEntity
  8
PV-CA
100
AcDbLine
 10
0.0
 20
-12.0
 30
-33.0
 11
0.0
 21
-12.0
 31
0.0000000000004609
  0
LINE
  5
66
330
61
100
AcDbEntity
  8
PV-CA
100
AcDbLine
 10
0.0
 20
-1000.0
 30
35.0
 11
0.0
 21
-1000.0
 31
-35.0
  0
LINE
  5
67
330
61
100
AcDbEntity
  8
PV-CA
100
AcDbLine
 10
0.0
 20
-988.0
 30
33.0
 11
0.0
 21
-988.0
 31
-33.0
  0
LINE
  5
68
330
61
100
AcDbEntity
  8
PV-CA
100
AcDbLine
 10
0.0
 20
-197.9999999999999
 30
-48.0
 11
0.0
 21
-197.9999999999999
 31
-54.0
  0
LINE
  5
69
330
61
100
AcDbEntity
  8
PV-CA
100
AcDbLine
 10
0.0
 20
-197.9999999999999
 30
-40.0
 11
0.0
 21
-197.9999999999999
 31
-48.0
  0
LINE
  5
6A
330
61
100
AcDbEntity
  8
PV-CA
100
AcDbLine
 10
0.0
 20
-197.9999999999999
 30
-39.0
 11
0.0
 21
-197.9999999999999
 31
-40.0
  0
LINE
  5
6B
330
61
100
AcDbEntity
  8
PV-CA
100
AcDbLine
 10
0.0
 20
-201.9999999999999
 30
-39.0
 11
0.0
 21
-197.9999999999999
 31
-39.0
  0
LINE
  5
6C
330
61
100
AcDbEntity
  8
PV-CA
100
AcDbLine
 10
0.0
 20
-197.9999999999999
 30
-29.58257569495584
 11
0.0
 21
-197.9999999999999
 31
-39.0
  0
LINE
  5
6D
330
61
100
AcDbEntity
  8
PV-CA
100
AcDbLine
 10
0.0
 20
-201.9999999999999
 30
-54.0
 11
0.0
 21
-201.9999999999999
 31
-48.0
  0
LINE
  5
6E
330
61
100
AcDbEntity
  8
PV-CA
100
AcDbLine
 10
0.0
 20
-201.9999999999999
 30
-48.0
 11
0.0
 21
-201.9999999999999
 31
-40.0
  0
LINE
  5
6F
330
61
100
AcDbEntity
  8
PV-CA
100
AcDbLine
 10
0.0
 20
-201.9999999999999
 30
-40.0
 11
0.0
 21
-201.9999999999999
 31
-39.0
  0
LINE
  5
70
330
61
100
AcDbEntity
  8
PV-CA
100
AcDbLine
 10
0.0
 20
-201.9999999999999
 30
-39.0
 11
0.0
 21
-201.9999999999999
 31
-29.58257569495584
  0
LINE
  5
71
330
61
100
AcDbEntity
  8
PV-CA
100
AcDbLine
 10
0.0
 20
-297.9999999999999
 30
-48.0
 11
0.0
 21
-297.9999999999999
 31
-54.0
  0
LINE
  5
72
330
61
100
AcDbEntity
  8
PV-CA
100
AcDbLine
 10
0.0
 20
-297.9999999999999
 30
-40.0
 11
0.0
 21
-297.9999999999999
 31
-48.0
  0
LINE
  5
73
330
61
100
AcDbEntity
  8
PV-CA
100
AcDbLine
 10
0.0
 20
-297.9999999999999
 30
-39.0
 11
0.0
 21
-297.9999999999999
 31
-40.0
  0
LINE
  5
74
330
61
100
AcDbEntity
  8
PV-CA
100
AcDbLine
 10
0.0
 20
-301.9999999999999
 30
-39.0
 11
0.0
 21
-297.9999999999999
 31
-39.0
  0
LINE
  5
75
330
61
100
AcDbEntity
  8
PV-CA
100
AcDbLine
 10
0.0
 20
-297.9999999999999
 30
-29.58257569495584
 11
0.0
 21
-297.9999999999999
 31
-39.0
  0
LINE
  5
76
330
61
100
AcDbEntity
  8
PV-CA
100
AcDbLine
 10
0.0
 20
-301.9999999999999
 30
-54.0
 11
0.0
 21
-301.9999999999999
 31
-48.0
  0
LINE
  5
77
330
61
100
AcDbEntity
  8
PV-CA
100
AcDbLine
 10
0.0
 20
-301.9999999999999
 30
-48.0
 11
0.0
 21
-301.9999999999999
 31
-40.0
  0
LINE
  5
78
330
61
100
AcDbEntity
  8
PV-CA
100
AcDbLine
 10
0.0
 20
-301.9999999999999
 30
-40.0
 11
0.0
 21
-301.9999999999999
 31
-39.0
  0
LINE
  5
79
330
61
100
AcDbEntity
  8
PV-CA
100
AcDbLine
 10
0.0
 20
-301.9999999999999
 30
-39.0
 11
0.0
 21
-301.9999999999999
 31
-29.58257569495584
  0
LINE
  5
7A
330
61
100
AcDbEntity
  8
PV-CA
100
AcDbLine
 10
0.0
 20
-397.9999999999998
 30
-48.0
 11
0.0
 21
-397.9999999999998
 31
-54.0
  0
LINE
  5
7B
330
61
100
AcDbEntity
  8
PV-CA
100
AcDbLine
 10
0.0
 20
-397.9999999999998
 30
-40.0
 11
0.0
 21
-397.9999999999998
 31
-48.0
  0
LINE
  5
7C
330
61
100
AcDbEntity
  8
PV-CA
100
AcDbLine
 10
0.0
 20
-397.9999999999998
 30
-39.0
 11
0.0
 21
-397.9999999999998
 31
-40.0
  0
LINE
  5
7D
330
61
100
AcDbEntity
  8
PV-CA
100
AcDbLine
 10
0.0
 20
-401.9999999999998
 30
-39.0
 11
0.0
 21
-397.9999999999998
 31
-39.0
  0
LINE
  5
7E
330
61
100
AcDbEntity
  8
PV-CA
100
AcDbLine
 10
0.0
 20
-397.9999999999998
 30
-29.58257569495584
 11
0.0
 21
-397.9999999999998
 31
-39.0
  0
LINE
  5
7F
330
61
100
AcDbEntity
  8
PV-CA
100
AcDbLine
 10
0.0
 20
-401.9999999999998
 30
-54.0
 11
0.0
 21
-401.9999999999998
 31
-48.0
  0
LINE
  5
80
330
61
100
AcDbEntity
  8
PV-CA
100
AcDbLine
 10
0.0
 20
-401.9999999999998
 30
-48.0
 11
0.0
 21
-401.9999999999998
 31
-40.0
  0
LINE
  5
81
330
61
100
AcDbEntity
  8
PV-CA
100
AcDbLine
 10
0.0
 20
-401.9999999999998
 30
-40.0
 11
0.0
 21
-401.9999999999998
 31
-39.0
  0
LINE
  5
82
330
61
100
AcDbEntity
  8
PV-CA
100
AcDbLine
 10
0.0
 20
-401.9999999999998
 30
-39.0
 11
0.0
 21
-401.9999999999998
 31
-29.58257569495584
  0
LINE
  5
83
330
61
100
AcDbEntity
  8
PV-CA
100
AcDbLine
 10
0.0
 20
-497.9999999999998
 30
-48.0
 11
0.0
 21
-497.9999999999998
 31
-54.0
  0
LINE
  5
84
330
61
100
AcDbEntity
  8
PV-CA
100
AcDbLine
 10
0.0
 20
-497.9999999999998
 30
-40.0
 11
0.0
 21
-497.9999999999998
 31
-48.0
  0
LINE
  5
85
330
61
100
AcDbEntity
  8
PV-CA
100
AcDbLine
 10
0.0
 20
-497.9999999999998
 30
-39.0
 11
0.0
 21
-497.9999999999998
 31
-40.0
  0
LINE
  5
86
330
61
100
AcDbEntity
  8
PV-CA
100
AcDbLine
 10
0.0
 20
-501.9999999999998
 30
-39.0
 11
0.0
 21
-497.9999999999998
 31
-39.0
  0
LINE
  5
87
330
61
100
AcDbEntity
  8
PV-CA
100
AcDbLine
 10
0.0
 20
-497.9999999999998
 30
-29.58257569495584
 11
0.0
 21
-497.9999999999998
 31
-39.0
  0
LINE
  5
88
330
61
100
AcDbEntity
  8
PV-CA
100
AcDbLine
 10
0.0
 20
-501.9999999999998
 30
-54.0
 11
0.0
 21
-501.9999999999998
 31
-48.0
  0
LINE
  5
89
330
61
100
AcDbEntity
  8
PV-CA
100
AcDbLine
 10
0.0
 20
-501.9999999999998
 30
-48.0
 11
0.0
 21
-501.9999999999998
 31
-40.0
  0
LINE
  5
8A
330
61
100
AcDbEntity
  8
PV-CA
100
AcDbLine
 10
0.0
 20
-501.9999999999998
 30
-40.0
 11
0.0
 21
-501.9999999999998
 31
-39.0
  0
LINE
  5
8B
330
61
100
AcDbEntity
  8
PV-CA
100
AcDbLine
 10
0.0
 20
-501.9999999999998
 30
-39.0
 11
0.0
 21
-501.9999999999998
 31
-29.58257569495584
  0
LINE
  5
8C
330
61
100
AcDbEntity
  8
PV-CA
100
AcDbLine
 10
0.0
 20
-598.0
 30
-48.0
 11
0.0
 21
-598.0
 31
-54.0
  0
LINE
  5
8D
330
61
100
AcDbEntity
  8
PV-CA
100
AcDbLine
 10
0.0
 20
-598.0
 30
-40.0
 11
0.0
 21
-598.0
 31
-48.0
  0
LINE
  5
8E
330
61
100
AcDbEntity
  8
PV-CA
100
AcDbLine
 10
0.0
 20
-598.0
 30
-39.0
 11
0.0
 21
-598.0
 31
-40.0
  0
LINE
  5
8F
330
61
100
AcDbEntity
  8
PV-CA
100
AcDbLine
 10
0.0
 20
-602.0
 30
-39.0
 11
0.0
 21
-598.0
 31
-39.0
  0
LINE
  5
90
330
61
100
AcDbEntity
  8
PV-CA
100
AcDbLine
 10
0.0
 20
-598.0
 30
-29.58257569495584
 11
0.0
 21
-598.0
 31
-39.0
  0
LINE
  5
91
330
61
100
AcDbEntity
  8
PV-CA
100
AcDbLine
 10
0.0
 20
-602.0
 30
-54.0
 11
0.0
 21
-602.0
 31
-48.0
  0
LINE
  5
92
330
61
100
AcDbEntity
  8
PV-CA
100
AcDbLine
 10
0.0
 20
-602.0
 30
-48.0
 11
0.0
 21
-602.0
 31
-40.0
  0
LINE
  5
93
330
61
100
AcDbEntity
  8
PV-CA
100
AcDbLine
 10
0.0
 20
-602.0
 30
-40.0
 11
0.0
 21
-602.0
 31
-39.0
  0
LINE
  5
94
330
61
100
AcDbEntity
  8
PV-CA
100
AcDbLine
 10
0.0
 20
-602.0
 30
-39.0
 11
0.0
 21
-602.0
 31
-29.58257569495584
  0
LINE
  5
95
330
61
100
AcDbEntity
  8
PV-CA
100
AcDbLine
 10
0.0
 20
-698.0
 30
-48.0
 11
0.0
 21
-698.0
 31
-54.0
  0
LINE
  5
96
330
61
100
AcDbEntity
  8
PV-CA
100
AcDbLine
 10
0.0
 20
-698.0
 30
-40.0
 11
0.0
 21
-698.0
 31
-48.0
  0
LINE
  5
97
330
61
100
AcDbEntity
  8
PV-CA
100
AcDbLine
 10
0.0
 20
-698.0
 30
-39.0
 11
0.0
 21
-698.0
 31
-40.0
  0
LINE
  5
98
330
61
100
AcDbEntity
  8
PV-CA
100
AcDbLine
 10
0.0
 20
-702.0
 30
-39.0
 11
0.0
 21
-698.0
 31
-39.0
  0
LINE
  5
99
330
61
100
AcDbEntity
  8
PV-CA
100
AcDbLine
 10
0.0
 20
-698.0
 30
-29.58257569495584
 11
0.0
 21
-698.0
 31
-39.0
  0
LINE
  5
9A
330
61
100
AcDbEntity
  8
PV-CA
100
AcDbLine
 10
0.0
 20
-702.0
 30
-54.0
 11
0.0
 21
-702.0
 31
-48.0
  0
LINE
  5
9B
330
61
100
AcDbEntity
  8
PV-CA
100
AcDbLine
 10
0.0
 20
-702.0
 30
-48.0
 11
0.0
 21
-702.0
 31
-40.0
  0
LINE
  5
9C
330
61
100
AcDbEntity
  8
PV-CA
100
AcDbLine
 10
0.0
 20
-702.0
 30
-40.0
 11
0.0
 21
-702.0
 31
-39.0
  0
LINE
  5
9D
330
61
100
AcDbEntity
  8
PV-CA
100
AcDbLine
 10
0.0
 20
-702.0
 30
-39.0
 11
0.0
 21
-702.0
 31
-29.58257569495584
  0
LINE
  5
9E
330
61
100
AcDbEntity
  8
PV-CA
100
AcDbLine
 10
0.0
 20
-702.0
 30
-54.0
 11
0.0
 21
-698.0
 31
-54.0
  0
ARC
  5
9F
330
61
100
AcDbEntity
  8
PV-CA
100
AcDbCircle
 10
700.0
 20
14.14686277275726
 30
0.0
 40
5.0
210
-1.0
220
0.0
230
0.0
100
AcDbArc
 50
0.0000000000004326
 51
180.0
  0
ARC
  5
A0
330
61
100
AcDbEntity
  8
PV-CA
100
AcDbCircle
 10
700.0
 20
22.74233952194481
 30
0.0
 40
5.0
210
-1.0
220
0.0
230
0.0
100
AcDbArc
 50
0.0000000000004071
 51
180.0
  0
LINE
  5
A1
330
61
100
AcDbEntity
  8
PV-CA
100
AcDbLine
 10
0.0
 20
-602.0
 30
-54.0
 11
0.0
 21
-598.0
 31
-54.0
  0
ARC
  5
A2
330
61
100
AcDbEntity
  8
PV-CA
100
AcDbCircle
 10
600.0
 20
14.14686277275726
 30
0.0
 40
5.0
210
-1.0
220
0.0
230
0.0
100
AcDbArc
 50
0.0000000000004326
 51
180.0
  0
ARC
  5
A3
330
61
100
AcDbEntity
  8
PV-CA
100
AcDbCircle
 10
600.0
 20
22.74233952194481
 30
0.0
 40
5.0
210
-1.0
220
0.0
230
0.0
100
AcDbArc
 50
0.0000000000004071
 51
180.0
  0
LINE
  5
A4
330
61
100
AcDbEntity
  8
PV-CA
100
AcDbLine
 10
0.0
 20
-501.9999999999998
 30
-54.0
 11
0.0
 21
-497.9999999999998
 31
-54.0
  0
ARC
  5
A5
330
61
100
AcDbEntity
  8
PV-CA
100
AcDbCircle
 10
499.9999999999998
 20
14.14686277275726
 30
0.0
 40
5.0
210
-1.0
220
0.0
230
0.0
100
AcDbArc
 50
0.0000000000004326
 51
180.0
  0
ARC
  5
A6
330
61
100
AcDbEntity
  8
PV-CA
100
AcDbCircle
 10
499.9999999999998
 20
22.74233952194481
 30
0.0
 40
5.0
210
-1.0
220
0.0
230
0.0
100
AcDbArc
 50
0.0000000000004071
 51
180.0
  0
LINE
  5
A7
330
61
100
AcDbEntity
  8
PV-CA
100
AcDbLine
 10
0.0
 20
-401.9999999999998
 30
-54.0
 11
0.0
 21
-397.9999999999998
 31
-54.0
  0
ARC
  5
A8
330
61
100
AcDbEntity
  8
PV-CA
100
AcDbCircle
 10
399.9999999999998
 20
14.14686277275726
 30
0.0
 40
5.0
210
-1.0
220
0.0
230
0.0
100
AcDbArc
 50
0.0000000000004326
 51
180.0
  0
ARC
  5
A9
330
61
100
AcDbEntity
  8
PV-CA
100
AcDbCircle
 10
399.9999999999998
 20
22.74233952194481
 30
0.0
 40
5.0
210
-1.0
220
0.0
230
0.0
100
AcDbArc
 50
0.0000000000004071
 51
180.0
  0
LINE
  5
AA
330
61
100
AcDbEntity
  8
PV-CA
100
AcDbLine
 10
0.0
 20
-301.9999999999999
 30
-54.0
 11
0.0
 21
-297.9999999999999
 31
-54.0
  0
ARC
  5
AB
330
61
100
AcDbEntity
  8
PV-CA
100
AcDbCircle
 10
299.9999999999999
 20
14.14686277275726
 30
0.0
 40
5.0
210
-1.0
220
0.0
230
0.0
100
AcDbArc
 50
0.0000000000004326
 51
180.0
  0
ARC
  5
AC
330
61
100
AcDbEntity
  8
PV-CA
100
AcDbCircle
 10
299.9999999999999
 20
22.74233952194481
 30
0.0
 40
5.0
210
-1.0
220
0.0
230
0.0
100
AcDbArc
 50
0.0000000000004071
 51
180.0
  0
LINE
  5
AD
330
61
100
AcDbEntity
  8
PV-CA
100
AcDbLine
 10
0.0
 20
-201.9999999999999
 30
-54.0
 11
0.0
 21
-197.9999999999999
 31
-54.0
  0
ARC
  5
AE
330
61
100
AcDbEntity
  8
PV-CA
100
AcDbCircle
 10
199.9999999999999
 20
14.14686277275726
 30
0.0
 40
5.0
210
-1.0
220
0.0
230
0.0
100
AcDbArc
 50
0.0000000000004326
 51
180.0
  0
ARC
  5
AF
330
61
100
AcDbEntity
  8
PV-CA
100
AcDbCircle
 10
199.9999999999999
 20
22.74233952194481
 30
0.0
 40
5.0
210
-1.0
220
0.0
230
0.0
100
AcDbArc
 50
0.0000000000004071
 51
180.0
  0
LINE
  5
B0
330
61
100
AcDbEntity
  8
PV-CA
100
AcDbLine
 10
0.0
 20
-12.0
 30
-16.5
 11
0.0
 21
-195.0
 31
-16.5
  0
LINE
  5
B1
330
61
100
AcDbEntity
  8
PV-CA
100
AcDbLine
 10
0.0
 20
-205.0
 30
-16.5
 11
0.0
 21
-295.0
 31
-16.5
  0
LINE
  5
B2
330
61
100
AcDbEntity
  8
PV-CA
100
AcDbLine
 10
0.0
 20
-305.0
 30
-16.5
 11
0.0
 21
-395.0
 31
-16.5
  0
LINE
  5
B3
330
61
100
AcDbEntity
  8
PV-CA
100
AcDbLine
 10
0.0
 20
-405.0
 30
-16.5
 11
0.0
 21
-495.0
 31
-16.5
  0
LINE
  5
B4
330
61
100
AcDbEntity
  8
PV-CA
100
AcDbLine
 10
0.0
 20
-505.0
 30
-16.5
 11
0.0
 21
-595.0
 31
-16.5
  0
LINE
  5
B5
330
61
100
AcDbEntity
  8
PV-CA
100
AcDbLine
 10
0.0
 20
-605.0
 30
-16.5
 11
0.0
 21
-695.0
 31
-16.5
  0
LINE
  5
B6
330
61
100
AcDbEntity
  8
PV-CA
100
AcDbLine
 10
0.0
 20
-705.0
 30
-16.5
 11
0.0
 21
-988.0
 31
-16.5
  0
LINE
  5
B7
330
61
100
AcDbEntity
  8
PV-CA
100
AcDbLine
 10
0.0
 20
-12.0
 30
16.5
 11
0.0
 21
-195.5883398601246
 31
16.5
  0
LINE
  5
B8
330
61
100
AcDbEntity
  8
PV-CA
100
AcDbLine
 10
0.0
 20
-204.4116601398751
 30
16.5
 11
0.0
 21
-295.5883398601246
 31
16.5
  0
LINE
  5
B9
330
61
100
AcDbEntity
  8
PV-CA
100
AcDbLine
 10
0.0
 20
-304.4116601398751
 30
16.5
 11
0.0
 21
-395.5883398601245
 31
16.5
  0
LINE
  5
BA
330
61
100
AcDbEntity
  8
PV-CA
100
AcDbLine
 10
0.0
 20
-404.4116601398751
 30
16.5
 11
0.0
 21
-495.5883398601247
 31
16.5
  0
LINE
  5
BB
330
61
100
AcDbEntity
  8
PV-CA
100
AcDbLine
 10
0.0
 20
-504.4116601398751
 30
16.5
 11
0.0
 21
-595.5883398601247
 31
16.5
  0
LINE
  5
BC
330
61
100
AcDbEntity
  8
PV-CA
100
AcDbLine
 10
0.0
 20
-604.4116601398752
 30
16.5
 11
0.0
 21
-695.5883398601248
 31
16.5
  0
LINE
  5
BD
330
61
100
AcDbEntity
  8
PV-CA
100
AcDbLine
 10
0.0
 20
-704.4116601398751
 30
16.5
 11
0.0
 21
-988.0
 31
16.5
  0
LINE
  5
BE
330
61
100
AcDbEntity
  8
PV-CA
100
AcDbLine
 10
0.0
 20
-990.0
 30
-35.0
 11
0.0
 21
-1000.0
 31
-35.0
  0
LINE
  5
BF
330
61
100
AcDbEntity
  8
PV-CA
100
AcDbLine
 10
0.0
 20
-990.0
 30
35.0
 11
0.0
 21
-1000.0
 31
35.0
  0
LINE
  5
C0
330
61
100
AcDbEntity
  8
PV-CA
100
AcDbLine
 10
0.0
 20
-10.0
 30
35.0
 11
0.0
 21
0.0
 31
35.0
  0
LINE
  5
C1
330
61
100
AcDbEntity
  8
PV-CA
100
AcDbLine
 10
0.0
 20
-10.0
 30
-35.0
 11
0.0
 21
0.0
 31
-35.0
  0
LINE
  5
C2
330
61
100
AcDbEntity
  8
PV-CA
100
AcDbLine
 10
0.0
 20
-695.0
 30
22.74233952194481
 11
0.0
 21
-695.0
 31
16.49999999999999
  0
LINE
  5
C3
330
61
100
AcDbEntity
  8
PV-CA
100
AcDbLine
 10
0.0
 20
-695.0
 30
14.14686277275726
 11
0.0
 21
-695.0
 31
-25.0
  0
LINE
  5
C4
330
61
100
AcDbEntity
  8
PV-CA
100
AcDbLine
 10
0.0
 20
-705.0
 30
-25.0
 11
0.0
 21
-705.0
 31
14.14686277275726
  0
LINE
  5
C5
330
61
100
AcDbEntity
  8
PV-CA
100
AcDbLine
 10
0.0
 20
-705.0
 30
16.5
 11
0.0
 21
-705.0
 31
22.74233952194481
  0
ARC
  5
C6
330
61
100
AcDbEntity
  8
PV-CA
100
AcDbCircle
 10
700.0
 20
-25.0
 30
0.0
 40
5.0
210
-1.0
220
0.0
230
0.0
100
AcDbArc
 50
180.0
 51
0.000000000001239
  0
LINE
  5
C7
330
61
100
AcDbEntity
  8
PV-CA
100
AcDbLine
 10
0.0
 20
-595.0
 30
22.74233952194481
 11
0.0
 21
-595.0
 31
16.49999999999999
  0
LINE
  5
C8
330
61
100
AcDbEntity
  8
PV-CA
100
AcDbLine
 10
0.0
 20
-595.0
 30
14.14686277275726
 11
0.0
 21
-595.0
 31
-25.0
  0
LINE
  5
C9
330
61
100
AcDbEntity
  8
PV-CA
100
AcDbLine
 10
0.0
 20
-605.0
 30
-25.0
 11
0.0
 21
-605.0
 31
14.14686277275726
  0
LINE
  5
CA
330
61
100
AcDbEntity
  8
PV-CA
100
AcDbLine
 10
0.0
 20
-605.0
 30
16.5
 11
0.0
 21
-605.0
 31
22.74233952194481
  0
ARC
  5
CB
330
61
100
AcDbEntity
  8
PV-CA
100
AcDbCircle
 10
600.0
 20
-25.0
 30
0.0
 40
5.0
210
-1.0
220
0.0
230
0.0
100
AcDbArc
 50
180.0
 51
0.000000000001239
  0
LINE
  5
CC
330
61
100
AcDbEntity
  8
PV-CA
100
AcDbLine
 10
0.0
 20
-494.9999999999998
 30
22.74233952194481
 11
0.0
 21
-494.9999999999998
 31
16.49999999999999
  0
LINE
  5
CD
330
61
100
AcDbEntity
  8
PV-CA
100
AcDbLine
 10
0.0
 20
-494.9999999999998
 30
14.14686277275726
 11
0.0
 21
-494.9999999999998
 31
-25.0
  0
LINE
  5
CE
330
61
100
AcDbEntity
  8
PV-CA
100
AcDbLine
 10
0.0
 20
-504.9999999999998
 30
-25.0
 11
0.0
 21
-504.9999999999998
 31
14.14686277275726
  0
LINE
  5
CF
330
61
100
AcDbEntity
  8
PV-CA
100
AcDbLine
 10
0.0
 20
-504.9999999999998
 30
16.5
 11
0.0
 21
-504.9999999999998
 31
22.74233952194481
  0
ARC
  5
D0
330
61
100
AcDbEntity
  8
PV-CA
100
AcDbCircle
 10
499.9999999999998
 20
-25.0
 30
0.0
 40
5.0
210
-1.0
220
0.0
230
0.0
100
AcDbArc
 50
180.0
 51
0.000000000001239
  0
LINE
  5
D1
330
61
100
AcDbEntity
  8
PV-CA
100
AcDbLine
 10
0.0
 20
-394.9999999999998
 30
22.74233952194481
 11
0.0
 21
-394.9999999999998
 31
16.49999999999999
  0
LINE
  5
D2
330
61
100
AcDbEntity
  8
PV-CA
100
AcDbLine
 10
0.0
 20
-394.9999999999998
 30
14.14686277275726
 11
0.0
 21
-394.9999999999998
 31
-25.0
  0
LINE
  5
D3
330
61
100
AcDbEntity
  8
PV-CA
100
AcDbLine
 10
0.0
 20
-404.9999999999998
 30
-25.0
 11
0.0
 21
-404.9999999999998
 31
14.14686277275726
  0
LINE
  5
D4
330
61
100
AcDbEntity
  8
PV-CA
100
AcDbLine
 10
0.0
 20
-404.9999999999998
 30
16.5
 11
0.0
 21
-404.9999999999998
 31
22.74233952194481
  0
ARC
  5
D5
330
61
100
AcDbEntity
  8
PV-CA
100
AcDbCircle
 10
399.9999999999998
 20
-25.0
 30
0.0
 40
5.0
210
-1.0
220
0.0
230
0.0
100
AcDbArc
 50
180.0
 51
0.000000000001239
  0
LINE
  5
D6
330
61
100
AcDbEntity
  8
PV-CA
100
AcDbLine
 10
0.0
 20
-294.9999999999998
 30
22.74233952194481
 11
0.0
 21
-294.9999999999998
 31
16.49999999999999
  0
LINE
  5
D7
330
61
100
AcDbEntity
  8
PV-CA
100
AcDbLine
 10
0.0
 20
-294.9999999999998
 30
14.14686277275726
 11
0.0
 21
-294.9999999999998
 31
-25.0
  0
LINE
  5
D8
330
61
100
AcDbEntity
  8
PV-CA
100
AcDbLine
 10
0.0
 20
-304.9999999999998
 30
-25.0
 11
0.0
 21
-304.9999999999998
 31
14.14686277275726
  0
LINE
  5
D9
330
61
100
AcDbEntity
  8
PV-CA
100
AcDbLine
 10
0.0
 20
-304.9999999999998
 30
16.5
 11
0.0
 21
-304.9999999999998
 31
22.74233952194481
  0
ARC
  5
DA
330
61
100
AcDbEntity
  8
PV-CA
100
AcDbCircle
 10
299.9999999999999
 20
-25.0
 30
0.0
 40
5.0
210
-1.0
220
0.0
230
0.0
100
AcDbArc
 50
180.0
 51
0.000000000001239
  0
LINE
  5
DB
330
61
100
AcDbEntity
  8
PV-CA
100
AcDbLine
 10
0.0
 20
-194.9999999999999
 30
22.74233952194481
 11
0.0
 21
-194.9999999999999
 31
16.49999999999999
  0
LINE
  5
DC
330
61
100
AcDbEntity
  8
PV-CA
100
AcDbLine
 10
0.0
 20
-194.9999999999999
 30
14.14686277275726
 11
0.0
 21
-194.9999999999999
 31
-25.0
  0
LINE
  5
DD
330
61
100
AcDbEntity
  8
PV-CA
100
AcDbLine
 10
0.0
 20
-204.9999999999999
 30
-25.0
 11
0.0
 21
-204.9999999999999
 31
14.14686277275726
  0
LINE
  5
DE
330
61
100
AcDbEntity
  8
PV-CA
100
AcDbLine
 10
0.0
 20
-204.9999999999999
 30
16.5
 11
0.0
 21
-204.9999999999999
 31
22.74233952194481
  0
ARC
  5
DF
330
61
100
AcDbEntity
  8
PV-CA
100
AcDbCircle
 10
199.9999999999999
 20
-25.0
 30
0.0
 40
5.0
210
-1.0
220
0.0
230
0.0
100
AcDbArc
 50
180.0
 51
0.000000000001239
  0
ARC
  5
E0
330
61
100
AcDbEntity
  8
PV-CA
100
AcDbCircle
 10
990.0
 20
33.0
 30
0.0
 40
2.0
210
-1.0
220
0.0
230
0.0
100
AcDbArc
 50
90.00000000000019
 51
180.0000000000012
  0
ARC
  5
E1
330
61
100
AcDbEntity
  8
PV-CA
100
AcDbCircle
 10
990.0
 20
-33.0
 30
0.0
 40
2.0
210
-1.0
220
0.0
230
0.0
100
AcDbArc
 50
179.9999999999978
 51
269.9999999999997
  0
ARC
  5
E2
330
61
100
AcDbEntity
  8
PV-CA
100
AcDbCircle
 10
10.0
 20
-33.0
 30
0.0
 40
2.0
210
-1.0
220
0.0
230
0.0
100
AcDbArc
 50
270.0000000000001
 51
0.000000000001239
  0
ARC
  5
E3
330
61
100
AcDbEntity
  8
PV-CA
100
AcDbCircle
 10
10.0
 20
33.0
 30
0.0
 40
2.0
210
-1.0
220
0.0
230
0.0
100
AcDbArc
 50
359.999999999998
 51
89.99999999999978
  0
ENDBLK
  5
E5
330
61
100
AcDbEntity
  8
0
100
AcDbBlockEnd
  0
BLOCK
  5
E8
330
E6
100
AcDbEntity
  8
0
100
AcDbBlockBegin
  2
LEFT
 70
     0
 10
0.0
 20
0.0
 30
0.0
  3
LEFT
  1

  0
INSERT
  5
E7
330
E6
100
AcDbEntity
  8
PV-CA
100
AcDbBlockReference
  2
*U2
 10
0.0
 20
0.0
 30
0.0
 50
270.0
210
0.0
220
1.0
230
0.0
  0
ENDBLK
  5
E9
330
E6
100
AcDbEntity
  8
0
100
AcDbBlockEnd
  0
BLOCK
  5
14A
330
EB
100
AcDbEntity
  8
0
100
AcDbBlockBegin
  2
*U4
 70
     1
 10
0.0
 20
0.0
 30
0.0
  3
*U4
  1
*ANON
  0
LINE
  5
EC
330
EB
100
AcDbEntity
  8
PV-CA
100
AcDbLine
 10
0.0
 20
0.0
 30
35.0
 11
0.0
 21
0.0
 31
-35.0
  0
LINE
  5
ED
330
EB
100
AcDbEntity
  8
PV-CA
100
AcDbLine
 10
0.0
 20
-12.0
 30
33.0
 11
0.0
 21
-12.0
 31
-33.0
  0
LINE
  5
EE
330
EB
100
AcDbEntity
  8
PV-CA
100
AcDbLine
 10
0.0
 20
-1000.0
 30
0.0
 11
0.0
 21
-1000.0
 31
35.0
  0
LINE
  5
EF
330
EB
100
AcDbEntity
  8
PV-CA
100
AcDbLine
 10
0.0
 20
-1000.0
 30
-35.0
 11
0.0
 21
-1000.0
 31
0.0000000000004888
  0
LINE
  5
F0
330
EB
100
AcDbEntity
  8
PV-CA
100
AcDbLine
 10
0.0
 20
-988.0
 30
0.0
 11
0.0
 21
-988.0
 31
33.0
  0
LINE
  5
F1
330
EB
100
AcDbEntity
  8
PV-CA
100
AcDbLine
 10
0.0
 20
-988.0
 30
-33.0
 11
0.0
 21
-988.0
 31
0.0000000000004609
  0
LINE
  5
F2
330
EB
100
AcDbEntity
  8
PV-CA
100
AcDbLine
 10
0.0
 20
-197.9999999999999
 30
-48.0
 11
0.0
 21
-197.9999999999999
 31
-29.20682770770889
  0
SPLINE
  5
F3
330
EB
100
AcDbEntity
  8
PV-CA
100
AcDbSpline
210
1.0
220
0.0
230
0.0
 70
     8
 71
     3
 72
    19
 73
    15
 74
     0
 42
0.0000000001
 43
0.0000000001
 40
-1.946346350516165
 40
-1.946346350516165
 40
-1.946346350516165
 40
-1.946346350516165
 40
-1.8429335414218
 40
-1.8429335414218
 40
-0.9214667707108999
 40
-0.9214667707108999
 40
0.0
 40
0.0
 40
0.0
 40
0.9214667707108663
 40
0.9214667707108663
 40
1.842933541421732
 40
1.842933541421732
 40
1.946346350516166
 40
1.946346350516166
 40
1.946346350516166
 40
1.946346350516166
 10
0.0
 20
-201.9999999999999
 30
-29.20682770770889
 10
0.0
 20
-201.9678627451378
 30
-29.22103399918209
 10
0.0
 20
-201.9358602436021
 30
-29.23477252501262
 10
0.0
 20
-201.6205638281711
 30
-29.36629002990962
 10
0.0
 20
-201.2992718429841
 30
-29.46736202336837
 10
0.0
 20
-200.642568450423
 30
-29.59899366481655
 10
0.0
 20
-200.3071555902368
 30
-29.62954606469697
 10
0.0
 20
-199.9999999999999
 30
-29.62954606469697
 10
0.0
 20
-199.6928444097629
 30
-29.62954606469697
 10
0.0
 20
-199.3574315495767
 30
-29.59899366481655
 10
0.0
 20
-198.7007281570156
 30
-29.46736202336839
 10
0.0
 20
-198.3794361718285
 30
-29.36629002990963
 10
0.0
 20
-198.0641397563976
 30
-29.23477252501264
 10
0.0
 20
-198.0321372548619
 30
-29.2210339991821
 10
0.0
 20
-197.9999999999999
 30
-29.20682770770889
  0
LINE
  5
F4
330
EB
100
AcDbEntity
  8
PV-CA
100
AcDbLine
 10
0.0
 20
-197.9999999999999
 30
-54.0
 11
0.0
 21
-197.9999999999999
 31
-47.99999999999996
  0
LINE
  5
F5
330
EB
100
AcDbEntity
  8
PV-CA
100
AcDbLine
 10
0.0
 20
-201.9999999999999
 30
-48.0
 11
0.0
 21
-201.9999999999999
 31
-29.20682770770889
  0
LINE
  5
F6
330
EB
100
AcDbEntity
  8
PV-CA
100
AcDbLine
 10
0.0
 20
-201.9999999999999
 30
-47.99999999999996
 11
0.0
 21
-201.9999999999999
 31
-54.0
  0
LINE
  5
F7
330
EB
100
AcDbEntity
  8
PV-CA
100
AcDbLine
 10
0.0
 20
-297.9999999999999
 30
-48.0
 11
0.0
 21
-297.9999999999999
 31
-29.20682770770889
  0
SPLINE
  5
F8
330
EB
100
AcDbEntity
  8
PV-CA
100
AcDbSpline
210
1.0
220
0.0
230
0.0
 70
     8
 71
     3
 72
    19
 73
    15
 74
     0
 42
0.0000000001
 43
0.0000000001
 40
-1.946346350516165
 40
-1.946346350516165
 40
-1.946346350516165
 40
-1.946346350516165
 40
-1.8429335414218
 40
-1.8429335414218
 40
-0.9214667707108999
 40
-0.9214667707108999
 40
0.0
 40
0.0
 40
0.0
 40
0.9214667707108663
 40
0.9214667707108663
 40
1.842933541421732
 40
1.842933541421732
 40
1.946346350516166
 40
1.946346350516166
 40
1.946346350516166
 40
1.946346350516166
 10
0.0
 20
-301.9999999999999
 30
-29.20682770770889
 10
0.0
 20
-301.9678627451378
 30
-29.22103399918209
 10
0.0
 20
-301.9358602436021
 30
-29.23477252501262
 10
0.0
 20
-301.6205638281712
 30
-29.36629002990962
 10
0.0
 20
-301.2992718429841
 30
-29.46736202336837
 10
0.0
 20
-300.6425684504231
 30
-29.59899366481655
 10
0.0
 20
-300.3071555902369
 30
-29.62954606469697
 10
0.0
 20
-299.9999999999999
 30
-29.62954606469697
 10
0.0
 20
-299.6928444097628
 30
-29.62954606469697
 10
0.0
 20
-299.3574315495767
 30
-29.59899366481655
 10
0.0
 20
-298.7007281570157
 30
-29.46736202336839
 10
0.0
 20
-298.3794361718286
 30
-29.36629002990963
 10
0.0
 20
-298.0641397563976
 30
-29.23477252501264
 10
0.0
 20
-298.0321372548619
 30
-29.2210339991821
 10
0.0
 20
-297.9999999999999
 30
-29.20682770770889
  0
LINE
  5
F9
330
EB
100
AcDbEntity
  8
PV-CA
100
AcDbLine
 10
0.0
 20
-297.9999999999999
 30
-54.0
 11
0.0
 21
-297.9999999999999
 31
-47.99999999999996
  0
LINE
  5
FA
330
EB
100
AcDbEntity
  8
PV-CA
100
AcDbLine
 10
0.0
 20
-301.9999999999999
 30
-48.0
 11
0.0
 21
-301.9999999999999
 31
-29.20682770770889
  0
LINE
  5
FB
330
EB
100
AcDbEntity
  8
PV-CA
100
AcDbLine
 10
0.0
 20
-301.9999999999999
 30
-47.99999999999996
 11
0.0
 21
-301.9999999999999
 31
-54.0
  0
LINE
  5
FC
330
EB
100
AcDbEntity
  8
PV-CA
100
AcDbLine
 10
0.0
 20
-397.9999999999998
 30
-48.0
 11
0.0
 21
-397.9999999999998
 31
-29.20682770770889
  0
SPLINE
  5
FD
330
EB
100
AcDbEntity
  8
PV-CA
100
AcDbSpline
210
1.0
220
0.0
230
0.0
 70
     8
 71
     3
 72
    19
 73
    15
 74
     0
 42
0.0000000001
 43
0.0000000001
 40
-1.946346350516165
 40
-1.946346350516165
 40
-1.946346350516165
 40
-1.946346350516165
 40
-1.8429335414218
 40
-1.8429335414218
 40
-0.9214667707108999
 40
-0.9214667707108999
 40
0.0
 40
0.0
 40
0.0
 40
0.9214667707108663
 40
0.9214667707108663
 40
1.842933541421732
 40
1.842933541421732
 40
1.946346350516166
 40
1.946346350516166
 40
1.946346350516166
 40
1.946346350516166
 10
0.0
 20
-401.9999999999998
 30
-29.20682770770889
 10
0.0
 20
-401.9678627451377
 30
-29.22103399918209
 10
0.0
 20
-401.9358602436023
 30
-29.23477252501262
 10
0.0
 20
-401.6205638281713
 30
-29.36629002990962
 10
0.0
 20
-401.2992718429841
 30
-29.46736202336837
 10
0.0
 20
-400.6425684504231
 30
-29.59899366481655
 10
0.0
 20
-400.3071555902367
 30
-29.62954606469697
 10
0.0
 20
-399.9999999999998
 30
-29.62954606469697
 10
0.0
 20
-399.6928444097628
 30
-29.62954606469697
 10
0.0
 20
-399.3574315495767
 30
-29.59899366481655
 10
0.0
 20
-398.7007281570157
 30
-29.46736202336839
 10
0.0
 20
-398.3794361718286
 30
-29.36629002990963
 10
0.0
 20
-398.0641397563976
 30
-29.23477252501264
 10
0.0
 20
-398.0321372548619
 30
-29.2210339991821
 10
0.0
 20
-397.9999999999998
 30
-29.20682770770889
  0
LINE
  5
FE
330
EB
100
AcDbEntity
  8
PV-CA
100
AcDbLine
 10
0.0
 20
-397.9999999999998
 30
-54.0
 11
0.0
 21
-397.9999999999998
 31
-47.99999999999996
  0
LINE
  5
FF
330
EB
100
AcDbEntity
  8
PV-CA
100
AcDbLine
 10
0.0
 20
-401.9999999999998
 30
-48.0
 11
0.0
 21
-401.9999999999998
 31
-29.20682770770889
  0
LINE
  5
100
330
EB
100
AcDbEntity
  8
PV-CA
100
AcDbLine
 10
0.0
 20
-401.9999999999998
 30
-47.99999999999996
 11
0.0
 21
-401.9999999999998
 31
-54.0
  0
LINE
  5
101
330
EB
100
AcDbEntity
  8
PV-CA
100
AcDbLine
 10
0.0
 20
-497.9999999999998
 30
-48.0
 11
0.0
 21
-497.9999999999998
 31
-29.20682770770889
  0
SPLINE
  5
102
330
EB
100
AcDbEntity
  8
PV-CA
100
AcDbSpline
210
1.0
220
0.0
230
0.0
 70
     8
 71
     3
 72
    19
 73
    15
 74
     0
 42
0.0000000001
 43
0.0000000001
 40
-1.946346350516165
 40
-1.946346350516165
 40
-1.946346350516165
 40
-1.946346350516165
 40
-1.8429335414218
 40
-1.8429335414218
 40
-0.9214667707108999
 40
-0.9214667707108999
 40
0.0
 40
0.0
 40
0.0
 40
0.9214667707108663
 40
0.9214667707108663
 40
1.842933541421732
 40
1.842933541421732
 40
1.946346350516166
 40
1.946346350516166
 40
1.946346350516166
 40
1.946346350516166
 10
0.0
 20
-501.9999999999998
 30
-29.20682770770889
 10
0.0
 20
-501.9678627451377
 30
-29.22103399918209
 10
0.0
 20
-501.9358602436023
 30
-29.23477252501262
 10
0.0
 20
-501.6205638281713
 30
-29.36629002990962
 10
0.0
 20
-501.2992718429841
 30
-29.46736202336837
 10
0.0
 20
-500.6425684504231
 30
-29.59899366481655
 10
0.0
 20
-500.3071555902367
 30
-29.62954606469697
 10
0.0
 20
-499.9999999999998
 30
-29.62954606469697
 10
0.0
 20
-499.692844409763
 30
-29.62954606469697
 10
0.0
 20
-499.3574315495767
 30
-29.59899366481655
 10
0.0
 20
-498.7007281570156
 30
-29.46736202336839
 10
0.0
 20
-498.3794361718286
 30
-29.36629002990963
 10
0.0
 20
-498.0641397563976
 30
-29.23477252501264
 10
0.0
 20
-498.032137254862
 30
-29.2210339991821
 10
0.0
 20
-497.9999999999998
 30
-29.20682770770889
  0
LINE
  5
103
330
EB
100
AcDbEntity
  8
PV-CA
100
AcDbLine
 10
0.0
 20
-497.9999999999998
 30
-54.0
 11
0.0
 21
-497.9999999999998
 31
-47.99999999999996
  0
LINE
  5
104
330
EB
100
AcDbEntity
  8
PV-CA
100
AcDbLine
 10
0.0
 20
-501.9999999999998
 30
-48.0
 11
0.0
 21
-501.9999999999998
 31
-29.20682770770889
  0
LINE
  5
105
330
EB
100
AcDbEntity
  8
PV-CA
100
AcDbLine
 10
0.0
 20
-501.9999999999998
 30
-47.99999999999996
 11
0.0
 21
-501.9999999999998
 31
-54.0
  0
LINE
  5
106
330
EB
100
AcDbEntity
  8
PV-CA
100
AcDbLine
 10
0.0
 20
-598.0
 30
-48.0
 11
0.0
 21
-598.0
 31
-29.20682770770889
  0
SPLINE
  5
107
330
EB
100
AcDbEntity
  8
PV-CA
100
AcDbSpline
210
1.0
220
0.0
230
0.0
 70
     8
 71
     3
 72
    19
 73
    15
 74
     0
 42
0.0000000001
 43
0.0000000001
 40
-1.946346350516165
 40
-1.946346350516165
 40
-1.946346350516165
 40
-1.946346350516165
 40
-1.8429335414218
 40
-1.8429335414218
 40
-0.9214667707108999
 40
-0.9214667707108999
 40
0.0
 40
0.0
 40
0.0
 40
0.9214667707108663
 40
0.9214667707108663
 40
1.842933541421732
 40
1.842933541421732
 40
1.946346350516166
 40
1.946346350516166
 40
1.946346350516166
 40
1.946346350516166
 10
0.0
 20
-602.0
 30
-29.20682770770889
 10
0.0
 20
-601.9678627451378
 30
-29.22103399918209
 10
0.0
 20
-601.9358602436021
 30
-29.23477252501262
 10
0.0
 20
-601.6205638281713
 30
-29.36629002990962
 10
0.0
 20
-601.2992718429841
 30
-29.46736202336837
 10
0.0
 20
-600.6425684504231
 30
-29.59899366481655
 10
0.0
 20
-600.3071555902367
 30
-29.62954606469697
 10
0.0
 20
-600.0
 30
-29.62954606469697
 10
0.0
 20
-599.692844409763
 30
-29.62954606469697
 10
0.0
 20
-599.3574315495767
 30
-29.59899366481655
 10
0.0
 20
-598.7007281570157
 30
-29.46736202336839
 10
0.0
 20
-598.3794361718286
 30
-29.36629002990963
 10
0.0
 20
-598.0641397563974
 30
-29.23477252501264
 10
0.0
 20
-598.0321372548619
 30
-29.2210339991821
 10
0.0
 20
-598.0
 30
-29.20682770770889
  0
LINE
  5
108
330
EB
100
AcDbEntity
  8
PV-CA
100
AcDbLine
 10
0.0
 20
-598.0
 30
-54.0
 11
0.0
 21
-598.0
 31
-47.99999999999996
  0
LINE
  5
109
330
EB
100
AcDbEntity
  8
PV-CA
100
AcDbLine
 10
0.0
 20
-602.0
 30
-48.0
 11
0.0
 21
-602.0
 31
-29.20682770770889
  0
LINE
  5
10A
330
EB
100
AcDbEntity
  8
PV-CA
100
AcDbLine
 10
0.0
 20
-602.0
 30
-47.99999999999996
 11
0.0
 21
-602.0
 31
-54.0
  0
LINE
  5
10B
330
EB
100
AcDbEntity
  8
PV-CA
100
AcDbLine
 10
0.0
 20
-698.0
 30
-48.0
 11
0.0
 21
-698.0
 31
-29.20682770770889
  0
SPLINE
  5
10C
330
EB
100
AcDbEntity
  8
PV-CA
100
AcDbSpline
210
1.0
220
0.0
230
0.0
 70
     8
 71
     3
 72
    19
 73
    15
 74
     0
 42
0.0000000001
 43
0.0000000001
 40
-1.946346350516165
 40
-1.946346350516165
 40
-1.946346350516165
 40
-1.946346350516165
 40
-1.8429335414218
 40
-1.8429335414218
 40
-0.9214667707108999
 40
-0.9214667707108999
 40
0.0
 40
0.0
 40
0.0
 40
0.9214667707108663
 40
0.9214667707108663
 40
1.842933541421732
 40
1.842933541421732
 40
1.946346350516166
 40
1.946346350516166
 40
1.946346350516166
 40
1.946346350516166
 10
0.0
 20
-702.0
 30
-29.20682770770889
 10
0.0
 20
-701.9678627451378
 30
-29.22103399918209
 10
0.0
 20
-701.9358602436023
 30
-29.23477252501262
 10
0.0
 20
-701.6205638281713
 30
-29.36629002990962
 10
0.0
 20
-701.2992718429841
 30
-29.46736202336837
 10
0.0
 20
-700.6425684504231
 30
-29.59899366481655
 10
0.0
 20
-700.3071555902367
 30
-29.62954606469697
 10
0.0
 20
-700.0
 30
-29.62954606469697
 10
0.0
 20
-699.692844409763
 30
-29.62954606469697
 10
0.0
 20
-699.3574315495767
 30
-29.59899366481655
 10
0.0
 20
-698.7007281570156
 30
-29.46736202336839
 10
0.0
 20
-698.3794361718286
 30
-29.36629002990963
 10
0.0
 20
-698.0641397563975
 30
-29.23477252501264
 10
0.0
 20
-698.032137254862
 30
-29.2210339991821
 10
0.0
 20
-698.0
 30
-29.20682770770889
  0
LINE
  5
10D
330
EB
100
AcDbEntity
  8
PV-CA
100
AcDbLine
 10
0.0
 20
-698.0
 30
-54.0
 11
0.0
 21
-698.0
 31
-47.99999999999996
  0
LINE
  5
10E
330
EB
100
AcDbEntity
  8
PV-CA
100
AcDbLine
 10
0.0
 20
-702.0
 30
-48.0
 11
0.0
 21
-702.0
 31
-29.20682770770889
  0
LINE
  5
10F
330
EB
100
AcDbEntity
  8
PV-CA
100
AcDbLine
 10
0.0
 20
-702.0
 30
-47.99999999999996
 11
0.0
 21
-702.0
 31
-54.0
  0
LINE
  5
110
330
EB
100
AcDbEntity
  8
PV-CA
100
AcDbLine
 10
0.0
 20
-702.0
 30
-54.0
 11
0.0
 21
-698.0
 31
-54.0
  0
ARC
  5
111
330
EB
100
AcDbEntity
  8
PV-CA
100
AcDbCircle
 10
-700.0
 20
22.74233952194481
 30
0.0
 40
5.0
210
1.0
220
0.0
230
0.0
100
AcDbArc
 50
0.0000000000004071
 51
180.0
  0
LINE
  5
112
330
EB
100
AcDbEntity
  8
PV-CA
100
AcDbLine
 10
0.0
 20
-602.0
 30
-54.0
 11
0.0
 21
-598.0
 31
-54.0
  0
ARC
  5
113
330
EB
100
AcDbEntity
  8
PV-CA
100
AcDbCircle
 10
-600.0
 20
22.74233952194481
 30
0.0
 40
5.0
210
1.0
220
0.0
230
0.0
100
AcDbArc
 50
0.0000000000004071
 51
180.0
  0
LINE
  5
114
330
EB
100
AcDbEntity
  8
PV-CA
100
AcDbLine
 10
0.0
 20
-501.9999999999998
 30
-54.0
 11
0.0
 21
-497.9999999999998
 31
-54.0
  0
ARC
  5
115
330
EB
100
AcDbEntity
  8
PV-CA
100
AcDbCircle
 10
-499.9999999999998
 20
22.74233952194481
 30
0.0
 40
5.0
210
1.0
220
0.0
230
0.0
100
AcDbArc
 50
0.0000000000004071
 51
180.0
  0
LINE
  5
116
330
EB
100
AcDbEntity
  8
PV-CA
100
AcDbLine
 10
0.0
 20
-401.9999999999998
 30
-54.0
 11
0.0
 21
-397.9999999999998
 31
-54.0
  0
ARC
  5
117
330
EB
100
AcDbEntity
  8
PV-CA
100
AcDbCircle
 10
-399.9999999999998
 20
22.74233952194481
 30
0.0
 40
5.0
210
1.0
220
0.0
230
0.0
100
AcDbArc
 50
0.0000000000004071
 51
180.0
  0
LINE
  5
118
330
EB
100
AcDbEntity
  8
PV-CA
100
AcDbLine
 10
0.0
 20
-301.9999999999999
 30
-54.0
 11
0.0
 21
-297.9999999999999
 31
-54.0
  0
ARC
  5
119
330
EB
100
AcDbEntity
  8
PV-CA
100
AcDbCircle
 10
-299.9999999999999
 20
22.74233952194481
 30
0.0
 40
5.0
210
1.0
220
0.0
230
0.0
100
AcDbArc
 50
0.0000000000004071
 51
180.0
  0
LINE
  5
11A
330
EB
100
AcDbEntity
  8
PV-CA
100
AcDbLine
 10
0.0
 20
-201.9999999999999
 30
-54.0
 11
0.0
 21
-197.9999999999999
 31
-54.0
  0
ARC
  5
11B
330
EB
100
AcDbEntity
  8
PV-CA
100
AcDbCircle
 10
-199.9999999999999
 20
22.74233952194481
 30
0.0
 40
5.0
210
1.0
220
0.0
230
0.0
100
AcDbArc
 50
0.0000000000004071
 51
180.0
  0
LINE
  5
11C
330
EB
100
AcDbEntity
  8
PV-CA
100
AcDbLine
 10
0.0
 20
-12.0
 30
16.5
 11
0.0
 21
-195.0
 31
16.5
  0
LINE
  5
11D
330
EB
100
AcDbEntity
  8
PV-CA
100
AcDbLine
 10
0.0
 20
-205.0
 30
16.5
 11
0.0
 21
-295.0
 31
16.5
  0
LINE
  5
11E
330
EB
100
AcDbEntity
  8
PV-CA
100
AcDbLine
 10
0.0
 20
-305.0
 30
16.5
 11
0.0
 21
-395.0
 31
16.5
  0
LINE
  5
11F
330
EB
100
AcDbEntity
  8
PV-CA
100
AcDbLine
 10
0.0
 20
-405.0
 30
16.5
 11
0.0
 21
-495.0
 31
16.5
  0
LINE
  5
120
330
EB
100
AcDbEntity
  8
PV-CA
100
AcDbLine
 10
0.0
 20
-505.0
 30
16.5
 11
0.0
 21
-595.0
 31
16.5
  0
LINE
  5
121
330
EB
100
AcDbEntity
  8
PV-CA
100
AcDbLine
 10
0.0
 20
-605.0
 30
16.5
 11
0.0
 21
-695.0
 31
16.5
  0
LINE
  5
122
330
EB
100
AcDbEntity
  8
PV-CA
100
AcDbLine
 10
0.0
 20
-705.0
 30
16.5
 11
0.0
 21
-988.0
 31
16.5
  0
LINE
  5
123
330
EB
100
AcDbEntity
  8
PV-CA
100
AcDbLine
 10
0.0
 20
-12.0
 30
-16.5
 11
0.0
 21
-195.0
 31
-16.5
  0
LINE
  5
124
330
EB
100
AcDbEntity
  8
PV-CA
100
AcDbLine
 10
0.0
 20
-205.0
 30
-16.5
 11
0.0
 21
-295.0
 31
-16.5
  0
LINE
  5
125
330
EB
100
AcDbEntity
  8
PV-CA
100
AcDbLine
 10
0.0
 20
-305.0
 30
-16.5
 11
0.0
 21
-395.0
 31
-16.5
  0
LINE
  5
126
330
EB
100
AcDbEntity
  8
PV-CA
100
AcDbLine
 10
0.0
 20
-405.0
 30
-16.5
 11
0.0
 21
-495.0
 31
-16.5
  0
LINE
  5
127
330
EB
100
AcDbEntity
  8
PV-CA
100
AcDbLine
 10
0.0
 20
-505.0
 30
-16.5
 11
0.0
 21
-595.0
 31
-16.5
  0
LINE
  5
128
330
EB
100
AcDbEntity
  8
PV-CA
100
AcDbLine
 10
0.0
 20
-605.0
 30
-16.5
 11
0.0
 21
-695.0
 31
-16.5
  0
LINE
  5
129
330
EB
100
AcDbEntity
  8
PV-CA
100
AcDbLine
 10
0.0
 20
-705.0
 30
-16.5
 11
0.0
 21
-988.0
 31
-16.5
  0
LINE
  5
12A
330
EB
100
AcDbEntity
  8
PV-CA
100
AcDbLine
 10
0.0
 20
-990.0
 30
35.0
 11
0.0
 21
-1000.0
 31
35.0
  0
LINE
  5
12B
330
EB
100
AcDbEntity
  8
PV-CA
100
AcDbLine
 10
0.0
 20
-990.0
 30
-35.0
 11
0.0
 21
-1000.0
 31
-35.0
  0
LINE
  5
12C
330
EB
100
AcDbEntity
  8
PV-CA
100
AcDbLine
 10
0.0
 20
-10.0
 30
-35.0
 11
0.0
 21
0.0
 31
-35.0
  0
LINE
  5
12D
330
EB
100
AcDbEntity
  8
PV-CA
100
AcDbLine
 10
0.0
 20
-10.0
 30
35.0
 11
0.0
 21
0.0
 31
35.0
  0
LINE
  5
12E
330
EB
100
AcDbEntity
  8
PV-CA
100
AcDbLine
 10
0.0
 20
-695.0
 30
-25.0
 11
0.0
 21
-695.0
 31
22.74233952194481
  0
LINE
  5
12F
330
EB
100
AcDbEntity
  8
PV-CA
100
AcDbLine
 10
0.0
 20
-705.0
 30
22.74233952194481
 11
0.0
 21
-705.0
 31
-25.0
  0
ARC
  5
130
330
EB
100
AcDbEntity
  8
PV-CA
100
AcDbCircle
 10
-700.0
 20
-25.0
 30
0.0
 40
5.0
210
1.0
220
0.0
230
0.0
100
AcDbArc
 50
179.9999999999978
 51
246.4218215217981
  0
ARC
  5
131
330
EB
100
AcDbEntity
  8
PV-CA
100
AcDbCircle
 10
-700.0
 20
-25.0
 30
0.0
 40
5.0
210
1.0
220
0.0
230
0.0
100
AcDbArc
 50
293.5781784782018
 51
0.0
  0
LINE
  5
132
330
EB
100
AcDbEntity
  8
PV-CA
100
AcDbLine
 10
0.0
 20
-595.0
 30
-25.0
 11
0.0
 21
-595.0
 31
22.74233952194481
  0
LINE
  5
133
330
EB
100
AcDbEntity
  8
PV-CA
100
AcDbLine
 10
0.0
 20
-605.0
 30
22.74233952194481
 11
0.0
 21
-605.0
 31
-25.0
  0
ARC
  5
134
330
EB
100
AcDbEntity
  8
PV-CA
100
AcDbCircle
 10
-600.0
 20
-25.0
 30
0.0
 40
5.0
210
1.0
220
0.0
230
0.0
100
AcDbArc
 50
179.9999999999978
 51
246.4218215217981
  0
ARC
  5
135
330
EB
100
AcDbEntity
  8
PV-CA
100
AcDbCircle
 10
-600.0
 20
-25.0
 30
0.0
 40
5.0
210
1.0
220
0.0
230
0.0
100
AcDbArc
 50
293.5781784782018
 51
0.0
  0
LINE
  5
136
330
EB
100
AcDbEntity
  8
PV-CA
100
AcDbLine
 10
0.0
 20
-494.9999999999998
 30
-25.0
 11
0.0
 21
-494.9999999999998
 31
22.74233952194481
  0
LINE
  5
137
330
EB
100
AcDbEntity
  8
PV-CA
100
AcDbLine
 10
0.0
 20
-504.9999999999998
 30
22.74233952194481
 11
0.0
 21
-504.9999999999998
 31
-25.0
  0
ARC
  5
138
330
EB
100
AcDbEntity
  8
PV-CA
100
AcDbCircle
 10
-499.9999999999998
 20
-25.0
 30
0.0
 40
5.0
210
1.0
220
0.0
230
0.0
100
AcDbArc
 50
179.9999999999978
 51
246.4218215217981
  0
ARC
  5
139
330
EB
100
AcDbEntity
  8
PV-CA
100
AcDbCircle
 10
-499.9999999999998
 20
-25.0
 30
0.0
 40
5.0
210
1.0
220
0.0
230
0.0
100
AcDbArc
 50
293.5781784782018
 51
0.0
  0
LINE
  5
13A
330
EB
100
AcDbEntity
  8
PV-CA
100
AcDbLine
 10
0.0
 20
-394.9999999999998
 30
-25.0
 11
0.0
 21
-394.9999999999998
 31
22.74233952194481
  0
LINE
  5
13B
330
EB
100
AcDbEntity
  8
PV-CA
100
AcDbLine
 10
0.0
 20
-404.9999999999998
 30
22.74233952194481
 11
0.0
 21
-404.9999999999998
 31
-25.0
  0
ARC
  5
13C
330
EB
100
AcDbEntity
  8
PV-CA
100
AcDbCircle
 10
-399.9999999999998
 20
-25.0
 30
0.0
 40
5.0
210
1.0
220
0.0
230
0.0
100
AcDbArc
 50
179.9999999999978
 51
246.4218215217981
  0
ARC
  5
13D
330
EB
100
AcDbEntity
  8
PV-CA
100
AcDbCircle
 10
-399.9999999999998
 20
-25.0
 30
0.0
 40
5.0
210
1.0
220
0.0
230
0.0
100
AcDbArc
 50
293.5781784782018
 51
0.0
  0
LINE
  5
13E
330
EB
100
AcDbEntity
  8
PV-CA
100
AcDbLine
 10
0.0
 20
-294.9999999999998
 30
-25.0
 11
0.0
 21
-294.9999999999998
 31
22.74233952194481
  0
LINE
  5
13F
330
EB
100
AcDbEntity
  8
PV-CA
100
AcDbLine
 10
0.0
 20
-304.9999999999998
 30
22.74233952194481
 11
0.0
 21
-304.9999999999998
 31
-25.0
  0
ARC
  5
140
330
EB
100
AcDbEntity
  8
PV-CA
100
AcDbCircle
 10
-299.9999999999999
 20
-25.0
 30
0.0
 40
5.0
210
1.0
220
0.0
230
0.0
100
AcDbArc
 50
179.9999999999978
 51
246.4218215217981
  0
ARC
  5
141
330
EB
100
AcDbEntity
  8
PV-CA
100
AcDbCircle
 10
-299.9999999999999
 20
-25.0
 30
0.0
 40
5.0
210
1.0
220
0.0
230
0.0
100
AcDbArc
 50
293.5781784782018
 51
0.0
  0
LINE
  5
142
330
EB
100
AcDbEntity
  8
PV-CA
100
AcDbLine
 10
0.0
 20
-194.9999999999999
 30
-25.0
 11
0.0
 21
-194.9999999999999
 31
22.74233952194481
  0
LINE
  5
143
330
EB
100
AcDbEntity
  8
PV-CA
100
AcDbLine
 10
0.0
 20
-204.9999999999999
 30
22.74233952194481
 11
0.0
 21
-204.9999999999999
 31
-25.0
  0
ARC
  5
144
330
EB
100
AcDbEntity
  8
PV-CA
100
AcDbCircle
 10
-199.9999999999999
 20
-25.0
 30
0.0
 40
5.0
210
1.0
220
0.0
230
0.0
100
AcDbArc
 50
179.9999999999978
 51
246.4218215217981
  0
ARC
  5
145
330
EB
100
AcDbEntity
  8
PV-CA
100
AcDbCircle
 10
-199.9999999999999
 20
-25.0
 30
0.0
 40
5.0
210
1.0
220
0.0
230
0.0
100
AcDbArc
 50
293.5781784782018
 51
0.0
  0
ARC
  5
146
330
EB
100
AcDbEntity
  8
PV-CA
100
AcDbCircle
 10
-990.0
 20
-33.0
 30
0.0
 40
2.0
210
1.0
220
0.0
230
0.0
100
AcDbArc
 50
270.0000000000001
 51
0.000000000001239
  0
ARC
  5
147
330
EB
100
AcDbEntity
  8
PV-CA
100
AcDbCircle
 10
-990.0
 20
33.0
 30
0.0
 40
2.0
210
1.0
220
0.0
230
0.0
100
AcDbArc
 50
359.999999999998
 51
89.99999999999978
  0
ARC
  5
148
330
EB
100
AcDbEntity
  8
PV-CA
100
AcDbCircle
 10
-10.0
 20
33.0
 30
0.0
 40
2.0
210
1.0
220
0.0
230
0.0
100
AcDbArc
 50
90.00000000000019
 51
180.0000000000012
  0
ARC
  5
149
330
EB
100
AcDbEntity
  8
PV-CA
100
AcDbCircle
 10
-10.0
 20
-33.0
 30
0.0
 40
2.0
210
1.0
220
0.0
230
0.0
100
AcDbArc
 50
179.9999999999978
 51
269.9999999999997
  0
ENDBLK
  5
14B
330
EB
100
AcDbEntity
  8
0
100
AcDbBlockEnd
  0
BLOCK
  5
14E
330
14C
100
AcDbEntity
  8
0
100
AcDbBlockBegin
  2
RIGHT
 70
     0
 10
0.0
 20
0.0
 30
0.0
  3
RIGHT
  1

  0
INSERT
  5
14D
330
14C
100
AcDbEntity
  8
PV-CA
100
AcDbBlockReference
  2
*U4
 10
0.0
 20
0.0
 30
0.0
 50
90.0
210
0.0
220
1.0
230
0.0
  0
ENDBLK
  5
14F
330
14C
100
AcDbEntity
  8
0
100
AcDbBlockEnd
  0
BLOCK
  5
1A8
330
151
100
AcDbEntity
  8
0
100
AcDbBlockBegin
  2
*U6
 70
     1
 10
0.0
 20
0.0
 30
0.0
  3
*U6
  1
*ANON
  0
LINE
  5
152
330
151
100
AcDbEntity
  8
PV-CA
100
AcDbLine
 10
-35.0
 20
0.0
 30
0.0
 11
35.0
 21
0.0
 31
0.0
  0
LINE
  5
153
330
151
100
AcDbEntity
  8
PV-CA
100
AcDbLine
 10
-33.0
 20
-12.0
 30
0.0
 11
33.0
 21
-12.0
 31
0.0
  0
LINE
  5
154
330
151
100
AcDbEntity
  8
PV-CA
100
AcDbLine
 10
35.0
 20
-1000.0
 30
0.0
 11
-35.0
 21
-1000.0
 31
0.0
  0
LINE
  5
155
330
151
100
AcDbEntity
  8
PV-CA
100
AcDbLine
 10
33.0
 20
-988.0
 30
0.0
 11
-33.0
 21
-988.0
 31
0.0
  0
ARC
  5
156
330
151
100
AcDbEntity
  8
PV-CA
100
AcDbCircle
 10
-20.61228453347117
 20
-700.0
 30
0.0
 40
5.0
100
AcDbArc
 50
270.0
 51
89.9999999999996
  0
ARC
  5
157
330
151
100
AcDbEntity
  8
PV-CA
100
AcDbCircle
 10
10.38200332636176
 20
-700.0
 30
0.0
 40
5.0
100
AcDbArc
 50
90.0
 51
269.9999999999996
  0
ARC
  5
158
330
151
100
AcDbEntity
  8
PV-CA
100
AcDbCircle
 10
-20.61228453347117
 20
-600.0
 30
0.0
 40
5.0
100
AcDbArc
 50
270.0
 51
89.9999999999996
  0
ARC
  5
159
330
151
100
AcDbEntity
  8
PV-CA
100
AcDbCircle
 10
10.38200332636176
 20
-600.0
 30
0.0
 40
5.0
100
AcDbArc
 50
90.0
 51
269.9999999999996
  0
ARC
  5
15A
330
151
100
AcDbEntity
  8
PV-CA
100
AcDbCircle
 10
-20.61228453347117
 20
-499.9999999999998
 30
0.0
 40
5.0
100
AcDbArc
 50
270.0
 51
89.9999999999996
  0
ARC
  5
15B
330
151
100
AcDbEntity
  8
PV-CA
100
AcDbCircle
 10
10.38200332636176
 20
-499.9999999999998
 30
0.0
 40
5.0
100
AcDbArc
 50
90.0
 51
269.9999999999996
  0
ARC
  5
15C
330
151
100
AcDbEntity
  8
PV-CA
100
AcDbCircle
 10
-20.61228453347117
 20
-399.9999999999998
 30
0.0
 40
5.0
100
AcDbArc
 50
270.0
 51
89.9999999999996
  0
ARC
  5
15D
330
151
100
AcDbEntity
  8
PV-CA
100
AcDbCircle
 10
10.38200332636176
 20
-399.9999999999998
 30
0.0
 40
5.0
100
AcDbArc
 50
90.0
 51
269.9999999999996
  0
ARC
  5
15E
330
151
100
AcDbEntity
  8
PV-CA
100
AcDbCircle
 10
-20.61228453347117
 20
-299.9999999999999
 30
0.0
 40
5.0
100
AcDbArc
 50
270.0
 51
89.9999999999996
  0
ARC
  5
15F
330
151
100
AcDbEntity
  8
PV-CA
100
AcDbCircle
 10
10.38200332636176
 20
-299.9999999999999
 30
0.0
 40
5.0
100
AcDbArc
 50
90.0
 51
269.9999999999996
  0
ARC
  5
160
330
151
100
AcDbEntity
  8
PV-CA
100
AcDbCircle
 10
-20.61228453347117
 20
-199.9999999999999
 30
0.0
 40
5.0
100
AcDbArc
 50
270.0
 51
89.9999999999996
  0
ARC
  5
161
330
151
100
AcDbEntity
  8
PV-CA
100
AcDbCircle
 10
10.38200332636176
 20
-199.9999999999999
 30
0.0
 40
5.0
100
AcDbArc
 50
90.0
 51
269.9999999999996
  0
LINE
  5
162
330
151
100
AcDbEntity
  8
PV-CA
100
AcDbLine
 10
-16.5
 20
-12.0
 30
0.0
 11
-16.5
 21
-197.155862887311
 31
0.0
  0
LINE
  5
163
330
151
100
AcDbEntity
  8
PV-CA
100
AcDbLine
 10
-16.5
 20
-202.8441371126886
 30
0.0
 11
-16.5
 21
-297.1558628873111
 31
0.0
  0
LINE
  5
164
330
151
100
AcDbEntity
  8
PV-CA
100
AcDbLine
 10
-16.5
 20
-302.8441371126886
 30
0.0
 11
-16.5
 21
-397.1558628873111
 31
0.0
  0
LINE
  5
165
330
151
100
AcDbEntity
  8
PV-CA
100
AcDbLine
 10
-16.5
 20
-402.8441371126886
 30
0.0
 11
-16.5
 21
-497.1558628873109
 31
0.0
  0
LINE
  5
166
330
151
100
AcDbEntity
  8
PV-CA
100
AcDbLine
 10
-16.5
 20
-502.8441371126886
 30
0.0
 11
-16.5
 21
-597.155862887311
 31
0.0
  0
LINE
  5
167
330
151
100
AcDbEntity
  8
PV-CA
100
AcDbLine
 10
-16.5
 20
-602.8441371126887
 30
0.0
 11
-16.5
 21
-697.155862887311
 31
0.0
  0
LINE
  5
168
330
151
100
AcDbEntity
  8
PV-CA
100
AcDbLine
 10
-16.5
 20
-702.8441371126887
 30
0.0
 11
-16.5
 21
-988.0
 31
0.0
  0
LINE
  5
169
330
151
100
AcDbEntity
  8
PV-CA
100
AcDbLine
 10
16.5
 20
-12.0
 30
0.0
 11
16.5
 21
-195.0
 31
0.0
  0
LINE
  5
16A
330
151
100
AcDbEntity
  8
PV-CA
100
AcDbLine
 10
16.5
 20
-205.0
 30
0.0
 11
16.5
 21
-295.0
 31
0.0
  0
LINE
  5
16B
330
151
100
AcDbEntity
  8
PV-CA
100
AcDbLine
 10
16.5
 20
-305.0
 30
0.0
 11
16.5
 21
-395.0
 31
0.0
  0
LINE
  5
16C
330
151
100
AcDbEntity
  8
PV-CA
100
AcDbLine
 10
16.5
 20
-405.0
 30
0.0
 11
16.5
 21
-495.0
 31
0.0
  0
LINE
  5
16D
330
151
100
AcDbEntity
  8
PV-CA
100
AcDbLine
 10
16.5
 20
-505.0
 30
0.0
 11
16.5
 21
-595.0
 31
0.0
  0
LINE
  5
16E
330
151
100
AcDbEntity
  8
PV-CA
100
AcDbLine
 10
16.5
 20
-605.0
 30
0.0
 11
16.5
 21
-695.0
 31
0.0
  0
LINE
  5
16F
330
151
100
AcDbEntity
  8
PV-CA
100
AcDbLine
 10
16.5
 20
-705.0
 30
0.0
 11
16.5
 21
-988.0
 31
0.0
  0
LINE
  5
170
330
151
100
AcDbEntity
  8
PV-CA
100
AcDbLine
 10
-35.0
 20
-990.0
 30
0.0
 11
-35.0
 21
-1000.0
 31
0.0
  0
LINE
  5
171
330
151
100
AcDbEntity
  8
PV-CA
100
AcDbLine
 10
35.0
 20
-990.0
 30
0.0
 11
35.0
 21
-1000.0
 31
0.0
  0
LINE
  5
172
330
151
100
AcDbEntity
  8
PV-CA
100
AcDbLine
 10
35.0
 20
-10.0
 30
0.0
 11
35.0
 21
0.0
 31
0.0
  0
LINE
  5
173
330
151
100
AcDbEntity
  8
PV-CA
100
AcDbLine
 10
-35.0
 20
-10.0
 30
0.0
 11
-35.0
 21
0.0
 31
0.0
  0
LINE
  5
174
330
151
100
AcDbEntity
  8
PV-CA
100
AcDbLine
 10
-16.49999999999999
 20
-695.0
 30
0.0
 11
-20.61228453347117
 21
-695.0
 31
0.0
  0
LINE
  5
175
330
151
100
AcDbEntity
  8
PV-CA
100
AcDbLine
 10
-20.61228453347117
 20
-695.0
 30
0.0
 11
-25.0
 21
-695.0
 31
0.0
  0
LINE
  5
176
330
151
100
AcDbEntity
  8
PV-CA
100
AcDbLine
 10
25.0
 20
-695.0
 30
0.0
 11
10.38200332636176
 21
-695.0
 31
0.0
  0
LINE
  5
177
330
151
100
AcDbEntity
  8
PV-CA
100
AcDbLine
 10
10.38200332636176
 20
-705.0
 30
0.0
 11
25.0
 21
-705.0
 31
0.0
  0
LINE
  5
178
330
151
100
AcDbEntity
  8
PV-CA
100
AcDbLine
 10
-25.0
 20
-705.0
 30
0.0
 11
-20.61228453347117
 21
-705.0
 31
0.0
  0
LINE
  5
179
330
151
100
AcDbEntity
  8
PV-CA
100
AcDbLine
 10
-20.61228453347117
 20
-705.0
 30
0.0
 11
-16.5
 21
-705.0
 31
0.0
  0
ARC
  5
17A
330
151
100
AcDbEntity
  8
PV-CA
100
AcDbCircle
 10
-25.0
 20
-700.0
 30
0.0
 40
5.0
100
AcDbArc
 50
90.0
 51
270.0000000000012
  0
ARC
  5
17B
330
151
100
AcDbEntity
  8
PV-CA
100
AcDbCircle
 10
25.0
 20
-700.0
 30
0.0
 40
5.0
100
AcDbArc
 50
269.9999999999978
 51
90.0
  0
LINE
  5
17C
330
151
100
AcDbEntity
  8
PV-CA
100
AcDbLine
 10
-16.49999999999999
 20
-595.0
 30
0.0
 11
-20.61228453347117
 21
-595.0
 31
0.0
  0
LINE
  5
17D
330
151
100
AcDbEntity
  8
PV-CA
100
AcDbLine
 10
-20.61228453347117
 20
-595.0
 30
0.0
 11
-25.0
 21
-595.0
 31
0.0
  0
LINE
  5
17E
330
151
100
AcDbEntity
  8
PV-CA
100
AcDbLine
 10
25.0
 20
-595.0
 30
0.0
 11
10.38200332636176
 21
-595.0
 31
0.0
  0
LINE
  5
17F
330
151
100
AcDbEntity
  8
PV-CA
100
AcDbLine
 10
10.38200332636176
 20
-605.0
 30
0.0
 11
25.0
 21
-605.0
 31
0.0
  0
LINE
  5
180
330
151
100
AcDbEntity
  8
PV-CA
100
AcDbLine
 10
-25.0
 20
-605.0
 30
0.0
 11
-20.61228453347117
 21
-605.0
 31
0.0
  0
LINE
  5
181
330
151
100
AcDbEntity
  8
PV-CA
100
AcDbLine
 10
-20.61228453347117
 20
-605.0
 30
0.0
 11
-16.5
 21
-605.0
 31
0.0
  0
ARC
  5
182
330
151
100
AcDbEntity
  8
PV-CA
100
AcDbCircle
 10
-25.0
 20
-600.0
 30
0.0
 40
5.0
100
AcDbArc
 50
90.0
 51
270.0000000000012
  0
ARC
  5
183
330
151
100
AcDbEntity
  8
PV-CA
100
AcDbCircle
 10
25.0
 20
-600.0
 30
0.0
 40
5.0
100
AcDbArc
 50
269.9999999999978
 51
90.0
  0
LINE
  5
184
330
151
100
AcDbEntity
  8
PV-CA
100
AcDbLine
 10
-16.49999999999999
 20
-494.9999999999998
 30
0.0
 11
-20.61228453347117
 21
-494.9999999999998
 31
0.0
  0
LINE
  5
185
330
151
100
AcDbEntity
  8
PV-CA
100
AcDbLine
 10
-20.61228453347117
 20
-494.9999999999998
 30
0.0
 11
-25.0
 21
-494.9999999999998
 31
0.0
  0
LINE
  5
186
330
151
100
AcDbEntity
  8
PV-CA
100
AcDbLine
 10
25.0
 20
-494.9999999999998
 30
0.0
 11
10.38200332636176
 21
-494.9999999999998
 31
0.0
  0
LINE
  5
187
330
151
100
AcDbEntity
  8
PV-CA
100
AcDbLine
 10
10.38200332636176
 20
-504.9999999999998
 30
0.0
 11
25.0
 21
-504.9999999999998
 31
0.0
  0
LINE
  5
188
330
151
100
AcDbEntity
  8
PV-CA
100
AcDbLine
 10
-25.0
 20
-504.9999999999998
 30
0.0
 11
-20.61228453347117
 21
-504.9999999999998
 31
0.0
  0
LINE
  5
189
330
151
100
AcDbEntity
  8
PV-CA
100
AcDbLine
 10
-20.61228453347117
 20
-504.9999999999998
 30
0.0
 11
-16.5
 21
-504.9999999999998
 31
0.0
  0
ARC
  5
18A
330
151
100
AcDbEntity
  8
PV-CA
100
AcDbCircle
 10
-25.0
 20
-499.9999999999998
 30
0.0
 40
5.0
100
AcDbArc
 50
90.0
 51
270.0000000000012
  0
ARC
  5
18B
330
151
100
AcDbEntity
  8
PV-CA
100
AcDbCircle
 10
25.0
 20
-499.9999999999998
 30
0.0
 40
5.0
100
AcDbArc
 50
269.9999999999978
 51
90.0
  0
LINE
  5
18C
330
151
100
AcDbEntity
  8
PV-CA
100
AcDbLine
 10
-16.49999999999999
 20
-394.9999999999998
 30
0.0
 11
-20.61228453347117
 21
-394.9999999999998
 31
0.0
  0
LINE
  5
18D
330
151
100
AcDbEntity
  8
PV-CA
100
AcDbLine
 10
-20.61228453347117
 20
-394.9999999999998
 30
0.0
 11
-25.0
 21
-394.9999999999998
 31
0.0
  0
LINE
  5
18E
330
151
100
AcDbEntity
  8
PV-CA
100
AcDbLine
 10
25.0
 20
-394.9999999999998
 30
0.0
 11
10.38200332636176
 21
-394.9999999999998
 31
0.0
  0
LINE
  5
18F
330
151
100
AcDbEntity
  8
PV-CA
100
AcDbLine
 10
10.38200332636176
 20
-404.9999999999998
 30
0.0
 11
25.0
 21
-404.9999999999998
 31
0.0
  0
LINE
  5
190
330
151
100
AcDbEntity
  8
PV-CA
100
AcDbLine
 10
-25.0
 20
-404.9999999999998
 30
0.0
 11
-20.61228453347117
 21
-404.9999999999998
 31
0.0
  0
LINE
  5
191
330
151
100
AcDbEntity
  8
PV-CA
100
AcDbLine
 10
-20.61228453347117
 20
-404.9999999999998
 30
0.0
 11
-16.5
 21
-404.9999999999998
 31
0.0
  0
ARC
  5
192
330
151
100
AcDbEntity
  8
PV-CA
100
AcDbCircle
 10
-25.0
 20
-399.9999999999998
 30
0.0
 40
5.0
100
AcDbArc
 50
90.0
 51
270.0000000000012
  0
ARC
  5
193
330
151
100
AcDbEntity
  8
PV-CA
100
AcDbCircle
 10
25.0
 20
-399.9999999999998
 30
0.0
 40
5.0
100
AcDbArc
 50
269.9999999999978
 51
90.0
  0
LINE
  5
194
330
151
100
AcDbEntity
  8
PV-CA
100
AcDbLine
 10
-16.49999999999999
 20
-294.9999999999998
 30
0.0
 11
-20.61228453347117
 21
-294.9999999999998
 31
0.0
  0
LINE
  5
195
330
151
100
AcDbEntity
  8
PV-CA
100
AcDbLine
 10
-20.61228453347117
 20
-294.9999999999998
 30
0.0
 11
-25.0
 21
-294.9999999999998
 31
0.0
  0
LINE
  5
196
330
151
100
AcDbEntity
  8
PV-CA
100
AcDbLine
 10
25.0
 20
-294.9999999999998
 30
0.0
 11
10.38200332636176
 21
-294.9999999999998
 31
0.0
  0
LINE
  5
197
330
151
100
AcDbEntity
  8
PV-CA
100
AcDbLine
 10
10.38200332636176
 20
-304.9999999999998
 30
0.0
 11
25.0
 21
-304.9999999999998
 31
0.0
  0
LINE
  5
198
330
151
100
AcDbEntity
  8
PV-CA
100
AcDbLine
 10
-25.0
 20
-304.9999999999998
 30
0.0
 11
-20.61228453347117
 21
-304.9999999999998
 31
0.0
  0
LINE
  5
199
330
151
100
AcDbEntity
  8
PV-CA
100
AcDbLine
 10
-20.61228453347117
 20
-304.9999999999998
 30
0.0
 11
-16.5
 21
-304.9999999999998
 31
0.0
  0
ARC
  5
19A
330
151
100
AcDbEntity
  8
PV-CA
100
AcDbCircle
 10
-25.0
 20
-299.9999999999999
 30
0.0
 40
5.0
100
AcDbArc
 50
90.0
 51
270.0000000000012
  0
ARC
  5
19B
330
151
100
AcDbEntity
  8
PV-CA
100
AcDbCircle
 10
25.0
 20
-299.9999999999999
 30
0.0
 40
5.0
100
AcDbArc
 50
269.9999999999978
 51
90.0
  0
LINE
  5
19C
330
151
100
AcDbEntity
  8
PV-CA
100
AcDbLine
 10
-16.49999999999999
 20
-194.9999999999999
 30
0.0
 11
-20.61228453347117
 21
-194.9999999999999
 31
0.0
  0
LINE
  5
19D
330
151
100
AcDbEntity
  8
PV-CA
100
AcDbLine
 10
-20.61228453347117
 20
-194.9999999999999
 30
0.0
 11
-25.0
 21
-194.9999999999999
 31
0.0
  0
LINE
  5
19E
330
151
100
AcDbEntity
  8
PV-CA
100
AcDbLine
 10
25.0
 20
-194.9999999999999
 30
0.0
 11
10.38200332636176
 21
-194.9999999999999
 31
0.0
  0
LINE
  5
19F
330
151
100
AcDbEntity
  8
PV-CA
100
AcDbLine
 10
10.38200332636176
 20
-204.9999999999999
 30
0.0
 11
25.0
 21
-204.9999999999999
 31
0.0
  0
LINE
  5
1A0
330
151
100
AcDbEntity
  8
PV-CA
100
AcDbLine
 10
-25.0
 20
-204.9999999999999
 30
0.0
 11
-20.61228453347117
 21
-204.9999999999999
 31
0.0
  0
LINE
  5
1A1
330
151
100
AcDbEntity
  8
PV-CA
100
AcDbLine
 10
-20.61228453347117
 20
-204.9999999999999
 30
0.0
 11
-16.5
 21
-204.9999999999999
 31
0.0
  0
ARC
  5
1A2
330
151
100
AcDbEntity
  8
PV-CA
100
AcDbCircle
 10
-25.0
 20
-199.9999999999999
 30
0.0
 40
5.0
100
AcDbArc
 50
90.0
 51
270.0000000000012
  0
ARC
  5
1A3
330
151
100
AcDbEntity
  8
PV-CA
100
AcDbCircle
 10
25.0
 20
-199.9999999999999
 30
0.0
 40
5.0
100
AcDbArc
 50
269.9999999999978
 51
90.0
  0
ARC
  5
1A4
330
151
100
AcDbEntity
  8
PV-CA
100
AcDbCircle
 10
33.0
 20
-990.0
 30
0.0
 40
2.0
100
AcDbArc
 50
0.0000000000002036
 51
90.00000000000124
  0
ARC
  5
1A5
330
151
100
AcDbEntity
  8
PV-CA
100
AcDbCircle
 10
-33.0
 20
-990.0
 30
0.0
 40
2.0
100
AcDbArc
 50
89.99999999999799
 51
179.9999999999998
  0
ARC
  5
1A6
330
151
100
AcDbEntity
  8
PV-CA
100
AcDbCircle
 10
-33.0
 20
-10.0
 30
0.0
 40
2.0
100
AcDbArc
 50
180.0000000000002
 51
270.0000000000012
  0
ARC
  5
1A7
330
151
100
AcDbEntity
  8
PV-CA
100
AcDbCircle
 10
33.0
 20
-10.0
 30
0.0
 40
2.0
100
AcDbArc
 50
269.9999999999978
 51
359.9999999999997
  0
ENDBLK
  5
1A9
330
151
100
AcDbEntity
  8
0
100
AcDbBlockEnd
  0
BLOCK
  5
1AC
330
1AA
100
AcDbEntity
  8
0
100
AcDbBlockBegin
  2
TOP
 70
     0
 10
0.0
 20
0.0
 30
0.0
  3
TOP
  1

  0
INSERT
  5
1AB
330
1AA
100
AcDbEntity
  8
PV-CA
100
AcDbBlockReference
  2
*U6
 10
0.0
 20
0.0
 30
0.0
  0
ENDBLK
  5
1AD
330
1AA
100
AcDbEntity
  8
0
100
AcDbBlockEnd
  0
ENDSEC
  0
SECTION
  2
ENTITIES
  0
LINE
  5
1BF
330
1F
100
AcDbEntity
  8
PV-CA
100
AcDbLine
 10
-235.00000001
 20
44.499999995
 30
0.0
 11
-235.00000001
 21
-25.500000005
 31
0.0
210
0.0
220
1.0
230
0.0
  0
LINE
  5
1C0
330
1F
100
AcDbEntity
  8
PV-CA
100
AcDbLine
 10
-247.00000001
 20
42.49999999499999
 30
-0.0000000000000007
 11
-247.00000001
 21
-23.500000005
 31
-0.0000000000000007
210
0.0
220
1.0
230
0.0
  0
LINE
  5
1C1
330
1F
100
AcDbEntity
  8
PV-CA
100
AcDbLine
 10
-1235.00000001
 20
9.499999994999996
 30
-0.0000000000000612
 11
-1235.00000001
 21
44.499999995
 31
-0.0000000000000612
210
0.0
220
1.0
230
0.0
  0
LINE
  5
1C2
330
1F
100
AcDbEntity
  8
PV-CA
100
AcDbLine
 10
-1235.00000001
 20
-25.500000005
 30
-0.0000000000000612
 11
-1235.00000001
 21
9.499999995000484
 31
-0.0000000000000612
210
0.0
220
1.0
230
0.0
  0
LINE
  5
1C3
330
1F
100
AcDbEntity
  8
PV-CA
100
AcDbLine
 10
-1223.000000009999
 20
9.499999994999996
 30
-0.0000000000000605
 11
-1223.000000009999
 21
42.49999999499999
 31
-0.0000000000000605
210
0.0
220
1.0
230
0.0
  0
LINE
  5
1C4
330
1F
100
AcDbEntity
  8
PV-CA
100
AcDbLine
 10
-1223.000000009999
 20
-23.500000005
 30
-0.0000000000000605
 11
-1223.000000009999
 21
9.499999995000456
 31
-0.0000000000000605
210
0.0
220
1.0
230
0.0
  0
LINE
  5
1C5
330
1F
100
AcDbEntity
  8
PV-CA
100
AcDbLine
 10
-433.0000000099999
 20
-38.500000005
 30
-0.0000000000000121
 11
-433.0000000099999
 21
-19.70682771270889
 31
-0.0000000000000121
210
0.0
220
1.0
230
0.0
  0
SPLINE
  5
1C6
330
1F
100
AcDbEntity
  8
PV-CA
100
AcDbSpline
210
0.0
220
0.0
230
1.0
 70
     8
 71
     3
 72
    19
 73
    15
 74
     0
 42
0.0000000001
 43
0.0000000001
 40
-1.946346350516165
 40
-1.946346350516165
 40
-1.946346350516165
 40
-1.946346350516165
 40
-1.8429335414218
 40
-1.8429335414218
 40
-0.9214667707108999
 40
-0.9214667707108999
 40
0.0
 40
0.0
 40
0.0
 40
0.9214667707108663
 40
0.9214667707108663
 40
1.842933541421732
 40
1.842933541421732
 40
1.946346350516166
 40
1.946346350516166
 40
1.946346350516166
 40
1.946346350516166
 10
-437.0000000099999
 20
-19.70682771270889
 30
-0.0000000000000124
 10
-436.9678627551378
 20
-19.72103400418209
 30
-0.0000000000000124
 10
-436.9358602536022
 20
-19.73477253001263
 30
-0.0000000000000124
 10
-436.6205638381711
 20
-19.86629003490962
 30
-0.0000000000000123
 10
-436.2992718529841
 20
-19.96736202836837
 30
-0.0000000000000123
 10
-435.642568460423
 20
-20.09899366981655
 30
-0.0000000000000123
 10
-435.3071556002368
 20
-20.12954606969697
 30
-0.0000000000000123
 10
-435.0000000099998
 20
-20.12954606969697
 30
-0.0000000000000122
 10
-434.6928444197629
 20
-20.12954606969697
 30
-0.0000000000000122
 10
-434.3574315595766
 20
-20.09899366981655
 30
-0.0000000000000122
 10
-433.7007281670156
 20
-19.96736202836839
 30
-0.0000000000000122
 10
-433.3794361818286
 20
-19.86629003490964
 30
-0.0000000000000121
 10
-433.0641397663976
 20
-19.73477253001264
 30
-0.0000000000000121
 10
-433.032137264862
 20
-19.7210340041821
 30
-0.0000000000000121
 10
-433.0000000099999
 20
-19.70682771270889
 30
-0.0000000000000121
  0
LINE
  5
1C7
330
1F
100
AcDbEntity
  8
PV-CA
100
AcDbLine
 10
-433.0000000099999
 20
-44.500000005
 30
-0.0000000000000121
 11
-433.0000000099999
 21
-38.50000000499997
 31
-0.0000000000000121
210
0.0
220
1.0
230
0.0
  0
LINE
  5
1C8
330
1F
100
AcDbEntity
  8
PV-CA
100
AcDbLine
 10
-437.0000000099999
 20
-38.500000005
 30
-0.0000000000000124
 11
-437.0000000099999
 21
-19.70682771270889
 31
-0.0000000000000124
210
0.0
220
1.0
230
0.0
  0
LINE
  5
1C9
330
1F
100
AcDbEntity
  8
PV-CA
100
AcDbLine
 10
-437.0000000099999
 20
-38.50000000499997
 30
-0.0000000000000124
 11
-437.0000000099999
 21
-44.500000005
 31
-0.0000000000000124
210
0.0
220
1.0
230
0.0
  0
LINE
  5
1CA
330
1F
100
AcDbEntity
  8
PV-CA
100
AcDbLine
 10
-533.0000000099999
 20
-38.500000005
 30
-0.0000000000000182
 11
-533.0000000099999
 21
-19.70682771270889
 31
-0.0000000000000182
210
0.0
220
1.0
230
0.0
  0
SPLINE
  5
1CB
330
1F
100
AcDbEntity
  8
PV-CA
100
AcDbSpline
210
0.0
220
0.0
230
1.0
 70
     8
 71
     3
 72
    19
 73
    15
 74
     0
 42
0.0000000001
 43
0.0000000001
 40
-1.946346350516165
 40
-1.946346350516165
 40
-1.946346350516165
 40
-1.946346350516165
 40
-1.8429335414218
 40
-1.8429335414218
 40
-0.9214667707108999
 40
-0.9214667707108999
 40
0.0
 40
0.0
 40
0.0
 40
0.9214667707108663
 40
0.9214667707108663
 40
1.842933541421732
 40
1.842933541421732
 40
1.946346350516166
 40
1.946346350516166
 40
1.946346350516166
 40
1.946346350516166
 10
-537.0000000099999
 20
-19.70682771270889
 30
-0.0000000000000185
 10
-536.9678627551378
 20
-19.72103400418209
 30
-0.0000000000000185
 10
-536.9358602536022
 20
-19.73477253001263
 30
-0.0000000000000185
 10
-536.6205638381711
 20
-19.86629003490962
 30
-0.0000000000000185
 10
-536.2992718529841
 20
-19.96736202836837
 30
-0.0000000000000184
 10
-535.6425684604231
 20
-20.09899366981655
 30
-0.0000000000000184
 10
-535.3071556002369
 20
-20.12954606969697
 30
-0.0000000000000184
 10
-535.0000000099998
 20
-20.12954606969697
 30
-0.0000000000000184
 10
-534.6928444197629
 20
-20.12954606969697
 30
-0.0000000000000184
 10
-534.3574315595767
 20
-20.09899366981655
 30
-0.0000000000000183
 10
-533.7007281670158
 20
-19.96736202836839
 30
-0.0000000000000183
 10
-533.3794361818286
 20
-19.86629003490964
 30
-0.0000000000000183
 10
-533.0641397663976
 20
-19.73477253001264
 30
-0.0000000000000183
 10
-533.032137264862
 20
-19.7210340041821
 30
-0.0000000000000182
 10
-533.0000000099999
 20
-19.70682771270889
 30
-0.0000000000000182
  0
LINE
  5
1CC
330
1F
100
AcDbEntity
  8
PV-CA
100
AcDbLine
 10
-533.0000000099999
 20
-44.500000005
 30
-0.0000000000000182
 11
-533.0000000099999
 21
-38.50000000499997
 31
-0.0000000000000182
210
0.0
220
1.0
230
0.0
  0
LINE
  5
1CD
330
1F
100
AcDbEntity
  8
PV-CA
100
AcDbLine
 10
-537.0000000099999
 20
-38.500000005
 30
-0.0000000000000185
 11
-537.0000000099999
 21
-19.70682771270889
 31
-0.0000000000000185
210
0.0
220
1.0
230
0.0
  0
LINE
  5
1CE
330
1F
100
AcDbEntity
  8
PV-CA
100
AcDbLine
 10
-537.0000000099999
 20
-38.50000000499997
 30
-0.0000000000000185
 11
-537.0000000099999
 21
-44.500000005
 31
-0.0000000000000185
210
0.0
220
1.0
230
0.0
  0
LINE
  5
1CF
330
1F
100
AcDbEntity
  8
PV-CA
100
AcDbLine
 10
-633.0000000099999
 20
-38.500000005
 30
-0.0000000000000244
 11
-633.0000000099999
 21
-19.70682771270889
 31
-0.0000000000000244
210
0.0
220
1.0
230
0.0
  0
SPLINE
  5
1D0
330
1F
100
AcDbEntity
  8
PV-CA
100
AcDbSpline
210
0.0
220
0.0
230
1.0
 70
     8
 71
     3
 72
    19
 73
    15
 74
     0
 42
0.0000000001
 43
0.0000000001
 40
-1.946346350516165
 40
-1.946346350516165
 40
-1.946346350516165
 40
-1.946346350516165
 40
-1.8429335414218
 40
-1.8429335414218
 40
-0.9214667707108999
 40
-0.9214667707108999
 40
0.0
 40
0.0
 40
0.0
 40
0.9214667707108663
 40
0.9214667707108663
 40
1.842933541421732
 40
1.842933541421732
 40
1.946346350516166
 40
1.946346350516166
 40
1.946346350516166
 40
1.946346350516166
 10
-637.0000000099999
 20
-19.70682771270889
 30
-0.0000000000000246
 10
-636.9678627551377
 20
-19.72103400418209
 30
-0.0000000000000246
 10
-636.9358602536022
 20
-19.73477253001263
 30
-0.0000000000000246
 10
-636.6205638381714
 20
-19.86629003490962
 30
-0.0000000000000246
 10
-636.2992718529842
 20
-19.96736202836837
 30
-0.0000000000000246
 10
-635.6425684604231
 20
-20.09899366981655
 30
-0.0000000000000245
 10
-635.3071556002368
 20
-20.12954606969697
 30
-0.0000000000000245
 10
-635.0000000099998
 20
-20.12954606969697
 30
-0.0000000000000245
 10
-634.6928444197629
 20
-20.12954606969697
 30
-0.0000000000000245
 10
-634.3574315595767
 20
-20.09899366981655
 30
-0.0000000000000245
 10
-633.7007281670158
 20
-19.96736202836839
 30
-0.0000000000000244
 10
-633.3794361818286
 20
-19.86629003490964
 30
-0.0000000000000244
 10
-633.0641397663976
 20
-19.73477253001264
 30
-0.0000000000000244
 10
-633.032137264862
 20
-19.7210340041821
 30
-0.0000000000000244
 10
-633.0000000099999
 20
-19.70682771270889
 30
-0.0000000000000244
  0
LINE
  5
1D1
330
1F
100
AcDbEntity
  8
PV-CA
100
AcDbLine
 10
-633.0000000099999
 20
-44.500000005
 30
-0.0000000000000244
 11
-633.0000000099999
 21
-38.50000000499997
 31
-0.0000000000000244
210
0.0
220
1.0
230
0.0
  0
LINE
  5
1D2
330
1F
100
AcDbEntity
  8
PV-CA
100
AcDbLine
 10
-637.0000000099999
 20
-38.500000005
 30
-0.0000000000000246
 11
-637.0000000099999
 21
-19.70682771270889
 31
-0.0000000000000246
210
0.0
220
1.0
230
0.0
  0
LINE
  5
1D3
330
1F
100
AcDbEntity
  8
PV-CA
100
AcDbLine
 10
-637.0000000099999
 20
-38.50000000499997
 30
-0.0000000000000246
 11
-637.0000000099999
 21
-44.500000005
 31
-0.0000000000000246
210
0.0
220
1.0
230
0.0
  0
LINE
  5
1D4
330
1F
100
AcDbEntity
  8
PV-CA
100
AcDbLine
 10
-733.0000000099999
 20
-38.500000005
 30
-0.0000000000000305
 11
-733.0000000099999
 21
-19.70682771270889
 31
-0.0000000000000305
210
0.0
220
1.0
230
0.0
  0
SPLINE
  5
1D5
330
1F
100
AcDbEntity
  8
PV-CA
100
AcDbSpline
210
0.0
220
0.0
230
1.0
 70
     8
 71
     3
 72
    19
 73
    15
 74
     0
 42
0.0000000001
 43
0.0000000001
 40
-1.946346350516165
 40
-1.946346350516165
 40
-1.946346350516165
 40
-1.946346350516165
 40
-1.8429335414218
 40
-1.8429335414218
 40
-0.9214667707108999
 40
-0.9214667707108999
 40
0.0
 40
0.0
 40
0.0
 40
0.9214667707108663
 40
0.9214667707108663
 40
1.842933541421732
 40
1.842933541421732
 40
1.946346350516166
 40
1.946346350516166
 40
1.946346350516166
 40
1.946346350516166
 10
-737.0000000099999
 20
-19.70682771270889
 30
-0.0000000000000307
 10
-736.9678627551377
 20
-19.72103400418209
 30
-0.0000000000000307
 10
-736.9358602536022
 20
-19.73477253001263
 30
-0.0000000000000307
 10
-736.6205638381714
 20
-19.86629003490962
 30
-0.0000000000000307
 10
-736.2992718529842
 20
-19.96736202836837
 30
-0.0000000000000307
 10
-735.6425684604231
 20
-20.09899366981655
 30
-0.0000000000000307
 10
-735.3071556002368
 20
-20.12954606969697
 30
-0.0000000000000306
 10
-735.0000000099998
 20
-20.12954606969697
 30
-0.0000000000000306
 10
-734.692844419763
 20
-20.12954606969697
 30
-0.0000000000000306
 10
-734.3574315595767
 20
-20.09899366981655
 30
-0.0000000000000306
 10
-733.7007281670158
 20
-19.96736202836839
 30
-0.0000000000000305
 10
-733.3794361818286
 20
-19.86629003490964
 30
-0.0000000000000305
 10
-733.0641397663976
 20
-19.73477253001264
 30
-0.0000000000000305
 10
-733.032137264862
 20
-19.7210340041821
 30
-0.0000000000000305
 10
-733.0000000099999
 20
-19.70682771270889
 30
-0.0000000000000305
  0
LINE
  5
1D6
330
1F
100
AcDbEntity
  8
PV-CA
100
AcDbLine
 10
-733.0000000099999
 20
-44.500000005
 30
-0.0000000000000305
 11
-733.0000000099999
 21
-38.50000000499997
 31
-0.0000000000000305
210
0.0
220
1.0
230
0.0
  0
LINE
  5
1D7
330
1F
100
AcDbEntity
  8
PV-CA
100
AcDbLine
 10
-737.0000000099999
 20
-38.500000005
 30
-0.0000000000000307
 11
-737.0000000099999
 21
-19.70682771270889
 31
-0.0000000000000307
210
0.0
220
1.0
230
0.0
  0
LINE
  5
1D8
330
1F
100
AcDbEntity
  8
PV-CA
100
AcDbLine
 10
-737.0000000099999
 20
-38.50000000499997
 30
-0.0000000000000307
 11
-737.0000000099999
 21
-44.500000005
 31
-0.0000000000000307
210
0.0
220
1.0
230
0.0
  0
LINE
  5
1D9
330
1F
100
AcDbEntity
  8
PV-CA
100
AcDbLine
 10
-833.00000001
 20
-38.500000005
 30
-0.0000000000000366
 11
-833.00000001
 21
-19.70682771270889
 31
-0.0000000000000366
210
0.0
220
1.0
230
0.0
  0
SPLINE
  5
1DA
330
1F
100
AcDbEntity
  8
PV-CA
100
AcDbSpline
210
0.0
220
0.0
230
1.0
 70
     8
 71
     3
 72
    19
 73
    15
 74
     0
 42
0.0000000001
 43
0.0000000001
 40
-1.946346350516165
 40
-1.946346350516165
 40
-1.946346350516165
 40
-1.946346350516165
 40
-1.8429335414218
 40
-1.8429335414218
 40
-0.9214667707108999
 40
-0.9214667707108999
 40
0.0
 40
0.0
 40
0.0
 40
0.9214667707108663
 40
0.9214667707108663
 40
1.842933541421732
 40
1.842933541421732
 40
1.946346350516166
 40
1.946346350516166
 40
1.946346350516166
 40
1.946346350516166
 10
-837.0000000100001
 20
-19.70682771270889
 30
-0.0000000000000369
 10
-836.9678627551378
 20
-19.72103400418209
 30
-0.0000000000000369
 10
-836.9358602536021
 20
-19.73477253001263
 30
-0.0000000000000369
 10
-836.6205638381712
 20
-19.86629003490962
 30
-0.0000000000000368
 10
-836.2992718529842
 20
-19.96736202836837
 30
-0.0000000000000368
 10
-835.642568460423
 20
-20.09899366981655
 30
-0.0000000000000368
 10
-835.3071556002367
 20
-20.12954606969697
 30
-0.0000000000000368
 10
-835.0000000099999
 20
-20.12954606969697
 30
-0.0000000000000367
 10
-834.6928444197629
 20
-20.12954606969697
 30
-0.0000000000000367
 10
-834.3574315595768
 20
-20.09899366981655
 30
-0.0000000000000367
 10
-833.7007281670157
 20
-19.96736202836839
 30
-0.0000000000000367
 10
-833.3794361818286
 20
-19.86629003490964
 30
-0.0000000000000366
 10
-833.0641397663974
 20
-19.73477253001264
 30
-0.0000000000000366
 10
-833.0321372648619
 20
-19.7210340041821
 30
-0.0000000000000366
 10
-833.00000001
 20
-19.70682771270889
 30
-0.0000000000000366
  0
LINE
  5
1DB
330
1F
100
AcDbEntity
  8
PV-CA
100
AcDbLine
 10
-833.00000001
 20
-44.500000005
 30
-0.0000000000000366
 11
-833.00000001
 21
-38.50000000499997
 31
-0.0000000000000366
210
0.0
220
1.0
230
0.0
  0
LINE
  5
1DC
330
1F
100
AcDbEntity
  8
PV-CA
100
AcDbLine
 10
-837.0000000100001
 20
-38.500000005
 30
-0.0000000000000369
 11
-837.0000000100001
 21
-19.70682771270889
 31
-0.0000000000000369
210
0.0
220
1.0
230
0.0
  0
LINE
  5
1DD
330
1F
100
AcDbEntity
  8
PV-CA
100
AcDbLine
 10
-837.0000000100001
 20
-38.50000000499997
 30
-0.0000000000000369
 11
-837.0000000100001
 21
-44.500000005
 31
-0.0000000000000369
210
0.0
220
1.0
230
0.0
  0
LINE
  5
1DE
330
1F
100
AcDbEntity
  8
PV-CA
100
AcDbLine
 10
-933.00000001
 20
-38.500000005
 30
-0.0000000000000427
 11
-933.00000001
 21
-19.70682771270889
 31
-0.0000000000000427
210
0.0
220
1.0
230
0.0
  0
SPLINE
  5
1DF
330
1F
100
AcDbEntity
  8
PV-CA
100
AcDbSpline
210
0.0
220
0.0
230
1.0
 70
     8
 71
     3
 72
    19
 73
    15
 74
     0
 42
0.0000000001
 43
0.0000000001
 40
-1.946346350516165
 40
-1.946346350516165
 40
-1.946346350516165
 40
-1.946346350516165
 40
-1.8429335414218
 40
-1.8429335414218
 40
-0.9214667707108999
 40
-0.9214667707108999
 40
0.0
 40
0.0
 40
0.0
 40
0.9214667707108663
 40
0.9214667707108663
 40
1.842933541421732
 40
1.842933541421732
 40
1.946346350516166
 40
1.946346350516166
 40
1.946346350516166
 40
1.946346350516166
 10
-937.0000000100001
 20
-19.70682771270889
 30
-0.000000000000043
 10
-936.9678627551378
 20
-19.72103400418209
 30
-0.000000000000043
 10
-936.9358602536022
 20
-19.73477253001263
 30
-0.000000000000043
 10
-936.6205638381712
 20
-19.86629003490962
 30
-0.000000000000043
 10
-936.2992718529842
 20
-19.96736202836837
 30
-0.0000000000000429
 10
-935.642568460423
 20
-20.09899366981655
 30
-0.0000000000000429
 10
-935.3071556002367
 20
-20.12954606969697
 30
-0.0000000000000429
 10
-935.0000000099999
 20
-20.12954606969697
 30
-0.0000000000000429
 10
-934.6928444197629
 20
-20.12954606969697
 30
-0.0000000000000428
 10
-934.3574315595768
 20
-20.09899366981655
 30
-0.0000000000000428
 10
-933.7007281670157
 20
-19.96736202836839
 30
-0.0000000000000428
 10
-933.3794361818286
 20
-19.86629003490964
 30
-0.0000000000000428
 10
-933.0641397663976
 20
-19.73477253001264
 30
-0.0000000000000427
 10
-933.032137264862
 20
-19.7210340041821
 30
-0.0000000000000427
 10
-933.00000001
 20
-19.70682771270889
 30
-0.0000000000000427
  0
LINE
  5
1E0
330
1F
100
AcDbEntity
  8
PV-CA
100
AcDbLine
 10
-933.00000001
 20
-44.500000005
 30
-0.0000000000000427
 11
-933.00000001
 21
-38.50000000499997
 31
-0.0000000000000427
210
0.0
220
1.0
230
0.0
  0
LINE
  5
1E1
330
1F
100
AcDbEntity
  8
PV-CA
100
AcDbLine
 10
-937.0000000100001
 20
-38.500000005
 30
-0.000000000000043
 11
-937.0000000100001
 21
-19.70682771270889
 31
-0.000000000000043
210
0.0
220
1.0
230
0.0
  0
LINE
  5
1E2
330
1F
100
AcDbEntity
  8
PV-CA
100
AcDbLine
 10
-937.0000000100001
 20
-38.50000000499997
 30
-0.000000000000043
 11
-937.0000000100001
 21
-44.500000005
 31
-0.000000000000043
210
0.0
220
1.0
230
0.0
  0
LINE
  5
1E3
330
1F
100
AcDbEntity
  8
PV-CA
100
AcDbLine
 10
-937.0000000100001
 20
-44.500000005
 30
-0.000000000000043
 11
-933.00000001
 21
-44.500000005
 31
-0.0000000000000427
210
0.0
220
1.0
230
0.0
  0
ARC
  5
1E4
330
1F
100
AcDbEntity
  8
PV-CA
100
AcDbCircle
 10
-935.0000000099999
 20
32.24233951694481
 30
-0.0000000000000429
 40
5.0
100
AcDbArc
 50
0.0000000000004071
 51
180.0
  0
LINE
  5
1E5
330
1F
100
AcDbEntity
  8
PV-CA
100
AcDbLine
 10
-837.0000000100001
 20
-44.500000005
 30
-0.0000000000000369
 11
-833.00000001
 21
-44.500000005
 31
-0.0000000000000366
210
0.0
220
1.0
230
0.0
  0
ARC
  5
1E6
330
1F
100
AcDbEntity
  8
PV-CA
100
AcDbCircle
 10
-835.0000000099999
 20
32.24233951694481
 30
-0.0000000000000367
 40
5.0
100
AcDbArc
 50
0.0000000000004071
 51
180.0
  0
LINE
  5
1E7
330
1F
100
AcDbEntity
  8
PV-CA
100
AcDbLine
 10
-737.0000000099999
 20
-44.500000005
 30
-0.0000000000000307
 11
-733.0000000099999
 21
-44.500000005
 31
-0.0000000000000305
210
0.0
220
1.0
230
0.0
  0
ARC
  5
1E8
330
1F
100
AcDbEntity
  8
PV-CA
100
AcDbCircle
 10
-735.0000000099998
 20
32.24233951694481
 30
-0.0000000000000306
 40
5.0
100
AcDbArc
 50
0.0000000000004071
 51
180.0
  0
LINE
  5
1E9
330
1F
100
AcDbEntity
  8
PV-CA
100
AcDbLine
 10
-637.0000000099999
 20
-44.500000005
 30
-0.0000000000000246
 11
-633.0000000099999
 21
-44.500000005
 31
-0.0000000000000244
210
0.0
220
1.0
230
0.0
  0
ARC
  5
1EA
330
1F
100
AcDbEntity
  8
PV-CA
100
AcDbCircle
 10
-635.0000000099998
 20
32.24233951694481
 30
-0.0000000000000245
 40
5.0
100
AcDbArc
 50
0.0000000000004071
 51
180.0
  0
LINE
  5
1EB
330
1F
100
AcDbEntity
  8
PV-CA
100
AcDbLine
 10
-537.0000000099999
 20
-44.500000005
 30
-0.0000000000000185
 11
-533.0000000099999
 21
-44.500000005
 31
-0.0000000000000182
210
0.0
220
1.0
230
0.0
  0
ARC
  5
1EC
330
1F
100
AcDbEntity
  8
PV-CA
100
AcDbCircle
 10
-535.0000000099998
 20
32.24233951694481
 30
-0.0000000000000184
 40
5.0
100
AcDbArc
 50
0.0000000000004071
 51
180.0
  0
LINE
  5
1ED
330
1F
100
AcDbEntity
  8
PV-CA
100
AcDbLine
 10
-437.0000000099999
 20
-44.500000005
 30
-0.0000000000000124
 11
-433.0000000099999
 21
-44.500000005
 31
-0.0000000000000121
210
0.0
220
1.0
230
0.0
  0
ARC
  5
1EE
330
1F
100
AcDbEntity
  8
PV-CA
100
AcDbCircle
 10
-435.0000000099998
 20
32.24233951694481
 30
-0.0000000000000122
 40
5.0
100
AcDbArc
 50
0.0000000000004071
 51
180.0
  0
LINE
  5
1EF
330
1F
100
AcDbEntity
  8
PV-CA
100
AcDbLine
 10
-247.00000001
 20
25.99999999499999
 30
-0.0000000000000007
 11
-430.0000000099999
 21
25.99999999499999
 31
-0.0000000000000119
210
0.0
220
1.0
230
0.0
  0
LINE
  5
1F0
330
1F
100
AcDbEntity
  8
PV-CA
100
AcDbLine
 10
-440.00000001
 20
25.99999999499999
 30
-0.0000000000000126
 11
-530.0000000099999
 21
25.99999999499999
 31
-0.0000000000000181
210
0.0
220
1.0
230
0.0
  0
LINE
  5
1F1
330
1F
100
AcDbEntity
  8
PV-CA
100
AcDbLine
 10
-540.00000001
 20
25.99999999499999
 30
-0.0000000000000187
 11
-630.0000000099999
 21
25.99999999499999
 31
-0.0000000000000242
210
0.0
220
1.0
230
0.0
  0
LINE
  5
1F2
330
1F
100
AcDbEntity
  8
PV-CA
100
AcDbLine
 10
-640.00000001
 20
25.99999999499999
 30
-0.0000000000000248
 11
-730.0000000099999
 21
25.99999999499999
 31
-0.0000000000000303
210
0.0
220
1.0
230
0.0
  0
LINE
  5
1F3
330
1F
100
AcDbEntity
  8
PV-CA
100
AcDbLine
 10
-740.00000001
 20
25.99999999499999
 30
-0.0000000000000309
 11
-830.00000001
 21
25.99999999499999
 31
-0.0000000000000364
210
0.0
220
1.0
230
0.0
  0
LINE
  5
1F4
330
1F
100
AcDbEntity
  8
PV-CA
100
AcDbLine
 10
-840.00000001
 20
25.99999999499999
 30
-0.000000000000037
 11
-930.00000001
 21
25.99999999499999
 31
-0.0000000000000426
210
0.0
220
1.0
230
0.0
  0
LINE
  5
1F5
330
1F
100
AcDbEntity
  8
PV-CA
100
AcDbLine
 10
-940.00000001
 20
25.99999999499999
 30
-0.0000000000000432
 11
-1223.000000009999
 21
25.99999999499999
 31
-0.0000000000000605
210
0.0
220
1.0
230
0.0
  0
LINE
  5
1F6
330
1F
100
AcDbEntity
  8
PV-CA
100
AcDbLine
 10
-247.00000001
 20
-7.000000005000003
 30
-0.0000000000000007
 11
-430.0000000099999
 21
-7.000000005000003
 31
-0.0000000000000119
210
0.0
220
1.0
230
0.0
  0
LINE
  5
1F7
330
1F
100
AcDbEntity
  8
PV-CA
100
AcDbLine
 10
-440.00000001
 20
-7.000000005000003
 30
-0.0000000000000126
 11
-530.0000000099999
 21
-7.000000005000003
 31
-0.0000000000000181
210
0.0
220
1.0
230
0.0
  0
LINE
  5
1F8
330
1F
100
AcDbEntity
  8
PV-CA
100
AcDbLine
 10
-540.00000001
 20
-7.000000005000003
 30
-0.0000000000000187
 11
-630.0000000099999
 21
-7.000000005000003
 31
-0.0000000000000242
210
0.0
220
1.0
230
0.0
  0
LINE
  5
1F9
330
1F
100
AcDbEntity
  8
PV-CA
100
AcDbLine
 10
-640.00000001
 20
-7.000000005000003
 30
-0.0000000000000248
 11
-730.0000000099999
 21
-7.000000005000003
 31
-0.0000000000000303
210
0.0
220
1.0
230
0.0
  0
LINE
  5
1FA
330
1F
100
AcDbEntity
  8
PV-CA
100
AcDbLine
 10
-740.00000001
 20
-7.000000005000003
 30
-0.0000000000000309
 11
-830.00000001
 21
-7.000000005000003
 31
-0.0000000000000364
210
0.0
220
1.0
230
0.0
  0
LINE
  5
1FB
330
1F
100
AcDbEntity
  8
PV-CA
100
AcDbLine
 10
-840.00000001
 20
-7.000000005000003
 30
-0.000000000000037
 11
-930.00000001
 21
-7.000000005000003
 31
-0.0000000000000426
210
0.0
220
1.0
230
0.0
  0
LINE
  5
1FC
330
1F
100
AcDbEntity
  8
PV-CA
100
AcDbLine
 10
-940.00000001
 20
-7.000000005000003
 30
-0.0000000000000432
 11
-1223.000000009999
 21
-7.000000005000003
 31
-0.0000000000000605
210
0.0
220
1.0
230
0.0
  0
LINE
  5
1FD
330
1F
100
AcDbEntity
  8
PV-CA
100
AcDbLine
 10
-1225.00000001
 20
44.499999995
 30
-0.0000000000000606
 11
-1235.00000001
 21
44.499999995
 31
-0.0000000000000612
210
0.0
220
1.0
230
0.0
  0
LINE
  5
1FE
330
1F
100
AcDbEntity
  8
PV-CA
100
AcDbLine
 10
-1225.00000001
 20
-25.500000005
 30
-0.0000000000000606
 11
-1235.00000001
 21
-25.500000005
 31
-0.0000000000000612
210
0.0
220
1.0
230
0.0
  0
LINE
  5
1FF
330
1F
100
AcDbEntity
  8
PV-CA
100
AcDbLine
 10
-245.00000001
 20
-25.500000005
 30
-0.0000000000000006
 11
-235.00000001
 21
-25.500000005
 31
0.0
210
0.0
220
1.0
230
0.0
  0
LINE
  5
200
330
1F
100
AcDbEntity
  8
PV-CA
100
AcDbLine
 10
-245.00000001
 20
44.499999995
 30
-0.0000000000000006
 11
-235.00000001
 21
44.499999995
 31
0.0
210
0.0
220
1.0
230
0.0
  0
LINE
  5
201
330
1F
100
AcDbEntity
  8
PV-CA
100
AcDbLine
 10
-930.00000001
 20
-15.500000005
 30
-0.0000000000000426
 11
-930.00000001
 21
32.24233951694481
 31
-0.0000000000000426
210
0.0
220
1.0
230
0.0
  0
LINE
  5
202
330
1F
100
AcDbEntity
  8
PV-CA
100
AcDbLine
 10
-940.00000001
 20
32.24233951694481
 30
-0.0000000000000432
 11
-940.00000001
 21
-15.500000005
 31
-0.0000000000000432
210
0.0
220
1.0
230
0.0
  0
ARC
  5
203
330
1F
100
AcDbEntity
  8
PV-CA
100
AcDbCircle
 10
-935.0000000099999
 20
-15.500000005
 30
-0.0000000000000429
 40
5.0
100
AcDbArc
 50
179.9999999999978
 51
246.4218215217978
  0
ARC
  5
204
330
1F
100
AcDbEntity
  8
PV-CA
100
AcDbCircle
 10
-935.0000000099999
 20
-15.500000005
 30
-0.0000000000000429
 40
5.0
100
AcDbArc
 50
293.5781784782021
 51
0.0
  0
LINE
  5
205
330
1F
100
AcDbEntity
  8
PV-CA
100
AcDbLine
 10
-830.00000001
 20
-15.500000005
 30
-0.0000000000000364
 11
-830.00000001
 21
32.24233951694481
 31
-0.0000000000000364
210
0.0
220
1.0
230
0.0
  0
LINE
  5
206
330
1F
100
AcDbEntity
  8
PV-CA
100
AcDbLine
 10
-840.00000001
 20
32.24233951694481
 30
-0.000000000000037
 11
-840.00000001
 21
-15.500000005
 31
-0.000000000000037
210
0.0
220
1.0
230
0.0
  0
ARC
  5
207
330
1F
100
AcDbEntity
  8
PV-CA
100
AcDbCircle
 10
-835.0000000099999
 20
-15.500000005
 30
-0.0000000000000367
 40
5.0
100
AcDbArc
 50
179.9999999999978
 51
246.4218215217978
  0
ARC
  5
208
330
1F
100
AcDbEntity
  8
PV-CA
100
AcDbCircle
 10
-835.0000000099999
 20
-15.500000005
 30
-0.0000000000000367
 40
5.0
100
AcDbArc
 50
293.5781784782021
 51
0.0
  0
LINE
  5
209
330
1F
100
AcDbEntity
  8
PV-CA
100
AcDbLine
 10
-730.0000000099998
 20
-15.500000005
 30
-0.0000000000000303
 11
-730.0000000099998
 21
32.24233951694481
 31
-0.0000000000000303
210
0.0
220
1.0
230
0.0
  0
LINE
  5
20A
330
1F
100
AcDbEntity
  8
PV-CA
100
AcDbLine
 10
-740.0000000099999
 20
32.24233951694481
 30
-0.0000000000000309
 11
-740.0000000099999
 21
-15.500000005
 31
-0.0000000000000309
210
0.0
220
1.0
230
0.0
  0
ARC
  5
20B
330
1F
100
AcDbEntity
  8
PV-CA
100
AcDbCircle
 10
-735.0000000099998
 20
-15.500000005
 30
-0.0000000000000306
 40
5.0
100
AcDbArc
 50
179.9999999999978
 51
246.4218215217978
  0
ARC
  5
20C
330
1F
100
AcDbEntity
  8
PV-CA
100
AcDbCircle
 10
-735.0000000099998
 20
-15.500000005
 30
-0.0000000000000306
 40
5.0
100
AcDbArc
 50
293.5781784782021
 51
0.0
  0
LINE
  5
20D
330
1F
100
AcDbEntity
  8
PV-CA
100
AcDbLine
 10
-630.0000000099998
 20
-15.500000005
 30
-0.0000000000000242
 11
-630.0000000099998
 21
32.24233951694481
 31
-0.0000000000000242
210
0.0
220
1.0
230
0.0
  0
LINE
  5
20E
330
1F
100
AcDbEntity
  8
PV-CA
100
AcDbLine
 10
-640.0000000099999
 20
32.24233951694481
 30
-0.0000000000000248
 11
-640.0000000099999
 21
-15.500000005
 31
-0.0000000000000248
210
0.0
220
1.0
230
0.0
  0
ARC
  5
20F
330
1F
100
AcDbEntity
  8
PV-CA
100
AcDbCircle
 10
-635.0000000099998
 20
-15.500000005
 30
-0.0000000000000245
 40
5.0
100
AcDbArc
 50
179.9999999999978
 51
246.4218215217978
  0
ARC
  5
210
330
1F
100
AcDbEntity
  8
PV-CA
100
AcDbCircle
 10
-635.0000000099998
 20
-15.500000005
 30
-0.0000000000000245
 40
5.0
100
AcDbArc
 50
293.5781784782021
 51
0.0
  0
LINE
  5
211
330
1F
100
AcDbEntity
  8
PV-CA
100
AcDbLine
 10
-530.0000000099998
 20
-15.500000005
 30
-0.0000000000000181
 11
-530.0000000099998
 21
32.24233951694481
 31
-0.0000000000000181
210
0.0
220
1.0
230
0.0
  0
LINE
  5
212
330
1F
100
AcDbEntity
  8
PV-CA
100
AcDbLine
 10
-540.0000000099999
 20
32.24233951694481
 30
-0.0000000000000187
 11
-540.0000000099999
 21
-15.500000005
 31
-0.0000000000000187
210
0.0
220
1.0
230
0.0
  0
ARC
  5
213
330
1F
100
AcDbEntity
  8
PV-CA
100
AcDbCircle
 10
-535.0000000099998
 20
-15.500000005
 30
-0.0000000000000184
 40
5.0
100
AcDbArc
 50
179.9999999999978
 51
246.4218215217978
  0
ARC
  5
214
330
1F
100
AcDbEntity
  8
PV-CA
100
AcDbCircle
 10
-535.0000000099998
 20
-15.500000005
 30
-0.0000000000000184
 40
5.0
100
AcDbArc
 50
293.5781784782021
 51
0.0
  0
LINE
  5
215
330
1F
100
AcDbEntity
  8
PV-CA
100
AcDbLine
 10
-430.0000000099998
 20
-15.500000005
 30
-0.0000000000000119
 11
-430.0000000099998
 21
32.24233951694481
 31
-0.0000000000000119
210
0.0
220
1.0
230
0.0
  0
LINE
  5
216
330
1F
100
AcDbEntity
  8
PV-CA
100
AcDbLine
 10
-440.0000000099999
 20
32.24233951694481
 30
-0.0000000000000126
 11
-440.0000000099999
 21
-15.500000005
 31
-0.0000000000000126
210
0.0
220
1.0
230
0.0
  0
ARC
  5
217
330
1F
100
AcDbEntity
  8
PV-CA
100
AcDbCircle
 10
-435.0000000099998
 20
-15.500000005
 30
-0.0000000000000122
 40
5.0
100
AcDbArc
 50
179.9999999999978
 51
246.4218215217978
  0
ARC
  5
218
330
1F
100
AcDbEntity
  8
PV-CA
100
AcDbCircle
 10
-435.0000000099998
 20
-15.500000005
 30
-0.0000000000000122
 40
5.0
100
AcDbArc
 50
293.5781784782021
 51
0.0
  0
ARC
  5
219
330
1F
100
AcDbEntity
  8
PV-CA
100
AcDbCircle
 10
-1225.00000001
 20
-23.500000005
 30
-0.0000000000000606
 40
2.0
100
AcDbArc
 50
270.0
 51
0.0000000000012213
  0
ARC
  5
21A
330
1F
100
AcDbEntity
  8
PV-CA
100
AcDbCircle
 10
-1225.00000001
 20
42.49999999499999
 30
-0.0000000000000606
 40
2.0
100
AcDbArc
 50
359.9999999999979
 51
90.0
  0
ARC
  5
21B
330
1F
100
AcDbEntity
  8
PV-CA
100
AcDbCircle
 10
-245.00000001
 20
42.49999999499999
 30
-0.0000000000000006
 40
2.0
100
AcDbArc
 50
90.0
 51
180.0000000000012
  0
ARC
  5
21C
330
1F
100
AcDbEntity
  8
PV-CA
100
AcDbCircle
 10
-245.00000001
 20
-23.500000005
 30
-0.0000000000000006
 40
2.0
100
AcDbArc
 50
179.9999999999978
 51
270.0
  0
CIRCLE
  5
21E
330
1F
100
AcDbEntity
  8
PV-CA
100
AcDbCircle
 10
0.0
 20
9.5
 30
0.0
 40
33.25
  0
CIRCLE
  5
21F
330
1F
100
AcDbEntity
  8
PV-CA
100
AcDbCircle
 10
0.0
 20
9.5
 30
0.0
 40
35.0
  0
CIRCLE
  5
220
330
1F
100
AcDbEntity
  8
PV-CA
100
AcDbCircle
 10
0.0
 20
9.5
 30
0.0
 40
16.8
  0
CIRCLE
  5
221
330
1F
100
AcDbEntity
  8
PV-CA
100
AcDbCircle
 10
0.0
 20
9.5
 30
0.0
 40
32.25
  0
CIRCLE
  5
222
330
1F
100
AcDbEntity
  8
PV-CA
100
AcDbCircle
 10
0.0
 20
9.5
 30
0.0
 40
16.5
  0
LINE
  5
223
330
1F
100
AcDbEntity
  8
PV-CA
100
AcDbLine
 10
4.7
 20
-38.5
 30
0.0000000000000006
 11
4.7
 21
-25.18299295043609
 31
0.0000000000000006
210
0.0
220
1.0
230
0.0
  0
ARC
  5
224
330
1F
100
AcDbEntity
  8
PV-CA
100
AcDbCircle
 10
-1.299999999999998
 20
-38.5
 30
-0.0000000000000002
 40
6.0
100
AcDbArc
 50
180.0
 51
0.0000000000004071
  0
LINE
  5
225
330
1F
100
AcDbEntity
  8
PV-CA
100
AcDbLine
 10
-7.299999999999999
 20
-38.5
 30
-0.0000000000000009
 11
-7.300000000000001
 21
-30.5
 31
-0.0000000000000009
210
0.0
220
1.0
230
0.0
  0
ARC
  5
226
330
1F
100
AcDbEntity
  8
PV-CA
100
AcDbCircle
 10
-6.299999999999999
 20
-30.5
 30
-0.0000000000000008
 40
1.0
100
AcDbArc
 50
89.99999999999978
 51
180.0
  0
LINE
  5
227
330
1F
100
AcDbEntity
  8
PV-CA
100
AcDbLine
 10
-6.299999999999999
 20
-29.5
 30
-0.0000000000000008
 11
-5.728095630415701
 21
-29.5
 31
-0.0000000000000007
210
0.0
220
1.0
230
0.0
  0
ARC
  5
228
330
1F
100
AcDbEntity
  8
PV-CA
100
AcDbCircle
 10
-8.2698893126973
 20
-33.80572698585423
 30
-0.000000000000001
 40
4.999999999999999
100
AcDbArc
 50
324.1818597325737
 51
59.44543228519068
  0
ARC
  5
229
330
1F
100
AcDbEntity
  8
PV-CA
100
AcDbCircle
 10
-1.788004252157839
 20
-38.49454750197898
 30
-0.0000000000000002
 40
3.0
100
AcDbArc
 50
144.0143379942916
 51
28.97259099486256
  0
ARC
  5
22A
330
1F
100
AcDbEntity
  8
PV-CA
100
AcDbCircle
 10
5.2
 20
-34.6
 30
0.0000000000000006
 40
5.0
100
AcDbArc
 50
180.0
 51
209.2272521580105
  0
LINE
  5
22B
330
1F
100
AcDbEntity
  8
PV-CA
100
AcDbLine
 10
0.2000000000000002
 20
-34.6
 30
0.0
 11
0.2000000000000001
 21
-25.49942856676377
 31
0.0
210
0.0
220
1.0
230
0.0
  0
LINE
  5
22D
330
1F
100
AcDbEntity
  8
PV-CA
100
AcDbLine
 10
235.00000001
 20
9.499999994999996
 30
0.0
 11
235.00000001
 21
44.499999995
 31
0.0
210
0.0
220
1.0
230
0.0
  0
LINE
  5
22E
330
1F
100
AcDbEntity
  8
PV-CA
100
AcDbLine
 10
235.00000001
 20
-25.500000005
 30
0.0
 11
235.00000001
 21
9.499999995000484
 31
0.0
210
0.0
220
1.0
230
0.0
  0
LINE
  5
22F
330
1F
100
AcDbEntity
  8
PV-CA
100
AcDbLine
 10
247.00000001
 20
9.499999994999996
 30
0.0000000000000022
 11
247.00000001
 21
42.49999999499999
 31
0.0000000000000022
210
0.0
220
1.0
230
0.0
  0
LINE
  5
230
330
1F
100
AcDbEntity
  8
PV-CA
100
AcDbLine
 10
247.00000001
 20
-23.500000005
 30
0.0000000000000022
 11
247.00000001
 21
9.499999995000456
 31
0.0000000000000022
210
0.0
220
1.0
230
0.0
  0
LINE
  5
231
330
1F
100
AcDbEntity
  8
PV-CA
100
AcDbLine
 10
1235.00000001
 20
44.499999995
 30
0.0000000000001837
 11
1235.00000001
 21
-25.500000005
 31
0.0000000000001837
210
0.0
220
1.0
230
0.0
  0
LINE
  5
232
330
1F
100
AcDbEntity
  8
PV-CA
100
AcDbLine
 10
1223.000000009999
 20
42.49999999499999
 30
0.0000000000001815
 11
1223.000000009999
 21
-23.500000005
 31
0.0000000000001815
210
0.0
220
1.0
230
0.0
  0
LINE
  5
233
330
1F
100
AcDbEntity
  8
PV-CA
100
AcDbLine
 10
433.0000000099999
 20
-38.500000005
 30
0.0000000000000364
 11
433.0000000099999
 21
-44.500000005
 31
0.0000000000000364
210
0.0
220
1.0
230
0.0
  0
LINE
  5
234
330
1F
100
AcDbEntity
  8
PV-CA
100
AcDbLine
 10
433.0000000099999
 20
-30.500000005
 30
0.0000000000000364
 11
433.0000000099999
 21
-38.500000005
 31
0.0000000000000364
210
0.0
220
1.0
230
0.0
  0
LINE
  5
235
330
1F
100
AcDbEntity
  8
PV-CA
100
AcDbLine
 10
433.0000000099999
 20
-29.500000005
 30
0.0000000000000364
 11
433.0000000099999
 21
-30.500000005
 31
0.0000000000000364
210
0.0
220
1.0
230
0.0
  0
LINE
  5
236
330
1F
100
AcDbEntity
  8
PV-CA
100
AcDbLine
 10
437.0000000099999
 20
-29.500000005
 30
0.0000000000000371
 11
433.0000000099999
 21
-29.500000005
 31
0.0000000000000364
210
0.0
220
1.0
230
0.0
  0
LINE
  5
237
330
1F
100
AcDbEntity
  8
PV-CA
100
AcDbLine
 10
433.0000000099999
 20
-20.08257569995584
 30
0.0000000000000364
 11
433.0000000099999
 21
-29.500000005
 31
0.0000000000000364
210
0.0
220
1.0
230
0.0
  0
LINE
  5
238
330
1F
100
AcDbEntity
  8
PV-CA
100
AcDbLine
 10
437.0000000099999
 20
-44.500000005
 30
0.0000000000000371
 11
437.0000000099999
 21
-38.500000005
 31
0.0000000000000371
210
0.0
220
1.0
230
0.0
  0
LINE
  5
239
330
1F
100
AcDbEntity
  8
PV-CA
100
AcDbLine
 10
437.0000000099999
 20
-38.500000005
 30
0.0000000000000371
 11
437.0000000099999
 21
-30.500000005
 31
0.0000000000000371
210
0.0
220
1.0
230
0.0
  0
LINE
  5
23A
330
1F
100
AcDbEntity
  8
PV-CA
100
AcDbLine
 10
437.0000000099999
 20
-30.500000005
 30
0.0000000000000371
 11
437.0000000099999
 21
-29.500000005
 31
0.0000000000000371
210
0.0
220
1.0
230
0.0
  0
LINE
  5
23B
330
1F
100
AcDbEntity
  8
PV-CA
100
AcDbLine
 10
437.0000000099999
 20
-29.500000005
 30
0.0000000000000371
 11
437.0000000099999
 21
-20.08257569995584
 31
0.0000000000000371
210
0.0
220
1.0
230
0.0
  0
LINE
  5
23C
330
1F
100
AcDbEntity
  8
PV-CA
100
AcDbLine
 10
533.0000000099999
 20
-38.500000005
 30
0.0000000000000547
 11
533.0000000099999
 21
-44.500000005
 31
0.0000000000000547
210
0.0
220
1.0
230
0.0
  0
LINE
  5
23D
330
1F
100
AcDbEntity
  8
PV-CA
100
AcDbLine
 10
533.0000000099999
 20
-30.500000005
 30
0.0000000000000547
 11
533.0000000099999
 21
-38.500000005
 31
0.0000000000000547
210
0.0
220
1.0
230
0.0
  0
LINE
  5
23E
330
1F
100
AcDbEntity
  8
PV-CA
100
AcDbLine
 10
533.0000000099999
 20
-29.500000005
 30
0.0000000000000547
 11
533.0000000099999
 21
-30.500000005
 31
0.0000000000000547
210
0.0
220
1.0
230
0.0
  0
LINE
  5
23F
330
1F
100
AcDbEntity
  8
PV-CA
100
AcDbLine
 10
537.0000000099999
 20
-29.500000005
 30
0.0000000000000555
 11
533.0000000099999
 21
-29.500000005
 31
0.0000000000000547
210
0.0
220
1.0
230
0.0
  0
LINE
  5
240
330
1F
100
AcDbEntity
  8
PV-CA
100
AcDbLine
 10
533.0000000099999
 20
-20.08257569995584
 30
0.0000000000000547
 11
533.0000000099999
 21
-29.500000005
 31
0.0000000000000547
210
0.0
220
1.0
230
0.0
  0
LINE
  5
241
330
1F
100
AcDbEntity
  8
PV-CA
100
AcDbLine
 10
537.0000000099999
 20
-44.500000005
 30
0.0000000000000555
 11
537.0000000099999
 21
-38.500000005
 31
0.0000000000000555
210
0.0
220
1.0
230
0.0
  0
LINE
  5
242
330
1F
100
AcDbEntity
  8
PV-CA
100
AcDbLine
 10
537.0000000099999
 20
-38.500000005
 30
0.0000000000000555
 11
537.0000000099999
 21
-30.500000005
 31
0.0000000000000555
210
0.0
220
1.0
230
0.0
  0
LINE
  5
243
330
1F
100
AcDbEntity
  8
PV-CA
100
AcDbLine
 10
537.0000000099999
 20
-30.500000005
 30
0.0000000000000555
 11
537.0000000099999
 21
-29.500000005
 31
0.0000000000000555
210
0.0
220
1.0
230
0.0
  0
LINE
  5
244
330
1F
100
AcDbEntity
  8
PV-CA
100
AcDbLine
 10
537.0000000099999
 20
-29.500000005
 30
0.0000000000000555
 11
537.0000000099999
 21
-20.08257569995584
 31
0.0000000000000555
210
0.0
220
1.0
230
0.0
  0
LINE
  5
245
330
1F
100
AcDbEntity
  8
PV-CA
100
AcDbLine
 10
633.0000000099999
 20
-38.500000005
 30
0.0000000000000731
 11
633.0000000099999
 21
-44.500000005
 31
0.0000000000000731
210
0.0
220
1.0
230
0.0
  0
LINE
  5
246
330
1F
100
AcDbEntity
  8
PV-CA
100
AcDbLine
 10
633.0000000099999
 20
-30.500000005
 30
0.0000000000000731
 11
633.0000000099999
 21
-38.500000005
 31
0.0000000000000731
210
0.0
220
1.0
230
0.0
  0
LINE
  5
247
330
1F
100
AcDbEntity
  8
PV-CA
100
AcDbLine
 10
633.0000000099999
 20
-29.500000005
 30
0.0000000000000731
 11
633.0000000099999
 21
-30.500000005
 31
0.0000000000000731
210
0.0
220
1.0
230
0.0
  0
LINE
  5
248
330
1F
100
AcDbEntity
  8
PV-CA
100
AcDbLine
 10
637.0000000099999
 20
-29.500000005
 30
0.0000000000000738
 11
633.0000000099999
 21
-29.500000005
 31
0.0000000000000731
210
0.0
220
1.0
230
0.0
  0
LINE
  5
249
330
1F
100
AcDbEntity
  8
PV-CA
100
AcDbLine
 10
633.0000000099999
 20
-20.08257569995584
 30
0.0000000000000731
 11
633.0000000099999
 21
-29.500000005
 31
0.0000000000000731
210
0.0
220
1.0
230
0.0
  0
LINE
  5
24A
330
1F
100
AcDbEntity
  8
PV-CA
100
AcDbLine
 10
637.0000000099999
 20
-44.500000005
 30
0.0000000000000738
 11
637.0000000099999
 21
-38.500000005
 31
0.0000000000000738
210
0.0
220
1.0
230
0.0
  0
LINE
  5
24B
330
1F
100
AcDbEntity
  8
PV-CA
100
AcDbLine
 10
637.0000000099999
 20
-38.500000005
 30
0.0000000000000738
 11
637.0000000099999
 21
-30.500000005
 31
0.0000000000000738
210
0.0
220
1.0
230
0.0
  0
LINE
  5
24C
330
1F
100
AcDbEntity
  8
PV-CA
100
AcDbLine
 10
637.0000000099999
 20
-30.500000005
 30
0.0000000000000738
 11
637.0000000099999
 21
-29.500000005
 31
0.0000000000000738
210
0.0
220
1.0
230
0.0
  0
LINE
  5
24D
330
1F
100
AcDbEntity
  8
PV-CA
100
AcDbLine
 10
637.0000000099999
 20
-29.500000005
 30
0.0000000000000738
 11
637.0000000099999
 21
-20.08257569995584
 31
0.0000000000000738
210
0.0
220
1.0
230
0.0
  0
LINE
  5
24E
330
1F
100
AcDbEntity
  8
PV-CA
100
AcDbLine
 10
733.0000000099999
 20
-38.500000005
 30
0.0000000000000915
 11
733.0000000099999
 21
-44.500000005
 31
0.0000000000000915
210
0.0
220
1.0
230
0.0
  0
LINE
  5
24F
330
1F
100
AcDbEntity
  8
PV-CA
100
AcDbLine
 10
733.0000000099999
 20
-30.500000005
 30
0.0000000000000915
 11
733.0000000099999
 21
-38.500000005
 31
0.0000000000000915
210
0.0
220
1.0
230
0.0
  0
LINE
  5
250
330
1F
100
AcDbEntity
  8
PV-CA
100
AcDbLine
 10
733.0000000099999
 20
-29.500000005
 30
0.0000000000000915
 11
733.0000000099999
 21
-30.500000005
 31
0.0000000000000915
210
0.0
220
1.0
230
0.0
  0
LINE
  5
251
330
1F
100
AcDbEntity
  8
PV-CA
100
AcDbLine
 10
737.0000000099999
 20
-29.500000005
 30
0.0000000000000922
 11
733.0000000099999
 21
-29.500000005
 31
0.0000000000000915
210
0.0
220
1.0
230
0.0
  0
LINE
  5
252
330
1F
100
AcDbEntity
  8
PV-CA
100
AcDbLine
 10
733.0000000099999
 20
-20.08257569995584
 30
0.0000000000000915
 11
733.0000000099999
 21
-29.500000005
 31
0.0000000000000915
210
0.0
220
1.0
230
0.0
  0
LINE
  5
253
330
1F
100
AcDbEntity
  8
PV-CA
100
AcDbLine
 10
737.0000000099999
 20
-44.500000005
 30
0.0000000000000922
 11
737.0000000099999
 21
-38.500000005
 31
0.0000000000000922
210
0.0
220
1.0
230
0.0
  0
LINE
  5
254
330
1F
100
AcDbEntity
  8
PV-CA
100
AcDbLine
 10
737.0000000099999
 20
-38.500000005
 30
0.0000000000000922
 11
737.0000000099999
 21
-30.500000005
 31
0.0000000000000922
210
0.0
220
1.0
230
0.0
  0
LINE
  5
255
330
1F
100
AcDbEntity
  8
PV-CA
100
AcDbLine
 10
737.0000000099999
 20
-30.500000005
 30
0.0000000000000922
 11
737.0000000099999
 21
-29.500000005
 31
0.0000000000000922
210
0.0
220
1.0
230
0.0
  0
LINE
  5
256
330
1F
100
AcDbEntity
  8
PV-CA
100
AcDbLine
 10
737.0000000099999
 20
-29.500000005
 30
0.0000000000000922
 11
737.0000000099999
 21
-20.08257569995584
 31
0.0000000000000922
210
0.0
220
1.0
230
0.0
  0
LINE
  5
257
330
1F
100
AcDbEntity
  8
PV-CA
100
AcDbLine
 10
833.00000001
 20
-38.500000005
 30
0.0000000000001098
 11
833.00000001
 21
-44.500000005
 31
0.0000000000001098
210
0.0
220
1.0
230
0.0
  0
LINE
  5
258
330
1F
100
AcDbEntity
  8
PV-CA
100
AcDbLine
 10
833.00000001
 20
-30.500000005
 30
0.0000000000001098
 11
833.00000001
 21
-38.500000005
 31
0.0000000000001098
210
0.0
220
1.0
230
0.0
  0
LINE
  5
259
330
1F
100
AcDbEntity
  8
PV-CA
100
AcDbLine
 10
833.00000001
 20
-29.500000005
 30
0.0000000000001098
 11
833.00000001
 21
-30.500000005
 31
0.0000000000001098
210
0.0
220
1.0
230
0.0
  0
LINE
  5
25A
330
1F
100
AcDbEntity
  8
PV-CA
100
AcDbLine
 10
837.0000000100001
 20
-29.500000005
 30
0.0000000000001106
 11
833.00000001
 21
-29.500000005
 31
0.0000000000001098
210
0.0
220
1.0
230
0.0
  0
LINE
  5
25B
330
1F
100
AcDbEntity
  8
PV-CA
100
AcDbLine
 10
833.00000001
 20
-20.08257569995584
 30
0.0000000000001098
 11
833.00000001
 21
-29.500000005
 31
0.0000000000001098
210
0.0
220
1.0
230
0.0
  0
LINE
  5
25C
330
1F
100
AcDbEntity
  8
PV-CA
100
AcDbLine
 10
837.0000000100001
 20
-44.500000005
 30
0.0000000000001106
 11
837.0000000100001
 21
-38.500000005
 31
0.0000000000001106
210
0.0
220
1.0
230
0.0
  0
LINE
  5
25D
330
1F
100
AcDbEntity
  8
PV-CA
100
AcDbLine
 10
837.0000000100001
 20
-38.500000005
 30
0.0000000000001106
 11
837.0000000100001
 21
-30.500000005
 31
0.0000000000001106
210
0.0
220
1.0
230
0.0
  0
LINE
  5
25E
330
1F
100
AcDbEntity
  8
PV-CA
100
AcDbLine
 10
837.0000000100001
 20
-30.500000005
 30
0.0000000000001106
 11
837.0000000100001
 21
-29.500000005
 31
0.0000000000001106
210
0.0
220
1.0
230
0.0
  0
LINE
  5
25F
330
1F
100
AcDbEntity
  8
PV-CA
100
AcDbLine
 10
837.0000000100001
 20
-29.500000005
 30
0.0000000000001106
 11
837.0000000100001
 21
-20.08257569995584
 31
0.0000000000001106
210
0.0
220
1.0
230
0.0
  0
LINE
  5
260
330
1F
100
AcDbEntity
  8
PV-CA
100
AcDbLine
 10
933.00000001
 20
-38.500000005
 30
0.0000000000001282
 11
933.00000001
 21
-44.500000005
 31
0.0000000000001282
210
0.0
220
1.0
230
0.0
  0
LINE
  5
261
330
1F
100
AcDbEntity
  8
PV-CA
100
AcDbLine
 10
933.00000001
 20
-30.500000005
 30
0.0000000000001282
 11
933.00000001
 21
-38.500000005
 31
0.0000000000001282
210
0.0
220
1.0
230
0.0
  0
LINE
  5
262
330
1F
100
AcDbEntity
  8
PV-CA
100
AcDbLine
 10
933.00000001
 20
-29.500000005
 30
0.0000000000001282
 11
933.00000001
 21
-30.500000005
 31
0.0000000000001282
210
0.0
220
1.0
230
0.0
  0
LINE
  5
263
330
1F
100
AcDbEntity
  8
PV-CA
100
AcDbLine
 10
937.0000000100001
 20
-29.500000005
 30
0.000000000000129
 11
933.00000001
 21
-29.500000005
 31
0.0000000000001282
210
0.0
220
1.0
230
0.0
  0
LINE
  5
264
330
1F
100
AcDbEntity
  8
PV-CA
100
AcDbLine
 10
933.00000001
 20
-20.08257569995584
 30
0.0000000000001282
 11
933.00000001
 21
-29.500000005
 31
0.0000000000001282
210
0.0
220
1.0
230
0.0
  0
LINE
  5
265
330
1F
100
AcDbEntity
  8
PV-CA
100
AcDbLine
 10
937.0000000100001
 20
-44.500000005
 30
0.000000000000129
 11
937.0000000100001
 21
-38.500000005
 31
0.000000000000129
210
0.0
220
1.0
230
0.0
  0
LINE
  5
266
330
1F
100
AcDbEntity
  8
PV-CA
100
AcDbLine
 10
937.0000000100001
 20
-38.500000005
 30
0.000000000000129
 11
937.0000000100001
 21
-30.500000005
 31
0.000000000000129
210
0.0
220
1.0
230
0.0
  0
LINE
  5
267
330
1F
100
AcDbEntity
  8
PV-CA
100
AcDbLine
 10
937.0000000100001
 20
-30.500000005
 30
0.000000000000129
 11
937.0000000100001
 21
-29.500000005
 31
0.000000000000129
210
0.0
220
1.0
230
0.0
  0
LINE
  5
268
330
1F
100
AcDbEntity
  8
PV-CA
100
AcDbLine
 10
937.0000000100001
 20
-29.500000005
 30
0.000000000000129
 11
937.0000000100001
 21
-20.08257569995584
 31
0.000000000000129
210
0.0
220
1.0
230
0.0
  0
LINE
  5
269
330
1F
100
AcDbEntity
  8
PV-CA
100
AcDbLine
 10
937.0000000100001
 20
-44.500000005
 30
0.000000000000129
 11
933.00000001
 21
-44.500000005
 31
0.0000000000001282
210
0.0
220
1.0
230
0.0
  0
ARC
  5
26A
330
1F
100
AcDbEntity
  8
PV-CA
100
AcDbCircle
 10
935.0000000099999
 20
23.64686276775725
 30
0.0000000000001286
 40
5.0
100
AcDbArc
 50
0.0000000000004071
 51
180.0
  0
ARC
  5
26B
330
1F
100
AcDbEntity
  8
PV-CA
100
AcDbCircle
 10
935.0000000099999
 20
32.24233951694481
 30
0.0000000000001286
 40
5.0
100
AcDbArc
 50
0.0000000000004071
 51
180.0
  0
LINE
  5
26C
330
1F
100
AcDbEntity
  8
PV-CA
100
AcDbLine
 10
837.0000000100001
 20
-44.500000005
 30
0.0000000000001106
 11
833.00000001
 21
-44.500000005
 31
0.0000000000001098
210
0.0
220
1.0
230
0.0
  0
ARC
  5
26D
330
1F
100
AcDbEntity
  8
PV-CA
100
AcDbCircle
 10
835.0000000099999
 20
23.64686276775725
 30
0.0000000000001102
 40
5.0
100
AcDbArc
 50
0.0000000000004071
 51
180.0
  0
ARC
  5
26E
330
1F
100
AcDbEntity
  8
PV-CA
100
AcDbCircle
 10
835.0000000099999
 20
32.24233951694481
 30
0.0000000000001102
 40
5.0
100
AcDbArc
 50
0.0000000000004071
 51
180.0
  0
LINE
  5
26F
330
1F
100
AcDbEntity
  8
PV-CA
100
AcDbLine
 10
737.0000000099999
 20
-44.500000005
 30
0.0000000000000922
 11
733.0000000099999
 21
-44.500000005
 31
0.0000000000000915
210
0.0
220
1.0
230
0.0
  0
ARC
  5
270
330
1F
100
AcDbEntity
  8
PV-CA
100
AcDbCircle
 10
735.0000000099998
 20
23.64686276775725
 30
0.0000000000000918
 40
5.0
100
AcDbArc
 50
0.0000000000004071
 51
180.0
  0
ARC
  5
271
330
1F
100
AcDbEntity
  8
PV-CA
100
AcDbCircle
 10
735.0000000099998
 20
32.24233951694481
 30
0.0000000000000918
 40
5.0
100
AcDbArc
 50
0.0000000000004071
 51
180.0
  0
LINE
  5
272
330
1F
100
AcDbEntity
  8
PV-CA
100
AcDbLine
 10
637.0000000099999
 20
-44.500000005
 30
0.0000000000000738
 11
633.0000000099999
 21
-44.500000005
 31
0.0000000000000731
210
0.0
220
1.0
230
0.0
  0
ARC
  5
273
330
1F
100
AcDbEntity
  8
PV-CA
100
AcDbCircle
 10
635.0000000099998
 20
23.64686276775725
 30
0.0000000000000735
 40
5.0
100
AcDbArc
 50
0.0000000000004071
 51
180.0
  0
ARC
  5
274
330
1F
100
AcDbEntity
  8
PV-CA
100
AcDbCircle
 10
635.0000000099998
 20
32.24233951694481
 30
0.0000000000000735
 40
5.0
100
AcDbArc
 50
0.0000000000004071
 51
180.0
  0
LINE
  5
275
330
1F
100
AcDbEntity
  8
PV-CA
100
AcDbLine
 10
537.0000000099999
 20
-44.500000005
 30
0.0000000000000555
 11
533.0000000099999
 21
-44.500000005
 31
0.0000000000000547
210
0.0
220
1.0
230
0.0
  0
ARC
  5
276
330
1F
100
AcDbEntity
  8
PV-CA
100
AcDbCircle
 10
535.0000000099998
 20
23.64686276775725
 30
0.0000000000000551
 40
5.0
100
AcDbArc
 50
0.0000000000004071
 51
180.0
  0
ARC
  5
277
330
1F
100
AcDbEntity
  8
PV-CA
100
AcDbCircle
 10
535.0000000099998
 20
32.24233951694481
 30
0.0000000000000551
 40
5.0
100
AcDbArc
 50
0.0000000000004071
 51
180.0
  0
LINE
  5
278
330
1F
100
AcDbEntity
  8
PV-CA
100
AcDbLine
 10
437.0000000099999
 20
-44.500000005
 30
0.0000000000000371
 11
433.0000000099999
 21
-44.500000005
 31
0.0000000000000364
210
0.0
220
1.0
230
0.0
  0
ARC
  5
279
330
1F
100
AcDbEntity
  8
PV-CA
100
AcDbCircle
 10
435.0000000099998
 20
23.64686276775725
 30
0.0000000000000367
 40
5.0
100
AcDbArc
 50
0.0000000000004071
 51
180.0
  0
ARC
  5
27A
330
1F
100
AcDbEntity
  8
PV-CA
100
AcDbCircle
 10
435.0000000099998
 20
32.24233951694481
 30
0.0000000000000367
 40
5.0
100
AcDbArc
 50
0.0000000000004071
 51
180.0
  0
LINE
  5
27B
330
1F
100
AcDbEntity
  8
PV-CA
100
AcDbLine
 10
247.00000001
 20
-7.000000005000003
 30
0.0000000000000022
 11
430.0000000099999
 21
-7.000000005000003
 31
0.0000000000000358
210
0.0
220
1.0
230
0.0
  0
LINE
  5
27C
330
1F
100
AcDbEntity
  8
PV-CA
100
AcDbLine
 10
440.00000001
 20
-7.000000005000003
 30
0.0000000000000377
 11
530.0000000099999
 21
-7.000000005000003
 31
0.0000000000000542
210
0.0
220
1.0
230
0.0
  0
LINE
  5
27D
330
1F
100
AcDbEntity
  8
PV-CA
100
AcDbLine
 10
540.00000001
 20
-7.000000005000003
 30
0.000000000000056
 11
630.0000000099999
 21
-7.000000005000003
 31
0.0000000000000726
210
0.0
220
1.0
230
0.0
  0
LINE
  5
27E
330
1F
100
AcDbEntity
  8
PV-CA
100
AcDbLine
 10
640.00000001
 20
-7.000000005000003
 30
0.0000000000000744
 11
730.0000000099999
 21
-7.000000005000003
 31
0.0000000000000909
210
0.0
220
1.0
230
0.0
  0
LINE
  5
27F
330
1F
100
AcDbEntity
  8
PV-CA
100
AcDbLine
 10
740.00000001
 20
-7.000000005000003
 30
0.0000000000000928
 11
830.00000001
 21
-7.000000005000003
 31
0.0000000000001093
210
0.0
220
1.0
230
0.0
  0
LINE
  5
280
330
1F
100
AcDbEntity
  8
PV-CA
100
AcDbLine
 10
840.00000001
 20
-7.000000005000003
 30
0.0000000000001111
 11
930.00000001
 21
-7.000000005000003
 31
0.0000000000001277
210
0.0
220
1.0
230
0.0
  0
LINE
  5
281
330
1F
100
AcDbEntity
  8
PV-CA
100
AcDbLine
 10
940.00000001
 20
-7.000000005000003
 30
0.0000000000001295
 11
1223.000000009999
 21
-7.000000005000003
 31
0.0000000000001815
210
0.0
220
1.0
230
0.0
  0
LINE
  5
282
330
1F
100
AcDbEntity
  8
PV-CA
100
AcDbLine
 10
247.00000001
 20
25.99999999499999
 30
0.0000000000000022
 11
430.5883398701246
 21
25.99999999499999
 31
0.0000000000000359
210
0.0
220
1.0
230
0.0
  0
LINE
  5
283
330
1F
100
AcDbEntity
  8
PV-CA
100
AcDbLine
 10
439.411660149875
 20
25.99999999499999
 30
0.0000000000000375
 11
530.5883398701246
 21
25.99999999499999
 31
0.0000000000000543
210
0.0
220
1.0
230
0.0
  0
LINE
  5
284
330
1F
100
AcDbEntity
  8
PV-CA
100
AcDbLine
 10
539.4116601498751
 20
25.99999999499999
 30
0.0000000000000559
 11
630.5883398701246
 21
25.99999999499999
 31
0.0000000000000727
210
0.0
220
1.0
230
0.0
  0
LINE
  5
285
330
1F
100
AcDbEntity
  8
PV-CA
100
AcDbLine
 10
639.4116601498751
 20
25.99999999499999
 30
0.0000000000000743
 11
730.5883398701246
 21
25.99999999499999
 31
0.000000000000091
210
0.0
220
1.0
230
0.0
  0
LINE
  5
286
330
1F
100
AcDbEntity
  8
PV-CA
100
AcDbLine
 10
739.4116601498751
 20
25.99999999499999
 30
0.0000000000000927
 11
830.5883398701247
 21
25.99999999499999
 31
0.0000000000001094
210
0.0
220
1.0
230
0.0
  0
LINE
  5
287
330
1F
100
AcDbEntity
  8
PV-CA
100
AcDbLine
 10
839.4116601498753
 20
25.99999999499999
 30
0.000000000000111
 11
930.5883398701249
 21
25.99999999499999
 31
0.0000000000001278
210
0.0
220
1.0
230
0.0
  0
LINE
  5
288
330
1F
100
AcDbEntity
  8
PV-CA
100
AcDbLine
 10
939.4116601498751
 20
25.99999999499999
 30
0.0000000000001294
 11
1223.000000009999
 21
25.99999999499999
 31
0.0000000000001815
210
0.0
220
1.0
230
0.0
  0
LINE
  5
289
330
1F
100
AcDbEntity
  8
PV-CA
100
AcDbLine
 10
1225.00000001
 20
-25.500000005
 30
0.0000000000001819
 11
1235.00000001
 21
-25.500000005
 31
0.0000000000001837
210
0.0
220
1.0
230
0.0
  0
LINE
  5
28A
330
1F
100
AcDbEntity
  8
PV-CA
100
AcDbLine
 10
1225.00000001
 20
44.499999995
 30
0.0000000000001819
 11
1235.00000001
 21
44.499999995
 31
0.0000000000001837
210
0.0
220
1.0
230
0.0
  0
LINE
  5
28B
330
1F
100
AcDbEntity
  8
PV-CA
100
AcDbLine
 10
245.00000001
 20
44.499999995
 30
0.0000000000000018
 11
235.00000001
 21
44.499999995
 31
0.0
210
0.0
220
1.0
230
0.0
  0
LINE
  5
28C
330
1F
100
AcDbEntity
  8
PV-CA
100
AcDbLine
 10
245.00000001
 20
-25.500000005
 30
0.0000000000000018
 11
235.00000001
 21
-25.500000005
 31
0.0
210
0.0
220
1.0
230
0.0
  0
LINE
  5
28D
330
1F
100
AcDbEntity
  8
PV-CA
100
AcDbLine
 10
930.00000001
 20
32.24233951694481
 30
0.0000000000001277
 11
930.00000001
 21
25.99999999499998
 31
0.0000000000001277
210
0.0
220
1.0
230
0.0
  0
LINE
  5
28E
330
1F
100
AcDbEntity
  8
PV-CA
100
AcDbLine
 10
930.00000001
 20
23.64686276775725
 30
0.0000000000001277
 11
930.00000001
 21
-15.500000005
 31
0.0000000000001277
210
0.0
220
1.0
230
0.0
  0
LINE
  5
28F
330
1F
100
AcDbEntity
  8
PV-CA
100
AcDbLine
 10
940.00000001
 20
-15.500000005
 30
0.0000000000001295
 11
940.00000001
 21
23.64686276775725
 31
0.0000000000001295
210
0.0
220
1.0
230
0.0
  0
LINE
  5
290
330
1F
100
AcDbEntity
  8
PV-CA
100
AcDbLine
 10
940.00000001
 20
25.99999999499999
 30
0.0000000000001295
 11
940.00000001
 21
32.24233951694481
 31
0.0000000000001295
210
0.0
220
1.0
230
0.0
  0
ARC
  5
291
330
1F
100
AcDbEntity
  8
PV-CA
100
AcDbCircle
 10
935.0000000099999
 20
-15.500000005
 30
0.0000000000001286
 40
5.0
100
AcDbArc
 50
180.0
 51
0.0000000000012213
  0
LINE
  5
292
330
1F
100
AcDbEntity
  8
PV-CA
100
AcDbLine
 10
830.00000001
 20
32.24233951694481
 30
0.0000000000001093
 11
830.00000001
 21
25.99999999499998
 31
0.0000000000001093
210
0.0
220
1.0
230
0.0
  0
LINE
  5
293
330
1F
100
AcDbEntity
  8
PV-CA
100
AcDbLine
 10
830.00000001
 20
23.64686276775725
 30
0.0000000000001093
 11
830.00000001
 21
-15.500000005
 31
0.0000000000001093
210
0.0
220
1.0
230
0.0
  0
LINE
  5
294
330
1F
100
AcDbEntity
  8
PV-CA
100
AcDbLine
 10
840.00000001
 20
-15.500000005
 30
0.0000000000001111
 11
840.00000001
 21
23.64686276775725
 31
0.0000000000001111
210
0.0
220
1.0
230
0.0
  0
LINE
  5
295
330
1F
100
AcDbEntity
  8
PV-CA
100
AcDbLine
 10
840.00000001
 20
25.99999999499999
 30
0.0000000000001111
 11
840.00000001
 21
32.24233951694481
 31
0.0000000000001111
210
0.0
220
1.0
230
0.0
  0
ARC
  5
296
330
1F
100
AcDbEntity
  8
PV-CA
100
AcDbCircle
 10
835.0000000099999
 20
-15.500000005
 30
0.0000000000001102
 40
5.0
100
AcDbArc
 50
180.0
 51
0.0000000000012213
  0
LINE
  5
297
330
1F
100
AcDbEntity
  8
PV-CA
100
AcDbLine
 10
730.0000000099998
 20
32.24233951694481
 30
0.0000000000000909
 11
730.0000000099998
 21
25.99999999499998
 31
0.0000000000000909
210
0.0
220
1.0
230
0.0
  0
LINE
  5
298
330
1F
100
AcDbEntity
  8
PV-CA
100
AcDbLine
 10
730.0000000099998
 20
23.64686276775725
 30
0.0000000000000909
 11
730.0000000099998
 21
-15.500000005
 31
0.0000000000000909
210
0.0
220
1.0
230
0.0
  0
LINE
  5
299
330
1F
100
AcDbEntity
  8
PV-CA
100
AcDbLine
 10
740.0000000099999
 20
-15.500000005
 30
0.0000000000000928
 11
740.0000000099999
 21
23.64686276775725
 31
0.0000000000000928
210
0.0
220
1.0
230
0.0
  0
LINE
  5
29A
330
1F
100
AcDbEntity
  8
PV-CA
100
AcDbLine
 10
740.0000000099999
 20
25.99999999499999
 30
0.0000000000000928
 11
740.0000000099999
 21
32.24233951694481
 31
0.0000000000000928
210
0.0
220
1.0
230
0.0
  0
ARC
  5
29B
330
1F
100
AcDbEntity
  8
PV-CA
100
AcDbCircle
 10
735.0000000099998
 20
-15.500000005
 30
0.0000000000000918
 40
5.0
100
AcDbArc
 50
180.0
 51
0.0000000000012213
  0
LINE
  5
29C
330
1F
100
AcDbEntity
  8
PV-CA
100
AcDbLine
 10
630.0000000099998
 20
32.24233951694481
 30
0.0000000000000726
 11
630.0000000099998
 21
25.99999999499998
 31
0.0000000000000726
210
0.0
220
1.0
230
0.0
  0
LINE
  5
29D
330
1F
100
AcDbEntity
  8
PV-CA
100
AcDbLine
 10
630.0000000099998
 20
23.64686276775725
 30
0.0000000000000726
 11
630.0000000099998
 21
-15.500000005
 31
0.0000000000000726
210
0.0
220
1.0
230
0.0
  0
LINE
  5
29E
330
1F
100
AcDbEntity
  8
PV-CA
100
AcDbLine
 10
640.0000000099999
 20
-15.500000005
 30
0.0000000000000744
 11
640.0000000099999
 21
23.64686276775725
 31
0.0000000000000744
210
0.0
220
1.0
230
0.0
  0
LINE
  5
29F
330
1F
100
AcDbEntity
  8
PV-CA
100
AcDbLine
 10
640.0000000099999
 20
25.99999999499999
 30
0.0000000000000744
 11
640.0000000099999
 21
32.24233951694481
 31
0.0000000000000744
210
0.0
220
1.0
230
0.0
  0
ARC
  5
2A0
330
1F
100
AcDbEntity
  8
PV-CA
100
AcDbCircle
 10
635.0000000099998
 20
-15.500000005
 30
0.0000000000000735
 40
5.0
100
AcDbArc
 50
180.0
 51
0.0000000000012213
  0
LINE
  5
2A1
330
1F
100
AcDbEntity
  8
PV-CA
100
AcDbLine
 10
530.0000000099998
 20
32.24233951694481
 30
0.0000000000000542
 11
530.0000000099998
 21
25.99999999499998
 31
0.0000000000000542
210
0.0
220
1.0
230
0.0
  0
LINE
  5
2A2
330
1F
100
AcDbEntity
  8
PV-CA
100
AcDbLine
 10
530.0000000099998
 20
23.64686276775725
 30
0.0000000000000542
 11
530.0000000099998
 21
-15.500000005
 31
0.0000000000000542
210
0.0
220
1.0
230
0.0
  0
LINE
  5
2A3
330
1F
100
AcDbEntity
  8
PV-CA
100
AcDbLine
 10
540.0000000099999
 20
-15.500000005
 30
0.000000000000056
 11
540.0000000099999
 21
23.64686276775725
 31
0.000000000000056
210
0.0
220
1.0
230
0.0
  0
LINE
  5
2A4
330
1F
100
AcDbEntity
  8
PV-CA
100
AcDbLine
 10
540.0000000099999
 20
25.99999999499999
 30
0.000000000000056
 11
540.0000000099999
 21
32.24233951694481
 31
0.000000000000056
210
0.0
220
1.0
230
0.0
  0
ARC
  5
2A5
330
1F
100
AcDbEntity
  8
PV-CA
100
AcDbCircle
 10
535.0000000099998
 20
-15.500000005
 30
0.0000000000000551
 40
5.0
100
AcDbArc
 50
180.0
 51
0.0000000000012213
  0
LINE
  5
2A6
330
1F
100
AcDbEntity
  8
PV-CA
100
AcDbLine
 10
430.0000000099998
 20
32.24233951694481
 30
0.0000000000000358
 11
430.0000000099998
 21
25.99999999499998
 31
0.0000000000000358
210
0.0
220
1.0
230
0.0
  0
LINE
  5
2A7
330
1F
100
AcDbEntity
  8
PV-CA
100
AcDbLine
 10
430.0000000099998
 20
23.64686276775725
 30
0.0000000000000358
 11
430.0000000099998
 21
-15.500000005
 31
0.0000000000000358
210
0.0
220
1.0
230
0.0
  0
LINE
  5
2A8
330
1F
100
AcDbEntity
  8
PV-CA
100
AcDbLine
 10
440.0000000099999
 20
-15.500000005
 30
0.0000000000000377
 11
440.0000000099999
 21
23.64686276775725
 31
0.0000000000000377
210
0.0
220
1.0
230
0.0
  0
LINE
  5
2A9
330
1F
100
AcDbEntity
  8
PV-CA
100
AcDbLine
 10
440.0000000099999
 20
25.99999999499999
 30
0.0000000000000377
 11
440.0000000099999
 21
32.24233951694481
 31
0.0000000000000377
210
0.0
220
1.0
230
0.0
  0
ARC
  5
2AA
330
1F
100
AcDbEntity
  8
PV-CA
100
AcDbCircle
 10
435.0000000099998
 20
-15.500000005
 30
0.0000000000000367
 40
5.0
100
AcDbArc
 50
180.0
 51
0.0000000000012213
  0
ARC
  5
2AB
330
1F
100
AcDbEntity
  8
PV-CA
100
AcDbCircle
 10
1225.00000001
 20
42.49999999499999
 30
0.0000000000001819
 40
2.0
100
AcDbArc
 50
90.0
 51
180.0000000000012
  0
ARC
  5
2AC
330
1F
100
AcDbEntity
  8
PV-CA
100
AcDbCircle
 10
1225.00000001
 20
-23.500000005
 30
0.0000000000001819
 40
2.0
100
AcDbArc
 50
179.9999999999978
 51
270.0
  0
ARC
  5
2AD
330
1F
100
AcDbEntity
  8
PV-CA
100
AcDbCircle
 10
245.00000001
 20
-23.500000005
 30
0.0000000000000018
 40
2.0
100
AcDbArc
 50
270.0
 51
0.0000000000012213
  0
ARC
  5
2AE
330
1F
100
AcDbEntity
  8
PV-CA
100
AcDbCircle
 10
245.00000001
 20
42.49999999499999
 30
0.0000000000000018
 40
2.0
100
AcDbArc
 50
359.9999999999979
 51
90.0
  0
LINE
  5
2B0
330
1F
100
AcDbEntity
  8
PV-CA
100
AcDbLine
 10
-35.0
 20
-244.50000001
 30
0.0
 11
35.0
 21
-244.50000001
 31
0.0
  0
LINE
  5
2B1
330
1F
100
AcDbEntity
  8
PV-CA
100
AcDbLine
 10
-33.0
 20
-256.5000000099999
 30
0.0
 11
33.0
 21
-256.5000000099999
 31
0.0
  0
LINE
  5
2B2
330
1F
100
AcDbEntity
  8
PV-CA
100
AcDbLine
 10
35.0
 20
-1244.500000009999
 30
0.0
 11
-35.0
 21
-1244.500000009999
 31
0.0
  0
LINE
  5
2B3
330
1F
100
AcDbEntity
  8
PV-CA
100
AcDbLine
 10
33.0
 20
-1232.500000009999
 30
0.0
 11
-33.0
 21
-1232.500000009999
 31
0.0
  0
ARC
  5
2B4
330
1F
100
AcDbEntity
  8
PV-CA
100
AcDbCircle
 10
-20.61228453347117
 20
-944.50000001
 30
0.0
 40
5.0
100
AcDbArc
 50
270.0
 51
89.9999999999996
  0
ARC
  5
2B5
330
1F
100
AcDbEntity
  8
PV-CA
100
AcDbCircle
 10
10.38200332636176
 20
-944.50000001
 30
0.0
 40
5.0
100
AcDbArc
 50
90.0
 51
269.9999999999996
  0
ARC
  5
2B6
330
1F
100
AcDbEntity
  8
PV-CA
100
AcDbCircle
 10
-20.61228453347117
 20
-844.50000001
 30
0.0
 40
5.0
100
AcDbArc
 50
270.0
 51
89.9999999999996
  0
ARC
  5
2B7
330
1F
100
AcDbEntity
  8
PV-CA
100
AcDbCircle
 10
10.38200332636176
 20
-844.50000001
 30
0.0
 40
5.0
100
AcDbArc
 50
90.0
 51
269.9999999999996
  0
ARC
  5
2B8
330
1F
100
AcDbEntity
  8
PV-CA
100
AcDbCircle
 10
-20.61228453347117
 20
-744.5000000099999
 30
0.0
 40
5.0
100
AcDbArc
 50
270.0
 51
89.9999999999996
  0
ARC
  5
2B9
330
1F
100
AcDbEntity
  8
PV-CA
100
AcDbCircle
 10
10.38200332636176
 20
-744.5000000099999
 30
0.0
 40
5.0
100
AcDbArc
 50
90.0
 51
269.9999999999996
  0
ARC
  5
2BA
330
1F
100
AcDbEntity
  8
PV-CA
100
AcDbCircle
 10
-20.61228453347117
 20
-644.5000000099999
 30
0.0
 40
5.0
100
AcDbArc
 50
270.0
 51
89.9999999999996
  0
ARC
  5
2BB
330
1F
100
AcDbEntity
  8
PV-CA
100
AcDbCircle
 10
10.38200332636176
 20
-644.5000000099999
 30
0.0
 40
5.0
100
AcDbArc
 50
90.0
 51
269.9999999999996
  0
ARC
  5
2BC
330
1F
100
AcDbEntity
  8
PV-CA
100
AcDbCircle
 10
-20.61228453347117
 20
-544.5000000099999
 30
0.0
 40
5.0
100
AcDbArc
 50
270.0
 51
89.9999999999996
  0
ARC
  5
2BD
330
1F
100
AcDbEntity
  8
PV-CA
100
AcDbCircle
 10
10.38200332636176
 20
-544.5000000099999
 30
0.0
 40
5.0
100
AcDbArc
 50
90.0
 51
269.9999999999996
  0
ARC
  5
2BE
330
1F
100
AcDbEntity
  8
PV-CA
100
AcDbCircle
 10
-20.61228453347117
 20
-444.5000000099999
 30
0.0
 40
5.0
100
AcDbArc
 50
270.0
 51
89.9999999999996
  0
ARC
  5
2BF
330
1F
100
AcDbEntity
  8
PV-CA
100
AcDbCircle
 10
10.38200332636176
 20
-444.5000000099999
 30
0.0
 40
5.0
100
AcDbArc
 50
90.0
 51
269.9999999999996
  0
LINE
  5
2C0
330
1F
100
AcDbEntity
  8
PV-CA
100
AcDbLine
 10
-16.5
 20
-256.5000000099999
 30
0.0
 11
-16.5
 21
-441.6558628973111
 31
0.0
  0
LINE
  5
2C1
330
1F
100
AcDbEntity
  8
PV-CA
100
AcDbLine
 10
-16.5
 20
-447.3441371226887
 30
0.0
 11
-16.5
 21
-541.6558628973112
 31
0.0
  0
LINE
  5
2C2
330
1F
100
AcDbEntity
  8
PV-CA
100
AcDbLine
 10
-16.5
 20
-547.3441371226885
 30
0.0
 11
-16.5
 21
-641.6558628973112
 31
0.0
  0
LINE
  5
2C3
330
1F
100
AcDbEntity
  8
PV-CA
100
AcDbLine
 10
-16.5
 20
-647.3441371226885
 30
0.0
 11
-16.5
 21
-741.6558628973109
 31
0.0
  0
LINE
  5
2C4
330
1F
100
AcDbEntity
  8
PV-CA
100
AcDbLine
 10
-16.5
 20
-747.3441371226885
 30
0.0
 11
-16.5
 21
-841.655862897311
 31
0.0
  0
LINE
  5
2C5
330
1F
100
AcDbEntity
  8
PV-CA
100
AcDbLine
 10
-16.5
 20
-847.3441371226886
 30
0.0
 11
-16.5
 21
-941.655862897311
 31
0.0
  0
LINE
  5
2C6
330
1F
100
AcDbEntity
  8
PV-CA
100
AcDbLine
 10
-16.5
 20
-947.3441371226886
 30
0.0
 11
-16.5
 21
-1232.500000009999
 31
0.0
  0
LINE
  5
2C7
330
1F
100
AcDbEntity
  8
PV-CA
100
AcDbLine
 10
16.5
 20
-256.5000000099999
 30
0.0
 11
16.5
 21
-439.50000001
 31
0.0
  0
LINE
  5
2C8
330
1F
100
AcDbEntity
  8
PV-CA
100
AcDbLine
 10
16.5
 20
-449.50000001
 30
0.0
 11
16.5
 21
-539.50000001
 31
0.0
  0
LINE
  5
2C9
330
1F
100
AcDbEntity
  8
PV-CA
100
AcDbLine
 10
16.5
 20
-549.50000001
 30
0.0
 11
16.5
 21
-639.50000001
 31
0.0
  0
LINE
  5
2CA
330
1F
100
AcDbEntity
  8
PV-CA
100
AcDbLine
 10
16.5
 20
-649.50000001
 30
0.0
 11
16.5
 21
-739.50000001
 31
0.0
  0
LINE
  5
2CB
330
1F
100
AcDbEntity
  8
PV-CA
100
AcDbLine
 10
16.5
 20
-749.50000001
 30
0.0
 11
16.5
 21
-839.5000000099999
 31
0.0
  0
LINE
  5
2CC
330
1F
100
AcDbEntity
  8
PV-CA
100
AcDbLine
 10
16.5
 20
-849.5000000100001
 30
0.0
 11
16.5
 21
-939.5000000099999
 31
0.0
  0
LINE
  5
2CD
330
1F
100
AcDbEntity
  8
PV-CA
100
AcDbLine
 10
16.5
 20
-949.5000000100001
 30
0.0
 11
16.5
 21
-1232.500000009999
 31
0.0
  0
LINE
  5
2CE
330
1F
100
AcDbEntity
  8
PV-CA
100
AcDbLine
 10
-35.0
 20
-1234.500000009999
 30
0.0
 11
-35.0
 21
-1244.500000009999
 31
0.0
  0
LINE
  5
2CF
330
1F
100
AcDbEntity
  8
PV-CA
100
AcDbLine
 10
35.0
 20
-1234.500000009999
 30
0.0
 11
35.0
 21
-1244.500000009999
 31
0.0
  0
LINE
  5
2D0
330
1F
100
AcDbEntity
  8
PV-CA
100
AcDbLine
 10
35.0
 20
-254.5000000099999
 30
0.0
 11
35.0
 21
-244.50000001
 31
0.0
  0
LINE
  5
2D1
330
1F
100
AcDbEntity
  8
PV-CA
100
AcDbLine
 10
-35.0
 20
-254.5000000099999
 30
0.0
 11
-35.0
 21
-244.50000001
 31
0.0
  0
LINE
  5
2D2
330
1F
100
AcDbEntity
  8
PV-CA
100
AcDbLine
 10
-16.49999999999999
 20
-939.5000000099999
 30
0.0
 11
-20.61228453347117
 21
-939.5000000099999
 31
0.0
  0
LINE
  5
2D3
330
1F
100
AcDbEntity
  8
PV-CA
100
AcDbLine
 10
-20.61228453347117
 20
-939.5000000099999
 30
0.0
 11
-25.0
 21
-939.5000000099999
 31
0.0
  0
LINE
  5
2D4
330
1F
100
AcDbEntity
  8
PV-CA
100
AcDbLine
 10
25.0
 20
-939.5000000099999
 30
0.0
 11
10.38200332636176
 21
-939.5000000099999
 31
0.0
  0
LINE
  5
2D5
330
1F
100
AcDbEntity
  8
PV-CA
100
AcDbLine
 10
10.38200332636176
 20
-949.5000000100001
 30
0.0
 11
25.0
 21
-949.5000000100001
 31
0.0
  0
LINE
  5
2D6
330
1F
100
AcDbEntity
  8
PV-CA
100
AcDbLine
 10
-25.0
 20
-949.5000000100001
 30
0.0
 11
-20.61228453347117
 21
-949.5000000100001
 31
0.0
  0
LINE
  5
2D7
330
1F
100
AcDbEntity
  8
PV-CA
100
AcDbLine
 10
-20.61228453347117
 20
-949.5000000100001
 30
0.0
 11
-16.5
 21
-949.5000000100001
 31
0.0
  0
ARC
  5
2D8
330
1F
100
AcDbEntity
  8
PV-CA
100
AcDbCircle
 10
-25.0
 20
-944.50000001
 30
0.0
 40
5.0
100
AcDbArc
 50
90.0
 51
270.0000000000012
  0
ARC
  5
2D9
330
1F
100
AcDbEntity
  8
PV-CA
100
AcDbCircle
 10
25.0
 20
-944.50000001
 30
0.0
 40
5.0
100
AcDbArc
 50
269.9999999999978
 51
90.0
  0
LINE
  5
2DA
330
1F
100
AcDbEntity
  8
PV-CA
100
AcDbLine
 10
-16.49999999999999
 20
-839.5000000099999
 30
0.0
 11
-20.61228453347117
 21
-839.5000000099999
 31
0.0
  0
LINE
  5
2DB
330
1F
100
AcDbEntity
  8
PV-CA
100
AcDbLine
 10
-20.61228453347117
 20
-839.5000000099999
 30
0.0
 11
-25.0
 21
-839.5000000099999
 31
0.0
  0
LINE
  5
2DC
330
1F
100
AcDbEntity
  8
PV-CA
100
AcDbLine
 10
25.0
 20
-839.5000000099999
 30
0.0
 11
10.38200332636176
 21
-839.5000000099999
 31
0.0
  0
LINE
  5
2DD
330
1F
100
AcDbEntity
  8
PV-CA
100
AcDbLine
 10
10.38200332636176
 20
-849.5000000100001
 30
0.0
 11
25.0
 21
-849.5000000100001
 31
0.0
  0
LINE
  5
2DE
330
1F
100
AcDbEntity
  8
PV-CA
100
AcDbLine
 10
-25.0
 20
-849.5000000100001
 30
0.0
 11
-20.61228453347117
 21
-849.5000000100001
 31
0.0
  0
LINE
  5
2DF
330
1F
100
AcDbEntity
  8
PV-CA
100
AcDbLine
 10
-20.61228453347117
 20
-849.5000000100001
 30
0.0
 11
-16.5
 21
-849.5000000100001
 31
0.0
  0
ARC
  5
2E0
330
1F
100
AcDbEntity
  8
PV-CA
100
AcDbCircle
 10
-25.0
 20
-844.50000001
 30
0.0
 40
5.0
100
AcDbArc
 50
90.0
 51
270.0000000000012
  0
ARC
  5
2E1
330
1F
100
AcDbEntity
  8
PV-CA
100
AcDbCircle
 10
25.0
 20
-844.50000001
 30
0.0
 40
5.0
100
AcDbArc
 50
269.9999999999978
 51
90.0
  0
LINE
  5
2E2
330
1F
100
AcDbEntity
  8
PV-CA
100
AcDbLine
 10
-16.49999999999999
 20
-739.5000000099998
 30
0.0
 11
-20.61228453347117
 21
-739.5000000099998
 31
0.0
  0
LINE
  5
2E3
330
1F
100
AcDbEntity
  8
PV-CA
100
AcDbLine
 10
-20.61228453347117
 20
-739.5000000099998
 30
0.0
 11
-25.0
 21
-739.5000000099998
 31
0.0
  0
LINE
  5
2E4
330
1F
100
AcDbEntity
  8
PV-CA
100
AcDbLine
 10
25.0
 20
-739.5000000099998
 30
0.0
 11
10.38200332636176
 21
-739.5000000099998
 31
0.0
  0
LINE
  5
2E5
330
1F
100
AcDbEntity
  8
PV-CA
100
AcDbLine
 10
10.38200332636176
 20
-749.5000000099999
 30
0.0
 11
25.0
 21
-749.5000000099999
 31
0.0
  0
LINE
  5
2E6
330
1F
100
AcDbEntity
  8
PV-CA
100
AcDbLine
 10
-25.0
 20
-749.5000000099999
 30
0.0
 11
-20.61228453347117
 21
-749.5000000099999
 31
0.0
  0
LINE
  5
2E7
330
1F
100
AcDbEntity
  8
PV-CA
100
AcDbLine
 10
-20.61228453347117
 20
-749.5000000099999
 30
0.0
 11
-16.5
 21
-749.5000000099999
 31
0.0
  0
ARC
  5
2E8
330
1F
100
AcDbEntity
  8
PV-CA
100
AcDbCircle
 10
-25.0
 20
-744.5000000099999
 30
0.0
 40
5.0
100
AcDbArc
 50
90.0
 51
270.0000000000012
  0
ARC
  5
2E9
330
1F
100
AcDbEntity
  8
PV-CA
100
AcDbCircle
 10
25.0
 20
-744.5000000099999
 30
0.0
 40
5.0
100
AcDbArc
 50
269.9999999999978
 51
90.0
  0
LINE
  5
2EA
330
1F
100
AcDbEntity
  8
PV-CA
100
AcDbLine
 10
-16.49999999999999
 20
-639.5000000099998
 30
0.0
 11
-20.61228453347117
 21
-639.5000000099998
 31
0.0
  0
LINE
  5
2EB
330
1F
100
AcDbEntity
  8
PV-CA
100
AcDbLine
 10
-20.61228453347117
 20
-639.5000000099998
 30
0.0
 11
-25.0
 21
-639.5000000099998
 31
0.0
  0
LINE
  5
2EC
330
1F
100
AcDbEntity
  8
PV-CA
100
AcDbLine
 10
25.0
 20
-639.5000000099998
 30
0.0
 11
10.38200332636176
 21
-639.5000000099998
 31
0.0
  0
LINE
  5
2ED
330
1F
100
AcDbEntity
  8
PV-CA
100
AcDbLine
 10
10.38200332636176
 20
-649.5000000099999
 30
0.0
 11
25.0
 21
-649.5000000099999
 31
0.0
  0
LINE
  5
2EE
330
1F
100
AcDbEntity
  8
PV-CA
100
AcDbLine
 10
-25.0
 20
-649.5000000099999
 30
0.0
 11
-20.61228453347117
 21
-649.5000000099999
 31
0.0
  0
LINE
  5
2EF
330
1F
100
AcDbEntity
  8
PV-CA
100
AcDbLine
 10
-20.61228453347117
 20
-649.5000000099999
 30
0.0
 11
-16.5
 21
-649.5000000099999
 31
0.0
  0
ARC
  5
2F0
330
1F
100
AcDbEntity
  8
PV-CA
100
AcDbCircle
 10
-25.0
 20
-644.5000000099999
 30
0.0
 40
5.0
100
AcDbArc
 50
90.0
 51
270.0000000000012
  0
ARC
  5
2F1
330
1F
100
AcDbEntity
  8
PV-CA
100
AcDbCircle
 10
25.0
 20
-644.5000000099999
 30
0.0
 40
5.0
100
AcDbArc
 50
269.9999999999978
 51
90.0
  0
LINE
  5
2F2
330
1F
100
AcDbEntity
  8
PV-CA
100
AcDbLine
 10
-16.49999999999999
 20
-539.5000000099998
 30
0.0
 11
-20.61228453347117
 21
-539.5000000099998
 31
0.0
  0
LINE
  5
2F3
330
1F
100
AcDbEntity
  8
PV-CA
100
AcDbLine
 10
-20.61228453347117
 20
-539.5000000099998
 30
0.0
 11
-25.0
 21
-539.5000000099998
 31
0.0
  0
LINE
  5
2F4
330
1F
100
AcDbEntity
  8
PV-CA
100
AcDbLine
 10
25.0
 20
-539.5000000099998
 30
0.0
 11
10.38200332636176
 21
-539.5000000099998
 31
0.0
  0
LINE
  5
2F5
330
1F
100
AcDbEntity
  8
PV-CA
100
AcDbLine
 10
10.38200332636176
 20
-549.5000000099999
 30
0.0
 11
25.0
 21
-549.5000000099999
 31
0.0
  0
LINE
  5
2F6
330
1F
100
AcDbEntity
  8
PV-CA
100
AcDbLine
 10
-25.0
 20
-549.5000000099999
 30
0.0
 11
-20.61228453347117
 21
-549.5000000099999
 31
0.0
  0
LINE
  5
2F7
330
1F
100
AcDbEntity
  8
PV-CA
100
AcDbLine
 10
-20.61228453347117
 20
-549.5000000099999
 30
0.0
 11
-16.5
 21
-549.5000000099999
 31
0.0
  0
ARC
  5
2F8
330
1F
100
AcDbEntity
  8
PV-CA
100
AcDbCircle
 10
-25.0
 20
-544.5000000099999
 30
0.0
 40
5.0
100
AcDbArc
 50
90.0
 51
270.0000000000012
  0
ARC
  5
2F9
330
1F
100
AcDbEntity
  8
PV-CA
100
AcDbCircle
 10
25.0
 20
-544.5000000099999
 30
0.0
 40
5.0
100
AcDbArc
 50
269.9999999999978
 51
90.0
  0
LINE
  5
2FA
330
1F
100
AcDbEntity
  8
PV-CA
100
AcDbLine
 10
-16.49999999999999
 20
-439.5000000099998
 30
0.0
 11
-20.61228453347117
 21
-439.5000000099998
 31
0.0
  0
LINE
  5
2FB
330
1F
100
AcDbEntity
  8
PV-CA
100
AcDbLine
 10
-20.61228453347117
 20
-439.5000000099998
 30
0.0
 11
-25.0
 21
-439.5000000099998
 31
0.0
  0
LINE
  5
2FC
330
1F
100
AcDbEntity
  8
PV-CA
100
AcDbLine
 10
25.0
 20
-439.5000000099998
 30
0.0
 11
10.38200332636176
 21
-439.5000000099998
 31
0.0
  0
LINE
  5
2FD
330
1F
100
AcDbEntity
  8
PV-CA
100
AcDbLine
 10
10.38200332636176
 20
-449.5000000099999
 30
0.0
 11
25.0
 21
-449.5000000099999
 31
0.0
  0
LINE
  5
2FE
330
1F
100
AcDbEntity
  8
PV-CA
100
AcDbLine
 10
-25.0
 20
-449.5000000099999
 30
0.0
 11
-20.61228453347117
 21
-449.5000000099999
 31
0.0
  0
LINE
  5
2FF
330
1F
100
AcDbEntity
  8
PV-CA
100
AcDbLine
 10
-20.61228453347117
 20
-449.5000000099999
 30
0.0
 11
-16.5
 21
-449.5000000099999
 31
0.0
  0
ARC
  5
300
330
1F
100
AcDbEntity
  8
PV-CA
100
AcDbCircle
 10
-25.0
 20
-444.5000000099999
 30
0.0
 40
5.0
100
AcDbArc
 50
90.0
 51
270.0000000000012
  0
ARC
  5
301
330
1F
100
AcDbEntity
  8
PV-CA
100
AcDbCircle
 10
25.0
 20
-444.5000000099999
 30
0.0
 40
5.0
100
AcDbArc
 50
269.9999999999978
 51
90.0
  0
ARC
  5
302
330
1F
100
AcDbEntity
  8
PV-CA
100
AcDbCircle
 10
33.0
 20
-1234.500000009999
 30
0.0
 40
2.0
100
AcDbArc
 50
0.0
 51
90.00000000000122
  0
ARC
  5
303
330
1F
100
AcDbEntity
  8
PV-CA
100
AcDbCircle
 10
-33.0
 20
-1234.500000009999
 30
0.0
 40
2.0
100
AcDbArc
 50
89.99999999999799
 51
180.0
  0
ARC
  5
304
330
1F
100
AcDbEntity
  8
PV-CA
100
AcDbCircle
 10
-33.0
 20
-254.5000000099999
 30
0.0
 40
2.0
100
AcDbArc
 50
180.0
 51
270.0000000000012
  0
ARC
  5
305
330
1F
100
AcDbEntity
  8
PV-CA
100
AcDbCircle
 10
33.0
 20
-254.5000000099999
 30
0.0
 40
2.0
100
AcDbArc
 50
269.9999999999978
 51
0.0
  0
ENDSEC
  0
SECTION
  2
OBJECTS
  0
DICTIONARY
  5
C
330
0
100
AcDbDictionary
  3
ACAD_GROUP
350
D
  3
ACAD_LAYOUT
350
1A
  3
ACAD_MLINESTYLE
350
17
  3
ACAD_PLOTSETTINGS
350
19
  3
ACAD_PLOTSTYLENAME
350
1B8
  3
ACDBHEADERROUNDTRIPXREC
350
307
1001
ACAD
1000
TREAT_AS_HARD
1070
     0
  0
DICTIONARY
  5
1B2
330
1F
100
AcDbDictionary
  3
ACAD_LAYOUTSELFREF
350
328
  0
DICTIONARY
  5
1B0
330
1B
100
AcDbDictionary
  3
ACAD_LAYOUTSELFREF
350
327
  0
DICTIONARY
  5
D
102
{ACAD_REACTORS
330
C
102
}
330
C
100
AcDbDictionary
1001
ACAD
1000
TREAT_AS_HARD
1070
     0
  0
DICTIONARY
  5
1A
102
{ACAD_REACTORS
330
C
102
}
330
C
100
AcDbDictionary
1001
ACAD
1000
TREAT_AS_HARD
1070
     0
  0
DICTIONARY
  5
17
102
{ACAD_REACTORS
330
C
102
}
330
C
100
AcDbDictionary
  3
STANDARD
350
18
1001
ACAD
1000
TREAT_AS_HARD
1070
     0
  0
DICTIONARY
  5
19
102
{ACAD_REACTORS
330
C
102
}
330
C
100
AcDbDictionary
1001
ACAD
1000
TREAT_AS_HARD
1070
     0
  0
ACDBDICTIONARYWDFLT
  5
1B8
102
{ACAD_REACTORS
330
C
102
}
330
C
100
AcDbDictionary
281
     1
  3
Normal
350
1B9
100
AcDbDictionaryWithDefault
340
1B9
  0
DICTIONARY
  5
307
102
{ACAD_REACTORS
330
C
102
}
330
C
100
AcDbDictionary
  3
TSTACKALIGN
350
308
  3
TSTACKSIZE
350
309
  3
HYPERLINKBASE
350
30A
  3
STYLESHEET
350
30B
  3
LAYOUTDICT
350
30C
  3
PLOTSETDICT
350
30D
  3
PLOTSTYLNAMDICT
350
30E
  3
LWETCUNION
350
30F
  3
INSUNITS
350
310
  3
CEPSNTYPE
350
311
  3
FINGERPRINTGUID
350
312
  3
VERSIONGUID
350
313
  3
PSVPSCALE
350
314
  3
PUCSORTHOREF
350
315
  3
PUCSORTHOVIEW
350
316
  3
PUCSBASE
350
317
  3
PUCSORGTOP
350
318
  3
PUCSORGBOTTOM
350
319
  3
PUCSORGLEFT
350
31A
  3
PUCSORGRIGHT
350
31B
  3
PUCSORGFRONT
350
31C
  3
PUCSORGBACK
350
31D
  3
UCSORTHOREF
350
31E
  3
UCSORTHOVIEW
350
31F
  3
UCSBASE
350
320
  3
UCSORGTOP
350
321
  3
UCSORGBOTTOM
350
322
  3
UCSORGLEFT
350
323
  3
UCSORGRIGHT
350
324
  3
UCSORGFRONT
350
325
  3
UCSORGBACK
350
326
  0
XRECORD
  5
328
102
{ACAD_REACTORS
330
1B2
102
}
330
1B2
100
AcDbXrecord
340
1F
  0
XRECORD
  5
327
102
{ACAD_REACTORS
330
1B0
102
}
330
1B0
100
AcDbXrecord
340
1B
  0
MLINESTYLE
  5
18
102
{ACAD_REACTORS
330
17
102
}
330
17
100
AcDbMlineStyle
  2
STANDARD
 70
     0
  3

 62
   256
 51
90.0
 52
90.0
 71
     2
 49
0.5
 62
   256
  6
BYLAYER
 49
-0.5
 62
   256
  6
BYLAYER
  0
ACDBPLACEHOLDER
  5
1B9
102
{ACAD_REACTORS
330
1B8
102
}
330
1B8
100
AcDbPlaceHolder
280
     0
  0
XRECORD
  5
308
102
{ACAD_REACTORS
330
307
102
}
330
307
100
AcDbXrecord
 90
        1
  0
XRECORD
  5
309
102
{ACAD_REACTORS
330
307
102
}
330
307
100
AcDbXrecord
 90
       70
  0
XRECORD
  5
30A
102
{ACAD_REACTORS
330
307
102
}
330
307
100
AcDbXrecord
  1

  0
XRECORD
  5
30B
102
{ACAD_REACTORS
330
307
102
}
330
307
100
AcDbXrecord
  1

  0
XRECORD
  5
30C
102
{ACAD_REACTORS
330
307
102
}
330
307
100
AcDbXrecord
340
1A
  0
XRECORD
  5
30D
102
{ACAD_REACTORS
330
307
102
}
330
307
100
AcDbXrecord
340
19
  0
XRECORD
  5
30E
102
{ACAD_REACTORS
330
307
102
}
330
307
100
AcDbXrecord
340
1B8
  0
XRECORD
  5
30F
102
{ACAD_REACTORS
330
307
102
}
330
307
100
AcDbXrecord
 90
    10781
  0
XRECORD
  5
310
102
{ACAD_REACTORS
330
307
102
}
330
307
100
AcDbXrecord
 90
        0
  0
XRECORD
  5
311
102
{ACAD_REACTORS
330
307
102
}
330
307
100
AcDbXrecord
 90
        0
  0
XRECORD
  5
312
102
{ACAD_REACTORS
330
307
102
}
330
307
100
AcDbXrecord
  1
{333759F3-4A02-402D-9F9C-42E8709CD5A9}
  0
XRECORD
  5
313
102
{ACAD_REACTORS
330
307
102
}
330
307
100
AcDbXrecord
  1
{B45E968D-1ECF-4EE8-868C-AE9BA76389B9}
  0
XRECORD
  5
314
102
{ACAD_REACTORS
330
307
102
}
330
307
100
AcDbXrecord
 40
0.0
  0
XRECORD
  5
315
102
{ACAD_REACTORS
330
307
102
}
330
307
100
AcDbXrecord
340
0
  0
XRECORD
  5
316
102
{ACAD_REACTORS
330
307
102
}
330
307
100
AcDbXrecord
 70
     0
  0
XRECORD
  5
317
102
{ACAD_REACTORS
330
307
102
}
330
307
100
AcDbXrecord
340
0
  0
XRECORD
  5
318
102
{ACAD_REACTORS
330
307
102
}
330
307
100
AcDbXrecord
 10
0.0
 20
0.0
 30
0.0
  0
XRECORD
  5
319
102
{ACAD_REACTORS
330
307
102
}
330
307
100
AcDbXrecord
 10
0.0
 20
0.0
 30
0.0
  0
XRECORD
  5
31A
102
{ACAD_REACTORS
330
307
102
}
330
307
100
AcDbXrecord
 10
0.0
 20
0.0
 30
0.0
  0
XRECORD
  5
31B
102
{ACAD_REACTORS
330
307
102
}
330
307
100
AcDbXrecord
 10
0.0
 20
0.0
 30
0.0
  0
XRECORD
  5
31C
102
{ACAD_REACTORS
330
307
102
}
330
307
100
AcDbXrecord
 10
0.0
 20
0.0
 30
0.0
  0
XRECORD
  5
31D
102
{ACAD_REACTORS
330
307
102
}
330
307
100
AcDbXrecord
 10
0.0
 20
0.0
 30
0.0
  0
XRECORD
  5
31E
102
{ACAD_REACTORS
330
307
102
}
330
307
100
AcDbXrecord
340
0
  0
XRECORD
  5
31F
102
{ACAD_REACTORS
330
307
102
}
330
307
100
AcDbXrecord
 70
     0
  0
XRECORD
  5
320
102
{ACAD_REACTORS
330
307
102
}
330
307
100
AcDbXrecord
340
0
  0
XRECORD
  5
321
102
{ACAD_REACTORS
330
307
102
}
330
307
100
AcDbXrecord
 10
0.0
 20
0.0
 30
0.0
  0
XRECORD
  5
322
102
{ACAD_REACTORS
330
307
102
}
330
307
100
AcDbXrecord
 10
0.0
 20
0.0
 30
0.0
  0
XRECORD
  5
323
102
{ACAD_REACTORS
330
307
102
}
330
307
100
AcDbXrecord
 10
0.0
 20
0.0
 30
0.0
  0
XRECORD
  5
324
102
{ACAD_REACTORS
330
307
102
}
330
307
100
AcDbXrecord
 10
0.0
 20
0.0
 30
0.0
  0
XRECORD
  5
325
102
{ACAD_REACTORS
330
307
102
}
330
307
100
AcDbXrecord
 10
0.0
 20
0.0
 30
0.0
  0
XRECORD
  5
326
102
{ACAD_REACTORS
330
307
102
}
330
307
100
AcDbXrecord
 10
0.0
 20
0.0
 30
0.0
  0
ENDSEC
  0
EOF
