  0
SECTION
  2
HEADER
  9
$ACADVER
  1
AC1024
  9
$ACADMAINTVER
 70
   205
  9
$DWGCODEPAGE
  3
ANSI_1252
  9
$LASTSAVEDBY
  1
kaschu
  9
$INSBASE
 10
0.0
 20
0.0
 30
0.0
  9
$EXTMIN
 10
145.4096004487014
 20
25.8562622261727
 30
-0.0000000000000953
  9
$EXTMAX
 10
2093.252962968162
 20
1954.256262238173
 30
0.00000000000014
  9
$LIMMIN
 10
0.0
 20
0.0
  9
$LIMMAX
 10
12.0
 20
9.0
  9
$ORTHOMODE
 70
     0
  9
$REGENMODE
 70
     1
  9
$FILLMODE
 70
     1
  9
$QTEXTMODE
 70
     0
  9
$MIRRTEXT
 70
     1
  9
$LTSCALE
 40
1.0
  9
$ATTMODE
 70
     1
  9
$TEXTSIZE
 40
0.2
  9
$TRACEWID
 40
0.05
  9
$TEXTSTYLE
  7
STANDARD
  9
$CLAYER
  8
0
  9
$CELTYPE
  6
BYLAYER
  9
$CECOLOR
 62
   256
  9
$CELTSCALE
 40
1.0
  9
$DISPSILH
 70
     0
  9
$DIMSCALE
 40
1.0
  9
$DIMASZ
 40
0.18
  9
$DIMEXO
 40
0.0625
  9
$DIMDLI
 40
0.38
  9
$DIMRND
 40
0.0
  9
$DIMDLE
 40
0.0
  9
$DIMEXE
 40
0.18
  9
$DIMTP
 40
0.0
  9
$DIMTM
 40
0.0
  9
$DIMTXT
 40
0.18
  9
$DIMCEN
 40
0.09
  9
$DIMTSZ
 40
0.0
  9
$DIMTOL
 70
     0
  9
$DIMLIM
 70
     0
  9
$DIMTIH
 70
     1
  9
$DIMTOH
 70
     1
  9
$DIMSE1
 70
     0
  9
$DIMSE2
 70
     0
  9
$DIMTAD
 70
     0
  9
$DIMZIN
 70
     0
  9
$DIMBLK
  1

  9
$DIMASO
 70
     1
  9
$DIMSHO
 70
     1
  9
$DIMPOST
  1

  9
$DIMAPOST
  1

  9
$DIMALT
 70
     0
  9
$DIMALTD
 70
     2
  9
$DIMALTF
 40
25.4
  9
$DIMLFAC
 40
1.0
  9
$DIMTOFL
 70
     0
  9
$DIMTVP
 40
0.0
  9
$DIMTIX
 70
     0
  9
$DIMSOXD
 70
     0
  9
$DIMSAH
 70
     0
  9
$DIMBLK1
  1

  9
$DIMBLK2
  1

  9
$DIMSTYLE
  2
STANDARD
  9
$DIMCLRD
 70
     0
  9
$DIMCLRE
 70
     0
  9
$DIMCLRT
 70
     0
  9
$DIMTFAC
 40
1.0
  9
$DIMGAP
 40
0.09
  9
$DIMJUST
 70
     0
  9
$DIMSD1
 70
     0
  9
$DIMSD2
 70
     0
  9
$DIMTOLJ
 70
     1
  9
$DIMTZIN
 70
     0
  9
$DIMALTZ
 70
     0
  9
$DIMALTTZ
 70
     0
  9
$DIMUPT
 70
     0
  9
$DIMDEC
 70
     4
  9
$DIMTDEC
 70
     4
  9
$DIMALTU
 70
     2
  9
$DIMALTTD
 70
     2
  9
$DIMTXSTY
  7
STANDARD
  9
$DIMAUNIT
 70
     0
  9
$DIMADEC
 70
     0
  9
$DIMALTRND
 40
0.0
  9
$DIMAZIN
 70
     0
  9
$DIMDSEP
 70
    46
  9
$DIMATFIT
 70
     3
  9
$DIMFRAC
 70
     0
  9
$DIMLDRBLK
  1

  9
$DIMLUNIT
 70
     2
  9
$DIMLWD
 70
    -2
  9
$DIMLWE
 70
    -2
  9
$DIMTMOVE
 70
     0
  9
$DIMFXL
 40
1.0
  9
$DIMFXLON
 70
     0
  9
$DIMJOGANG
 40
0.7853981633974483
  9
$DIMTFILL
 70
     0
  9
$DIMTFILLCLR
 70
     0
  9
$DIMARCSYM
 70
     0
  9
$DIMLTYPE
  6

  9
$DIMLTEX1
  6

  9
$DIMLTEX2
  6

  9
$DIMTXTDIRECTION
 70
     0
  9
$LUNITS
 70
     2
  9
$LUPREC
 70
     4
  9
$SKETCHINC
 40
0.1
  9
$FILLETRAD
 40
0.5
  9
$AUNITS
 70
     0
  9
$AUPREC
 70
     0
  9
$MENU
  1
.
  9
$ELEVATION
 40
0.0
  9
$PELEVATION
 40
0.0
  9
$THICKNESS
 40
0.0
  9
$LIMCHECK
 70
     0
  9
$CHAMFERA
 40
0.5
  9
$CHAMFERB
 40
0.5
  9
$CHAMFERC
 40
1.0
  9
$CHAMFERD
 40
0.0
  9
$SKPOLY
 70
     0
  9
$TDCREATE
 40
2451762.457069676
  9
$TDUCREATE
 40
2451762.415403010
  9
$TDUPDATE
 40
2458516.610695428
  9
$TDUUPDATE
 40
2458516.569028762
  9
$TDINDWG
 40
0.0055240856
  9
$TDUSRTIMER
 40
0.0055238194
  9
$USRTIMER
 70
     1
  9
$ANGBASE
 50
0.0
  9
$ANGDIR
 70
     0
  9
$PDMODE
 70
     0
  9
$PDSIZE
 40
0.0
  9
$PLINEWID
 40
0.0
  9
$SPLFRAME
 70
     0
  9
$SPLINETYPE
 70
     6
  9
$SPLINESEGS
 70
     8
  9
$HANDSEED
  5
4F5
  9
$SURFTAB1
 70
     6
  9
$SURFTAB2
 70
     6
  9
$SURFTYPE
 70
     6
  9
$SURFU
 70
     6
  9
$SURFV
 70
     6
  9
$UCSBASE
  2

  9
$UCSNAME
  2

  9
$UCSORG
 10
0.0
 20
0.0
 30
0.0
  9
$UCSXDIR
 10
1.0
 20
0.0
 30
0.0
  9
$UCSYDIR
 10
0.0
 20
1.0
 30
0.0
  9
$UCSORTHOREF
  2

  9
$UCSORTHOVIEW
 70
     0
  9
$UCSORGTOP
 10
0.0
 20
0.0
 30
0.0
  9
$UCSORGBOTTOM
 10
0.0
 20
0.0
 30
0.0
  9
$UCSORGLEFT
 10
0.0
 20
0.0
 30
0.0
  9
$UCSORGRIGHT
 10
0.0
 20
0.0
 30
0.0
  9
$UCSORGFRONT
 10
0.0
 20
0.0
 30
0.0
  9
$UCSORGBACK
 10
0.0
 20
0.0
 30
0.0
  9
$PUCSBASE
  2

  9
$PUCSNAME
  2

  9
$PUCSORG
 10
0.0
 20
0.0
 30
0.0
  9
$PUCSXDIR
 10
1.0
 20
0.0
 30
0.0
  9
$PUCSYDIR
 10
0.0
 20
1.0
 30
0.0
  9
$PUCSORTHOREF
  2

  9
$PUCSORTHOVIEW
 70
     0
  9
$PUCSORGTOP
 10
0.0
 20
0.0
 30
0.0
  9
$PUCSORGBOTTOM
 10
0.0
 20
0.0
 30
0.0
  9
$PUCSORGLEFT
 10
0.0
 20
0.0
 30
0.0
  9
$PUCSORGRIGHT
 10
0.0
 20
0.0
 30
0.0
  9
$PUCSORGFRONT
 10
0.0
 20
0.0
 30
0.0
  9
$PUCSORGBACK
 10
0.0
 20
0.0
 30
0.0
  9
$USERI1
 70
     0
  9
$USERI2
 70
     0
  9
$USERI3
 70
     0
  9
$USERI4
 70
     0
  9
$USERI5
 70
     0
  9
$USERR1
 40
0.0
  9
$USERR2
 40
0.0
  9
$USERR3
 40
0.0
  9
$USERR4
 40
0.0
  9
$USERR5
 40
0.0
  9
$WORLDVIEW
 70
     1
  9
$SHADEDGE
 70
     3
  9
$SHADEDIF
 70
    70
  9
$TILEMODE
 70
     1
  9
$MAXACTVP
 70
    64
  9
$PINSBASE
 10
0.0
 20
0.0
 30
0.0
  9
$PLIMCHECK
 70
     0
  9
$PEXTMIN
 10
1.000000000000000E+20
 20
1.000000000000000E+20
 30
1.000000000000000E+20
  9
$PEXTMAX
 10
-1.000000000000000E+20
 20
-1.000000000000000E+20
 30
-1.000000000000000E+20
  9
$PLIMMIN
 10
0.0
 20
0.0
  9
$PLIMMAX
 10
12.0
 20
9.0
  9
$UNITMODE
 70
     0
  9
$VISRETAIN
 70
     1
  9
$PLINEGEN
 70
     0
  9
$PSLTSCALE
 70
     1
  9
$TREEDEPTH
 70
  3020
  9
$CMLSTYLE
  2
STANDARD
  9
$CMLJUST
 70
     0
  9
$CMLSCALE
 40
1.0
  9
$PROXYGRAPHICS
 70
     1
  9
$MEASUREMENT
 70
     0
  9
$CELWEIGHT
370
    -1
  9
$ENDCAPS
280
     0
  9
$JOINSTYLE
280
     0
  9
$LWDISPLAY
290
     0
  9
$INSUNITS
 70
     0
  9
$HYPERLINKBASE
  1

  9
$STYLESHEET
  1

  9
$XEDIT
290
     1
  9
$CEPSNTYPE
380
     0
  9
$PSTYLEMODE
290
     1
  9
$FINGERPRINTGUID
  2
{E00805BA-9639-4A6E-8F1D-AF1442CE7432}
  9
$VERSIONGUID
  2
{1DDFE902-E8DE-4BAB-BDD8-4EBA1DAA6A8F}
  9
$EXTNAMES
290
     1
  9
$PSVPSCALE
 40
0.0
  9
$OLESTARTUP
290
     0
  9
$SORTENTS
280
   127
  9
$INDEXCTL
280
     0
  9
$HIDETEXT
280
     0
  9
$XCLIPFRAME
280
     2
  9
$HALOGAP
280
     0
  9
$OBSCOLOR
 70
   257
  9
$OBSLTYPE
280
     0
  9
$INTERSECTIONDISPLAY
280
     0
  9
$INTERSECTIONCOLOR
 70
   257
  9
$DIMASSOC
280
     1
  9
$PROJECTNAME
  1

  9
$CAMERADISPLAY
290
     0
  9
$LENSLENGTH
 40
50.0
  9
$CAMERAHEIGHT
 40
0.0
  9
$STEPSPERSEC
 40
2.0
  9
$STEPSIZE
 40
6.0
  9
$3DDWFPREC
 40
2.0
  9
$PSOLWIDTH
 40
0.25
  9
$PSOLHEIGHT
 40
4.0
  9
$LOFTANG1
 40
1.570796326794896
  9
$LOFTANG2
 40
1.570796326794896
  9
$LOFTMAG1
 40
0.0
  9
$LOFTMAG2
 40
0.0
  9
$LOFTPARAM
 70
     7
  9
$LOFTNORMALS
280
     1
  9
$LATITUDE
 40
37.795
  9
$LONGITUDE
 40
-122.394
  9
$NORTHDIRECTION
 40
0.0
  9
$TIMEZONE
 70
 -8000
  9
$LIGHTGLYPHDISPLAY
280
     1
  9
$TILEMODELIGHTSYNCH
280
     1
  9
$CMATERIAL
347
267
  9
$SOLIDHIST
280
     0
  9
$SHOWHIST
280
     1
  9
$DWFFRAME
280
     2
  9
$DGNFRAME
280
     0
  9
$REALWORLDSCALE
290
     1
  9
$INTERFERECOLOR
 62
     1
  9
$INTERFEREOBJVS
345
289
  9
$INTERFEREVPVS
346
286
  9
$CSHADOW
280
     0
  9
$SHADOWPLANELOCATION
 40
0.0
  0
ENDSEC
  0
SECTION
  2
CLASSES
  0
CLASS
  1
ACDBDICTIONARYWDFLT
  2
AcDbDictionaryWithDefault
  3
ObjectDBX Classes
 90
        0
 91
        1
280
     0
281
     0
  0
CLASS
  1
MATERIAL
  2
AcDbMaterial
  3
ObjectDBX Classes
 90
     1153
 91
        3
280
     0
281
     0
  0
CLASS
  1
VISUALSTYLE
  2
AcDbVisualStyle
  3
ObjectDBX Classes
 90
     4095
 91
       24
280
     0
281
     0
  0
CLASS
  1
TABLESTYLE
  2
AcDbTableStyle
  3
ObjectDBX Classes
 90
     4095
 91
        1
280
     0
281
     0
  0
CLASS
  1
SCALE
  2
AcDbScale
  3
ObjectDBX Classes
 90
     1153
 91
       17
280
     0
281
     0
  0
CLASS
  1
MLEADERSTYLE
  2
AcDbMLeaderStyle
  3
ACDB_MLEADERSTYLE_CLASS
 90
     4095
 91
        1
280
     0
281
     0
  0
CLASS
  1
ACDBSECTIONVIEWSTYLE
  2
AcDbSectionViewStyle
  3
ObjectDBX Classes
 90
     1025
 91
        1
280
     0
281
     0
  0
CLASS
  1
ACDBDETAILVIEWSTYLE
  2
AcDbDetailViewStyle
  3
ObjectDBX Classes
 90
     1025
 91
        1
280
     0
281
     0
  0
CLASS
  1
DICTIONARYVAR
  2
AcDbDictionaryVar
  3
ObjectDBX Classes
 90
        0
 91
        9
280
     0
281
     0
  0
CLASS
  1
CELLSTYLEMAP
  2
AcDbCellStyleMap
  3
ObjectDBX Classes
 90
     1152
 91
        2
280
     0
281
     0
  0
ENDSEC
  0
SECTION
  2
TABLES
  0
TABLE
  2
VPORT
  5
8
330
0
100
AcDbSymbolTable
 70
     1
  0
VPORT
  5
241
330
8
100
AcDbSymbolTableRecord
100
AcDbViewportTableRecord
  2
*ACTIVE
 70
     0
 10
0.0
 20
0.0
 11
1.0
 21
1.0
 12
1818.301754142798
 22
805.3721472492394
 13
0.0
 23
0.0
 14
0.5
 24
0.5
 15
0.5
 25
0.5
 16
0.0
 26
0.0
 36
1.0
 17
0.0
 27
0.0
 37
0.0
 40
2499.419317238745
 41
2.260445682451253
 42
50.0
 43
0.0
 44
0.0
 50
0.0
 51
0.0
 71
     0
 72
   100
 73
     1
 74
     3
 75
     0
 76
     0
 77
     0
 78
     0
281
     0
 65
     1
110
0.0
120
0.0
130
0.0
111
1.0
121
0.0
131
0.0
112
0.0
122
1.0
132
0.0
 79
     0
146
0.0
348
285
 60
     3
 61
     5
292
     1
282
     1
141
0.0
142
0.0
 63
   250
421
  3355443
1001
ACAD_NAV_VCDISPLAY
1070
     3
  0
ENDTAB
  0
TABLE
  2
LTYPE
  5
5
330
0
100
AcDbSymbolTable
 70
     1
  0
LTYPE
  5
14
330
5
100
AcDbSymbolTableRecord
100
AcDbLinetypeTableRecord
  2
BYBLOCK
 70
     0
  3

 72
    65
 73
     0
 40
0.0
  0
LTYPE
  5
15
330
5
100
AcDbSymbolTableRecord
100
AcDbLinetypeTableRecord
  2
BYLAYER
 70
     0
  3

 72
    65
 73
     0
 40
0.0
  0
LTYPE
  5
16
330
5
100
AcDbSymbolTableRecord
100
AcDbLinetypeTableRecord
  2
CONTINUOUS
 70
     0
  3
Solid line
 72
    65
 73
     0
 40
0.0
  0
ENDTAB
  0
TABLE
  2
LAYER
  5
2
330
0
100
AcDbSymbolTable
 70
     6
  0
LAYER
  5
10
102
{ACAD_XDICTIONARY
360
4B7
102
}
330
2
100
AcDbSymbolTableRecord
100
AcDbLayerTableRecord
  2
0
 70
     0
 62
     7
  6
CONTINUOUS
370
    -3
390
156
347
277
  0
LAYER
  5
76
102
{ACAD_XDICTIONARY
360
4B9
102
}
330
2
100
AcDbSymbolTableRecord
100
AcDbLayerTableRecord
  2
PV-D4
 70
     2
 62
     7
  6
CONTINUOUS
370
    -3
390
156
347
277
  0
LAYER
  5
33D
102
{ACAD_XDICTIONARY
360
33E
102
}
330
2
100
AcDbSymbolTableRecord
100
AcDbLayerTableRecord
  2
PV-100
 70
     2
 62
     7
  6
CONTINUOUS
370
    -3
390
156
347
277
  0
LAYER
  5
33F
102
{ACAD_XDICTIONARY
360
340
102
}
330
2
100
AcDbSymbolTableRecord
100
AcDbLayerTableRecord
  2
HEWI
 70
     0
 62
     7
  6
CONTINUOUS
370
    -3
390
156
347
277
1001
AcAecLayerStandard
1000

1000

1001
AcCmTransparency
1071
        0
  0
LAYER
  5
341
330
2
100
AcDbSymbolTableRecord
100
AcDbLayerTableRecord
  2
Defpoints
 70
     0
 62
     7
  6
CONTINUOUS
290
     0
370
    -3
390
156
347
277
  0
LAYER
  5
39F
102
{ACAD_XDICTIONARY
360
4BD
102
}
330
2
100
AcDbSymbolTableRecord
100
AcDbLayerTableRecord
  2
Layer1
 70
     0
 62
     7
  6
CONTINUOUS
370
    -3
390
156
347
277
1001
AcAecLayerStandard
1000

1000

1001
AcCmTransparency
1071
        0
  0
ENDTAB
  0
TABLE
  2
STYLE
  5
3
330
0
100
AcDbSymbolTable
 70
     1
  0
STYLE
  5
11
330
3
100
AcDbSymbolTableRecord
100
AcDbTextStyleTableRecord
  2
STANDARD
 70
     0
 40
0.0
 41
1.0
 50
0.0
 71
     0
 42
0.2
  3
txt
  4

  0
ENDTAB
  0
TABLE
  2
VIEW
  5
6
330
0
100
AcDbSymbolTable
 70
     0
  0
ENDTAB
  0
TABLE
  2
UCS
  5
7
330
0
100
AcDbSymbolTable
 70
     0
  0
ENDTAB
  0
TABLE
  2
APPID
  5
9
330
0
100
AcDbSymbolTable
 70
     4
  0
APPID
  5
12
330
9
100
AcDbSymbolTableRecord
100
AcDbRegAppTableRecord
  2
ACAD
 70
     0
  0
APPID
  5
342
330
9
100
AcDbSymbolTableRecord
100
AcDbRegAppTableRecord
  2
ACAD_NAV_VCDISPLAY
 70
     0
  0
APPID
  5
343
330
9
100
AcDbSymbolTableRecord
100
AcDbRegAppTableRecord
  2
AcAecLayerStandard
 70
     0
  0
APPID
  5
344
330
9
100
AcDbSymbolTableRecord
100
AcDbRegAppTableRecord
  2
AcCmTransparency
 70
     0
  0
ENDTAB
  0
TABLE
  2
DIMSTYLE
  5
A
330
0
100
AcDbSymbolTable
 70
     1
100
AcDbDimStyleTable
 71
     1
340
27
  0
DIMSTYLE
105
27
330
A
100
AcDbSymbolTableRecord
100
AcDbDimStyleTableRecord
  2
STANDARD
 70
     0
340
11
  0
ENDTAB
  0
TABLE
  2
BLOCK_RECORD
  5
1
330
0
100
AcDbSymbolTable
 70
    29
  0
BLOCK_RECORD
  5
1F
102
{ACAD_XDICTIONARY
360
14F
102
}
330
1
100
AcDbSymbolTableRecord
100
AcDbBlockTableRecord
  2
*MODEL_SPACE
340
2B3
 70
     0
280
     1
281
     0
  0
BLOCK_RECORD
  5
1B
102
{ACAD_XDICTIONARY
360
14D
102
}
330
1
100
AcDbSymbolTableRecord
100
AcDbBlockTableRecord
  2
*PAPER_SPACE
340
2B4
 70
     0
280
     1
281
     0
  0
BLOCK_RECORD
  5
48
330
1
100
AcDbSymbolTableRecord
100
AcDbBlockTableRecord
  2
*U0
340
0
102
{BLKREFS
331
78
102
}
 70
     0
280
     1
281
     0
  0
BLOCK_RECORD
  5
77
330
1
100
AcDbSymbolTableRecord
100
AcDbBlockTableRecord
  2
FRONT
340
0
 70
     0
280
     1
281
     0
  0
BLOCK_RECORD
  5
7C
330
1
100
AcDbSymbolTableRecord
100
AcDbBlockTableRecord
  2
*U2
340
0
102
{BLKREFS
331
BB
102
}
 70
     0
280
     1
281
     0
  0
BLOCK_RECORD
  5
BA
330
1
100
AcDbSymbolTableRecord
100
AcDbBlockTableRecord
  2
LEFT
340
0
 70
     0
280
     1
281
     0
  0
BLOCK_RECORD
  5
BF
330
1
100
AcDbSymbolTableRecord
100
AcDbBlockTableRecord
  2
*U4
340
0
102
{BLKREFS
331
108
102
}
 70
     0
280
     1
281
     0
  0
BLOCK_RECORD
  5
107
330
1
100
AcDbSymbolTableRecord
100
AcDbBlockTableRecord
  2
RIGHT
340
0
 70
     0
280
     1
281
     0
  0
BLOCK_RECORD
  5
10C
330
1
100
AcDbSymbolTableRecord
100
AcDbBlockTableRecord
  2
*U6
340
0
102
{BLKREFS
331
148
102
}
 70
     0
280
     1
281
     0
  0
BLOCK_RECORD
  5
147
330
1
100
AcDbSymbolTableRecord
100
AcDbBlockTableRecord
  2
TOP
340
0
 70
     0
280
     1
281
     0
  0
BLOCK_RECORD
  5
2B8
330
1
100
AcDbSymbolTableRecord
100
AcDbBlockTableRecord
  2
*U8
340
0
102
{BLKREFS
331
78
102
}
 70
     0
280
     1
281
     0
  0
BLOCK_RECORD
  5
2D5
330
1
100
AcDbSymbolTableRecord
100
AcDbBlockTableRecord
  2
*U9
340
0
102
{BLKREFS
331
BB
102
}
 70
     0
280
     1
281
     0
  0
BLOCK_RECORD
  5
2EE
330
1
100
AcDbSymbolTableRecord
100
AcDbBlockTableRecord
  2
*U10
340
0
102
{BLKREFS
331
108
102
}
 70
     0
280
     1
281
     0
  0
BLOCK_RECORD
  5
308
330
1
100
AcDbSymbolTableRecord
100
AcDbBlockTableRecord
  2
*U11
340
0
102
{BLKREFS
331
148
102
}
 70
     0
280
     1
281
     0
  0
BLOCK_RECORD
  5
330
330
1
100
AcDbSymbolTableRecord
100
AcDbBlockTableRecord
  2
*D12
340
0
 70
     0
280
     1
281
     0
  0
BLOCK_RECORD
  5
345
102
{ACAD_XDICTIONARY
360
39B
102
}
330
1
100
AcDbSymbolTableRecord
100
AcDbBlockTableRecord
  2
801_35_100
340
0
 70
     0
280
     1
281
     0
  0
BLOCK_RECORD
  5
3A1
330
1
100
AcDbSymbolTableRecord
100
AcDbBlockTableRecord
  2
*D14
340
0
 70
     0
280
     1
281
     0
  0
BLOCK_RECORD
  5
3F4
330
1
100
AcDbSymbolTableRecord
100
AcDbBlockTableRecord
  2
*D15
340
0
 70
     0
280
     1
281
     0
  0
BLOCK_RECORD
  5
402
330
1
100
AcDbSymbolTableRecord
100
AcDbBlockTableRecord
  2
*D16
340
0
 70
     0
280
     1
281
     0
  0
BLOCK_RECORD
  5
410
330
1
100
AcDbSymbolTableRecord
100
AcDbBlockTableRecord
  2
*D17
340
0
 70
     0
280
     1
281
     0
  0
BLOCK_RECORD
  5
41E
330
1
100
AcDbSymbolTableRecord
100
AcDbBlockTableRecord
  2
*D18
340
0
 70
     0
280
     1
281
     0
  0
BLOCK_RECORD
  5
42C
330
1
100
AcDbSymbolTableRecord
100
AcDbBlockTableRecord
  2
*D19
340
0
 70
     0
280
     1
281
     0
  0
BLOCK_RECORD
  5
43A
330
1
100
AcDbSymbolTableRecord
100
AcDbBlockTableRecord
  2
*D20
340
0
 70
     0
280
     1
281
     0
  0
BLOCK_RECORD
  5
448
330
1
100
AcDbSymbolTableRecord
100
AcDbBlockTableRecord
  2
*D21
340
0
 70
     0
280
     1
281
     0
  0
BLOCK_RECORD
  5
456
330
1
100
AcDbSymbolTableRecord
100
AcDbBlockTableRecord
  2
*D22
340
0
 70
     0
280
     1
281
     0
  0
BLOCK_RECORD
  5
464
330
1
100
AcDbSymbolTableRecord
100
AcDbBlockTableRecord
  2
*D23
340
0
 70
     0
280
     1
281
     0
  0
BLOCK_RECORD
  5
472
330
1
100
AcDbSymbolTableRecord
100
AcDbBlockTableRecord
  2
*D24
340
0
 70
     0
280
     1
281
     0
  0
BLOCK_RECORD
  5
480
330
1
100
AcDbSymbolTableRecord
100
AcDbBlockTableRecord
  2
*D25
340
0
 70
     0
280
     1
281
     0
  0
BLOCK_RECORD
  5
48E
330
1
100
AcDbSymbolTableRecord
100
AcDbBlockTableRecord
  2
*D26
340
0
 70
     0
280
     1
281
     0
  0
BLOCK_RECORD
  5
49C
330
1
100
AcDbSymbolTableRecord
100
AcDbBlockTableRecord
  2
*D27
340
0
 70
     0
280
     1
281
     0
  0
BLOCK_RECORD
  5
4AA
330
1
100
AcDbSymbolTableRecord
100
AcDbBlockTableRecord
  2
*D28
340
0
 70
     0
280
     1
281
     0
  0
ENDTAB
  0
ENDSEC
  0
SECTION
  2
BLOCKS
  0
BLOCK
  5
20
330
1F
100
AcDbEntity
  8
0
100
AcDbBlockBegin
  2
*MODEL_SPACE
 70
     0
 10
0.0
 20
0.0
 30
0.0
  3
*MODEL_SPACE
  1

  0
ENDBLK
  5
21
330
1F
100
AcDbEntity
  8
0
100
AcDbBlockEnd
  0
BLOCK
  5
1C
330
1B
100
AcDbEntity
 67
     1
  8
0
100
AcDbBlockBegin
  2
*PAPER_SPACE
 70
     0
 10
0.0
 20
0.0
 30
0.0
  3
*PAPER_SPACE
  1

  0
ENDBLK
  5
1D
330
1B
100
AcDbEntity
 67
     1
  8
0
100
AcDbBlockEnd
  0
BLOCK
  5
73
330
48
100
AcDbEntity
  8
0
100
AcDbBlockBegin
  2
*U0
 70
     1
 10
0.0
 20
0.0
 30
0.0
  3
*U0
  1
*ANON
  0
ARC
  5
49
330
48
100
AcDbEntity
  8
PV-D4
100
AcDbCircle
 10
-73.5
 20
0.0
 30
0.0
 40
16.5
210
0.0
220
-1.0
230
0.0
100
AcDbArc
 50
90.00000000000019
 51
270.0000000000006
  0
LINE
  5
4A
330
48
100
AcDbEntity
  8
PV-D4
100
AcDbLine
 10
-713.4999999999997
 20
0.0
 30
16.5
 11
-713.4999999999997
 21
0.0
 31
-16.5
  0
LINE
  5
4B
330
48
100
AcDbEntity
  8
PV-D4
100
AcDbLine
 10
-778.5
 20
0.0
 30
48.5
 11
-745.5
 21
0.0
 31
48.5
  0
LINE
  5
4C
330
48
100
AcDbEntity
  8
PV-D4
100
AcDbLine
 10
-713.4999999999997
 20
0.0
 30
-16.5
 11
-713.4999999999997
 21
0.0
 31
16.5
  0
LINE
  5
4D
330
48
100
AcDbEntity
  8
PV-D4
100
AcDbLine
 10
-778.5
 20
0.0
 30
851.5
 11
-745.5
 21
0.0
 31
851.5
  0
LINE
  5
4E
330
48
100
AcDbEntity
  8
PV-D4
100
AcDbLine
 10
-778.5
 20
0.0
 30
48.5
 11
-745.5
 21
0.0
 31
48.5
  0
ARC
  5
4F
330
48
100
AcDbEntity
  8
PV-D4
100
AcDbCircle
 10
-762.0
 20
900.0
 30
0.0
 40
16.5
210
0.0
220
-1.0
230
0.0
100
AcDbArc
 50
0.0
 51
180.0000000000011
  0
LINE
  5
50
330
48
100
AcDbEntity
  8
PV-D4
100
AcDbLine
 10
-778.5
 20
0.0
 30
851.5
 11
-745.5
 21
0.0
 31
851.5
  0
LINE
  5
51
330
48
100
AcDbEntity
  8
PV-D4
100
AcDbLine
 10
0.0
 20
0.0
 30
35.0
 11
0.0
 21
0.0
 31
-35.0
  0
LINE
  5
52
330
48
100
AcDbEntity
  8
PV-D4
100
AcDbLine
 10
-12.0
 20
0.0
 30
33.0
 11
-12.0
 21
0.0
 31
-33.0
  0
ARC
  5
53
330
48
100
AcDbEntity
  8
PV-D4
100
AcDbCircle
 10
-189.0
 20
0.0
 30
0.0
 40
35.0
210
0.0
220
-1.0
230
0.0
100
AcDbArc
 50
28.12706821860473
 51
151.8729317813951
  0
ARC
  5
54
330
48
100
AcDbEntity
  8
PV-D4
100
AcDbCircle
 10
-189.0
 20
0.0
 30
0.0
 40
35.0
210
0.0
220
-1.0
230
0.0
100
AcDbArc
 50
208.1270682186039
 51
331.8729317813944
  0
ARC
  5
55
330
48
100
AcDbEntity
  8
PV-D4
100
AcDbCircle
 10
-189.0
 20
0.0
 30
0.0
 40
16.8
210
0.0
220
-1.0
230
0.0
100
AcDbArc
 50
79.15593743630314
 51
100.8440625636968
  0
ARC
  5
56
330
48
100
AcDbEntity
  8
PV-D4
100
AcDbCircle
 10
-189.0
 20
0.0
 30
0.0
 40
16.8
210
0.0
220
-1.0
230
0.0
100
AcDbArc
 50
259.1559374363022
 51
280.8440625636959
  0
ARC
  5
57
330
48
100
AcDbEntity
  8
PV-D4
100
AcDbCircle
 10
-762.0
 20
115.0
 30
0.0
 40
35.0
210
0.0
220
-1.0
230
0.0
100
AcDbArc
 50
118.1270682186047
 51
180.0
  0
ARC
  5
58
330
48
100
AcDbEntity
  8
PV-D4
100
AcDbCircle
 10
-762.0
 20
115.0
 30
0.0
 40
35.0
210
0.0
220
-1.0
230
0.0
100
AcDbArc
 50
298.1270682186039
 51
61.87293178139518
  0
ARC
  5
59
330
48
100
AcDbEntity
  8
PV-D4
100
AcDbCircle
 10
-762.0
 20
115.0
 30
0.0
 40
35.0
210
0.0
220
-1.0
230
0.0
100
AcDbArc
 50
179.9999999999992
 51
241.8729317813943
  0
ARC
  5
5A
330
48
100
AcDbEntity
  8
PV-D4
100
AcDbCircle
 10
-762.0
 20
115.0
 30
0.0
 40
16.8
210
0.0
220
-1.0
230
0.0
100
AcDbArc
 50
169.1559374363031
 51
180.0000000000002
  0
ARC
  5
5B
330
48
100
AcDbEntity
  8
PV-D4
100
AcDbCircle
 10
-762.0
 20
115.0
 30
0.0
 40
16.8
210
0.0
220
-1.0
230
0.0
100
AcDbArc
 50
349.1559374363023
 51
10.84406256369683
  0
ARC
  5
5C
330
48
100
AcDbEntity
  8
PV-D4
100
AcDbCircle
 10
-762.0
 20
115.0
 30
0.0
 40
16.8
210
0.0
220
-1.0
230
0.0
100
AcDbArc
 50
179.999999999999
 51
190.8440625636961
  0
ARC
  5
5D
330
48
100
AcDbEntity
  8
PV-D4
100
AcDbCircle
 10
-762.0
 20
900.0
 30
0.0
 40
35.0
210
0.0
220
-1.0
230
0.0
100
AcDbArc
 50
298.1270682186039
 51
180.0
  0
ARC
  5
5E
330
48
100
AcDbEntity
  8
PV-D4
100
AcDbCircle
 10
-762.0
 20
900.0
 30
0.0
 40
35.0
210
0.0
220
-1.0
230
0.0
100
AcDbArc
 50
179.9999999999992
 51
241.8729317813944
  0
ARC
  5
5F
330
48
100
AcDbEntity
  8
PV-D4
100
AcDbCircle
 10
-762.0
 20
900.0
 30
0.0
 40
16.8
210
0.0
220
-1.0
230
0.0
100
AcDbArc
 50
349.1559374363025
 51
180.0000000000002
  0
ARC
  5
60
330
48
100
AcDbEntity
  8
PV-D4
100
AcDbCircle
 10
-762.0
 20
900.0
 30
0.0
 40
16.8
210
0.0
220
-1.0
230
0.0
100
AcDbArc
 50
179.9999999999992
 51
190.8440625636959
  0
LINE
  5
61
330
48
100
AcDbEntity
  8
PV-D4
100
AcDbLine
 10
-10.0
 20
0.0
 30
-35.0
 11
0.0
 21
0.0
 31
-35.0
  0
LINE
  5
62
330
48
100
AcDbEntity
  8
PV-D4
100
AcDbLine
 10
-10.0
 20
0.0
 30
35.0
 11
0.0
 21
0.0
 31
35.0
  0
LINE
  5
63
330
48
100
AcDbEntity
  8
PV-D4
100
AcDbLine
 10
-778.5
 20
0.0
 30
851.5
 11
-778.5
 21
0.0
 31
48.5
  0
LINE
  5
64
330
48
100
AcDbEntity
  8
PV-D4
100
AcDbLine
 10
-745.5
 20
0.0
 30
851.5
 11
-745.5
 21
0.0
 31
48.5
  0
LINE
  5
65
330
48
100
AcDbEntity
  8
PV-D4
100
AcDbLine
 10
-122.0
 20
0.0
 30
16.5
 11
-713.4999999999997
 21
0.0
 31
16.5
  0
LINE
  5
66
330
48
100
AcDbEntity
  8
PV-D4
100
AcDbLine
 10
-122.0
 20
0.0
 30
-16.5
 11
-713.4999999999997
 21
0.0
 31
-16.5
  0
LINE
  5
67
330
48
100
AcDbEntity
  8
PV-D4
100
AcDbLine
 10
-12.0
 20
0.0
 30
16.5
 11
-25.0
 21
0.0
 31
16.5
  0
LINE
  5
68
330
48
100
AcDbEntity
  8
PV-D4
100
AcDbLine
 10
-12.0
 20
0.0
 30
-16.5
 11
-25.0
 21
0.0
 31
-16.5
  0
ARC
  5
69
330
48
100
AcDbEntity
  8
PV-D4
100
AcDbCircle
 10
-10.0
 20
33.0
 30
0.0
 40
2.0
210
0.0
220
-1.0
230
0.0
100
AcDbArc
 50
90.00000000000019
 51
180.0000000000012
  0
ARC
  5
6A
330
48
100
AcDbEntity
  8
PV-D4
100
AcDbCircle
 10
-10.0
 20
-33.0
 30
0.0
 40
2.0
210
0.0
220
-1.0
230
0.0
100
AcDbArc
 50
179.9999999999978
 51
269.9999999999997
  0
LINE
  5
6B
330
48
100
AcDbEntity
  8
PV-D4
100
AcDbLine
 10
-745.5
 20
0.0
 30
851.5
 11
-745.5
 21
0.0
 31
900.0
  0
LINE
  5
6C
330
48
100
AcDbEntity
  8
PV-D4
100
AcDbLine
 10
-778.5
 20
0.0
 30
900.0
 11
-778.5
 21
0.0
 31
851.5
  0
ARC
  5
6D
330
48
100
AcDbEntity
  8
PV-D4
100
AcDbCircle
 10
-713.4999999999997
 20
48.5
 30
0.0
 40
65.0
210
0.0
220
-1.0
230
0.0
100
AcDbArc
 50
179.9999999999998
 51
270.0
  0
ARC
  5
6E
330
48
100
AcDbEntity
  8
PV-D4
100
AcDbCircle
 10
-713.4999999999997
 20
48.5
 30
0.0
 40
32.0
210
0.0
220
-1.0
230
0.0
100
AcDbArc
 50
179.9999999999998
 51
270.0
  0
LINE
  5
6F
330
48
100
AcDbEntity
  8
PV-D4
100
AcDbLine
 10
-73.5
 20
0.0
 30
16.5
 11
-122.0000000000001
 21
0.0
 31
16.5
  0
LINE
  5
70
330
48
100
AcDbEntity
  8
PV-D4
100
AcDbLine
 10
-122.0000000000001
 20
0.0
 30
-16.5
 11
-73.5
 21
0.0
 31
-16.5
  0
LINE
  5
71
330
48
100
AcDbEntity
  8
PV-D4
100
AcDbLine
 10
-73.5
 20
0.0
 30
-16.5
 11
-25.0
 21
0.0
 31
-16.5
  0
LINE
  5
72
330
48
100
AcDbEntity
  8
PV-D4
100
AcDbLine
 10
-25.0
 20
0.0
 30
16.5
 11
-73.5
 21
0.0
 31
16.5
  0
ENDBLK
  5
74
330
48
100
AcDbEntity
  8
0
100
AcDbBlockEnd
  0
BLOCK
  5
79
330
77
100
AcDbEntity
  8
0
100
AcDbBlockBegin
  2
FRONT
 70
     0
 10
0.0
 20
0.0
 30
0.0
  3
FRONT
  1

  0
INSERT
  5
78
330
77
100
AcDbEntity
  8
PV-D4
100
AcDbBlockReference
  2
*U0
 10
0.0
 20
0.0
 30
0.0
 50
180.0
210
0.0
220
1.0
230
0.0
  0
ENDBLK
  5
7A
330
77
100
AcDbEntity
  8
0
100
AcDbBlockEnd
  0
BLOCK
  5
B8
330
7C
100
AcDbEntity
  8
0
100
AcDbBlockBegin
  2
*U2
 70
     1
 10
0.0
 20
0.0
 30
0.0
  3
*U2
  1
*ANON
  0
ARC
  5
7D
330
7C
100
AcDbEntity
  8
PV-D4
100
AcDbCircle
 10
762.0
 20
0.0
 30
0.0
 40
16.5
210
-1.0
220
0.0
230
0.0
100
AcDbArc
 50
269.9999999999996
 51
89.9999999999996
  0
LINE
  5
7E
330
7C
100
AcDbEntity
  8
PV-D4
100
AcDbLine
 10
0.0
 20
-57.0
 30
48.5
 11
0.0
 21
-90.0
 31
48.5
  0
ARC
  5
7F
330
7C
100
AcDbEntity
  8
PV-D4
100
AcDbCircle
 10
73.5
 20
0.0
 30
0.0
 40
16.5
210
-1.0
220
0.0
230
0.0
100
AcDbArc
 50
180.0000000000002
 51
0.0000000000005979
  0
LINE
  5
80
330
7C
100
AcDbEntity
  8
PV-D4
100
AcDbLine
 10
0.0
 20
-57.0
 30
851.5
 11
0.0
 21
-90.0
 31
851.5
  0
LINE
  5
81
330
7C
100
AcDbEntity
  8
PV-D4
100
AcDbLine
 10
0.0
 20
-57.0
 30
48.5
 11
0.0
 21
-90.0
 31
48.5
  0
LINE
  5
82
330
7C
100
AcDbEntity
  8
PV-D4
100
AcDbLine
 10
0.0
 20
-57.0
 30
131.4999999999999
 11
0.0
 21
-73.50000000000004
 31
114.9999999999999
  0
LINE
  5
83
330
7C
100
AcDbEntity
  8
PV-D4
100
AcDbLine
 10
0.0
 20
-73.49999999999993
 30
114.9999999999999
 11
0.0
 21
-57.0
 31
98.50000000000001
  0
LINE
  5
84
330
7C
100
AcDbEntity
  8
PV-D4
100
AcDbLine
 10
0.0
 20
-25.0
 30
916.5
 11
0.0
 21
-25.0
 31
883.5
  0
LINE
  5
85
330
7C
100
AcDbEntity
  8
PV-D4
100
AcDbLine
 10
0.0
 20
-57.0
 30
851.5
 11
0.0
 21
-90.0
 31
851.5
  0
LINE
  5
86
330
7C
100
AcDbEntity
  8
PV-D4
100
AcDbLine
 10
0.0
 20
-25.0
 30
883.5
 11
0.0
 21
-25.0
 31
916.5
  0
ARC
  5
87
330
7C
100
AcDbEntity
  8
PV-D4
100
AcDbCircle
 10
189.0
 20
0.0
 30
0.0
 40
35.0
210
-1.0
220
0.0
230
0.0
100
AcDbArc
 50
28.12706821860473
 51
151.8729317813951
  0
ARC
  5
88
330
7C
100
AcDbEntity
  8
PV-D4
100
AcDbCircle
 10
189.0
 20
0.0
 30
0.0
 40
35.0
210
-1.0
220
0.0
230
0.0
100
AcDbArc
 50
208.1270682186039
 51
331.8729317813944
  0
ARC
  5
89
330
7C
100
AcDbEntity
  8
PV-D4
100
AcDbCircle
 10
189.0
 20
0.0
 30
0.0
 40
16.8
210
-1.0
220
0.0
230
0.0
100
AcDbArc
 50
79.15593743630314
 51
100.8440625636968
  0
ARC
  5
8A
330
7C
100
AcDbEntity
  8
PV-D4
100
AcDbCircle
 10
189.0
 20
0.0
 30
0.0
 40
16.8
210
-1.0
220
0.0
230
0.0
100
AcDbArc
 50
259.1559374363022
 51
280.8440625636959
  0
ARC
  5
8B
330
7C
100
AcDbEntity
  8
PV-D4
100
AcDbCircle
 10
762.0
 20
0.0
 30
0.0
 40
35.0
210
-1.0
220
0.0
230
0.0
100
AcDbArc
 50
208.1270682186039
 51
151.8729317813951
  0
ARC
  5
8C
330
7C
100
AcDbEntity
  8
PV-D4
100
AcDbCircle
 10
762.0
 20
0.0
 30
0.0
 40
16.8
210
-1.0
220
0.0
230
0.0
100
AcDbArc
 50
259.1559374363023
 51
100.8440625636967
  0
LINE
  5
8D
330
7C
100
AcDbEntity
  8
PV-D4
100
AcDbLine
 10
0.0
 20
0.0
 30
0.0
 11
0.0
 21
0.0
 31
35.0
  0
LINE
  5
8E
330
7C
100
AcDbEntity
  8
PV-D4
100
AcDbLine
 10
0.0
 20
0.0
 30
-35.0
 11
0.0
 21
0.0
 31
0.0000000000004888
  0
LINE
  5
8F
330
7C
100
AcDbEntity
  8
PV-D4
100
AcDbLine
 10
0.0
 20
-12.0
 30
0.0
 11
0.0
 21
-12.0
 31
33.0
  0
LINE
  5
90
330
7C
100
AcDbEntity
  8
PV-D4
100
AcDbLine
 10
0.0
 20
-12.0
 30
-33.0
 11
0.0
 21
-12.0
 31
0.0000000000004609
  0
LINE
  5
91
330
7C
100
AcDbEntity
  8
PV-D4
100
AcDbLine
 10
0.0
 20
0.0
 30
115.0
 11
0.0
 21
0.0
 31
150.0
  0
LINE
  5
92
330
7C
100
AcDbEntity
  8
PV-D4
100
AcDbLine
 10
0.0
 20
0.0
 30
80.0
 11
0.0
 21
0.0
 31
115.0000000000003
  0
LINE
  5
93
330
7C
100
AcDbEntity
  8
PV-D4
100
AcDbLine
 10
0.0
 20
-12.0
 30
115.0
 11
0.0
 21
-12.0
 31
148.0
  0
LINE
  5
94
330
7C
100
AcDbEntity
  8
PV-D4
100
AcDbLine
 10
0.0
 20
-12.0
 30
82.0
 11
0.0
 21
-12.0
 31
115.0000000000003
  0
LINE
  5
95
330
7C
100
AcDbEntity
  8
PV-D4
100
AcDbLine
 10
0.0
 20
0.0
 30
900.0
 11
0.0
 21
0.0
 31
935.0
  0
LINE
  5
96
330
7C
100
AcDbEntity
  8
PV-D4
100
AcDbLine
 10
0.0
 20
0.0
 30
865.0
 11
0.0
 21
0.0
 31
900.0000000000005
  0
LINE
  5
97
330
7C
100
AcDbEntity
  8
PV-D4
100
AcDbLine
 10
0.0
 20
-12.0
 30
900.0
 11
0.0
 21
-12.0
 31
933.0
  0
LINE
  5
98
330
7C
100
AcDbEntity
  8
PV-D4
100
AcDbLine
 10
0.0
 20
-12.0
 30
867.0
 11
0.0
 21
-12.0
 31
900.0000000000005
  0
LINE
  5
99
330
7C
100
AcDbEntity
  8
PV-D4
100
AcDbLine
 10
0.0
 20
-10.0
 30
935.0
 11
0.0
 21
0.0
 31
935.0
  0
LINE
  5
9A
330
7C
100
AcDbEntity
  8
PV-D4
100
AcDbLine
 10
0.0
 20
-10.0
 30
865.0
 11
0.0
 21
0.0
 31
865.0
  0
LINE
  5
9B
330
7C
100
AcDbEntity
  8
PV-D4
100
AcDbLine
 10
0.0
 20
-10.0
 30
150.0
 11
0.0
 21
0.0
 31
150.0
  0
LINE
  5
9C
330
7C
100
AcDbEntity
  8
PV-D4
100
AcDbLine
 10
0.0
 20
-10.0
 30
80.0
 11
0.0
 21
0.0
 31
80.0
  0
LINE
  5
9D
330
7C
100
AcDbEntity
  8
PV-D4
100
AcDbLine
 10
0.0
 20
-10.0
 30
35.0
 11
0.0
 21
0.0
 31
35.0
  0
LINE
  5
9E
330
7C
100
AcDbEntity
  8
PV-D4
100
AcDbLine
 10
0.0
 20
-10.0
 30
-35.0
 11
0.0
 21
0.0
 31
-35.0
  0
LINE
  5
9F
330
7C
100
AcDbEntity
  8
PV-D4
100
AcDbLine
 10
0.0
 20
-12.0
 30
883.5
 11
0.0
 21
-25.0
 31
883.5
  0
LINE
  5
A0
330
7C
100
AcDbEntity
  8
PV-D4
100
AcDbLine
 10
0.0
 20
-12.0
 30
916.5
 11
0.0
 21
-25.0
 31
916.5
  0
LINE
  5
A1
330
7C
100
AcDbEntity
  8
PV-D4
100
AcDbLine
 10
0.0
 20
-12.0
 30
98.50000000000001
 11
0.0
 21
-57.0
 31
98.50000000000001
  0
LINE
  5
A2
330
7C
100
AcDbEntity
  8
PV-D4
100
AcDbLine
 10
0.0
 20
-12.0
 30
131.4999999999999
 11
0.0
 21
-57.0
 31
131.4999999999999
  0
LINE
  5
A3
330
7C
100
AcDbEntity
  8
PV-D4
100
AcDbLine
 10
0.0
 20
-57.0
 30
98.50000000000001
 11
0.0
 21
-57.0
 31
48.5
  0
LINE
  5
A4
330
7C
100
AcDbEntity
  8
PV-D4
100
AcDbLine
 10
0.0
 20
-57.0
 30
851.5
 11
0.0
 21
-57.0
 31
131.4999999999999
  0
LINE
  5
A5
330
7C
100
AcDbEntity
  8
PV-D4
100
AcDbLine
 10
0.0
 20
-90.0
 30
851.5
 11
0.0
 21
-90.0
 31
48.5
  0
LINE
  5
A6
330
7C
100
AcDbEntity
  8
PV-D4
100
AcDbLine
 10
0.0
 20
-12.0
 30
-16.5
 11
0.0
 21
-73.5
 31
-16.5
  0
LINE
  5
A7
330
7C
100
AcDbEntity
  8
PV-D4
100
AcDbLine
 10
0.0
 20
-12.0
 30
16.5
 11
0.0
 21
-57.0
 31
16.5
  0
LINE
  5
A8
330
7C
100
AcDbEntity
  8
PV-D4
100
AcDbLine
 10
0.0
 20
-713.4999999999997
 30
16.5
 11
0.0
 21
-122.0
 31
16.5
  0
LINE
  5
A9
330
7C
100
AcDbEntity
  8
PV-D4
100
AcDbLine
 10
0.0
 20
-713.4999999999997
 30
-16.5
 11
0.0
 21
-122.0
 31
-16.5
  0
ARC
  5
AA
330
7C
100
AcDbEntity
  8
PV-D4
100
AcDbCircle
 10
10.0
 20
867.0
 30
0.0
 40
2.0
210
-1.0
220
0.0
230
0.0
100
AcDbArc
 50
270.0000000000001
 51
359.9999999999996
  0
ARC
  5
AB
330
7C
100
AcDbEntity
  8
PV-D4
100
AcDbCircle
 10
10.0
 20
933.0
 30
0.0
 40
2.0
210
-1.0
220
0.0
230
0.0
100
AcDbArc
 50
359.9999999999996
 51
89.99999999999978
  0
ARC
  5
AC
330
7C
100
AcDbEntity
  8
PV-D4
100
AcDbCircle
 10
10.0
 20
82.0
 30
0.0
 40
2.0
210
-1.0
220
0.0
230
0.0
100
AcDbArc
 50
270.0000000000001
 51
0.000000000001239
  0
ARC
  5
AD
330
7C
100
AcDbEntity
  8
PV-D4
100
AcDbCircle
 10
10.0
 20
148.0
 30
0.0
 40
2.0
210
-1.0
220
0.0
230
0.0
100
AcDbArc
 50
359.9999999999996
 51
89.99999999999978
  0
ARC
  5
AE
330
7C
100
AcDbEntity
  8
PV-D4
100
AcDbCircle
 10
10.0
 20
-33.0
 30
0.0
 40
2.0
210
-1.0
220
0.0
230
0.0
100
AcDbArc
 50
270.0000000000001
 51
0.000000000001239
  0
ARC
  5
AF
330
7C
100
AcDbEntity
  8
PV-D4
100
AcDbCircle
 10
10.0
 20
33.0
 30
0.0
 40
2.0
210
-1.0
220
0.0
230
0.0
100
AcDbArc
 50
359.999999999998
 51
89.99999999999978
  0
ARC
  5
B0
330
7C
100
AcDbEntity
  8
PV-D4
100
AcDbCircle
 10
25.0
 20
851.5
 30
0.0
 40
32.0
210
-1.0
220
0.0
230
0.0
100
AcDbArc
 50
0.0000000000002036
 51
90.00000000000117
  0
ARC
  5
B1
330
7C
100
AcDbEntity
  8
PV-D4
100
AcDbCircle
 10
25.0
 20
851.5
 30
0.0
 40
65.0
210
-1.0
220
0.0
230
0.0
100
AcDbArc
 50
0.0000000000002036
 51
90.00000000000117
  0
LINE
  5
B2
330
7C
100
AcDbEntity
  8
PV-D4
100
AcDbLine
 10
0.0
 20
-90.0
 30
0.0
 11
0.0
 21
-90.0
 31
48.50000000000017
  0
LINE
  5
B3
330
7C
100
AcDbEntity
  8
PV-D4
100
AcDbLine
 10
0.0
 20
-57.0
 30
48.50000000000017
 11
0.0
 21
-57.0
 31
0.0
  0
LINE
  5
B4
330
7C
100
AcDbEntity
  8
PV-D4
100
AcDbLine
 10
0.0
 20
-121.9999999999997
 30
16.5
 11
0.0
 21
-90.0
 31
16.5
  0
LINE
  5
B5
330
7C
100
AcDbEntity
  8
PV-D4
100
AcDbLine
 10
0.0
 20
-73.5
 30
-16.5
 11
0.0
 21
-121.9999999999997
 31
-16.5
  0
LINE
  5
B6
330
7C
100
AcDbEntity
  8
PV-D4
100
AcDbLine
 10
0.0
 20
-713.5000000000001
 30
-16.5
 11
0.0
 21
-762.0
 31
-16.5
  0
LINE
  5
B7
330
7C
100
AcDbEntity
  8
PV-D4
100
AcDbLine
 10
0.0
 20
-762.0
 30
16.5
 11
0.0
 21
-713.5000000000001
 31
16.5
  0
ENDBLK
  5
B9
330
7C
100
AcDbEntity
  8
0
100
AcDbBlockEnd
  0
BLOCK
  5
BC
330
BA
100
AcDbEntity
  8
0
100
AcDbBlockBegin
  2
LEFT
 70
     0
 10
0.0
 20
0.0
 30
0.0
  3
LEFT
  1

  0
INSERT
  5
BB
330
BA
100
AcDbEntity
  8
PV-D4
100
AcDbBlockReference
  2
*U2
 10
0.0
 20
0.0
 30
0.0
 50
270.0
210
0.0
220
1.0
230
0.0
  0
ENDBLK
  5
BD
330
BA
100
AcDbEntity
  8
0
100
AcDbBlockEnd
  0
BLOCK
  5
105
330
BF
100
AcDbEntity
  8
0
100
AcDbBlockBegin
  2
*U4
 70
     1
 10
0.0
 20
0.0
 30
0.0
  3
*U4
  1
*ANON
  0
CIRCLE
  5
C0
330
BF
100
AcDbEntity
  8
PV-D4
100
AcDbCircle
 10
-762.0
 20
0.0
 30
0.0
 40
16.5
210
1.0
220
0.0
230
0.0
  0
ARC
  5
C1
330
BF
100
AcDbEntity
  8
PV-D4
100
AcDbCircle
 10
-73.5
 20
0.0
 30
0.0
 40
16.5
210
1.0
220
0.0
230
0.0
100
AcDbArc
 50
0.0
 51
90.00000000000019
  0
ARC
  5
C2
330
BF
100
AcDbEntity
  8
PV-D4
100
AcDbCircle
 10
-73.5
 20
0.0
 30
0.0
 40
16.5
210
1.0
220
0.0
230
0.0
100
AcDbArc
 50
270.0000000000006
 51
0.0000000000008002
  0
CIRCLE
  5
C3
330
BF
100
AcDbEntity
  8
PV-D4
100
AcDbCircle
 10
-189.0
 20
0.0
 30
0.0
 40
16.5
210
1.0
220
0.0
230
0.0
  0
LINE
  5
C4
330
BF
100
AcDbEntity
  8
PV-D4
100
AcDbLine
 10
0.0
 20
-73.5
 30
48.5
 11
0.0
 21
-57.0
 31
48.5
  0
LINE
  5
C5
330
BF
100
AcDbEntity
  8
PV-D4
100
AcDbLine
 10
0.0
 20
-90.0
 30
48.5
 11
0.0
 21
-73.49999999999976
 31
48.5
  0
LINE
  5
C6
330
BF
100
AcDbEntity
  8
PV-D4
100
AcDbLine
 10
0.0
 20
-73.5
 30
851.5
 11
0.0
 21
-57.0
 31
851.5
  0
LINE
  5
C7
330
BF
100
AcDbEntity
  8
PV-D4
100
AcDbLine
 10
0.0
 20
-90.0
 30
851.5
 11
0.0
 21
-73.49999999999976
 31
851.5
  0
LINE
  5
C8
330
BF
100
AcDbEntity
  8
PV-D4
100
AcDbLine
 10
0.0
 20
-73.5
 30
48.5
 11
0.0
 21
-57.0
 31
48.5
  0
LINE
  5
C9
330
BF
100
AcDbEntity
  8
PV-D4
100
AcDbLine
 10
0.0
 20
-90.0
 30
48.5
 11
0.0
 21
-73.49999999999976
 31
48.5
  0
LINE
  5
CA
330
BF
100
AcDbEntity
  8
PV-D4
100
AcDbLine
 10
0.0
 20
-73.50000000000004
 30
114.9999999999999
 11
0.0
 21
-57.0
 31
131.4999999999999
  0
LINE
  5
CB
330
BF
100
AcDbEntity
  8
PV-D4
100
AcDbLine
 10
0.0
 20
-57.0
 30
98.50000000000001
 11
0.0
 21
-73.50000000000017
 31
115.0000000000001
  0
LINE
  5
CC
330
BF
100
AcDbEntity
  8
PV-D4
100
AcDbLine
 10
0.0
 20
-25.0
 30
900.0
 11
0.0
 21
-25.0
 31
916.5
  0
LINE
  5
CD
330
BF
100
AcDbEntity
  8
PV-D4
100
AcDbLine
 10
0.0
 20
-25.0
 30
883.5
 11
0.0
 21
-25.0
 31
900.0000000000001
  0
LINE
  5
CE
330
BF
100
AcDbEntity
  8
PV-D4
100
AcDbLine
 10
0.0
 20
-73.5
 30
851.5
 11
0.0
 21
-57.0
 31
851.5
  0
LINE
  5
CF
330
BF
100
AcDbEntity
  8
PV-D4
100
AcDbLine
 10
0.0
 20
-90.0
 30
851.5
 11
0.0
 21
-73.49999999999976
 31
851.5
  0
LINE
  5
D0
330
BF
100
AcDbEntity
  8
PV-D4
100
AcDbLine
 10
0.0
 20
-25.0
 30
900.0
 11
0.0
 21
-25.0
 31
883.5
  0
LINE
  5
D1
330
BF
100
AcDbEntity
  8
PV-D4
100
AcDbLine
 10
0.0
 20
-25.0
 30
916.5
 11
0.0
 21
-25.0
 31
899.9999999999996
  0
CIRCLE
  5
D2
330
BF
100
AcDbEntity
  8
PV-D4
100
AcDbCircle
 10
-189.0
 20
0.0
 30
0.0
 40
33.25
210
1.0
220
0.0
230
0.0
  0
CIRCLE
  5
D3
330
BF
100
AcDbEntity
  8
PV-D4
100
AcDbCircle
 10
-189.0
 20
0.0
 30
0.0
 40
35.0
210
1.0
220
0.0
230
0.0
  0
CIRCLE
  5
D4
330
BF
100
AcDbEntity
  8
PV-D4
100
AcDbCircle
 10
-189.0
 20
0.0
 30
0.0
 40
16.8
210
1.0
220
0.0
230
0.0
  0
CIRCLE
  5
D5
330
BF
100
AcDbEntity
  8
PV-D4
100
AcDbCircle
 10
-189.0
 20
0.0
 30
0.0
 40
32.25
210
1.0
220
0.0
230
0.0
  0
CIRCLE
  5
D6
330
BF
100
AcDbEntity
  8
PV-D4
100
AcDbCircle
 10
-762.0
 20
0.0
 30
0.0
 40
33.25
210
1.0
220
0.0
230
0.0
  0
CIRCLE
  5
D7
330
BF
100
AcDbEntity
  8
PV-D4
100
AcDbCircle
 10
-762.0
 20
0.0
 30
0.0
 40
35.0
210
1.0
220
0.0
230
0.0
  0
CIRCLE
  5
D8
330
BF
100
AcDbEntity
  8
PV-D4
100
AcDbCircle
 10
-762.0
 20
0.0
 30
0.0
 40
16.8
210
1.0
220
0.0
230
0.0
  0
CIRCLE
  5
D9
330
BF
100
AcDbEntity
  8
PV-D4
100
AcDbCircle
 10
-762.0
 20
0.0
 30
0.0
 40
32.25
210
1.0
220
0.0
230
0.0
  0
LINE
  5
DA
330
BF
100
AcDbEntity
  8
PV-D4
100
AcDbLine
 10
0.0
 20
0.0
 30
35.0
 11
0.0
 21
0.0
 31
-35.0
  0
LINE
  5
DB
330
BF
100
AcDbEntity
  8
PV-D4
100
AcDbLine
 10
0.0
 20
-12.0
 30
33.0
 11
0.0
 21
-12.0
 31
-33.0
  0
LINE
  5
DC
330
BF
100
AcDbEntity
  8
PV-D4
100
AcDbLine
 10
0.0
 20
0.0
 30
150.0
 11
0.0
 21
0.0
 31
80.0
  0
LINE
  5
DD
330
BF
100
AcDbEntity
  8
PV-D4
100
AcDbLine
 10
0.0
 20
-12.0
 30
148.0
 11
0.0
 21
-12.0
 31
82.0
  0
LINE
  5
DE
330
BF
100
AcDbEntity
  8
PV-D4
100
AcDbLine
 10
0.0
 20
0.0
 30
935.0
 11
0.0
 21
0.0
 31
865.0
  0
LINE
  5
DF
330
BF
100
AcDbEntity
  8
PV-D4
100
AcDbLine
 10
0.0
 20
-12.0
 30
933.0
 11
0.0
 21
-12.0
 31
867.0
  0
LINE
  5
E0
330
BF
100
AcDbEntity
  8
PV-D4
100
AcDbLine
 10
0.0
 20
-10.0
 30
865.0
 11
0.0
 21
0.0
 31
865.0
  0
LINE
  5
E1
330
BF
100
AcDbEntity
  8
PV-D4
100
AcDbLine
 10
0.0
 20
-10.0
 30
935.0
 11
0.0
 21
0.0
 31
935.0
  0
LINE
  5
E2
330
BF
100
AcDbEntity
  8
PV-D4
100
AcDbLine
 10
0.0
 20
-10.0
 30
80.0
 11
0.0
 21
0.0
 31
80.0
  0
LINE
  5
E3
330
BF
100
AcDbEntity
  8
PV-D4
100
AcDbLine
 10
0.0
 20
-10.0
 30
150.0
 11
0.0
 21
0.0
 31
150.0
  0
LINE
  5
E4
330
BF
100
AcDbEntity
  8
PV-D4
100
AcDbLine
 10
0.0
 20
-10.0
 30
-35.0
 11
0.0
 21
0.0
 31
-35.0
  0
LINE
  5
E5
330
BF
100
AcDbEntity
  8
PV-D4
100
AcDbLine
 10
0.0
 20
-10.0
 30
35.0
 11
0.0
 21
0.0
 31
35.0
  0
LINE
  5
E6
330
BF
100
AcDbEntity
  8
PV-D4
100
AcDbLine
 10
0.0
 20
-12.0
 30
916.5
 11
0.0
 21
-25.0
 31
916.5
  0
LINE
  5
E7
330
BF
100
AcDbEntity
  8
PV-D4
100
AcDbLine
 10
0.0
 20
-12.0
 30
883.5
 11
0.0
 21
-25.0
 31
883.5
  0
LINE
  5
E8
330
BF
100
AcDbEntity
  8
PV-D4
100
AcDbLine
 10
0.0
 20
-12.0
 30
131.4999999999999
 11
0.0
 21
-57.0
 31
131.4999999999999
  0
LINE
  5
E9
330
BF
100
AcDbEntity
  8
PV-D4
100
AcDbLine
 10
0.0
 20
-12.0
 30
98.50000000000001
 11
0.0
 21
-57.0
 31
98.50000000000001
  0
LINE
  5
EA
330
BF
100
AcDbEntity
  8
PV-D4
100
AcDbLine
 10
0.0
 20
-90.0
 30
851.5
 11
0.0
 21
-90.0
 31
48.5
  0
LINE
  5
EB
330
BF
100
AcDbEntity
  8
PV-D4
100
AcDbLine
 10
0.0
 20
-57.0
 30
98.50000000000001
 11
0.0
 21
-57.0
 31
48.5
  0
LINE
  5
EC
330
BF
100
AcDbEntity
  8
PV-D4
100
AcDbLine
 10
0.0
 20
-57.0
 30
851.5
 11
0.0
 21
-57.0
 31
131.4999999999999
  0
LINE
  5
ED
330
BF
100
AcDbEntity
  8
PV-D4
100
AcDbLine
 10
0.0
 20
-12.0
 30
16.5
 11
0.0
 21
-73.5
 31
16.5
  0
LINE
  5
EE
330
BF
100
AcDbEntity
  8
PV-D4
100
AcDbLine
 10
0.0
 20
-12.0
 30
-16.5
 11
0.0
 21
-73.5
 31
-16.5
  0
LINE
  5
EF
330
BF
100
AcDbEntity
  8
PV-D4
100
AcDbLine
 10
0.0
 20
-713.4999999999997
 30
-16.5
 11
0.0
 21
-219.8666486681013
 31
-16.5
  0
LINE
  5
F0
330
BF
100
AcDbEntity
  8
PV-D4
100
AcDbLine
 10
0.0
 20
-192.1606961258558
 30
-16.5
 11
0.0
 21
-185.8393038741441
 31
-16.5
  0
LINE
  5
F1
330
BF
100
AcDbEntity
  8
PV-D4
100
AcDbLine
 10
0.0
 20
-158.1333513318985
 30
-16.5
 11
0.0
 21
-122.0
 31
-16.5
  0
LINE
  5
F2
330
BF
100
AcDbEntity
  8
PV-D4
100
AcDbLine
 10
0.0
 20
-713.4999999999997
 30
16.5
 11
0.0
 21
-219.8666486681013
 31
16.5
  0
LINE
  5
F3
330
BF
100
AcDbEntity
  8
PV-D4
100
AcDbLine
 10
0.0
 20
-192.1606961258558
 30
16.5
 11
0.0
 21
-185.8393038741441
 31
16.5
  0
LINE
  5
F4
330
BF
100
AcDbEntity
  8
PV-D4
100
AcDbLine
 10
0.0
 20
-158.1333513318985
 30
16.5
 11
0.0
 21
-122.0
 31
16.5
  0
ARC
  5
F5
330
BF
100
AcDbEntity
  8
PV-D4
100
AcDbCircle
 10
-10.0
 20
933.0
 30
0.0
 40
2.0
210
1.0
220
0.0
230
0.0
100
AcDbArc
 50
90.00000000000019
 51
179.9999999999995
  0
ARC
  5
F6
330
BF
100
AcDbEntity
  8
PV-D4
100
AcDbCircle
 10
-10.0
 20
867.0
 30
0.0
 40
2.0
210
1.0
220
0.0
230
0.0
100
AcDbArc
 50
179.9999999999995
 51
269.9999999999997
  0
ARC
  5
F7
330
BF
100
AcDbEntity
  8
PV-D4
100
AcDbCircle
 10
-10.0
 20
148.0
 30
0.0
 40
2.0
210
1.0
220
0.0
230
0.0
100
AcDbArc
 50
90.00000000000019
 51
179.9999999999995
  0
ARC
  5
F8
330
BF
100
AcDbEntity
  8
PV-D4
100
AcDbCircle
 10
-10.0
 20
82.0
 30
0.0
 40
2.0
210
1.0
220
0.0
230
0.0
100
AcDbArc
 50
179.9999999999978
 51
269.9999999999997
  0
ARC
  5
F9
330
BF
100
AcDbEntity
  8
PV-D4
100
AcDbCircle
 10
-10.0
 20
33.0
 30
0.0
 40
2.0
210
1.0
220
0.0
230
0.0
100
AcDbArc
 50
90.00000000000019
 51
180.0000000000012
  0
ARC
  5
FA
330
BF
100
AcDbEntity
  8
PV-D4
100
AcDbCircle
 10
-10.0
 20
-33.0
 30
0.0
 40
2.0
210
1.0
220
0.0
230
0.0
100
AcDbArc
 50
179.9999999999978
 51
269.9999999999997
  0
ARC
  5
FB
330
BF
100
AcDbEntity
  8
PV-D4
100
AcDbCircle
 10
-25.0
 20
851.5
 30
0.0
 40
65.0
210
1.0
220
0.0
230
0.0
100
AcDbArc
 50
89.99999999999799
 51
179.9999999999998
  0
ARC
  5
FC
330
BF
100
AcDbEntity
  8
PV-D4
100
AcDbCircle
 10
-25.0
 20
851.5
 30
0.0
 40
32.0
210
1.0
220
0.0
230
0.0
100
AcDbArc
 50
89.99999999999799
 51
179.9999999999998
  0
LINE
  5
FD
330
BF
100
AcDbEntity
  8
PV-D4
100
AcDbLine
 10
0.0
 20
-90.0
 30
48.49999999999983
 11
0.0
 21
-90.0
 31
16.50000000000001
  0
LINE
  5
FE
330
BF
100
AcDbEntity
  8
PV-D4
100
AcDbLine
 10
0.0
 20
-57.0
 30
16.50000000000001
 11
0.0
 21
-57.0
 31
48.49999999999983
  0
LINE
  5
FF
330
BF
100
AcDbEntity
  8
PV-D4
100
AcDbLine
 10
0.0
 20
-73.5
 30
16.5
 11
0.0
 21
-122.0000000000001
 31
16.5
  0
LINE
  5
100
330
BF
100
AcDbEntity
  8
PV-D4
100
AcDbLine
 10
0.0
 20
-122.0000000000001
 30
-16.5
 11
0.0
 21
-73.5
 31
-16.5
  0
LINE
  5
101
330
BF
100
AcDbEntity
  8
PV-D4
100
AcDbLine
 10
0.0
 20
-762.0
 30
-16.5
 11
0.0
 21
-758.8393038741441
 31
-16.5
  0
LINE
  5
102
330
BF
100
AcDbEntity
  8
PV-D4
100
AcDbLine
 10
0.0
 20
-731.1333513318986
 30
-16.5
 11
0.0
 21
-713.4999999999997
 31
-16.5
  0
LINE
  5
103
330
BF
100
AcDbEntity
  8
PV-D4
100
AcDbLine
 10
0.0
 20
-713.4999999999997
 30
16.5
 11
0.0
 21
-731.1333513318986
 31
16.5
  0
LINE
  5
104
330
BF
100
AcDbEntity
  8
PV-D4
100
AcDbLine
 10
0.0
 20
-758.8393038741441
 30
16.5
 11
0.0
 21
-762.0
 31
16.5
  0
ENDBLK
  5
106
330
BF
100
AcDbEntity
  8
0
100
AcDbBlockEnd
  0
BLOCK
  5
109
330
107
100
AcDbEntity
  8
0
100
AcDbBlockBegin
  2
RIGHT
 70
     0
 10
0.0
 20
0.0
 30
0.0
  3
RIGHT
  1

  0
INSERT
  5
108
330
107
100
AcDbEntity
  8
PV-D4
100
AcDbBlockReference
  2
*U4
 10
0.0
 20
0.0
 30
0.0
 50
90.0
210
0.0
220
1.0
230
0.0
  0
ENDBLK
  5
10A
330
107
100
AcDbEntity
  8
0
100
AcDbBlockEnd
  0
BLOCK
  5
145
330
10C
100
AcDbEntity
  8
0
100
AcDbBlockBegin
  2
*U6
 70
     1
 10
0.0
 20
0.0
 30
0.0
  3
*U6
  1
*ANON
  0
LINE
  5
10D
330
10C
100
AcDbEntity
  8
PV-D4
100
AcDbLine
 10
-713.4999999999997
 20
-57.0
 30
0.0
 11
-713.4999999999997
 21
-90.0
 31
0.0
  0
LINE
  5
10E
330
10C
100
AcDbEntity
  8
PV-D4
100
AcDbLine
 10
-172.5
 20
-57.0
 30
0.0
 11
-189.0
 21
-73.50000000000004
 31
0.0
  0
LINE
  5
10F
330
10C
100
AcDbEntity
  8
PV-D4
100
AcDbLine
 10
-189.0
 20
-73.49999999999993
 30
0.0
 11
-205.5
 21
-57.0
 31
0.0
  0
LINE
  5
110
330
10C
100
AcDbEntity
  8
PV-D4
100
AcDbLine
 10
-57.0
 20
-205.5
 30
0.0
 11
-73.50000000000017
 21
-188.9999999999998
 31
0.0
  0
LINE
  5
111
330
10C
100
AcDbEntity
  8
PV-D4
100
AcDbLine
 10
-73.50000000000004
 20
-189.0
 30
0.0
 11
-57.0
 21
-172.5
 31
0.0
  0
LINE
  5
112
330
10C
100
AcDbEntity
  8
PV-D4
100
AcDbLine
 10
-713.4999999999997
 20
-73.5
 30
0.0
 11
-713.4999999999997
 21
-57.0
 31
0.0
  0
LINE
  5
113
330
10C
100
AcDbEntity
  8
PV-D4
100
AcDbLine
 10
-713.4999999999997
 20
-90.0
 30
0.0
 11
-713.4999999999997
 21
-73.49999999999976
 31
0.0
  0
LINE
  5
114
330
10C
100
AcDbEntity
  8
PV-D4
100
AcDbLine
 10
-745.5
 20
-25.0
 30
0.0
 11
-778.5
 21
-25.0
 31
0.0
  0
ARC
  5
115
330
10C
100
AcDbEntity
  8
PV-D4
100
AcDbCircle
 10
-762.0
 20
-73.5
 30
0.0
 40
16.5
100
AcDbArc
 50
180.0000000000011
 51
0.0000000000007895
  0
LINE
  5
116
330
10C
100
AcDbEntity
  8
PV-D4
100
AcDbLine
 10
-778.5
 20
-25.0
 30
0.0
 11
-745.5
 21
-25.0
 31
0.0
  0
LINE
  5
117
330
10C
100
AcDbEntity
  8
PV-D4
100
AcDbLine
 10
0.0000000000000048
 20
-154.0
 30
0.0
 11
-0.0000000000000048
 21
-224.0
 31
0.0
  0
LINE
  5
118
330
10C
100
AcDbEntity
  8
PV-D4
100
AcDbLine
 10
-11.99999999999999
 20
-156.0
 30
0.0
 11
-12.0
 21
-222.0
 31
0.0
  0
LINE
  5
119
330
10C
100
AcDbEntity
  8
PV-D4
100
AcDbLine
 10
0.0000000000000048
 20
-727.0
 30
0.0
 11
-0.0000000000000048
 21
-797.0
 31
0.0
  0
LINE
  5
11A
330
10C
100
AcDbEntity
  8
PV-D4
100
AcDbLine
 10
-11.99999999999999
 20
-729.0
 30
0.0
 11
-12.0
 21
-795.0
 31
0.0
  0
LINE
  5
11B
330
10C
100
AcDbEntity
  8
PV-D4
100
AcDbLine
 10
-224.0
 20
0.0
 30
0.0
 11
-154.0
 21
0.0
 31
0.0
  0
LINE
  5
11C
330
10C
100
AcDbEntity
  8
PV-D4
100
AcDbLine
 10
-222.0
 20
-12.0
 30
0.0
 11
-156.0
 21
-12.0
 31
0.0
  0
LINE
  5
11D
330
10C
100
AcDbEntity
  8
PV-D4
100
AcDbLine
 10
-797.0
 20
0.0
 30
0.0
 11
-727.0
 21
0.0
 31
0.0
  0
LINE
  5
11E
330
10C
100
AcDbEntity
  8
PV-D4
100
AcDbLine
 10
-795.0
 20
-12.0
 30
0.0
 11
-729.0
 21
-12.0
 31
0.0
  0
LINE
  5
11F
330
10C
100
AcDbEntity
  8
PV-D4
100
AcDbLine
 10
-727.0
 20
-10.0
 30
0.0
 11
-727.0
 21
0.0
 31
0.0
  0
LINE
  5
120
330
10C
100
AcDbEntity
  8
PV-D4
100
AcDbLine
 10
-797.0
 20
-10.0
 30
0.0
 11
-797.0
 21
0.0
 31
0.0
  0
LINE
  5
121
330
10C
100
AcDbEntity
  8
PV-D4
100
AcDbLine
 10
-154.0
 20
-10.0
 30
0.0
 11
-154.0
 21
0.0
 31
0.0
  0
LINE
  5
122
330
10C
100
AcDbEntity
  8
PV-D4
100
AcDbLine
 10
-224.0
 20
-10.0
 30
0.0
 11
-224.0
 21
0.0
 31
0.0
  0
LINE
  5
123
330
10C
100
AcDbEntity
  8
PV-D4
100
AcDbLine
 10
-10.0
 20
-797.0
 30
0.0
 11
-0.0000000000000053
 21
-797.0
 31
0.0
  0
LINE
  5
124
330
10C
100
AcDbEntity
  8
PV-D4
100
AcDbLine
 10
-9.999999999999994
 20
-727.0
 30
0.0
 11
0.0000000000000053
 21
-727.0
 31
0.0
  0
LINE
  5
125
330
10C
100
AcDbEntity
  8
PV-D4
100
AcDbLine
 10
-10.0
 20
-224.0
 30
0.0
 11
-0.0000000000000053
 21
-224.0
 31
0.0
  0
LINE
  5
126
330
10C
100
AcDbEntity
  8
PV-D4
100
AcDbLine
 10
-9.999999999999994
 20
-154.0
 30
0.0
 11
0.0000000000000053
 21
-154.0
 31
0.0
  0
LINE
  5
127
330
10C
100
AcDbEntity
  8
PV-D4
100
AcDbLine
 10
-778.5
 20
-12.0
 30
0.0
 11
-778.5
 21
-25.0
 31
0.0
  0
LINE
  5
128
330
10C
100
AcDbEntity
  8
PV-D4
100
AcDbLine
 10
-745.5
 20
-12.0
 30
0.0
 11
-745.5
 21
-25.0
 31
0.0
  0
LINE
  5
129
330
10C
100
AcDbEntity
  8
PV-D4
100
AcDbLine
 10
-11.99999999999999
 20
-172.5
 30
0.0
 11
-57.0
 21
-172.5
 31
0.0
  0
LINE
  5
12A
330
10C
100
AcDbEntity
  8
PV-D4
100
AcDbLine
 10
-12.0
 20
-205.5
 30
0.0
 11
-57.0
 21
-205.5
 31
0.0
  0
LINE
  5
12B
330
10C
100
AcDbEntity
  8
PV-D4
100
AcDbLine
 10
-205.5
 20
-12.0
 30
0.0
 11
-205.5
 21
-57.0
 31
0.0
  0
LINE
  5
12C
330
10C
100
AcDbEntity
  8
PV-D4
100
AcDbLine
 10
-172.5
 20
-12.0
 30
0.0
 11
-172.5
 21
-57.0
 31
0.0
  0
LINE
  5
12D
330
10C
100
AcDbEntity
  8
PV-D4
100
AcDbLine
 10
-205.5
 20
-57.0
 30
0.0
 11
-713.4999999999997
 21
-57.0
 31
0.0
  0
LINE
  5
12E
330
10C
100
AcDbEntity
  8
PV-D4
100
AcDbLine
 10
-122.0
 20
-57.0
 30
0.0
 11
-172.5
 21
-57.0
 31
0.0
  0
LINE
  5
12F
330
10C
100
AcDbEntity
  8
PV-D4
100
AcDbLine
 10
-122.0
 20
-90.0
 30
0.0
 11
-713.4999999999997
 21
-90.0
 31
0.0
  0
LINE
  5
130
330
10C
100
AcDbEntity
  8
PV-D4
100
AcDbLine
 10
-57.0
 20
-172.5
 30
0.0
 11
-57.0
 21
-122.0
 31
0.0
  0
LINE
  5
131
330
10C
100
AcDbEntity
  8
PV-D4
100
AcDbLine
 10
-57.0
 20
-713.4999999999997
 30
0.0
 11
-57.0
 21
-205.5
 31
0.0
  0
LINE
  5
132
330
10C
100
AcDbEntity
  8
PV-D4
100
AcDbLine
 10
-90.0
 20
-713.4999999999997
 30
0.0
 11
-90.0
 21
-122.0
 31
0.0
  0
LINE
  5
133
330
10C
100
AcDbEntity
  8
PV-D4
100
AcDbLine
 10
-11.99999999999999
 20
-745.5
 30
0.0
 11
-25.0
 21
-745.5
 31
0.0
  0
LINE
  5
134
330
10C
100
AcDbEntity
  8
PV-D4
100
AcDbLine
 10
-12.0
 20
-778.5
 30
0.0
 11
-25.0
 21
-778.5
 31
0.0
  0
ARC
  5
135
330
10C
100
AcDbEntity
  8
PV-D4
100
AcDbCircle
 10
-795.0
 20
-10.0
 30
0.0
 40
2.0
100
AcDbArc
 50
180.0000000000002
 51
269.9999999999996
  0
ARC
  5
136
330
10C
100
AcDbEntity
  8
PV-D4
100
AcDbCircle
 10
-729.0
 20
-10.0
 30
0.0
 40
2.0
100
AcDbArc
 50
269.9999999999996
 51
359.9999999999997
  0
ARC
  5
137
330
10C
100
AcDbEntity
  8
PV-D4
100
AcDbCircle
 10
-222.0
 20
-10.0
 30
0.0
 40
2.0
100
AcDbArc
 50
180.0000000000002
 51
269.9999999999996
  0
ARC
  5
138
330
10C
100
AcDbEntity
  8
PV-D4
100
AcDbCircle
 10
-156.0
 20
-10.0
 30
0.0
 40
2.0
100
AcDbArc
 50
269.9999999999996
 51
359.9999999999997
  0
ARC
  5
139
330
10C
100
AcDbEntity
  8
PV-D4
100
AcDbCircle
 10
-9.999999999999994
 20
-729.0
 30
0.0
 40
2.0
100
AcDbArc
 50
90.00000000000005
 51
180.0
  0
ARC
  5
13A
330
10C
100
AcDbEntity
  8
PV-D4
100
AcDbCircle
 10
-10.0
 20
-795.0
 30
0.0
 40
2.0
100
AcDbArc
 50
180.0
 51
269.9999999999999
  0
ARC
  5
13B
330
10C
100
AcDbEntity
  8
PV-D4
100
AcDbCircle
 10
-9.999999999999994
 20
-156.0
 30
0.0
 40
2.0
100
AcDbArc
 50
90.00000000000005
 51
180.0000000000007
  0
ARC
  5
13C
330
10C
100
AcDbEntity
  8
PV-D4
100
AcDbCircle
 10
-10.0
 20
-222.0
 30
0.0
 40
2.0
100
AcDbArc
 50
180.0
 51
269.9999999999999
  0
LINE
  5
13D
330
10C
100
AcDbEntity
  8
PV-D4
100
AcDbLine
 10
-745.5
 20
-73.5
 30
0.0
 11
-745.5
 21
-24.99999999999983
 31
0.0
  0
LINE
  5
13E
330
10C
100
AcDbEntity
  8
PV-D4
100
AcDbLine
 10
-778.5
 20
-24.99999999999983
 30
0.0
 11
-778.5
 21
-73.5
 31
0.0
  0
LINE
  5
13F
330
10C
100
AcDbEntity
  8
PV-D4
100
AcDbLine
 10
-762.0
 20
-90.0
 30
0.0
 11
-713.4999999999997
 21
-90.0
 31
0.0
  0
LINE
  5
140
330
10C
100
AcDbEntity
  8
PV-D4
100
AcDbLine
 10
-713.4999999999997
 20
-57.0
 30
0.0
 11
-745.5
 21
-57.0
 31
0.0
  0
ARC
  5
141
330
10C
100
AcDbEntity
  8
PV-D4
100
AcDbCircle
 10
-122.0
 20
-122.0
 30
0.0
 40
65.0
100
AcDbArc
 50
0.0
 51
90.00000000000019
  0
ARC
  5
142
330
10C
100
AcDbEntity
  8
PV-D4
100
AcDbCircle
 10
-122.0
 20
-122.0
 30
0.0
 40
32.0
100
AcDbArc
 50
0.0
 51
90.00000000000019
  0
ARC
  5
143
330
10C
100
AcDbEntity
  8
PV-D4
100
AcDbCircle
 10
-25.0
 20
-713.4999999999997
 30
0.0
 40
32.0
100
AcDbArc
 50
180.0
 51
270.0
  0
ARC
  5
144
330
10C
100
AcDbEntity
  8
PV-D4
100
AcDbCircle
 10
-25.0
 20
-713.4999999999997
 30
0.0
 40
65.0
100
AcDbArc
 50
180.0
 51
270.0
  0
ENDBLK
  5
146
330
10C
100
AcDbEntity
  8
0
100
AcDbBlockEnd
  0
BLOCK
  5
149
330
147
100
AcDbEntity
  8
0
100
AcDbBlockBegin
  2
TOP
 70
     0
 10
0.0
 20
0.0
 30
0.0
  3
TOP
  1

  0
INSERT
  5
148
330
147
100
AcDbEntity
  8
PV-D4
100
AcDbBlockReference
  2
*U6
 10
0.0
 20
0.0
 30
0.0
  0
ENDBLK
  5
14A
330
147
100
AcDbEntity
  8
0
100
AcDbBlockEnd
  0
BLOCK
  5
2B9
330
2B8
100
AcDbEntity
  8
0
100
AcDbBlockBegin
  2
*U8
 70
     1
 10
0.0
 20
0.0
 30
0.0
  3
*U8
  1
*ANON
  0
ARC
  5
2BA
330
2B8
100
AcDbEntity
  8
PV-100
100
AcDbCircle
 10
-73.5
 20
0.0
 30
0.0
 40
16.5
210
0.0
220
-1.0
230
0.0
100
AcDbArc
 50
90.00000000000019
 51
270.0000000000006
  0
ARC
  5
2BB
330
2B8
100
AcDbEntity
  8
PV-100
100
AcDbCircle
 10
-762.0
 20
0.0
 30
0.0
 40
16.5
210
0.0
220
-1.0
230
0.0
100
AcDbArc
 50
90.0000000000004
 51
270.0000000000004
  0
ARC
  5
2BC
330
2B8
100
AcDbEntity
  8
PV-100
100
AcDbCircle
 10
-762.0
 20
0.0
 30
0.0
 40
35.0
210
0.0
220
-1.0
230
0.0
100
AcDbArc
 50
28.1270682186047
 51
180.0
  0
ARC
  5
2BD
330
2B8
100
AcDbEntity
  8
PV-100
100
AcDbCircle
 10
-762.0
 20
0.0
 30
0.0
 40
35.0
210
0.0
220
-1.0
230
0.0
100
AcDbArc
 50
179.9999999999992
 51
331.8729317813944
  0
ARC
  5
2BE
330
2B8
100
AcDbEntity
  8
PV-100
100
AcDbCircle
 10
-762.0
 20
0.0
 30
0.0
 40
16.8
210
0.0
220
-1.0
230
0.0
100
AcDbArc
 50
79.15593743630326
 51
180.0000000000002
  0
ARC
  5
2BF
330
2B8
100
AcDbEntity
  8
PV-100
100
AcDbCircle
 10
-762.0
 20
0.0
 30
0.0
 40
16.8
210
0.0
220
-1.0
230
0.0
100
AcDbArc
 50
179.999999999999
 51
280.8440625636959
  0
ARC
  5
2C0
330
2B8
100
AcDbEntity
  8
PV-100
100
AcDbCircle
 10
-189.0
 20
0.0
 30
0.0
 40
35.0
210
0.0
220
-1.0
230
0.0
100
AcDbArc
 50
28.12706821860473
 51
151.8729317813951
  0
ARC
  5
2C1
330
2B8
100
AcDbEntity
  8
PV-100
100
AcDbCircle
 10
-189.0
 20
0.0
 30
0.0
 40
35.0
210
0.0
220
-1.0
230
0.0
100
AcDbArc
 50
208.1270682186039
 51
331.8729317813944
  0
ARC
  5
2C2
330
2B8
100
AcDbEntity
  8
PV-100
100
AcDbCircle
 10
-189.0
 20
0.0
 30
0.0
 40
16.8
210
0.0
220
-1.0
230
0.0
100
AcDbArc
 50
79.15593743630314
 51
100.8440625636968
  0
ARC
  5
2C3
330
2B8
100
AcDbEntity
  8
PV-100
100
AcDbCircle
 10
-189.0
 20
0.0
 30
0.0
 40
16.8
210
0.0
220
-1.0
230
0.0
100
AcDbArc
 50
259.1559374363022
 51
280.8440625636959
  0
LINE
  5
2C4
330
2B8
100
AcDbEntity
  8
PV-100
100
AcDbLine
 10
0.0
 20
0.0
 30
35.0
 11
0.0
 21
0.0
 31
-35.0
  0
LINE
  5
2C5
330
2B8
100
AcDbEntity
  8
PV-100
100
AcDbLine
 10
-12.0
 20
0.0
 30
33.0
 11
-12.0
 21
0.0
 31
-33.0
  0
LINE
  5
2C6
330
2B8
100
AcDbEntity
  8
PV-100
100
AcDbLine
 10
-10.0
 20
0.0
 30
-35.0
 11
0.0
 21
0.0
 31
-35.0
  0
LINE
  5
2C7
330
2B8
100
AcDbEntity
  8
PV-100
100
AcDbLine
 10
-10.0
 20
0.0
 30
35.0
 11
0.0
 21
0.0
 31
35.0
  0
LINE
  5
2C8
330
2B8
100
AcDbEntity
  8
PV-100
100
AcDbLine
 10
-122.0
 20
0.0
 30
16.5
 11
-713.4999999999997
 21
0.0
 31
16.5
  0
LINE
  5
2C9
330
2B8
100
AcDbEntity
  8
PV-100
100
AcDbLine
 10
-122.0
 20
0.0
 30
-16.5
 11
-713.4999999999997
 21
0.0
 31
-16.5
  0
LINE
  5
2CA
330
2B8
100
AcDbEntity
  8
PV-100
100
AcDbLine
 10
-12.0
 20
0.0
 30
16.5
 11
-25.0
 21
0.0
 31
16.5
  0
LINE
  5
2CB
330
2B8
100
AcDbEntity
  8
PV-100
100
AcDbLine
 10
-12.0
 20
0.0
 30
-16.5
 11
-25.0
 21
0.0
 31
-16.5
  0
ARC
  5
2CC
330
2B8
100
AcDbEntity
  8
PV-100
100
AcDbCircle
 10
-10.0
 20
33.0
 30
0.0
 40
2.0
210
0.0
220
-1.0
230
0.0
100
AcDbArc
 50
90.00000000000019
 51
180.0000000000012
  0
ARC
  5
2CD
330
2B8
100
AcDbEntity
  8
PV-100
100
AcDbCircle
 10
-10.0
 20
-33.0
 30
0.0
 40
2.0
210
0.0
220
-1.0
230
0.0
100
AcDbArc
 50
179.9999999999978
 51
269.9999999999997
  0
LINE
  5
2CE
330
2B8
100
AcDbEntity
  8
PV-100
100
AcDbLine
 10
-762.0
 20
0.0
 30
-16.5
 11
-713.4999999999997
 21
0.0
 31
-16.5
  0
LINE
  5
2CF
330
2B8
100
AcDbEntity
  8
PV-100
100
AcDbLine
 10
-713.4999999999997
 20
0.0
 30
16.5
 11
-762.0
 21
0.0
 31
16.5
  0
LINE
  5
2D0
330
2B8
100
AcDbEntity
  8
PV-100
100
AcDbLine
 10
-73.5
 20
0.0
 30
16.5
 11
-122.0000000000001
 21
0.0
 31
16.5
  0
LINE
  5
2D1
330
2B8
100
AcDbEntity
  8
PV-100
100
AcDbLine
 10
-122.0000000000001
 20
0.0
 30
-16.5
 11
-73.5
 21
0.0
 31
-16.5
  0
LINE
  5
2D2
330
2B8
100
AcDbEntity
  8
PV-100
100
AcDbLine
 10
-73.5
 20
0.0
 30
-16.5
 11
-25.0
 21
0.0
 31
-16.5
  0
LINE
  5
2D3
330
2B8
100
AcDbEntity
  8
PV-100
100
AcDbLine
 10
-25.0
 20
0.0
 30
16.5
 11
-73.5
 21
0.0
 31
16.5
  0
ENDBLK
  5
2D4
330
2B8
100
AcDbEntity
  8
0
100
AcDbBlockEnd
  0
BLOCK
  5
2D6
330
2D5
100
AcDbEntity
  8
0
100
AcDbBlockBegin
  2
*U9
 70
     1
 10
0.0
 20
0.0
 30
0.0
  3
*U9
  1
*ANON
  0
ARC
  5
2D7
330
2D5
100
AcDbEntity
  8
PV-100
100
AcDbCircle
 10
474.0
 20
0.0
 30
0.0
 40
16.5
210
-1.0
220
0.0
230
0.0
100
AcDbArc
 50
269.9999999999993
 51
89.99999999999978
  0
ARC
  5
2D8
330
2D5
100
AcDbEntity
  8
PV-100
100
AcDbCircle
 10
73.5
 20
0.0
 30
0.0
 40
16.5
210
-1.0
220
0.0
230
0.0
100
AcDbArc
 50
269.9999999999993
 51
89.99999999999978
  0
LINE
  5
2D9
330
2D5
100
AcDbEntity
  8
PV-100
100
AcDbLine
 10
0.0
 20
0.0
 30
0.0
 11
0.0
 21
0.0
 31
35.0
  0
LINE
  5
2DA
330
2D5
100
AcDbEntity
  8
PV-100
100
AcDbLine
 10
0.0
 20
0.0
 30
-35.0
 11
0.0
 21
0.0
 31
0.0000000000004888
  0
LINE
  5
2DB
330
2D5
100
AcDbEntity
  8
PV-100
100
AcDbLine
 10
0.0
 20
-12.0
 30
0.0
 11
0.0
 21
-12.0
 31
33.0
  0
LINE
  5
2DC
330
2D5
100
AcDbEntity
  8
PV-100
100
AcDbLine
 10
0.0
 20
-12.0
 30
-33.0
 11
0.0
 21
-12.0
 31
0.0000000000004609
  0
ARC
  5
2DD
330
2D5
100
AcDbEntity
  8
PV-100
100
AcDbCircle
 10
474.0
 20
0.0
 30
0.0
 40
35.0
210
-1.0
220
0.0
230
0.0
100
AcDbArc
 50
208.1270682186039
 51
151.8729317813951
  0
ARC
  5
2DE
330
2D5
100
AcDbEntity
  8
PV-100
100
AcDbCircle
 10
474.0
 20
0.0
 30
0.0
 40
16.8
210
-1.0
220
0.0
230
0.0
100
AcDbArc
 50
259.1559374363021
 51
100.8440625636968
  0
LINE
  5
2DF
330
2D5
100
AcDbEntity
  8
PV-100
100
AcDbLine
 10
0.0
 20
-10.0
 30
35.0
 11
0.0
 21
0.0
 31
35.0
  0
LINE
  5
2E0
330
2D5
100
AcDbEntity
  8
PV-100
100
AcDbLine
 10
0.0
 20
-10.0
 30
-35.0
 11
0.0
 21
0.0
 31
-35.0
  0
LINE
  5
2E1
330
2D5
100
AcDbEntity
  8
PV-100
100
AcDbLine
 10
0.0
 20
-25.0
 30
16.5
 11
0.0
 21
-12.0
 31
16.5
  0
LINE
  5
2E2
330
2D5
100
AcDbEntity
  8
PV-100
100
AcDbLine
 10
0.0
 20
-25.0
 30
-16.5
 11
0.0
 21
-12.0
 31
-16.5
  0
LINE
  5
2E3
330
2D5
100
AcDbEntity
  8
PV-100
100
AcDbLine
 10
0.0
 20
-425.4999999999998
 30
16.5
 11
0.0
 21
-122.0
 31
16.5
  0
LINE
  5
2E4
330
2D5
100
AcDbEntity
  8
PV-100
100
AcDbLine
 10
0.0
 20
-425.4999999999998
 30
-16.5
 11
0.0
 21
-122.0
 31
-16.5
  0
ARC
  5
2E5
330
2D5
100
AcDbEntity
  8
PV-100
100
AcDbCircle
 10
10.0
 20
-33.0
 30
0.0
 40
2.0
210
-1.0
220
0.0
230
0.0
100
AcDbArc
 50
270.0000000000001
 51
0.000000000001239
  0
ARC
  5
2E6
330
2D5
100
AcDbEntity
  8
PV-100
100
AcDbCircle
 10
10.0
 20
33.0
 30
0.0
 40
2.0
210
-1.0
220
0.0
230
0.0
100
AcDbArc
 50
359.999999999998
 51
89.99999999999978
  0
LINE
  5
2E7
330
2D5
100
AcDbEntity
  8
PV-100
100
AcDbLine
 10
0.0
 20
-25.00000000000017
 30
-16.5
 11
0.0
 21
-73.5
 31
-16.5
  0
LINE
  5
2E8
330
2D5
100
AcDbEntity
  8
PV-100
100
AcDbLine
 10
0.0
 20
-73.5
 30
16.5
 11
0.0
 21
-25.00000000000017
 31
16.5
  0
LINE
  5
2E9
330
2D5
100
AcDbEntity
  8
PV-100
100
AcDbLine
 10
0.0
 20
-121.9999999999997
 30
16.5
 11
0.0
 21
-73.5
 31
16.5
  0
LINE
  5
2EA
330
2D5
100
AcDbEntity
  8
PV-100
100
AcDbLine
 10
0.0
 20
-73.5
 30
-16.5
 11
0.0
 21
-121.9999999999997
 31
-16.5
  0
LINE
  5
2EB
330
2D5
100
AcDbEntity
  8
PV-100
100
AcDbLine
 10
0.0
 20
-425.5000000000001
 30
-16.5
 11
0.0
 21
-474.0
 31
-16.5
  0
LINE
  5
2EC
330
2D5
100
AcDbEntity
  8
PV-100
100
AcDbLine
 10
0.0
 20
-474.0
 30
16.5
 11
0.0
 21
-425.5000000000001
 31
16.5
  0
ENDBLK
  5
2ED
330
2D5
100
AcDbEntity
  8
0
100
AcDbBlockEnd
  0
BLOCK
  5
2EF
330
2EE
100
AcDbEntity
  8
0
100
AcDbBlockBegin
  2
*U10
 70
     1
 10
0.0
 20
0.0
 30
0.0
  3
*U10
  1
*ANON
  0
CIRCLE
  5
2F0
330
2EE
100
AcDbEntity
  8
PV-100
100
AcDbCircle
 10
-474.0
 20
0.0
 30
0.0
 40
16.5
210
1.0
220
0.0
230
0.0
  0
ARC
  5
2F1
330
2EE
100
AcDbEntity
  8
PV-100
100
AcDbCircle
 10
-73.5
 20
0.0
 30
0.0
 40
16.5
210
1.0
220
0.0
230
0.0
100
AcDbArc
 50
0.0
 51
90.00000000000019
  0
ARC
  5
2F2
330
2EE
100
AcDbEntity
  8
PV-100
100
AcDbCircle
 10
-73.5
 20
0.0
 30
0.0
 40
16.5
210
1.0
220
0.0
230
0.0
100
AcDbArc
 50
270.0000000000006
 51
0.0000000000008002
  0
LINE
  5
2F3
330
2EE
100
AcDbEntity
  8
PV-100
100
AcDbLine
 10
0.0
 20
0.0
 30
35.0
 11
0.0
 21
0.0
 31
-35.0
  0
LINE
  5
2F4
330
2EE
100
AcDbEntity
  8
PV-100
100
AcDbLine
 10
0.0
 20
-12.0
 30
33.0
 11
0.0
 21
-12.0
 31
-33.0
  0
CIRCLE
  5
2F5
330
2EE
100
AcDbEntity
  8
PV-100
100
AcDbCircle
 10
-474.0
 20
0.0
 30
0.0
 40
33.25
210
1.0
220
0.0
230
0.0
  0
CIRCLE
  5
2F6
330
2EE
100
AcDbEntity
  8
PV-100
100
AcDbCircle
 10
-474.0
 20
0.0
 30
0.0
 40
35.0
210
1.0
220
0.0
230
0.0
  0
CIRCLE
  5
2F7
330
2EE
100
AcDbEntity
  8
PV-100
100
AcDbCircle
 10
-474.0
 20
0.0
 30
0.0
 40
16.8
210
1.0
220
0.0
230
0.0
  0
CIRCLE
  5
2F8
330
2EE
100
AcDbEntity
  8
PV-100
100
AcDbCircle
 10
-474.0
 20
0.0
 30
0.0
 40
32.25
210
1.0
220
0.0
230
0.0
  0
LINE
  5
2F9
330
2EE
100
AcDbEntity
  8
PV-100
100
AcDbLine
 10
0.0
 20
-10.0
 30
-35.0
 11
0.0
 21
0.0
 31
-35.0
  0
LINE
  5
2FA
330
2EE
100
AcDbEntity
  8
PV-100
100
AcDbLine
 10
0.0
 20
-10.0
 30
35.0
 11
0.0
 21
0.0
 31
35.0
  0
LINE
  5
2FB
330
2EE
100
AcDbEntity
  8
PV-100
100
AcDbLine
 10
0.0
 20
-12.0
 30
16.5
 11
0.0
 21
-73.5
 31
16.5
  0
LINE
  5
2FC
330
2EE
100
AcDbEntity
  8
PV-100
100
AcDbLine
 10
0.0
 20
-12.0
 30
-16.5
 11
0.0
 21
-73.5
 31
-16.5
  0
LINE
  5
2FD
330
2EE
100
AcDbEntity
  8
PV-100
100
AcDbLine
 10
0.0
 20
-425.4999999999998
 30
-16.5
 11
0.0
 21
-122.0
 31
-16.5
  0
LINE
  5
2FE
330
2EE
100
AcDbEntity
  8
PV-100
100
AcDbLine
 10
0.0
 20
-425.4999999999998
 30
16.5
 11
0.0
 21
-122.0
 31
16.5
  0
ARC
  5
2FF
330
2EE
100
AcDbEntity
  8
PV-100
100
AcDbCircle
 10
-10.0
 20
33.0
 30
0.0
 40
2.0
210
1.0
220
0.0
230
0.0
100
AcDbArc
 50
90.00000000000019
 51
180.0000000000012
  0
ARC
  5
300
330
2EE
100
AcDbEntity
  8
PV-100
100
AcDbCircle
 10
-10.0
 20
-33.0
 30
0.0
 40
2.0
210
1.0
220
0.0
230
0.0
100
AcDbArc
 50
179.9999999999978
 51
269.9999999999997
  0
LINE
  5
301
330
2EE
100
AcDbEntity
  8
PV-100
100
AcDbLine
 10
0.0
 20
-73.5
 30
16.5
 11
0.0
 21
-122.0000000000001
 31
16.5
  0
LINE
  5
302
330
2EE
100
AcDbEntity
  8
PV-100
100
AcDbLine
 10
0.0
 20
-122.0000000000001
 30
-16.5
 11
0.0
 21
-73.5
 31
-16.5
  0
LINE
  5
303
330
2EE
100
AcDbEntity
  8
PV-100
100
AcDbLine
 10
0.0
 20
-474.0
 30
-16.5
 11
0.0
 21
-470.8393038741441
 31
-16.5
  0
LINE
  5
304
330
2EE
100
AcDbEntity
  8
PV-100
100
AcDbLine
 10
0.0
 20
-443.1333513318986
 30
-16.5
 11
0.0
 21
-425.4999999999998
 31
-16.5
  0
LINE
  5
305
330
2EE
100
AcDbEntity
  8
PV-100
100
AcDbLine
 10
0.0
 20
-425.4999999999998
 30
16.5
 11
0.0
 21
-443.1333513318986
 31
16.5
  0
LINE
  5
306
330
2EE
100
AcDbEntity
  8
PV-100
100
AcDbLine
 10
0.0
 20
-470.8393038741441
 30
16.5
 11
0.0
 21
-474.0
 31
16.5
  0
ENDBLK
  5
307
330
2EE
100
AcDbEntity
  8
0
100
AcDbBlockEnd
  0
BLOCK
  5
309
330
308
100
AcDbEntity
  8
0
100
AcDbBlockBegin
  2
*U11
 70
     1
 10
0.0
 20
0.0
 30
0.0
  3
*U11
  1
*ANON
  0
LINE
  5
30A
330
308
100
AcDbEntity
  8
PV-100
100
AcDbLine
 10
-172.5
 20
-57.0
 30
0.0
 11
-189.0
 21
-73.50000000000004
 31
0.0
  0
LINE
  5
30B
330
308
100
AcDbEntity
  8
PV-100
100
AcDbLine
 10
-189.0
 20
-73.49999999999993
 30
0.0
 11
-205.5
 21
-57.0
 31
0.0
  0
LINE
  5
30C
330
308
100
AcDbEntity
  8
PV-100
100
AcDbLine
 10
-797.0
 20
0.0
 30
0.0
 11
-727.0
 21
0.0
 31
0.0
  0
LINE
  5
30D
330
308
100
AcDbEntity
  8
PV-100
100
AcDbLine
 10
-795.0
 20
-12.0
 30
0.0
 11
-729.0
 21
-12.0
 31
0.0
  0
LINE
  5
30E
330
308
100
AcDbEntity
  8
PV-100
100
AcDbLine
 10
-224.0
 20
0.0
 30
0.0
 11
-154.0
 21
0.0
 31
0.0
  0
LINE
  5
30F
330
308
100
AcDbEntity
  8
PV-100
100
AcDbLine
 10
-222.0
 20
-12.0
 30
0.0
 11
-156.0
 21
-12.0
 31
0.0
  0
LINE
  5
310
330
308
100
AcDbEntity
  8
PV-100
100
AcDbLine
 10
0.0000000000000048
 20
-439.0
 30
0.0
 11
-0.0000000000000048
 21
-509.0
 31
0.0
  0
LINE
  5
311
330
308
100
AcDbEntity
  8
PV-100
100
AcDbLine
 10
-11.99999999999999
 20
-441.0
 30
0.0
 11
-12.0
 21
-507.0
 31
0.0
  0
LINE
  5
312
330
308
100
AcDbEntity
  8
PV-100
100
AcDbLine
 10
-10.0
 20
-509.0
 30
0.0
 11
-0.0000000000000053
 21
-509.0
 31
0.0
  0
LINE
  5
313
330
308
100
AcDbEntity
  8
PV-100
100
AcDbLine
 10
-9.999999999999994
 20
-439.0
 30
0.0
 11
0.0000000000000053
 21
-439.0
 31
0.0
  0
LINE
  5
314
330
308
100
AcDbEntity
  8
PV-100
100
AcDbLine
 10
-154.0
 20
-10.0
 30
0.0
 11
-154.0
 21
0.0
 31
0.0
  0
LINE
  5
315
330
308
100
AcDbEntity
  8
PV-100
100
AcDbLine
 10
-224.0
 20
-10.0
 30
0.0
 11
-224.0
 21
0.0
 31
0.0
  0
LINE
  5
316
330
308
100
AcDbEntity
  8
PV-100
100
AcDbLine
 10
-727.0
 20
-10.0
 30
0.0
 11
-727.0
 21
0.0
 31
0.0
  0
LINE
  5
317
330
308
100
AcDbEntity
  8
PV-100
100
AcDbLine
 10
-797.0
 20
-10.0
 30
0.0
 11
-797.0
 21
0.0
 31
0.0
  0
LINE
  5
318
330
308
100
AcDbEntity
  8
PV-100
100
AcDbLine
 10
-205.5
 20
-12.0
 30
0.0
 11
-205.5
 21
-57.0
 31
0.0
  0
LINE
  5
319
330
308
100
AcDbEntity
  8
PV-100
100
AcDbLine
 10
-172.5
 20
-12.0
 30
0.0
 11
-172.5
 21
-57.0
 31
0.0
  0
LINE
  5
31A
330
308
100
AcDbEntity
  8
PV-100
100
AcDbLine
 10
-745.5
 20
-25.0
 30
0.0
 11
-745.5
 21
-12.0
 31
0.0
  0
LINE
  5
31B
330
308
100
AcDbEntity
  8
PV-100
100
AcDbLine
 10
-778.5
 20
-25.0
 30
0.0
 11
-778.5
 21
-12.0
 31
0.0
  0
LINE
  5
31C
330
308
100
AcDbEntity
  8
PV-100
100
AcDbLine
 10
-205.5
 20
-57.0
 30
0.0
 11
-713.4999999999997
 21
-57.0
 31
0.0
  0
LINE
  5
31D
330
308
100
AcDbEntity
  8
PV-100
100
AcDbLine
 10
-122.0
 20
-57.0
 30
0.0
 11
-172.5
 21
-57.0
 31
0.0
  0
LINE
  5
31E
330
308
100
AcDbEntity
  8
PV-100
100
AcDbLine
 10
-122.0
 20
-90.0
 30
0.0
 11
-713.4999999999997
 21
-90.0
 31
0.0
  0
LINE
  5
31F
330
308
100
AcDbEntity
  8
PV-100
100
AcDbLine
 10
-57.0
 20
-425.4999999999998
 30
0.0
 11
-57.0
 21
-122.0
 31
0.0
  0
LINE
  5
320
330
308
100
AcDbEntity
  8
PV-100
100
AcDbLine
 10
-90.0
 20
-425.4999999999998
 30
0.0
 11
-90.0
 21
-122.0
 31
0.0
  0
LINE
  5
321
330
308
100
AcDbEntity
  8
PV-100
100
AcDbLine
 10
-11.99999999999999
 20
-457.5
 30
0.0
 11
-25.0
 21
-457.5
 31
0.0
  0
LINE
  5
322
330
308
100
AcDbEntity
  8
PV-100
100
AcDbLine
 10
-12.0
 20
-490.5
 30
0.0
 11
-25.0
 21
-490.5
 31
0.0
  0
ARC
  5
323
330
308
100
AcDbEntity
  8
PV-100
100
AcDbCircle
 10
-9.999999999999994
 20
-441.0
 30
0.0
 40
2.0
100
AcDbArc
 50
90.00000000000005
 51
180.0
  0
ARC
  5
324
330
308
100
AcDbEntity
  8
PV-100
100
AcDbCircle
 10
-10.0
 20
-507.0
 30
0.0
 40
2.0
100
AcDbArc
 50
180.0
 51
269.9999999999999
  0
ARC
  5
325
330
308
100
AcDbEntity
  8
PV-100
100
AcDbCircle
 10
-222.0
 20
-10.0
 30
0.0
 40
2.0
100
AcDbArc
 50
180.0000000000002
 51
269.9999999999996
  0
ARC
  5
326
330
308
100
AcDbEntity
  8
PV-100
100
AcDbCircle
 10
-156.0
 20
-10.0
 30
0.0
 40
2.0
100
AcDbArc
 50
269.9999999999996
 51
359.9999999999997
  0
ARC
  5
327
330
308
100
AcDbEntity
  8
PV-100
100
AcDbCircle
 10
-795.0
 20
-10.0
 30
0.0
 40
2.0
100
AcDbArc
 50
180.0000000000002
 51
269.9999999999996
  0
ARC
  5
328
330
308
100
AcDbEntity
  8
PV-100
100
AcDbCircle
 10
-729.0
 20
-10.0
 30
0.0
 40
2.0
100
AcDbArc
 50
269.9999999999996
 51
359.9999999999997
  0
ARC
  5
329
330
308
100
AcDbEntity
  8
PV-100
100
AcDbCircle
 10
-713.4999999999997
 20
-25.0
 30
0.0
 40
32.0
100
AcDbArc
 50
180.0
 51
270.0000000000001
  0
ARC
  5
32A
330
308
100
AcDbEntity
  8
PV-100
100
AcDbCircle
 10
-713.4999999999997
 20
-25.0
 30
0.0
 40
65.0
100
AcDbArc
 50
180.0
 51
270.0000000000001
  0
ARC
  5
32B
330
308
100
AcDbEntity
  8
PV-100
100
AcDbCircle
 10
-122.0
 20
-122.0
 30
0.0
 40
65.0
100
AcDbArc
 50
0.0
 51
90.00000000000019
  0
ARC
  5
32C
330
308
100
AcDbEntity
  8
PV-100
100
AcDbCircle
 10
-122.0
 20
-122.0
 30
0.0
 40
32.0
100
AcDbArc
 50
0.0
 51
90.00000000000019
  0
ARC
  5
32D
330
308
100
AcDbEntity
  8
PV-100
100
AcDbCircle
 10
-25.0
 20
-425.4999999999998
 30
0.0
 40
32.0
100
AcDbArc
 50
180.0
 51
270.0
  0
ARC
  5
32E
330
308
100
AcDbEntity
  8
PV-100
100
AcDbCircle
 10
-25.0
 20
-425.4999999999998
 30
0.0
 40
65.0
100
AcDbArc
 50
180.0
 51
270.0
  0
ENDBLK
  5
32F
330
308
100
AcDbEntity
  8
0
100
AcDbBlockEnd
  0
BLOCK
  5
331
330
330
100
AcDbEntity
  8
0
100
AcDbBlockBegin
  2
*D12
 70
     1
 10
0.0
 20
0.0
 30
0.0
  3
*D12
  1

  0
LINE
  5
332
330
330
100
AcDbEntity
  8
0
 62
     0
440
 16777216
370
    -2
100
AcDbLine
 10
209.562500005
 20
-196.400000012
 30
0.0
 11
670.6016885603274
 21
-196.4000000120001
 31
0.0
  0
LINE
  5
333
330
330
100
AcDbEntity
  8
0
 62
     0
440
 16777216
370
    -2
100
AcDbLine
 10
209.562500005
 20
-284.400000012
 30
0.0
 11
670.6016885603272
 21
-284.4000000120001
 31
0.0
  0
LINE
  5
334
330
330
100
AcDbEntity
  8
0
 62
     0
440
 16777216
370
    -2
100
AcDbLine
 10
670.4216885603274
 20
-196.5800000120001
 30
0.0
 11
670.4216885603274
 21
-240.2200000120001
 31
0.0
  0
LINE
  5
335
330
330
100
AcDbEntity
  8
0
 62
     0
440
 16777216
370
    -2
100
AcDbLine
 10
670.4216885603272
 20
-284.2200000120001
 30
0.0
 11
670.4216885603274
 21
-240.5800000120001
 31
0.0
  0
SOLID
  5
336
330
330
100
AcDbEntity
  8
0
 62
     0
440
 16777216
100
AcDbTrace
 10
670.3916885603272
 20
-196.5800000120001
 30
0.0
 11
670.4516885603274
 21
-196.5800000120001
 31
0.0
 12
670.4216885603274
 22
-196.4000000120001
 32
0.0
 13
670.4216885603274
 23
-196.4000000120001
 33
0.0
  0
SOLID
  5
337
330
330
100
AcDbEntity
  8
0
 62
     0
440
 16777216
100
AcDbTrace
 10
670.3916885603272
 20
-284.2200000120001
 30
0.0
 11
670.4516885603271
 21
-284.2200000120001
 31
0.0
 12
670.4216885603272
 22
-284.4000000120001
 32
0.0
 13
670.4216885603272
 23
-284.4000000120001
 33
0.0
  0
MTEXT
  5
338
330
330
100
AcDbEntity
  8
0
 62
     0
440
 16777216
100
AcDbMText
 10
670.4216885603274
 20
-240.400000012
 30
0.0
 40
0.18
 41
0.0
 46
0.0
 71
     5
 72
     1
  1
\A1;88.0000
 73
     1
 44
1.0
  0
POINT
  5
339
330
330
100
AcDbEntity
  8
Defpoints
 62
     0
440
 16777216
100
AcDbPoint
 10
209.500000005
 20
-196.400000012
 30
0.0
  0
POINT
  5
33A
330
330
100
AcDbEntity
  8
Defpoints
 62
     0
440
 16777216
100
AcDbPoint
 10
209.500000005
 20
-284.400000012
 30
0.0
  0
POINT
  5
33B
330
330
100
AcDbEntity
  8
Defpoints
 62
     0
440
 16777216
100
AcDbPoint
 10
670.4216885603272
 20
-284.4000000120001
 30
0.0
  0
ENDBLK
  5
33C
330
330
100
AcDbEntity
  8
0
100
AcDbBlockEnd
  0
BLOCK
  5
39C
330
345
100
AcDbEntity
  8
0
100
AcDbBlockBegin
  2
801_35_100
 70
     0
 10
0.0
 20
0.0
 30
0.0
  3
801_35_100
  1

  0
ARC
  5
346
330
345
100
AcDbEntity
  8
HEWI
100
AcDbCircle
 10
923.8155544615477
 20
713.941717570431
 30
-0.000000000000009
 40
16.5
100
AcDbArc
 50
90.0
 51
270.0
  0
ARC
  5
347
330
345
100
AcDbEntity
  8
HEWI
100
AcDbCircle
 10
235.3155544615479
 20
713.941717570431
 30
-0.0000000000000933
 40
16.5
100
AcDbArc
 50
90.0
 51
270.0
  0
ARC
  5
348
330
345
100
AcDbEntity
  8
HEWI
100
AcDbCircle
 10
235.3155544615479
 20
713.941717570431
 30
-0.0000000000000933
 40
35.0
100
AcDbArc
 50
28.12706821860296
 51
180.0
  0
ARC
  5
349
330
345
100
AcDbEntity
  8
HEWI
100
AcDbCircle
 10
235.3155544615479
 20
713.941717570431
 30
-0.0000000000000933
 40
35.0
100
AcDbArc
 50
180.0
 51
331.872931781397
  0
ARC
  5
34A
330
345
100
AcDbEntity
  8
HEWI
100
AcDbCircle
 10
235.3155544615479
 20
713.941717570431
 30
-0.0000000000000933
 40
16.8
100
AcDbArc
 50
79.15593743630575
 51
180.0
  0
ARC
  5
34B
330
345
100
AcDbEntity
  8
HEWI
100
AcDbCircle
 10
235.3155544615479
 20
713.941717570431
 30
-0.0000000000000933
 40
16.8
100
AcDbArc
 50
180.0
 51
280.8440625636943
  0
ARC
  5
34C
330
345
100
AcDbEntity
  8
HEWI
100
AcDbCircle
 10
808.3155544615479
 20
713.941717570431
 30
-0.0000000000000231
 40
35.0
100
AcDbArc
 50
28.12706821860296
 51
151.872931781397
  0
ARC
  5
34D
330
345
100
AcDbEntity
  8
HEWI
100
AcDbCircle
 10
808.3155544615479
 20
713.941717570431
 30
-0.0000000000000231
 40
35.0
100
AcDbArc
 50
208.1270682186029
 51
331.872931781397
  0
ARC
  5
34E
330
345
100
AcDbEntity
  8
HEWI
100
AcDbCircle
 10
808.3155544615479
 20
713.941717570431
 30
-0.0000000000000231
 40
16.8
100
AcDbArc
 50
79.15593743630575
 51
100.8440625636942
  0
ARC
  5
34F
330
345
100
AcDbEntity
  8
HEWI
100
AcDbCircle
 10
808.3155544615479
 20
713.941717570431
 30
-0.0000000000000231
 40
16.8
100
AcDbArc
 50
259.1559374362993
 51
280.8440625636943
  0
LINE
  5
350
330
345
100
AcDbEntity
  8
HEWI
100
AcDbLine
 10
995.3155544615476
 20
748.941717570431
 30
0.0
 11
995.3155544615476
 21
678.9417175704311
 31
0.0
210
0.0
220
1.0
230
0.0
  0
LINE
  5
351
330
345
100
AcDbEntity
  8
HEWI
100
AcDbLine
 10
983.3155544615479
 20
746.941717570431
 30
-0.0000000000000015
 11
983.3155544615479
 21
680.9417175704311
 31
-0.0000000000000015
210
0.0
220
1.0
230
0.0
  0
LINE
  5
352
330
345
100
AcDbEntity
  8
HEWI
100
AcDbLine
 10
985.315554461548
 20
678.9417175704311
 30
-0.0000000000000012
 11
995.3155544615476
 21
678.9417175704311
 31
0.0
210
0.0
220
1.0
230
0.0
  0
LINE
  5
353
330
345
100
AcDbEntity
  8
HEWI
100
AcDbLine
 10
985.315554461548
 20
748.941717570431
 30
-0.0000000000000012
 11
995.3155544615476
 21
748.941717570431
 31
0.0
210
0.0
220
1.0
230
0.0
  0
LINE
  5
354
330
345
100
AcDbEntity
  8
HEWI
100
AcDbLine
 10
875.3155544615479
 20
730.441717570431
 30
-0.0000000000000149
 11
283.8155544615481
 21
730.441717570431
 31
-0.0000000000000874
210
0.0
220
1.0
230
0.0
  0
LINE
  5
355
330
345
100
AcDbEntity
  8
HEWI
100
AcDbLine
 10
875.3155544615479
 20
697.441717570431
 30
-0.0000000000000149
 11
283.8155544615481
 21
697.441717570431
 31
-0.0000000000000874
210
0.0
220
1.0
230
0.0
  0
LINE
  5
356
330
345
100
AcDbEntity
  8
HEWI
100
AcDbLine
 10
985.315554461548
 20
730.441717570431
 30
-0.0000000000000015
 11
972.3155544615476
 21
730.441717570431
 31
-0.0000000000000031
210
0.0
220
1.0
230
0.0
  0
LINE
  5
357
330
345
100
AcDbEntity
  8
HEWI
100
AcDbLine
 10
985.315554461548
 20
697.441717570431
 30
-0.0000000000000015
 11
972.3155544615476
 21
697.441717570431
 31
-0.0000000000000031
210
0.0
220
1.0
230
0.0
  0
ARC
  5
358
330
345
100
AcDbEntity
  8
HEWI
100
AcDbCircle
 10
985.315554461548
 20
746.941717570431
 30
-0.0000000000000012
 40
2.0
100
AcDbArc
 50
90.0
 51
180.0
  0
ARC
  5
359
330
345
100
AcDbEntity
  8
HEWI
100
AcDbCircle
 10
985.315554461548
 20
680.9417175704311
 30
-0.0000000000000012
 40
2.0
100
AcDbArc
 50
180.0
 51
270.0
  0
LINE
  5
35A
330
345
100
AcDbEntity
  8
HEWI
100
AcDbLine
 10
235.3155544615479
 20
697.441717570431
 30
-0.0000000000000933
 11
283.8155544615483
 21
697.441717570431
 31
-0.0000000000000874
210
0.0
220
1.0
230
0.0
  0
LINE
  5
35B
330
345
100
AcDbEntity
  8
HEWI
100
AcDbLine
 10
283.8155544615483
 20
730.441717570431
 30
-0.0000000000000874
 11
235.3155544615479
 21
730.441717570431
 31
-0.0000000000000933
210
0.0
220
1.0
230
0.0
  0
LINE
  5
35C
330
345
100
AcDbEntity
  8
HEWI
100
AcDbLine
 10
923.8155544615477
 20
730.441717570431
 30
-0.000000000000009
 11
875.3155544615477
 21
730.441717570431
 31
-0.0000000000000149
210
0.0
220
1.0
230
0.0
  0
LINE
  5
35D
330
345
100
AcDbEntity
  8
HEWI
100
AcDbLine
 10
875.3155544615477
 20
697.441717570431
 30
-0.0000000000000149
 11
923.8155544615477
 21
697.441717570431
 31
-0.000000000000009
210
0.0
220
1.0
230
0.0
  0
LINE
  5
35E
330
345
100
AcDbEntity
  8
HEWI
100
AcDbLine
 10
923.8155544615477
 20
697.441717570431
 30
-0.000000000000009
 11
972.3155544615476
 21
697.441717570431
 31
-0.0000000000000031
210
0.0
220
1.0
230
0.0
  0
LINE
  5
35F
330
345
100
AcDbEntity
  8
HEWI
100
AcDbLine
 10
972.3155544615476
 20
730.441717570431
 30
-0.0000000000000031
 11
923.8155544615477
 21
730.441717570431
 31
-0.000000000000009
210
0.0
220
1.0
230
0.0
  0
ARC
  5
360
330
345
100
AcDbEntity
  8
HEWI
100
AcDbCircle
 10
1630.715554463547
 20
713.941717570431
 30
0.0000000000000871
 40
16.5
100
AcDbArc
 50
270.0
 51
90.0
  0
ARC
  5
361
330
345
100
AcDbEntity
  8
HEWI
100
AcDbCircle
 10
1230.215554463548
 20
713.941717570431
 30
0.0000000000000135
 40
16.5
100
AcDbArc
 50
270.0
 51
90.0
  0
LINE
  5
362
330
345
100
AcDbEntity
  8
HEWI
100
AcDbLine
 10
1158.715554463548
 20
713.941717570431
 30
0.0
 11
1158.715554463548
 21
748.941717570431
 31
0.0
210
0.0
220
1.0
230
0.0
  0
LINE
  5
363
330
345
100
AcDbEntity
  8
HEWI
100
AcDbLine
 10
1158.715554463548
 20
678.9417175704311
 30
0.0
 11
1158.715554463548
 21
713.9417175704314
 31
0.0
210
0.0
220
1.0
230
0.0
  0
LINE
  5
364
330
345
100
AcDbEntity
  8
HEWI
100
AcDbLine
 10
1170.715554463548
 20
713.941717570431
 30
0.0000000000000022
 11
1170.715554463548
 21
746.941717570431
 31
0.0000000000000022
210
0.0
220
1.0
230
0.0
  0
LINE
  5
365
330
345
100
AcDbEntity
  8
HEWI
100
AcDbLine
 10
1170.715554463548
 20
680.9417175704311
 30
0.0000000000000022
 11
1170.715554463548
 21
713.9417175704314
 31
0.0000000000000022
210
0.0
220
1.0
230
0.0
  0
ARC
  5
366
330
345
100
AcDbEntity
  8
HEWI
100
AcDbCircle
 10
1630.715554463547
 20
713.941717570431
 30
0.0000000000000871
 40
35.0
100
AcDbArc
 50
208.1270682186029
 51
151.872931781397
  0
ARC
  5
367
330
345
100
AcDbEntity
  8
HEWI
100
AcDbCircle
 10
1630.715554463547
 20
713.941717570431
 30
0.0000000000000871
 40
16.8
100
AcDbArc
 50
259.1559374363058
 51
100.8440625636942
  0
LINE
  5
368
330
345
100
AcDbEntity
  8
HEWI
100
AcDbLine
 10
1168.715554463548
 20
748.941717570431
 30
0.0000000000000018
 11
1158.715554463548
 21
748.941717570431
 31
0.0
210
0.0
220
1.0
230
0.0
  0
LINE
  5
369
330
345
100
AcDbEntity
  8
HEWI
100
AcDbLine
 10
1168.715554463548
 20
678.9417175704311
 30
0.0000000000000018
 11
1158.715554463548
 21
678.9417175704311
 31
0.0
210
0.0
220
1.0
230
0.0
  0
LINE
  5
36A
330
345
100
AcDbEntity
  8
HEWI
100
AcDbLine
 10
1183.715554463548
 20
730.441717570431
 30
0.0000000000000046
 11
1170.715554463548
 21
730.441717570431
 31
0.0000000000000022
210
0.0
220
1.0
230
0.0
  0
LINE
  5
36B
330
345
100
AcDbEntity
  8
HEWI
100
AcDbLine
 10
1183.715554463548
 20
697.441717570431
 30
0.0000000000000046
 11
1170.715554463548
 21
697.441717570431
 31
0.0000000000000022
210
0.0
220
1.0
230
0.0
  0
LINE
  5
36C
330
345
100
AcDbEntity
  8
HEWI
100
AcDbLine
 10
1582.215554463548
 20
730.441717570431
 30
0.0000000000000782
 11
1278.715554463548
 21
730.441717570431
 31
0.0000000000000224
210
0.0
220
1.0
230
0.0
  0
LINE
  5
36D
330
345
100
AcDbEntity
  8
HEWI
100
AcDbLine
 10
1582.215554463548
 20
697.441717570431
 30
0.0000000000000782
 11
1278.715554463548
 21
697.441717570431
 31
0.0000000000000224
210
0.0
220
1.0
230
0.0
  0
ARC
  5
36E
330
345
100
AcDbEntity
  8
HEWI
100
AcDbCircle
 10
1168.715554463548
 20
680.9417175704311
 30
0.0000000000000018
 40
2.0
100
AcDbArc
 50
270.0
 51
0.0
  0
ARC
  5
36F
330
345
100
AcDbEntity
  8
HEWI
100
AcDbCircle
 10
1168.715554463548
 20
746.941717570431
 30
0.0000000000000018
 40
2.0
100
AcDbArc
 50
0.0
 51
90.0
  0
LINE
  5
370
330
345
100
AcDbEntity
  8
HEWI
100
AcDbLine
 10
1181.715554463548
 20
697.441717570431
 30
0.0000000000000046
 11
1230.215554463548
 21
697.441717570431
 31
0.0000000000000135
210
0.0
220
1.0
230
0.0
  0
LINE
  5
371
330
345
100
AcDbEntity
  8
HEWI
100
AcDbLine
 10
1230.215554463548
 20
730.441717570431
 30
0.0000000000000135
 11
1181.715554463548
 21
730.441717570431
 31
0.0000000000000046
210
0.0
220
1.0
230
0.0
  0
LINE
  5
372
330
345
100
AcDbEntity
  8
HEWI
100
AcDbLine
 10
1278.715554463548
 20
730.441717570431
 30
0.0000000000000224
 11
1230.215554463548
 21
730.441717570431
 31
0.0000000000000135
210
0.0
220
1.0
230
0.0
  0
LINE
  5
373
330
345
100
AcDbEntity
  8
HEWI
100
AcDbLine
 10
1230.215554463548
 20
697.441717570431
 30
0.0000000000000135
 11
1278.715554463548
 21
697.441717570431
 31
0.0000000000000224
210
0.0
220
1.0
230
0.0
  0
LINE
  5
374
330
345
100
AcDbEntity
  8
HEWI
100
AcDbLine
 10
1582.215554463548
 20
697.441717570431
 30
0.0000000000000782
 11
1630.715554463547
 21
697.441717570431
 31
0.0000000000000871
210
0.0
220
1.0
230
0.0
  0
LINE
  5
375
330
345
100
AcDbEntity
  8
HEWI
100
AcDbLine
 10
1630.715554463547
 20
730.441717570431
 30
0.0000000000000871
 11
1582.215554463548
 21
730.441717570431
 31
0.0000000000000782
210
0.0
220
1.0
230
0.0
  0
LINE
  5
376
330
345
100
AcDbEntity
  8
HEWI
100
AcDbLine
 10
824.8155544615476
 20
462.5417175584311
 30
0.0
 11
808.3155544615479
 21
446.0417175584311
 31
0.0
  0
LINE
  5
377
330
345
100
AcDbEntity
  8
HEWI
100
AcDbLine
 10
808.3155544615479
 20
446.0417175584312
 30
0.0
 11
791.8155544615479
 21
462.5417175584311
 31
0.0
  0
LINE
  5
378
330
345
100
AcDbEntity
  8
HEWI
100
AcDbLine
 10
200.3155544615481
 20
517.5417175584311
 30
0.0
 11
270.315554461548
 21
517.5417175584311
 31
0.0
  0
LINE
  5
379
330
345
100
AcDbEntity
  8
HEWI
100
AcDbLine
 10
202.3155544615481
 20
505.541717558431
 30
0.0
 11
268.315554461548
 21
505.541717558431
 31
0.0
  0
LINE
  5
37A
330
345
100
AcDbEntity
  8
HEWI
100
AcDbLine
 10
773.3155544615477
 20
517.5417175584311
 30
0.0
 11
843.3155544615479
 21
517.5417175584311
 31
0.0
  0
LINE
  5
37B
330
345
100
AcDbEntity
  8
HEWI
100
AcDbLine
 10
775.3155544615479
 20
505.541717558431
 30
0.0
 11
841.3155544615479
 21
505.541717558431
 31
0.0
  0
LINE
  5
37C
330
345
100
AcDbEntity
  8
HEWI
100
AcDbLine
 10
995.3155544615476
 20
80.54171755843128
 30
0.0
 11
995.3155544615476
 21
10.54171755843128
 31
0.0
  0
LINE
  5
37D
330
345
100
AcDbEntity
  8
HEWI
100
AcDbLine
 10
983.3155544615479
 20
78.54171755843117
 30
0.0
 11
983.3155544615479
 21
12.54171755843129
 31
0.0
  0
LINE
  5
37E
330
345
100
AcDbEntity
  8
HEWI
100
AcDbLine
 10
985.315554461548
 20
10.54171755843128
 30
0.0
 11
995.3155544615476
 21
10.54171755843128
 31
0.0
  0
LINE
  5
37F
330
345
100
AcDbEntity
  8
HEWI
100
AcDbLine
 10
985.315554461548
 20
80.54171755843128
 30
0.0
 11
995.3155544615476
 21
80.54171755843128
 31
0.0
  0
LINE
  5
380
330
345
100
AcDbEntity
  8
HEWI
100
AcDbLine
 10
843.3155544615479
 20
507.5417175584311
 30
0.0
 11
843.3155544615479
 21
517.5417175584311
 31
0.0
  0
LINE
  5
381
330
345
100
AcDbEntity
  8
HEWI
100
AcDbLine
 10
773.3155544615477
 20
507.5417175584311
 30
0.0
 11
773.3155544615477
 21
517.5417175584311
 31
0.0
  0
LINE
  5
382
330
345
100
AcDbEntity
  8
HEWI
100
AcDbLine
 10
270.315554461548
 20
507.5417175584311
 30
0.0
 11
270.315554461548
 21
517.5417175584311
 31
0.0
  0
LINE
  5
383
330
345
100
AcDbEntity
  8
HEWI
100
AcDbLine
 10
200.3155544615481
 20
507.5417175584311
 30
0.0
 11
200.3155544615481
 21
517.5417175584311
 31
0.0
  0
LINE
  5
384
330
345
100
AcDbEntity
  8
HEWI
100
AcDbLine
 10
791.8155544615479
 20
507.5417175584311
 30
0.0
 11
791.8155544615479
 21
462.5417175584311
 31
0.0
  0
LINE
  5
385
330
345
100
AcDbEntity
  8
HEWI
100
AcDbLine
 10
824.8155544615476
 20
507.5417175584311
 30
0.0
 11
824.8155544615476
 21
462.5417175584311
 31
0.0
  0
LINE
  5
386
330
345
100
AcDbEntity
  8
HEWI
100
AcDbLine
 10
251.8155544615479
 20
492.5417175584311
 30
0.0
 11
251.8155544615479
 21
505.541717558431
 31
0.0
  0
LINE
  5
387
330
345
100
AcDbEntity
  8
HEWI
100
AcDbLine
 10
218.8155544615481
 20
492.5417175584311
 30
0.0
 11
218.8155544615481
 21
505.541717558431
 31
0.0
  0
LINE
  5
388
330
345
100
AcDbEntity
  8
HEWI
100
AcDbLine
 10
791.8155544615479
 20
462.5417175584311
 30
0.0
 11
283.8155544615481
 21
462.5417175584311
 31
0.0
  0
LINE
  5
389
330
345
100
AcDbEntity
  8
HEWI
100
AcDbLine
 10
875.3155544615479
 20
462.5417175584311
 30
0.0
 11
824.8155544615476
 21
462.5417175584311
 31
0.0
  0
LINE
  5
38A
330
345
100
AcDbEntity
  8
HEWI
100
AcDbLine
 10
875.3155544615479
 20
429.5417175584311
 30
0.0
 11
283.8155544615481
 21
429.5417175584311
 31
0.0
  0
LINE
  5
38B
330
345
100
AcDbEntity
  8
HEWI
100
AcDbLine
 10
940.3155544615479
 20
94.04171755843142
 30
0.0
 11
940.3155544615479
 21
397.5417175584311
 31
0.0
  0
LINE
  5
38C
330
345
100
AcDbEntity
  8
HEWI
100
AcDbLine
 10
907.3155544615479
 20
94.04171755843142
 30
0.0
 11
907.3155544615479
 21
397.5417175584311
 31
0.0
  0
LINE
  5
38D
330
345
100
AcDbEntity
  8
HEWI
100
AcDbLine
 10
983.3155544615479
 20
62.04171755843116
 30
0.0
 11
970.3155544615476
 21
62.04171755843116
 31
0.0
  0
LINE
  5
38E
330
345
100
AcDbEntity
  8
HEWI
100
AcDbLine
 10
983.3155544615479
 20
29.04171755843118
 30
0.0
 11
970.3155544615476
 21
29.04171755843118
 31
0.0
  0
ARC
  5
38F
330
345
100
AcDbEntity
  8
HEWI
100
AcDbCircle
 10
985.315554461548
 20
78.54171755843117
 30
0.0
 40
2.0
100
AcDbArc
 50
90.0
 51
180.0
  0
ARC
  5
390
330
345
100
AcDbEntity
  8
HEWI
100
AcDbCircle
 10
985.315554461548
 20
12.54171755843129
 30
0.0
 40
2.0
100
AcDbArc
 50
180.0
 51
270.0
  0
ARC
  5
391
330
345
100
AcDbEntity
  8
HEWI
100
AcDbCircle
 10
775.3155544615479
 20
507.5417175584311
 30
0.0
 40
2.0
100
AcDbArc
 50
180.0
 51
270.0
  0
ARC
  5
392
330
345
100
AcDbEntity
  8
HEWI
100
AcDbCircle
 10
841.3155544615479
 20
507.5417175584311
 30
0.0
 40
2.0
100
AcDbArc
 50
270.0
 51
0.0
  0
ARC
  5
393
330
345
100
AcDbEntity
  8
HEWI
100
AcDbCircle
 10
202.3155544615481
 20
507.5417175584311
 30
0.0
 40
2.0
100
AcDbArc
 50
180.0
 51
270.0
  0
ARC
  5
394
330
345
100
AcDbEntity
  8
HEWI
100
AcDbCircle
 10
268.315554461548
 20
507.5417175584311
 30
0.0
 40
2.0
100
AcDbArc
 50
270.0
 51
0.0
  0
ARC
  5
395
330
345
100
AcDbEntity
  8
HEWI
100
AcDbCircle
 10
283.8155544615481
 20
494.5417175584311
 30
0.0
 40
32.0
100
AcDbArc
 50
180.0
 51
270.0
  0
ARC
  5
396
330
345
100
AcDbEntity
  8
HEWI
100
AcDbCircle
 10
283.8155544615481
 20
494.5417175584311
 30
0.0
 40
65.0
100
AcDbArc
 50
180.0
 51
270.0
  0
ARC
  5
397
330
345
100
AcDbEntity
  8
HEWI
100
AcDbCircle
 10
875.3155544615479
 20
397.5417175584311
 30
0.0
 40
65.0
100
AcDbArc
 50
0.0
 51
90.0
  0
ARC
  5
398
330
345
100
AcDbEntity
  8
HEWI
100
AcDbCircle
 10
875.3155544615479
 20
397.5417175584311
 30
0.0
 40
32.0
100
AcDbArc
 50
0.0
 51
90.0
  0
ARC
  5
399
330
345
100
AcDbEntity
  8
HEWI
100
AcDbCircle
 10
972.3155544615476
 20
94.04171755843142
 30
0.0
 40
32.0
100
AcDbArc
 50
180.0
 51
270.0
  0
ARC
  5
39A
330
345
100
AcDbEntity
  8
HEWI
100
AcDbCircle
 10
972.3155544615476
 20
94.04171755843142
 30
0.0
 40
65.0
100
AcDbArc
 50
180.0
 51
270.0
  0
ENDBLK
  5
39D
330
345
100
AcDbEntity
  8
0
100
AcDbBlockEnd
  0
BLOCK
  5
3A2
330
3A1
100
AcDbEntity
  8
0
100
AcDbBlockBegin
  2
*D14
 70
     1
 10
0.0
 20
0.0
 30
0.0
  3
*D14
  1

  0
LINE
  5
3A4
330
3A1
100
AcDbEntity
  8
0
 62
     0
440
 16777216
370
    -2
100
AcDbLine
 10
1296.252962968162
 20
1134.318762238173
 30
0.0
 11
1296.252962968162
 21
1206.986577909796
 31
0.0
  0
LINE
  5
3A5
330
3A1
100
AcDbEntity
  8
0
 62
     0
440
 16777216
370
    -2
100
AcDbLine
 10
1384.252962968162
 20
1134.318762238173
 30
0.0
 11
1384.252962968162
 21
1206.986577909796
 31
0.0
  0
LINE
  5
3A6
330
3A1
100
AcDbEntity
  8
0
 62
     0
440
 16777216
370
    -2
100
AcDbLine
 10
1296.432962968162
 20
1206.806577909796
 30
0.0
 11
1339.682962968162
 21
1206.806577909796
 31
0.0
  0
LINE
  5
3A7
330
3A1
100
AcDbEntity
  8
0
 62
     0
440
 16777216
370
    -2
100
AcDbLine
 10
1384.072962968162
 20
1206.806577909796
 30
0.0
 11
1340.822962968162
 21
1206.806577909796
 31
0.0
  0
SOLID
  5
3A8
330
3A1
100
AcDbEntity
  8
0
 62
     0
440
 16777216
100
AcDbTrace
 10
1296.432962968162
 20
1206.836577909796
 30
0.0
 11
1296.432962968162
 21
1206.776577909796
 31
0.0
 12
1296.252962968162
 22
1206.806577909796
 32
0.0
 13
1296.252962968162
 23
1206.806577909796
 33
0.0
  0
SOLID
  5
3A9
330
3A1
100
AcDbEntity
  8
0
 62
     0
440
 16777216
100
AcDbTrace
 10
1384.072962968162
 20
1206.836577909796
 30
0.0
 11
1384.072962968162
 21
1206.776577909796
 31
0.0
 12
1384.252962968162
 22
1206.806577909796
 32
0.0
 13
1384.252962968162
 23
1206.806577909796
 33
0.0
  0
MTEXT
  5
3AA
330
3A1
100
AcDbEntity
  8
0
 62
     0
440
 16777216
100
AcDbMText
 10
1340.252962968162
 20
1206.806577909796
 30
0.0
 40
0.18
 41
0.0
 46
0.0
 71
     5
 72
     1
  1
\A1;88.0000
 73
     1
 44
1.0
  0
POINT
  5
3AB
330
3A1
100
AcDbEntity
  8
Defpoints
 62
     0
440
 16777216
100
AcDbPoint
 10
1296.252962968162
 20
1134.256262238173
 30
0.0
  0
POINT
  5
3AC
330
3A1
100
AcDbEntity
  8
Defpoints
 62
     0
440
 16777216
100
AcDbPoint
 10
1384.252962968162
 20
1134.256262238173
 30
0.0000000000000165
  0
POINT
  5
3AD
330
3A1
100
AcDbEntity
  8
Defpoints
 62
     0
440
 16777216
100
AcDbPoint
 10
1384.252962968162
 20
1206.806577909796
 30
0.0
  0
ENDBLK
  5
3A3
330
3A1
100
AcDbEntity
  8
0
100
AcDbBlockEnd
  0
BLOCK
  5
3F5
330
3F4
100
AcDbEntity
  8
0
100
AcDbBlockBegin
  2
*D15
 70
     1
 10
0.0
 20
0.0
 30
0.0
  3
*D15
  1

  0
LINE
  5
3F7
330
3F4
100
AcDbEntity
  8
0
 62
     0
440
 16777216
370
    -2
100
AcDbLine
 10
2056.252962968162
 20
1019.193762238173
 30
0.0
 11
2056.252962968162
 21
862.2978130998019
 31
0.0
  0
LINE
  5
3F8
330
3F4
100
AcDbEntity
  8
0
 62
     0
440
 16777216
370
    -2
100
AcDbLine
 10
1296.252962968162
 20
1019.193762238173
 30
0.0
 11
1296.252962968162
 21
862.2978130998019
 31
0.0
  0
LINE
  5
3F9
330
3F4
100
AcDbEntity
  8
0
 62
     0
440
 16777216
370
    -2
100
AcDbLine
 10
2056.072962968162
 20
862.477813099802
 30
0.0
 11
1676.897962968162
 21
862.477813099802
 31
0.0
  0
LINE
  5
3FA
330
3F4
100
AcDbEntity
  8
0
 62
     0
440
 16777216
370
    -2
100
AcDbLine
 10
1296.432962968162
 20
862.477813099802
 30
0.0
 11
1675.607962968162
 21
862.477813099802
 31
0.0
  0
SOLID
  5
3FB
330
3F4
100
AcDbEntity
  8
0
 62
     0
440
 16777216
100
AcDbTrace
 10
2056.072962968162
 20
862.5078130998019
 30
0.0
 11
2056.072962968162
 21
862.4478130998021
 31
0.0
 12
2056.252962968162
 22
862.477813099802
 32
0.0
 13
2056.252962968162
 23
862.477813099802
 33
0.0
  0
SOLID
  5
3FC
330
3F4
100
AcDbEntity
  8
0
 62
     0
440
 16777216
100
AcDbTrace
 10
1296.432962968162
 20
862.5078130998019
 30
0.0
 11
1296.432962968162
 21
862.4478130998021
 31
0.0
 12
1296.252962968162
 22
862.477813099802
 32
0.0
 13
1296.252962968162
 23
862.477813099802
 33
0.0
  0
MTEXT
  5
3FD
330
3F4
100
AcDbEntity
  8
0
 62
     0
440
 16777216
100
AcDbMText
 10
1676.252962968162
 20
862.477813099802
 30
0.0
 40
0.18
 41
0.0
 46
0.0
 71
     5
 72
     1
  1
\A1;760.0000
 73
     1
 44
1.0
  0
POINT
  5
3FE
330
3F4
100
AcDbEntity
  8
Defpoints
 62
     0
440
 16777216
100
AcDbPoint
 10
2056.252962968162
 20
1019.256262238173
 30
0.00000000000014
  0
POINT
  5
3FF
330
3F4
100
AcDbEntity
  8
Defpoints
 62
     0
440
 16777216
100
AcDbPoint
 10
1296.252962968162
 20
1019.256262238173
 30
0.0
  0
POINT
  5
400
330
3F4
100
AcDbEntity
  8
Defpoints
 62
     0
440
 16777216
100
AcDbPoint
 10
1296.252962968162
 20
862.477813099802
 30
0.0
  0
ENDBLK
  5
3F6
330
3F4
100
AcDbEntity
  8
0
100
AcDbBlockEnd
  0
BLOCK
  5
403
330
402
100
AcDbEntity
  8
0
100
AcDbBlockBegin
  2
*D16
 70
     1
 10
0.0
 20
0.0
 30
0.0
  3
*D16
  1

  0
LINE
  5
405
330
402
100
AcDbEntity
  8
0
 62
     0
440
 16777216
370
    -2
100
AcDbLine
 10
1296.252962968162
 20
1019.193762238173
 30
0.0
 11
1296.252962968162
 21
909.1499284203093
 31
0.0
  0
LINE
  5
406
330
402
100
AcDbEntity
  8
0
 62
     0
440
 16777216
370
    -2
100
AcDbLine
 10
1384.252962968162
 20
1035.693762238173
 30
0.0
 11
1384.252962968162
 21
909.1499284203093
 31
0.0
  0
LINE
  5
407
330
402
100
AcDbEntity
  8
0
 62
     0
440
 16777216
370
    -2
100
AcDbLine
 10
1296.432962968162
 20
909.3299284203094
 30
0.0
 11
1339.682962968162
 21
909.3299284203094
 31
0.0
  0
LINE
  5
408
330
402
100
AcDbEntity
  8
0
 62
     0
440
 16777216
370
    -2
100
AcDbLine
 10
1384.072962968162
 20
909.3299284203094
 30
0.0
 11
1340.822962968162
 21
909.3299284203094
 31
0.0
  0
SOLID
  5
409
330
402
100
AcDbEntity
  8
0
 62
     0
440
 16777216
100
AcDbTrace
 10
1296.432962968162
 20
909.3599284203094
 30
0.0
 11
1296.432962968162
 21
909.2999284203095
 31
0.0
 12
1296.252962968162
 22
909.3299284203094
 32
0.0
 13
1296.252962968162
 23
909.3299284203094
 33
0.0
  0
SOLID
  5
40A
330
402
100
AcDbEntity
  8
0
 62
     0
440
 16777216
100
AcDbTrace
 10
1384.072962968162
 20
909.3599284203094
 30
0.0
 11
1384.072962968162
 21
909.2999284203095
 31
0.0
 12
1384.252962968162
 22
909.3299284203094
 32
0.0
 13
1384.252962968162
 23
909.3299284203094
 33
0.0
  0
MTEXT
  5
40B
330
402
100
AcDbEntity
  8
0
 62
     0
440
 16777216
100
AcDbMText
 10
1340.252962968162
 20
909.3299284203094
 30
0.0
 40
0.18
 41
0.0
 46
0.0
 71
     5
 72
     1
  1
\A1;88.0000
 73
     1
 44
1.0
  0
POINT
  5
40C
330
402
100
AcDbEntity
  8
Defpoints
 62
     0
440
 16777216
100
AcDbPoint
 10
1296.252962968162
 20
1019.256262238173
 30
0.0
  0
POINT
  5
40D
330
402
100
AcDbEntity
  8
Defpoints
 62
     0
440
 16777216
100
AcDbPoint
 10
1384.252962968162
 20
1035.756262238173
 30
0.0000000000000165
  0
POINT
  5
40E
330
402
100
AcDbEntity
  8
Defpoints
 62
     0
440
 16777216
100
AcDbPoint
 10
1384.252962968162
 20
909.3299284203094
 30
0.0
  0
ENDBLK
  5
404
330
402
100
AcDbEntity
  8
0
100
AcDbBlockEnd
  0
BLOCK
  5
411
330
410
100
AcDbEntity
  8
0
100
AcDbBlockBegin
  2
*D17
 70
     1
 10
0.0
 20
0.0
 30
0.0
  3
*D17
  1

  0
LINE
  5
413
330
410
100
AcDbEntity
  8
0
 62
     0
440
 16777216
370
    -2
100
AcDbLine
 10
1483.252962968162
 20
1019.193762238173
 30
0.0
 11
1483.252962968162
 21
792.019821515358
 31
0.0
  0
LINE
  5
414
330
410
100
AcDbEntity
  8
0
 62
     0
440
 16777216
370
    -2
100
AcDbLine
 10
1296.252962968162
 20
1019.131262238173
 30
0.0
 11
1296.252962968162
 21
792.019821515358
 31
0.0
  0
LINE
  5
415
330
410
100
AcDbEntity
  8
0
 62
     0
440
 16777216
370
    -2
100
AcDbLine
 10
1483.072962968162
 20
792.199821515358
 30
0.0
 11
1390.382962968162
 21
792.199821515358
 31
0.0
  0
LINE
  5
416
330
410
100
AcDbEntity
  8
0
 62
     0
440
 16777216
370
    -2
100
AcDbLine
 10
1296.432962968162
 20
792.199821515358
 30
0.0
 11
1389.122962968162
 21
792.199821515358
 31
0.0
  0
SOLID
  5
417
330
410
100
AcDbEntity
  8
0
 62
     0
440
 16777216
100
AcDbTrace
 10
1483.072962968162
 20
792.229821515358
 30
0.0
 11
1483.072962968162
 21
792.1698215153581
 31
0.0
 12
1483.252962968162
 22
792.199821515358
 32
0.0
 13
1483.252962968162
 23
792.199821515358
 33
0.0
  0
SOLID
  5
418
330
410
100
AcDbEntity
  8
0
 62
     0
440
 16777216
100
AcDbTrace
 10
1296.432962968162
 20
792.229821515358
 30
0.0
 11
1296.432962968162
 21
792.1698215153581
 31
0.0
 12
1296.252962968162
 22
792.199821515358
 32
0.0
 13
1296.252962968162
 23
792.199821515358
 33
0.0
  0
MTEXT
  5
419
330
410
100
AcDbEntity
  8
0
 62
     0
440
 16777216
100
AcDbMText
 10
1389.752962968162
 20
792.199821515358
 30
0.0
 40
0.18
 41
0.0
 46
0.0
 71
     5
 72
     1
  1
\A1;187.0000
 73
     1
 44
1.0
  0
POINT
  5
41A
330
410
100
AcDbEntity
  8
Defpoints
 62
     0
440
 16777216
100
AcDbPoint
 10
1483.252962968162
 20
1019.256262238173
 30
0.0000000000000347
  0
POINT
  5
41B
330
410
100
AcDbEntity
  8
Defpoints
 62
     0
440
 16777216
100
AcDbPoint
 10
1296.252962968162
 20
1019.193762238173
 30
0.0
  0
POINT
  5
41C
330
410
100
AcDbEntity
  8
Defpoints
 62
     0
440
 16777216
100
AcDbPoint
 10
1296.252962968162
 20
792.199821515358
 30
0.0
  0
ENDBLK
  5
412
330
410
100
AcDbEntity
  8
0
100
AcDbBlockEnd
  0
BLOCK
  5
41F
330
41E
100
AcDbEntity
  8
0
100
AcDbBlockBegin
  2
*D18
 70
     1
 10
0.0
 20
0.0
 30
0.0
  3
*D18
  1

  0
LINE
  5
421
330
41E
100
AcDbEntity
  8
0
 62
     0
440
 16777216
370
    -2
100
AcDbLine
 10
945.8529629661619
 20
1019.318762238173
 30
0.0
 11
945.8529629661619
 21
1191.033301483789
 31
0.0
  0
LINE
  5
422
330
41E
100
AcDbEntity
  8
0
 62
     0
440
 16777216
370
    -2
100
AcDbLine
 10
1132.852962966162
 20
1019.318762238173
 30
0.0
 11
1132.852962966162
 21
1191.033301483789
 31
0.0
  0
LINE
  5
423
330
41E
100
AcDbEntity
  8
0
 62
     0
440
 16777216
370
    -2
100
AcDbLine
 10
946.0329629661618
 20
1190.853301483788
 30
0.0
 11
1038.722962966162
 21
1190.853301483788
 31
0.0
  0
LINE
  5
424
330
41E
100
AcDbEntity
  8
0
 62
     0
440
 16777216
370
    -2
100
AcDbLine
 10
1132.672962966162
 20
1190.853301483788
 30
0.0
 11
1039.982962966162
 21
1190.853301483788
 31
0.0
  0
SOLID
  5
425
330
41E
100
AcDbEntity
  8
0
 62
     0
440
 16777216
100
AcDbTrace
 10
946.0329629661618
 20
1190.883301483788
 30
0.0
 11
946.0329629661618
 21
1190.823301483789
 31
0.0
 12
945.8529629661619
 22
1190.853301483788
 32
0.0
 13
945.8529629661619
 23
1190.853301483788
 33
0.0
  0
SOLID
  5
426
330
41E
100
AcDbEntity
  8
0
 62
     0
440
 16777216
100
AcDbTrace
 10
1132.672962966162
 20
1190.883301483788
 30
0.0
 11
1132.672962966162
 21
1190.823301483789
 31
0.0
 12
1132.852962966162
 22
1190.853301483788
 32
0.0
 13
1132.852962966162
 23
1190.853301483788
 33
0.0
  0
MTEXT
  5
427
330
41E
100
AcDbEntity
  8
0
 62
     0
440
 16777216
100
AcDbMText
 10
1039.352962966162
 20
1190.853301483788
 30
0.0
 40
0.18
 41
0.0
 46
0.0
 71
     5
 72
     1
  1
\A1;187.0000
 73
     1
 44
1.0
  0
POINT
  5
428
330
41E
100
AcDbEntity
  8
Defpoints
 62
     0
440
 16777216
100
AcDbPoint
 10
945.8529629661619
 20
1019.256262238173
 30
-0.0000000000000231
  0
POINT
  5
429
330
41E
100
AcDbEntity
  8
Defpoints
 62
     0
440
 16777216
100
AcDbPoint
 10
1132.852962966162
 20
1019.256262238173
 30
0.0
  0
POINT
  5
42A
330
41E
100
AcDbEntity
  8
Defpoints
 62
     0
440
 16777216
100
AcDbPoint
 10
1132.852962966162
 20
1190.853301483788
 30
0.0
  0
ENDBLK
  5
420
330
41E
100
AcDbEntity
  8
0
100
AcDbBlockEnd
  0
BLOCK
  5
42D
330
42C
100
AcDbEntity
  8
0
100
AcDbBlockBegin
  2
*D19
 70
     1
 10
0.0
 20
0.0
 30
0.0
  3
*D19
  1

  0
LINE
  5
42F
330
42C
100
AcDbEntity
  8
0
 62
     0
440
 16777216
370
    -2
100
AcDbLine
 10
1132.852962966162
 20
1019.256262238173
 30
0.0
 11
1132.852962966162
 21
890.6123186657717
 31
0.0
  0
LINE
  5
430
330
42C
100
AcDbEntity
  8
0
 62
     0
440
 16777216
370
    -2
100
AcDbLine
 10
372.8529629661621
 20
1134.193762238173
 30
0.0
 11
372.8529629661621
 21
890.6123186657717
 31
0.0
  0
LINE
  5
431
330
42C
100
AcDbEntity
  8
0
 62
     0
440
 16777216
370
    -2
100
AcDbLine
 10
1132.672962966162
 20
890.7923186657717
 30
0.0
 11
753.497962966162
 21
890.7923186657717
 31
0.0
  0
LINE
  5
432
330
42C
100
AcDbEntity
  8
0
 62
     0
440
 16777216
370
    -2
100
AcDbLine
 10
373.0329629661621
 20
890.7923186657717
 30
0.0
 11
752.2079629661621
 21
890.7923186657717
 31
0.0
  0
SOLID
  5
433
330
42C
100
AcDbEntity
  8
0
 62
     0
440
 16777216
100
AcDbTrace
 10
1132.672962966162
 20
890.8223186657718
 30
0.0
 11
1132.672962966162
 21
890.7623186657717
 31
0.0
 12
1132.852962966162
 22
890.7923186657717
 32
0.0
 13
1132.852962966162
 23
890.7923186657717
 33
0.0
  0
SOLID
  5
434
330
42C
100
AcDbEntity
  8
0
 62
     0
440
 16777216
100
AcDbTrace
 10
373.0329629661621
 20
890.8223186657718
 30
0.0
 11
373.0329629661621
 21
890.7623186657717
 31
0.0
 12
372.8529629661621
 22
890.7923186657717
 32
0.0
 13
372.8529629661621
 23
890.7923186657717
 33
0.0
  0
MTEXT
  5
435
330
42C
100
AcDbEntity
  8
0
 62
     0
440
 16777216
100
AcDbMText
 10
752.852962966162
 20
890.7923186657717
 30
0.0
 40
0.18
 41
0.0
 46
0.0
 71
     5
 72
     1
  1
\A1;760.0000
 73
     1
 44
1.0
  0
POINT
  5
436
330
42C
100
AcDbEntity
  8
Defpoints
 62
     0
440
 16777216
100
AcDbPoint
 10
1132.852962966162
 20
1019.318762238173
 30
0.0
  0
POINT
  5
437
330
42C
100
AcDbEntity
  8
Defpoints
 62
     0
440
 16777216
100
AcDbPoint
 10
372.8529629661621
 20
1134.256262238173
 30
-0.0000000000000933
  0
POINT
  5
438
330
42C
100
AcDbEntity
  8
Defpoints
 62
     0
440
 16777216
100
AcDbPoint
 10
372.8529629661621
 20
890.7923186657717
 30
0.0
  0
ENDBLK
  5
42E
330
42C
100
AcDbEntity
  8
0
100
AcDbBlockEnd
  0
BLOCK
  5
43B
330
43A
100
AcDbEntity
  8
0
100
AcDbBlockBegin
  2
*D20
 70
     1
 10
0.0
 20
0.0
 30
0.0
  3
*D20
  1

  0
LINE
  5
43D
330
43A
100
AcDbEntity
  8
0
 62
     0
440
 16777216
370
    -2
100
AcDbLine
 10
370.8529629661622
 20
1067.818762238173
 30
0.0
 11
370.8529629661622
 21
1240.865031828936
 31
0.0
  0
LINE
  5
43E
330
43A
100
AcDbEntity
  8
0
 62
     0
440
 16777216
370
    -2
100
AcDbLine
 10
1132.852962966162
 20
1019.318762238173
 30
0.0
 11
1132.852962966162
 21
1240.865031828936
 31
0.0
  0
LINE
  5
43F
330
43A
100
AcDbEntity
  8
0
 62
     0
440
 16777216
370
    -2
100
AcDbLine
 10
371.0329629661623
 20
1240.685031828936
 30
0.0
 11
751.192962966162
 21
1240.685031828936
 31
0.0
  0
LINE
  5
440
330
43A
100
AcDbEntity
  8
0
 62
     0
440
 16777216
370
    -2
100
AcDbLine
 10
1132.672962966162
 20
1240.685031828936
 30
0.0
 11
752.512962966162
 21
1240.685031828936
 31
0.0
  0
SOLID
  5
441
330
43A
100
AcDbEntity
  8
0
 62
     0
440
 16777216
100
AcDbTrace
 10
371.0329629661623
 20
1240.715031828936
 30
0.0
 11
371.0329629661623
 21
1240.655031828936
 31
0.0
 12
370.8529629661622
 22
1240.685031828936
 32
0.0
 13
370.8529629661622
 23
1240.685031828936
 33
0.0
  0
SOLID
  5
442
330
43A
100
AcDbEntity
  8
0
 62
     0
440
 16777216
100
AcDbTrace
 10
1132.672962966162
 20
1240.715031828936
 30
0.0
 11
1132.672962966162
 21
1240.655031828936
 31
0.0
 12
1132.852962966162
 22
1240.685031828936
 32
0.0
 13
1132.852962966162
 23
1240.685031828936
 33
0.0
  0
MTEXT
  5
443
330
43A
100
AcDbEntity
  8
0
 62
     0
440
 16777216
100
AcDbMText
 10
751.852962966162
 20
1240.685031828936
 30
0.0
 40
0.18
 41
0.0
 46
0.0
 71
     5
 72
     1
  1
\A1;762.0000
 73
     1
 44
1.0
  0
POINT
  5
444
330
43A
100
AcDbEntity
  8
Defpoints
 62
     0
440
 16777216
100
AcDbPoint
 10
370.8529629661622
 20
1067.756262238173
 30
-0.0000000000000933
  0
POINT
  5
445
330
43A
100
AcDbEntity
  8
Defpoints
 62
     0
440
 16777216
100
AcDbPoint
 10
1132.852962966162
 20
1019.256262238173
 30
0.0
  0
POINT
  5
446
330
43A
100
AcDbEntity
  8
Defpoints
 62
     0
440
 16777216
100
AcDbPoint
 10
1132.852962966162
 20
1240.685031828936
 30
0.0
  0
ENDBLK
  5
43C
330
43A
100
AcDbEntity
  8
0
100
AcDbBlockEnd
  0
BLOCK
  5
449
330
448
100
AcDbEntity
  8
0
100
AcDbBlockBegin
  2
*D21
 70
     1
 10
0.0
 20
0.0
 30
0.0
  3
*D21
  1

  0
LINE
  5
44B
330
448
100
AcDbEntity
  8
0
 62
     0
440
 16777216
370
    -2
100
AcDbLine
 10
370.8529629661622
 20
822.9187622261729
 30
0.0
 11
370.8529629661622
 21
935.1938253726181
 31
0.0
  0
LINE
  5
44C
330
448
100
AcDbEntity
  8
0
 62
     0
440
 16777216
370
    -2
100
AcDbLine
 10
1077.852962966162
 20
450.5284494929364
 30
0.0
 11
1077.852962966162
 21
935.1938253726181
 31
0.0
  0
LINE
  5
44D
330
448
100
AcDbEntity
  8
0
 62
     0
440
 16777216
370
    -2
100
AcDbLine
 10
371.0329629661622
 20
935.0138253726182
 30
0.0
 11
723.7079629661621
 21
935.0138253726182
 31
0.0
  0
LINE
  5
44E
330
448
100
AcDbEntity
  8
0
 62
     0
440
 16777216
370
    -2
100
AcDbLine
 10
1077.672962966162
 20
935.0138253726182
 30
0.0
 11
724.997962966162
 21
935.0138253726182
 31
0.0
  0
SOLID
  5
44F
330
448
100
AcDbEntity
  8
0
 62
     0
440
 16777216
100
AcDbTrace
 10
371.0329629661622
 20
935.0438253726181
 30
0.0
 11
371.0329629661622
 21
934.9838253726181
 31
0.0
 12
370.8529629661622
 22
935.0138253726182
 32
0.0
 13
370.8529629661622
 23
935.0138253726182
 33
0.0
  0
SOLID
  5
450
330
448
100
AcDbEntity
  8
0
 62
     0
440
 16777216
100
AcDbTrace
 10
1077.672962966162
 20
935.0438253726181
 30
0.0
 11
1077.672962966162
 21
934.9838253726181
 31
0.0
 12
1077.852962966162
 22
935.0138253726182
 32
0.0
 13
1077.852962966162
 23
935.0138253726182
 33
0.0
  0
MTEXT
  5
451
330
448
100
AcDbEntity
  8
0
 62
     0
440
 16777216
100
AcDbMText
 10
724.3529629661621
 20
935.0138253726182
 30
0.0
 40
0.18
 41
0.0
 46
0.0
 71
     5
 72
     1
  1
\A1;707.0000
 73
     1
 44
1.0
  0
POINT
  5
452
330
448
100
AcDbEntity
  8
Defpoints
 62
     0
440
 16777216
100
AcDbPoint
 10
370.8529629661622
 20
822.856262226173
 30
0.0
  0
POINT
  5
453
330
448
100
AcDbEntity
  8
Defpoints
 62
     0
440
 16777216
100
AcDbPoint
 10
1077.852962966162
 20
450.4659494929365
 30
0.0
  0
POINT
  5
454
330
448
100
AcDbEntity
  8
Defpoints
 62
     0
440
 16777216
100
AcDbPoint
 10
1077.852962966162
 20
935.0138253726182
 30
0.0
  0
ENDBLK
  5
44A
330
448
100
AcDbEntity
  8
0
100
AcDbBlockEnd
  0
BLOCK
  5
457
330
456
100
AcDbEntity
  8
0
100
AcDbBlockBegin
  2
*D22
 70
     1
 10
0.0
 20
0.0
 30
0.0
  3
*D22
  1

  0
LINE
  5
459
330
456
100
AcDbEntity
  8
0
 62
     0
440
 16777216
370
    -2
100
AcDbLine
 10
1132.852962966162
 20
635.918762226173
 30
0.0
 11
1132.852962966162
 21
922.4982636811398
 31
0.0
  0
LINE
  5
45A
330
456
100
AcDbEntity
  8
0
 62
     0
440
 16777216
370
    -2
100
AcDbLine
 10
370.8529629661622
 20
822.9187622261729
 30
0.0
 11
370.8529629661622
 21
922.4982636811398
 31
0.0
  0
LINE
  5
45B
330
456
100
AcDbEntity
  8
0
 62
     0
440
 16777216
370
    -2
100
AcDbLine
 10
1132.672962966162
 20
922.3182636811397
 30
0.0
 11
752.512962966162
 21
922.3182636811397
 31
0.0
  0
LINE
  5
45C
330
456
100
AcDbEntity
  8
0
 62
     0
440
 16777216
370
    -2
100
AcDbLine
 10
371.0329629661622
 20
922.3182636811397
 30
0.0
 11
751.192962966162
 21
922.3182636811397
 31
0.0
  0
SOLID
  5
45D
330
456
100
AcDbEntity
  8
0
 62
     0
440
 16777216
100
AcDbTrace
 10
1132.672962966162
 20
922.3482636811397
 30
0.0
 11
1132.672962966162
 21
922.2882636811398
 31
0.0
 12
1132.852962966162
 22
922.3182636811397
 32
0.0
 13
1132.852962966162
 23
922.3182636811397
 33
0.0
  0
SOLID
  5
45E
330
456
100
AcDbEntity
  8
0
 62
     0
440
 16777216
100
AcDbTrace
 10
371.0329629661622
 20
922.3482636811397
 30
0.0
 11
371.0329629661622
 21
922.2882636811398
 31
0.0
 12
370.8529629661622
 22
922.3182636811397
 32
0.0
 13
370.8529629661622
 23
922.3182636811397
 33
0.0
  0
MTEXT
  5
45F
330
456
100
AcDbEntity
  8
0
 62
     0
440
 16777216
100
AcDbMText
 10
751.852962966162
 20
922.3182636811397
 30
0.0
 40
0.18
 41
0.0
 46
0.0
 71
     5
 72
     1
  1
\A1;762.0000
 73
     1
 44
1.0
  0
POINT
  5
460
330
456
100
AcDbEntity
  8
Defpoints
 62
     0
440
 16777216
100
AcDbPoint
 10
1132.852962966162
 20
635.856262226173
 30
0.0
  0
POINT
  5
461
330
456
100
AcDbEntity
  8
Defpoints
 62
     0
440
 16777216
100
AcDbPoint
 10
370.8529629661622
 20
822.856262226173
 30
0.0
  0
POINT
  5
462
330
456
100
AcDbEntity
  8
Defpoints
 62
     0
440
 16777216
100
AcDbPoint
 10
370.8529629661622
 20
922.3182636811397
 30
0.0
  0
ENDBLK
  5
458
330
456
100
AcDbEntity
  8
0
100
AcDbBlockEnd
  0
BLOCK
  5
465
330
464
100
AcDbEntity
  8
0
100
AcDbBlockBegin
  2
*D23
 70
     1
 10
0.0
 20
0.0
 30
0.0
  3
*D23
  1

  0
LINE
  5
467
330
464
100
AcDbEntity
  8
0
 62
     0
440
 16777216
370
    -2
100
AcDbLine
 10
1132.852962966162
 20
635.793762226173
 30
0.0
 11
1132.852962966162
 21
528.5754884522105
 31
0.0
  0
LINE
  5
468
330
464
100
AcDbEntity
  8
0
 62
     0
440
 16777216
370
    -2
100
AcDbLine
 10
1044.852962966162
 20
635.793762226173
 30
0.0
 11
1044.852962966162
 21
528.5754884522105
 31
0.0
  0
LINE
  5
469
330
464
100
AcDbEntity
  8
0
 62
     0
440
 16777216
370
    -2
100
AcDbLine
 10
1132.672962966162
 20
528.7554884522105
 30
0.0
 11
1089.422962966162
 21
528.7554884522105
 31
0.0
  0
LINE
  5
46A
330
464
100
AcDbEntity
  8
0
 62
     0
440
 16777216
370
    -2
100
AcDbLine
 10
1045.032962966162
 20
528.7554884522105
 30
0.0
 11
1088.282962966162
 21
528.7554884522105
 31
0.0
  0
SOLID
  5
46B
330
464
100
AcDbEntity
  8
0
 62
     0
440
 16777216
100
AcDbTrace
 10
1132.672962966162
 20
528.7854884522105
 30
0.0
 11
1132.672962966162
 21
528.7254884522106
 31
0.0
 12
1132.852962966162
 22
528.7554884522105
 32
0.0
 13
1132.852962966162
 23
528.7554884522105
 33
0.0
  0
SOLID
  5
46C
330
464
100
AcDbEntity
  8
0
 62
     0
440
 16777216
100
AcDbTrace
 10
1045.032962966162
 20
528.7854884522105
 30
0.0
 11
1045.032962966162
 21
528.7254884522106
 31
0.0
 12
1044.852962966162
 22
528.7554884522105
 32
0.0
 13
1044.852962966162
 23
528.7554884522105
 33
0.0
  0
MTEXT
  5
46D
330
464
100
AcDbEntity
  8
0
 62
     0
440
 16777216
100
AcDbMText
 10
1088.852962966162
 20
528.7554884522105
 30
0.0
 40
0.18
 41
0.0
 46
0.0
 71
     5
 72
     1
  1
\A1;88.0000
 73
     1
 44
1.0
  0
POINT
  5
46E
330
464
100
AcDbEntity
  8
Defpoints
 62
     0
440
 16777216
100
AcDbPoint
 10
1132.852962966162
 20
635.856262226173
 30
0.0
  0
POINT
  5
46F
330
464
100
AcDbEntity
  8
Defpoints
 62
     0
440
 16777216
100
AcDbPoint
 10
1044.852962966162
 20
635.856262226173
 30
0.0
  0
POINT
  5
470
330
464
100
AcDbEntity
  8
Defpoints
 62
     0
440
 16777216
100
AcDbPoint
 10
1044.852962966162
 20
528.7554884522105
 30
0.0
  0
ENDBLK
  5
466
330
464
100
AcDbEntity
  8
0
100
AcDbBlockEnd
  0
BLOCK
  5
473
330
472
100
AcDbEntity
  8
0
100
AcDbBlockBegin
  2
*D24
 70
     1
 10
0.0
 20
0.0
 30
0.0
  3
*D24
  1

  0
LINE
  5
475
330
472
100
AcDbEntity
  8
0
 62
     0
440
 16777216
370
    -2
100
AcDbLine
 10
370.7904629661622
 20
822.9187622261729
 30
0.0
 11
145.7546004487015
 21
822.9187622261729
 31
0.0
  0
LINE
  5
476
330
472
100
AcDbEntity
  8
0
 62
     0
440
 16777216
370
    -2
100
AcDbLine
 10
370.7904629661621
 20
734.8562622261729
 30
0.0
 11
145.7546004487015
 21
734.856262226173
 31
0.0
  0
LINE
  5
477
330
472
100
AcDbEntity
  8
0
 62
     0
440
 16777216
370
    -2
100
AcDbLine
 10
145.9346004487015
 20
822.738762226173
 30
0.0
 11
145.9346004487015
 21
779.0675122261729
 31
0.0
  0
LINE
  5
478
330
472
100
AcDbEntity
  8
0
 62
     0
440
 16777216
370
    -2
100
AcDbLine
 10
145.9346004487015
 20
735.0362622261729
 30
0.0
 11
145.9346004487015
 21
778.7075122261731
 31
0.0
  0
SOLID
  5
479
330
472
100
AcDbEntity
  8
0
 62
     0
440
 16777216
100
AcDbTrace
 10
145.9046004487015
 20
822.738762226173
 30
0.0
 11
145.9646004487015
 21
822.738762226173
 31
0.0
 12
145.9346004487015
 22
822.9187622261729
 32
0.0
 13
145.9346004487015
 23
822.9187622261729
 33
0.0
  0
SOLID
  5
47A
330
472
100
AcDbEntity
  8
0
 62
     0
440
 16777216
100
AcDbTrace
 10
145.9046004487015
 20
735.0362622261729
 30
0.0
 11
145.9646004487015
 21
735.0362622261729
 31
0.0
 12
145.9346004487015
 22
734.856262226173
 32
0.0
 13
145.9346004487015
 23
734.856262226173
 33
0.0
  0
MTEXT
  5
47B
330
472
100
AcDbEntity
  8
0
 62
     0
440
 16777216
100
AcDbMText
 10
145.9346004487014
 20
778.887512226173
 30
0.0
 40
0.18
 41
0.0
 46
0.0
 71
     5
 72
     1
  1
\A1;88.0625
 73
     1
 44
1.0
  0
POINT
  5
47C
330
472
100
AcDbEntity
  8
Defpoints
 62
     0
440
 16777216
100
AcDbPoint
 10
370.8529629661622
 20
822.9187622261729
 30
0.0
  0
POINT
  5
47D
330
472
100
AcDbEntity
  8
Defpoints
 62
     0
440
 16777216
100
AcDbPoint
 10
370.8529629661621
 20
734.8562622261729
 30
0.0
  0
POINT
  5
47E
330
472
100
AcDbEntity
  8
Defpoints
 62
     0
440
 16777216
100
AcDbPoint
 10
145.9346004487015
 20
734.856262226173
 30
0.0
  0
ENDBLK
  5
474
330
472
100
AcDbEntity
  8
0
100
AcDbBlockEnd
  0
BLOCK
  5
481
330
480
100
AcDbEntity
  8
0
100
AcDbBlockBegin
  2
*D25
 70
     1
 10
0.0
 20
0.0
 30
0.0
  3
*D25
  1

  0
LINE
  5
483
330
480
100
AcDbEntity
  8
0
 62
     0
440
 16777216
370
    -2
100
AcDbLine
 10
1132.852962966162
 20
635.793762226173
 30
0.0
 11
1132.852962966162
 21
377.6200574954785
 31
0.0
  0
LINE
  5
484
330
480
100
AcDbEntity
  8
0
 62
     0
440
 16777216
370
    -2
100
AcDbLine
 10
1044.852962966162
 20
635.793762226173
 30
0.0
 11
1044.852962966162
 21
377.6200574954785
 31
0.0
  0
LINE
  5
485
330
480
100
AcDbEntity
  8
0
 62
     0
440
 16777216
370
    -2
100
AcDbLine
 10
1132.672962966162
 20
377.8000574954786
 30
0.0
 11
1089.422962966162
 21
377.8000574954786
 31
0.0
  0
LINE
  5
486
330
480
100
AcDbEntity
  8
0
 62
     0
440
 16777216
370
    -2
100
AcDbLine
 10
1045.032962966162
 20
377.8000574954786
 30
0.0
 11
1088.282962966162
 21
377.8000574954786
 31
0.0
  0
SOLID
  5
487
330
480
100
AcDbEntity
  8
0
 62
     0
440
 16777216
100
AcDbTrace
 10
1132.672962966162
 20
377.8300574954785
 30
0.0
 11
1132.672962966162
 21
377.7700574954786
 31
0.0
 12
1132.852962966162
 22
377.8000574954786
 32
0.0
 13
1132.852962966162
 23
377.8000574954786
 33
0.0
  0
SOLID
  5
488
330
480
100
AcDbEntity
  8
0
 62
     0
440
 16777216
100
AcDbTrace
 10
1045.032962966162
 20
377.8300574954785
 30
0.0
 11
1045.032962966162
 21
377.7700574954786
 31
0.0
 12
1044.852962966162
 22
377.8000574954786
 32
0.0
 13
1044.852962966162
 23
377.8000574954786
 33
0.0
  0
MTEXT
  5
489
330
480
100
AcDbEntity
  8
0
 62
     0
440
 16777216
100
AcDbMText
 10
1088.852962966162
 20
377.8000574954786
 30
0.0
 40
0.18
 41
0.0
 46
0.0
 71
     5
 72
     1
  1
\A1;88.0000
 73
     1
 44
1.0
  0
POINT
  5
48A
330
480
100
AcDbEntity
  8
Defpoints
 62
     0
440
 16777216
100
AcDbPoint
 10
1132.852962966162
 20
635.856262226173
 30
0.0
  0
POINT
  5
48B
330
480
100
AcDbEntity
  8
Defpoints
 62
     0
440
 16777216
100
AcDbPoint
 10
1044.852962966162
 20
635.856262226173
 30
0.0
  0
POINT
  5
48C
330
480
100
AcDbEntity
  8
Defpoints
 62
     0
440
 16777216
100
AcDbPoint
 10
1044.852962966162
 20
377.8000574954786
 30
0.0
  0
ENDBLK
  5
482
330
480
100
AcDbEntity
  8
0
100
AcDbBlockEnd
  0
BLOCK
  5
48F
330
48E
100
AcDbEntity
  8
0
100
AcDbBlockBegin
  2
*D26
 70
     1
 10
0.0
 20
0.0
 30
0.0
  3
*D26
  1

  0
LINE
  5
491
330
48E
100
AcDbEntity
  8
0
 62
     0
440
 16777216
370
    -2
100
AcDbLine
 10
943.9154629661619
 20
822.856262226173
 30
0.0
 11
1501.89362757904
 21
822.8562622261728
 31
0.0
  0
LINE
  5
492
330
48E
100
AcDbEntity
  8
0
 62
     0
440
 16777216
370
    -2
100
AcDbLine
 10
1132.915462966162
 20
62.8562622261735
 30
0.0
 11
1501.89362757904
 21
62.8562622261734
 31
0.0
  0
LINE
  5
493
330
48E
100
AcDbEntity
  8
0
 62
     0
440
 16777216
370
    -2
100
AcDbLine
 10
1501.71362757904
 20
822.6762622261729
 30
0.0
 11
1501.71362757904
 21
443.0362622261731
 31
0.0
  0
LINE
  5
494
330
48E
100
AcDbEntity
  8
0
 62
     0
440
 16777216
370
    -2
100
AcDbLine
 10
1501.71362757904
 20
63.0362622261734
 30
0.0
 11
1501.71362757904
 21
442.6762622261732
 31
0.0
  0
SOLID
  5
495
330
48E
100
AcDbEntity
  8
0
 62
     0
440
 16777216
100
AcDbTrace
 10
1501.68362757904
 20
822.6762622261729
 30
0.0
 11
1501.74362757904
 21
822.6762622261729
 31
0.0
 12
1501.71362757904
 22
822.8562622261728
 32
0.0
 13
1501.71362757904
 23
822.8562622261728
 33
0.0
  0
SOLID
  5
496
330
48E
100
AcDbEntity
  8
0
 62
     0
440
 16777216
100
AcDbTrace
 10
1501.68362757904
 20
63.0362622261734
 30
0.0
 11
1501.74362757904
 21
63.0362622261734
 31
0.0
 12
1501.71362757904
 22
62.8562622261734
 32
0.0
 13
1501.71362757904
 23
62.8562622261734
 33
0.0
  0
MTEXT
  5
497
330
48E
100
AcDbEntity
  8
0
 62
     0
440
 16777216
100
AcDbMText
 10
1501.71362757904
 20
442.8562622261734
 30
0.0
 40
0.18
 41
0.0
 46
0.0
 71
     5
 72
     1
  1
\A1;760.0000
 73
     1
 44
1.0
  0
POINT
  5
498
330
48E
100
AcDbEntity
  8
Defpoints
 62
     0
440
 16777216
100
AcDbPoint
 10
943.8529629661619
 20
822.856262226173
 30
0.0
  0
POINT
  5
499
330
48E
100
AcDbEntity
  8
Defpoints
 62
     0
440
 16777216
100
AcDbPoint
 10
1132.852962966162
 20
62.8562622261735
 30
0.0
  0
POINT
  5
49A
330
48E
100
AcDbEntity
  8
Defpoints
 62
     0
440
 16777216
100
AcDbPoint
 10
1501.71362757904
 20
62.8562622261734
 30
0.0
  0
ENDBLK
  5
490
330
48E
100
AcDbEntity
  8
0
100
AcDbBlockEnd
  0
BLOCK
  5
49D
330
49C
100
AcDbEntity
  8
0
100
AcDbBlockBegin
  2
*D27
 70
     1
 10
0.0
 20
0.0
 30
0.0
  3
*D27
  1

  0
LINE
  5
49F
330
49C
100
AcDbEntity
  8
0
 62
     0
440
 16777216
370
    -2
100
AcDbLine
 10
935.0239445053741
 20
822.856262226173
 30
0.0
 11
1467.396194334556
 21
822.8562622261728
 31
0.0
  0
LINE
  5
4A0
330
49C
100
AcDbEntity
  8
0
 62
     0
440
 16777216
370
    -2
100
AcDbLine
 10
1132.915462966162
 20
635.856262226173
 30
0.0
 11
1467.396194334556
 21
635.8562622261729
 31
0.0
  0
LINE
  5
4A1
330
49C
100
AcDbEntity
  8
0
 62
     0
440
 16777216
370
    -2
100
AcDbLine
 10
1467.216194334556
 20
822.6762622261729
 30
0.0
 11
1467.216194334556
 21
729.5362622261727
 31
0.0
  0
LINE
  5
4A2
330
49C
100
AcDbEntity
  8
0
 62
     0
440
 16777216
370
    -2
100
AcDbLine
 10
1467.216194334556
 20
636.0362622261728
 30
0.0
 11
1467.216194334556
 21
729.1762622261728
 31
0.0
  0
SOLID
  5
4A3
330
49C
100
AcDbEntity
  8
0
 62
     0
440
 16777216
100
AcDbTrace
 10
1467.186194334556
 20
822.6762622261729
 30
0.0
 11
1467.246194334556
 21
822.6762622261729
 31
0.0
 12
1467.216194334556
 22
822.8562622261728
 32
0.0
 13
1467.216194334556
 23
822.8562622261728
 33
0.0
  0
SOLID
  5
4A4
330
49C
100
AcDbEntity
  8
0
 62
     0
440
 16777216
100
AcDbTrace
 10
1467.186194334556
 20
636.0362622261728
 30
0.0
 11
1467.246194334556
 21
636.0362622261728
 31
0.0
 12
1467.216194334556
 22
635.8562622261729
 32
0.0
 13
1467.216194334556
 23
635.8562622261729
 33
0.0
  0
MTEXT
  5
4A5
330
49C
100
AcDbEntity
  8
0
 62
     0
440
 16777216
100
AcDbMText
 10
1467.216194334556
 20
729.356262226173
 30
0.0
 40
0.18
 41
0.0
 46
0.0
 71
     5
 72
     1
  1
\A1;187.0000
 73
     1
 44
1.0
  0
POINT
  5
4A6
330
49C
100
AcDbEntity
  8
Defpoints
 62
     0
440
 16777216
100
AcDbPoint
 10
934.961444505374
 20
822.856262226173
 30
0.0
  0
POINT
  5
4A7
330
49C
100
AcDbEntity
  8
Defpoints
 62
     0
440
 16777216
100
AcDbPoint
 10
1132.852962966162
 20
635.856262226173
 30
0.0
  0
POINT
  5
4A8
330
49C
100
AcDbEntity
  8
Defpoints
 62
     0
440
 16777216
100
AcDbPoint
 10
1467.216194334556
 20
635.8562622261729
 30
0.0
  0
ENDBLK
  5
49E
330
49C
100
AcDbEntity
  8
0
100
AcDbBlockEnd
  0
BLOCK
  5
4AB
330
4AA
100
AcDbEntity
  8
0
100
AcDbBlockBegin
  2
*D28
 70
     1
 10
0.0
 20
0.0
 30
0.0
  3
*D28
  1

  0
LINE
  5
4AD
330
4AA
100
AcDbEntity
  8
0
 62
     0
440
 16777216
370
    -2
100
AcDbLine
 10
943.8529629661619
 20
822.9187622261729
 30
0.0
 11
943.8529629661619
 21
902.5755120583415
 31
0.0
  0
LINE
  5
4AE
330
4AA
100
AcDbEntity
  8
0
 62
     0
440
 16777216
370
    -2
100
AcDbLine
 10
1132.852962966162
 20
635.918762226173
 30
0.0
 11
1132.852962966162
 21
902.5755120583415
 31
0.0
  0
LINE
  5
4AF
330
4AA
100
AcDbEntity
  8
0
 62
     0
440
 16777216
370
    -2
100
AcDbLine
 10
944.0329629661619
 20
902.3955120583414
 30
0.0
 11
1037.722962966162
 21
902.3955120583414
 31
0.0
  0
LINE
  5
4B0
330
4AA
100
AcDbEntity
  8
0
 62
     0
440
 16777216
370
    -2
100
AcDbLine
 10
1132.672962966162
 20
902.3955120583414
 30
0.0
 11
1038.982962966162
 21
902.3955120583414
 31
0.0
  0
SOLID
  5
4B1
330
4AA
100
AcDbEntity
  8
0
 62
     0
440
 16777216
100
AcDbTrace
 10
944.0329629661619
 20
902.4255120583413
 30
0.0
 11
944.0329629661619
 21
902.3655120583415
 31
0.0
 12
943.8529629661619
 22
902.3955120583414
 32
0.0
 13
943.8529629661619
 23
902.3955120583414
 33
0.0
  0
SOLID
  5
4B2
330
4AA
100
AcDbEntity
  8
0
 62
     0
440
 16777216
100
AcDbTrace
 10
1132.672962966162
 20
902.4255120583413
 30
0.0
 11
1132.672962966162
 21
902.3655120583415
 31
0.0
 12
1132.852962966162
 22
902.3955120583414
 32
0.0
 13
1132.852962966162
 23
902.3955120583414
 33
0.0
  0
MTEXT
  5
4B3
330
4AA
100
AcDbEntity
  8
0
 62
     0
440
 16777216
100
AcDbMText
 10
1038.352962966162
 20
902.3955120583414
 30
0.0
 40
0.18
 41
0.0
 46
0.0
 71
     5
 72
     1
  1
\A1;189.0000
 73
     1
 44
1.0
  0
POINT
  5
4B4
330
4AA
100
AcDbEntity
  8
Defpoints
 62
     0
440
 16777216
100
AcDbPoint
 10
943.8529629661619
 20
822.856262226173
 30
0.0
  0
POINT
  5
4B5
330
4AA
100
AcDbEntity
  8
Defpoints
 62
     0
440
 16777216
100
AcDbPoint
 10
1132.852962966162
 20
635.856262226173
 30
0.0
  0
POINT
  5
4B6
330
4AA
100
AcDbEntity
  8
Defpoints
 62
     0
440
 16777216
100
AcDbPoint
 10
1132.852962966162
 20
902.3955120583414
 30
0.0
  0
ENDBLK
  5
4AC
330
4AA
100
AcDbEntity
  8
0
100
AcDbBlockEnd
  0
ENDSEC
  0
SECTION
  2
ENTITIES
  0
ARC
  5
1A2
330
1F
100
AcDbEntity
  8
HEWI
100
AcDbCircle
 10
1061.352962966162
 20
1019.256262238173
 30
-0.000000000000009
 40
16.5
100
AcDbArc
 50
90.0
 51
270.0
  0
LINE
  5
1A3
330
1F
100
AcDbEntity
  8
HEWI
100
AcDbLine
 10
419.3529629661622
 20
1035.756262238173
 30
-0.0000000000000874
 11
419.3529629661622
 21
1002.756262238173
 31
-0.0000000000000874
210
0.0
220
1.0
230
0.0
  0
LINE
  5
1A4
330
1F
100
AcDbEntity
  8
HEWI
100
AcDbLine
 10
354.3529629661624
 20
1067.756262238173
 30
-0.0000000000000953
 11
387.3529629661621
 21
1067.756262238173
 31
-0.0000000000000913
210
0.0
220
1.0
230
0.0
  0
LINE
  5
1A5
330
1F
100
AcDbEntity
  8
HEWI
100
AcDbLine
 10
419.3529629661622
 20
1002.756262238173
 30
-0.0000000000000874
 11
419.3529629661622
 21
1035.756262238173
 31
-0.0000000000000874
210
0.0
220
1.0
230
0.0
  0
LINE
  5
1A6
330
1F
100
AcDbEntity
  8
HEWI
100
AcDbLine
 10
354.3529629661624
 20
1870.756262238172
 30
-0.0000000000000953
 11
387.3529629661621
 21
1870.756262238172
 31
-0.0000000000000913
210
0.0
220
1.0
230
0.0
  0
LINE
  5
1A7
330
1F
100
AcDbEntity
  8
HEWI
100
AcDbLine
 10
354.3529629661624
 20
1067.756262238173
 30
-0.0000000000000953
 11
387.3529629661621
 21
1067.756262238173
 31
-0.0000000000000913
210
0.0
220
1.0
230
0.0
  0
ARC
  5
1A8
330
1F
100
AcDbEntity
  8
HEWI
100
AcDbCircle
 10
370.8529629661621
 20
1919.256262238173
 30
-0.0000000000000933
 40
16.5
100
AcDbArc
 50
0.0
 51
180.0
  0
LINE
  5
1A9
330
1F
100
AcDbEntity
  8
HEWI
100
AcDbLine
 10
354.3529629661624
 20
1870.756262238172
 30
-0.0000000000000953
 11
387.3529629661621
 21
1870.756262238172
 31
-0.0000000000000913
210
0.0
220
1.0
230
0.0
  0
LINE
  5
1AA
330
1F
100
AcDbEntity
  8
HEWI
100
AcDbLine
 10
1132.852962966162
 20
1054.256262238173
 30
0.0
 11
1132.852962966162
 21
984.2562622381727
 31
0.0
210
0.0
220
1.0
230
0.0
  0
LINE
  5
1AB
330
1F
100
AcDbEntity
  8
HEWI
100
AcDbLine
 10
1120.852962966162
 20
1052.256262238173
 30
-0.0000000000000015
 11
1120.852962966162
 21
986.2562622381728
 31
-0.0000000000000015
210
0.0
220
1.0
230
0.0
  0
ARC
  5
1AC
330
1F
100
AcDbEntity
  8
HEWI
100
AcDbCircle
 10
943.8529629661619
 20
1019.256262238173
 30
-0.0000000000000231
 40
35.0
100
AcDbArc
 50
28.1270682186031
 51
151.8729317813969
  0
ARC
  5
1AD
330
1F
100
AcDbEntity
  8
HEWI
100
AcDbCircle
 10
943.8529629661619
 20
1019.256262238173
 30
-0.0000000000000231
 40
35.0
100
AcDbArc
 50
208.1270682186031
 51
331.8729317813969
  0
ARC
  5
1AE
330
1F
100
AcDbEntity
  8
HEWI
100
AcDbCircle
 10
943.8529629661619
 20
1019.256262238173
 30
-0.0000000000000231
 40
16.8
100
AcDbArc
 50
79.15593743629928
 51
100.8440625637007
  0
ARC
  5
1AF
330
1F
100
AcDbEntity
  8
HEWI
100
AcDbCircle
 10
943.8529629661619
 20
1019.256262238173
 30
-0.0000000000000231
 40
16.8
100
AcDbArc
 50
259.1559374362993
 51
280.8440625636944
  0
ARC
  5
1B0
330
1F
100
AcDbEntity
  8
HEWI
100
AcDbCircle
 10
370.8529629661621
 20
1134.256262238173
 30
-0.0000000000000933
 40
35.0
100
AcDbArc
 50
118.1270682186031
 51
180.0
  0
ARC
  5
1B1
330
1F
100
AcDbEntity
  8
HEWI
100
AcDbCircle
 10
370.8529629661621
 20
1134.256262238173
 30
-0.0000000000000933
 40
35.0
100
AcDbArc
 50
298.1270682186032
 51
61.8729317813969
  0
ARC
  5
1B2
330
1F
100
AcDbEntity
  8
HEWI
100
AcDbCircle
 10
370.8529629661621
 20
1134.256262238173
 30
-0.0000000000000933
 40
35.0
100
AcDbArc
 50
180.0
 51
241.8729317813969
  0
ARC
  5
1B3
330
1F
100
AcDbEntity
  8
HEWI
100
AcDbCircle
 10
370.8529629661621
 20
1134.256262238173
 30
-0.0000000000000933
 40
16.8
100
AcDbArc
 50
169.1559374362995
 51
180.0
  0
ARC
  5
1B4
330
1F
100
AcDbEntity
  8
HEWI
100
AcDbCircle
 10
370.8529629661621
 20
1134.256262238173
 30
-0.0000000000000933
 40
16.8
100
AcDbArc
 50
349.1559374362997
 51
10.84406256370036
  0
ARC
  5
1B5
330
1F
100
AcDbEntity
  8
HEWI
100
AcDbCircle
 10
370.8529629661621
 20
1134.256262238173
 30
-0.0000000000000933
 40
16.8
100
AcDbArc
 50
180.0
 51
190.8440625637003
  0
ARC
  5
1B6
330
1F
100
AcDbEntity
  8
HEWI
100
AcDbCircle
 10
370.8529629661621
 20
1919.256262238173
 30
-0.0000000000000933
 40
35.0
100
AcDbArc
 50
298.1270682186032
 51
180.0
  0
ARC
  5
1B7
330
1F
100
AcDbEntity
  8
HEWI
100
AcDbCircle
 10
370.8529629661621
 20
1919.256262238173
 30
-0.0000000000000933
 40
35.0
100
AcDbArc
 50
180.0
 51
241.8729317813969
  0
ARC
  5
1B8
330
1F
100
AcDbEntity
  8
HEWI
100
AcDbCircle
 10
370.8529629661621
 20
1919.256262238173
 30
-0.0000000000000933
 40
16.8
100
AcDbArc
 50
349.1559374362997
 51
180.0
  0
ARC
  5
1B9
330
1F
100
AcDbEntity
  8
HEWI
100
AcDbCircle
 10
370.8529629661621
 20
1919.256262238173
 30
-0.0000000000000933
 40
16.8
100
AcDbArc
 50
180.0
 51
190.8440625637003
  0
LINE
  5
1BA
330
1F
100
AcDbEntity
  8
HEWI
100
AcDbLine
 10
1122.852962966162
 20
984.2562622381727
 30
-0.0000000000000012
 11
1132.852962966162
 21
984.2562622381727
 31
0.0
210
0.0
220
1.0
230
0.0
  0
LINE
  5
1BB
330
1F
100
AcDbEntity
  8
HEWI
100
AcDbLine
 10
1122.852962966162
 20
1054.256262238173
 30
-0.0000000000000012
 11
1132.852962966162
 21
1054.256262238173
 31
0.0
210
0.0
220
1.0
230
0.0
  0
LINE
  5
1BC
330
1F
100
AcDbEntity
  8
HEWI
100
AcDbLine
 10
354.3529629661624
 20
1870.756262238172
 30
-0.0000000000000953
 11
354.3529629661624
 21
1067.756262238173
 31
-0.0000000000000953
210
0.0
220
1.0
230
0.0
  0
LINE
  5
1BD
330
1F
100
AcDbEntity
  8
HEWI
100
AcDbLine
 10
387.3529629661621
 20
1870.756262238172
 30
-0.0000000000000913
 11
387.3529629661621
 21
1067.756262238173
 31
-0.0000000000000913
210
0.0
220
1.0
230
0.0
  0
LINE
  5
1BE
330
1F
100
AcDbEntity
  8
HEWI
100
AcDbLine
 10
1010.852962966162
 20
1035.756262238173
 30
-0.0000000000000149
 11
419.3529629661622
 21
1035.756262238173
 31
-0.0000000000000874
210
0.0
220
1.0
230
0.0
  0
LINE
  5
1BF
330
1F
100
AcDbEntity
  8
HEWI
100
AcDbLine
 10
1010.852962966162
 20
1002.756262238173
 30
-0.0000000000000149
 11
419.3529629661622
 21
1002.756262238173
 31
-0.0000000000000874
210
0.0
220
1.0
230
0.0
  0
LINE
  5
1C0
330
1F
100
AcDbEntity
  8
HEWI
100
AcDbLine
 10
1120.852962966162
 20
1035.756262238173
 30
-0.0000000000000017
 11
1109.852962966162
 21
1035.756262238173
 31
-0.0000000000000031
210
0.0
220
1.0
230
0.0
  0
LINE
  5
1C1
330
1F
100
AcDbEntity
  8
HEWI
100
AcDbLine
 10
1120.852962966162
 20
1002.756262238173
 30
-0.0000000000000017
 11
1109.852962966162
 21
1002.756262238173
 31
-0.0000000000000031
210
0.0
220
1.0
230
0.0
  0
ARC
  5
1C2
330
1F
100
AcDbEntity
  8
HEWI
100
AcDbCircle
 10
1122.852962966162
 20
1052.256262238173
 30
-0.0000000000000012
 40
2.0
100
AcDbArc
 50
90.0
 51
180.0
  0
ARC
  5
1C3
330
1F
100
AcDbEntity
  8
HEWI
100
AcDbCircle
 10
1122.852962966162
 20
986.2562622381728
 30
-0.0000000000000012
 40
2.0
100
AcDbArc
 50
180.0
 51
270.0
  0
LINE
  5
1C4
330
1F
100
AcDbEntity
  8
HEWI
100
AcDbLine
 10
387.3529629661621
 20
1870.756262238172
 30
-0.0000000000000913
 11
387.3529629661621
 21
1919.256262238173
 31
-0.0000000000000913
210
0.0
220
1.0
230
0.0
  0
LINE
  5
1C5
330
1F
100
AcDbEntity
  8
HEWI
100
AcDbLine
 10
354.3529629661624
 20
1919.256262238173
 30
-0.0000000000000953
 11
354.3529629661624
 21
1870.756262238172
 31
-0.0000000000000953
210
0.0
220
1.0
230
0.0
  0
ARC
  5
1C6
330
1F
100
AcDbEntity
  8
HEWI
100
AcDbCircle
 10
419.3529629661622
 20
1067.756262238173
 30
-0.0000000000000874
 40
65.0
100
AcDbArc
 50
180.0
 51
270.0
  0
ARC
  5
1C7
330
1F
100
AcDbEntity
  8
HEWI
100
AcDbCircle
 10
419.3529629661622
 20
1067.756262238173
 30
-0.0000000000000874
 40
32.0
100
AcDbArc
 50
180.0
 51
270.0
  0
LINE
  5
1C8
330
1F
100
AcDbEntity
  8
HEWI
100
AcDbLine
 10
1061.352962966162
 20
1035.756262238173
 30
-0.000000000000009
 11
1012.852962966162
 21
1035.756262238173
 31
-0.0000000000000149
210
0.0
220
1.0
230
0.0
  0
LINE
  5
1C9
330
1F
100
AcDbEntity
  8
HEWI
100
AcDbLine
 10
1012.852962966162
 20
1002.756262238173
 30
-0.0000000000000149
 11
1061.352962966162
 21
1002.756262238173
 31
-0.000000000000009
210
0.0
220
1.0
230
0.0
  0
LINE
  5
1CA
330
1F
100
AcDbEntity
  8
HEWI
100
AcDbLine
 10
1061.352962966162
 20
1002.756262238173
 30
-0.000000000000009
 11
1109.852962966162
 21
1002.756262238173
 31
-0.0000000000000031
210
0.0
220
1.0
230
0.0
  0
LINE
  5
1CB
330
1F
100
AcDbEntity
  8
HEWI
100
AcDbLine
 10
1109.852962966162
 20
1035.756262238173
 30
-0.0000000000000031
 11
1061.352962966162
 21
1035.756262238173
 31
-0.000000000000009
210
0.0
220
1.0
230
0.0
  0
ARC
  5
1CD
330
1F
100
AcDbEntity
  8
HEWI
100
AcDbCircle
 10
2058.252962968162
 20
1019.256262238173
 30
0.00000000000014
 40
16.5
100
AcDbArc
 50
270.0
 51
90.0
  0
LINE
  5
1CE
330
1F
100
AcDbEntity
  8
HEWI
100
AcDbLine
 10
1351.252962968162
 20
1067.756262238173
 30
0.0000000000000105
 11
1384.252962968162
 21
1067.756262238173
 31
0.0000000000000165
210
0.0
220
1.0
230
0.0
  0
ARC
  5
1CF
330
1F
100
AcDbEntity
  8
HEWI
100
AcDbCircle
 10
1367.752962968162
 20
1019.256262238173
 30
0.0000000000000135
 40
16.5
100
AcDbArc
 50
180.0
 51
0.0
  0
LINE
  5
1D0
330
1F
100
AcDbEntity
  8
HEWI
100
AcDbLine
 10
1351.252962968162
 20
1870.756262238172
 30
0.0000000000000105
 11
1384.252962968162
 21
1870.756262238172
 31
0.0000000000000165
210
0.0
220
1.0
230
0.0
  0
LINE
  5
1D1
330
1F
100
AcDbEntity
  8
HEWI
100
AcDbLine
 10
1351.252962968162
 20
1067.756262238173
 30
0.0000000000000105
 11
1384.252962968162
 21
1067.756262238173
 31
0.0000000000000165
210
0.0
220
1.0
230
0.0
  0
LINE
  5
1D2
330
1F
100
AcDbEntity
  8
HEWI
100
AcDbLine
 10
1351.252962968162
 20
1150.756262238173
 30
0.0000000000000105
 11
1367.752962968162
 21
1134.256262238173
 31
0.0000000000000135
210
0.0
220
1.0
230
0.0
  0
LINE
  5
1D3
330
1F
100
AcDbEntity
  8
HEWI
100
AcDbLine
 10
1367.752962968162
 20
1134.256262238173
 30
0.0000000000000135
 11
1351.252962968162
 21
1117.756262238173
 31
0.0000000000000105
210
0.0
220
1.0
230
0.0
  0
LINE
  5
1D5
330
1F
100
AcDbEntity
  8
HEWI
100
AcDbLine
 10
1351.252962968162
 20
1870.756262238172
 30
0.0000000000000105
 11
1384.252962968162
 21
1870.756262238172
 31
0.0000000000000165
210
0.0
220
1.0
230
0.0
  0
ARC
  5
1D7
330
1F
100
AcDbEntity
  8
HEWI
100
AcDbCircle
 10
1485.252962968162
 20
1019.256262238173
 30
0.0000000000000347
 40
35.0
100
AcDbArc
 50
28.1270682186031
 51
151.8729317813969
  0
ARC
  5
1D8
330
1F
100
AcDbEntity
  8
HEWI
100
AcDbCircle
 10
1485.252962968162
 20
1019.256262238173
 30
0.0000000000000347
 40
35.0
100
AcDbArc
 50
208.1270682186031
 51
331.8729317813969
  0
ARC
  5
1D9
330
1F
100
AcDbEntity
  8
HEWI
100
AcDbCircle
 10
1485.252962968162
 20
1019.256262238173
 30
0.0000000000000347
 40
16.8
100
AcDbArc
 50
79.15593743630563
 51
100.8440625636943
  0
ARC
  5
1DA
330
1F
100
AcDbEntity
  8
HEWI
100
AcDbCircle
 10
1485.252962968162
 20
1019.256262238173
 30
0.0000000000000347
 40
16.8
100
AcDbArc
 50
259.1559374363056
 51
280.8440625636944
  0
ARC
  5
1DB
330
1F
100
AcDbEntity
  8
HEWI
100
AcDbCircle
 10
2058.252962968162
 20
1019.256262238173
 30
0.00000000000014
 40
35.0
100
AcDbArc
 50
208.1270682186031
 51
151.8729317813969
  0
ARC
  5
1DC
330
1F
100
AcDbEntity
  8
HEWI
100
AcDbCircle
 10
2058.252962968162
 20
1019.256262238173
 30
0.00000000000014
 40
16.8
100
AcDbArc
 50
259.1559374363056
 51
100.8440625636943
  0
LINE
  5
1DD
330
1F
100
AcDbEntity
  8
HEWI
100
AcDbLine
 10
1296.252962968162
 20
1019.256262238173
 30
0.0
 11
1296.252962968162
 21
1054.256262238173
 31
0.0
210
0.0
220
1.0
230
0.0
  0
LINE
  5
1DE
330
1F
100
AcDbEntity
  8
HEWI
100
AcDbLine
 10
1296.252962968162
 20
984.2562622381727
 30
0.0
 11
1296.252962968162
 21
1019.256262238173
 31
0.0
210
0.0
220
1.0
230
0.0
  0
LINE
  5
1DF
330
1F
100
AcDbEntity
  8
HEWI
100
AcDbLine
 10
1308.252962968162
 20
1019.256262238173
 30
0.0000000000000022
 11
1308.252962968162
 21
1052.256262238173
 31
0.0000000000000022
210
0.0
220
1.0
230
0.0
  0
LINE
  5
1E0
330
1F
100
AcDbEntity
  8
HEWI
100
AcDbLine
 10
1308.252962968162
 20
986.2562622381728
 30
0.0000000000000022
 11
1308.252962968162
 21
1019.256262238173
 31
0.0000000000000022
210
0.0
220
1.0
230
0.0
  0
LINE
  5
1E1
330
1F
100
AcDbEntity
  8
HEWI
100
AcDbLine
 10
1296.252962968162
 20
1134.256262238173
 30
0.0
 11
1296.252962968162
 21
1169.256262238173
 31
0.0
210
0.0
220
1.0
230
0.0
  0
LINE
  5
1E2
330
1F
100
AcDbEntity
  8
HEWI
100
AcDbLine
 10
1296.252962968162
 20
1099.256262238173
 30
0.0
 11
1296.252962968162
 21
1134.256262238173
 31
0.0
210
0.0
220
1.0
230
0.0
  0
LINE
  5
1E3
330
1F
100
AcDbEntity
  8
HEWI
100
AcDbLine
 10
1308.252962968162
 20
1134.256262238173
 30
0.0000000000000022
 11
1308.252962968162
 21
1167.256262238173
 31
0.0000000000000022
210
0.0
220
1.0
230
0.0
  0
LINE
  5
1E4
330
1F
100
AcDbEntity
  8
HEWI
100
AcDbLine
 10
1308.252962968162
 20
1101.256262238173
 30
0.0000000000000022
 11
1308.252962968162
 21
1134.256262238173
 31
0.0000000000000022
210
0.0
220
1.0
230
0.0
  0
LINE
  5
1E5
330
1F
100
AcDbEntity
  8
HEWI
100
AcDbLine
 10
1296.252962968162
 20
1919.256262238173
 30
0.0
 11
1296.252962968162
 21
1954.256262238173
 31
0.0
210
0.0
220
1.0
230
0.0
  0
LINE
  5
1E6
330
1F
100
AcDbEntity
  8
HEWI
100
AcDbLine
 10
1296.252962968162
 20
1884.256262238173
 30
0.0
 11
1296.252962968162
 21
1919.256262238173
 31
0.0
210
0.0
220
1.0
230
0.0
  0
LINE
  5
1E7
330
1F
100
AcDbEntity
  8
HEWI
100
AcDbLine
 10
1308.252962968162
 20
1919.256262238173
 30
0.0000000000000022
 11
1308.252962968162
 21
1952.256262238173
 31
0.0000000000000022
210
0.0
220
1.0
230
0.0
  0
LINE
  5
1E8
330
1F
100
AcDbEntity
  8
HEWI
100
AcDbLine
 10
1308.252962968162
 20
1886.256262238173
 30
0.0000000000000022
 11
1308.252962968162
 21
1919.256262238173
 31
0.0000000000000022
210
0.0
220
1.0
230
0.0
  0
LINE
  5
1E9
330
1F
100
AcDbEntity
  8
HEWI
100
AcDbLine
 10
1306.252962968162
 20
1954.256262238173
 30
0.0000000000000018
 11
1296.252962968162
 21
1954.256262238173
 31
0.0
210
0.0
220
1.0
230
0.0
  0
LINE
  5
1EA
330
1F
100
AcDbEntity
  8
HEWI
100
AcDbLine
 10
1306.252962968162
 20
1884.256262238173
 30
0.0000000000000018
 11
1296.252962968162
 21
1884.256262238173
 31
0.0
210
0.0
220
1.0
230
0.0
  0
LINE
  5
1EB
330
1F
100
AcDbEntity
  8
HEWI
100
AcDbLine
 10
1306.252962968162
 20
1169.256262238173
 30
0.0000000000000018
 11
1296.252962968162
 21
1169.256262238173
 31
0.0
210
0.0
220
1.0
230
0.0
  0
LINE
  5
1EC
330
1F
100
AcDbEntity
  8
HEWI
100
AcDbLine
 10
1306.252962968162
 20
1099.256262238173
 30
0.0000000000000018
 11
1296.252962968162
 21
1099.256262238173
 31
0.0
210
0.0
220
1.0
230
0.0
  0
LINE
  5
1ED
330
1F
100
AcDbEntity
  8
HEWI
100
AcDbLine
 10
1306.252962968162
 20
1054.256262238173
 30
0.0000000000000018
 11
1296.252962968162
 21
1054.256262238173
 31
0.0
210
0.0
220
1.0
230
0.0
  0
LINE
  5
1EE
330
1F
100
AcDbEntity
  8
HEWI
100
AcDbLine
 10
1306.252962968162
 20
984.2562622381727
 30
0.0000000000000018
 11
1296.252962968162
 21
984.2562622381727
 31
0.0
210
0.0
220
1.0
230
0.0
  0
LINE
  5
1EF
330
1F
100
AcDbEntity
  8
HEWI
100
AcDbLine
 10
1308.252962968162
 20
1902.756262238173
 30
0.0000000000000026
 11
1319.252962968162
 21
1902.756262238172
 31
0.0000000000000046
210
0.0
220
1.0
230
0.0
  0
LINE
  5
1F0
330
1F
100
AcDbEntity
  8
HEWI
100
AcDbLine
 10
1308.252962968162
 20
1935.756262238173
 30
0.0000000000000026
 11
1319.252962968162
 21
1935.756262238173
 31
0.0000000000000046
210
0.0
220
1.0
230
0.0
  0
LINE
  5
1F1
330
1F
100
AcDbEntity
  8
HEWI
100
AcDbLine
 10
1308.252962968162
 20
1117.756262238173
 30
0.0000000000000026
 11
1351.252962968162
 21
1117.756262238173
 31
0.0000000000000105
210
0.0
220
1.0
230
0.0
  0
LINE
  5
1F2
330
1F
100
AcDbEntity
  8
HEWI
100
AcDbLine
 10
1308.252962968162
 20
1150.756262238172
 30
0.0000000000000026
 11
1351.252962968162
 21
1150.756262238173
 31
0.0000000000000105
210
0.0
220
1.0
230
0.0
  0
LINE
  5
1F3
330
1F
100
AcDbEntity
  8
HEWI
100
AcDbLine
 10
1351.252962968162
 20
1117.756262238173
 30
0.0000000000000105
 11
1351.252962968162
 21
1067.756262238173
 31
0.0000000000000105
210
0.0
220
1.0
230
0.0
  0
LINE
  5
1F4
330
1F
100
AcDbEntity
  8
HEWI
100
AcDbLine
 10
1351.252962968162
 20
1870.756262238172
 30
0.0000000000000105
 11
1351.252962968162
 21
1150.756262238173
 31
0.0000000000000105
210
0.0
220
1.0
230
0.0
  0
LINE
  5
1F5
330
1F
100
AcDbEntity
  8
HEWI
100
AcDbLine
 10
1384.252962968162
 20
1870.756262238172
 30
0.0000000000000165
 11
1384.252962968162
 21
1067.756262238173
 31
0.0000000000000165
210
0.0
220
1.0
230
0.0
  0
LINE
  5
1F6
330
1F
100
AcDbEntity
  8
HEWI
100
AcDbLine
 10
1308.252962968162
 20
1002.756262238173
 30
0.0000000000000026
 11
1367.752962968162
 21
1002.756262238173
 31
0.0000000000000135
210
0.0
220
1.0
230
0.0
  0
LINE
  5
1F7
330
1F
100
AcDbEntity
  8
HEWI
100
AcDbLine
 10
1308.252962968162
 20
1035.756262238173
 30
0.0000000000000026
 11
1351.252962968162
 21
1035.756262238173
 31
0.0000000000000105
210
0.0
220
1.0
230
0.0
  0
LINE
  5
1F8
330
1F
100
AcDbEntity
  8
HEWI
100
AcDbLine
 10
2007.752962968162
 20
1035.756262238173
 30
0.0000000000001311
 11
1416.252962968162
 21
1035.756262238173
 31
0.0000000000000224
210
0.0
220
1.0
230
0.0
  0
LINE
  5
1F9
330
1F
100
AcDbEntity
  8
HEWI
100
AcDbLine
 10
2007.752962968162
 20
1002.756262238173
 30
0.0000000000001311
 11
1416.252962968162
 21
1002.756262238173
 31
0.0000000000000224
210
0.0
220
1.0
230
0.0
  0
ARC
  5
1FA
330
1F
100
AcDbEntity
  8
HEWI
100
AcDbCircle
 10
1306.252962968162
 20
1886.256262238173
 30
0.0000000000000018
 40
2.0
100
AcDbArc
 50
270.0
 51
0.0
  0
ARC
  5
1FB
330
1F
100
AcDbEntity
  8
HEWI
100
AcDbCircle
 10
1306.252962968162
 20
1952.256262238173
 30
0.0000000000000018
 40
2.0
100
AcDbArc
 50
0.0
 51
90.0
  0
ARC
  5
1FC
330
1F
100
AcDbEntity
  8
HEWI
100
AcDbCircle
 10
1306.252962968162
 20
1101.256262238173
 30
0.0000000000000018
 40
2.0
100
AcDbArc
 50
270.0
 51
0.0
  0
ARC
  5
1FD
330
1F
100
AcDbEntity
  8
HEWI
100
AcDbCircle
 10
1306.252962968162
 20
1167.256262238173
 30
0.0000000000000018
 40
2.0
100
AcDbArc
 50
0.0
 51
90.0
  0
ARC
  5
1FE
330
1F
100
AcDbEntity
  8
HEWI
100
AcDbCircle
 10
1306.252962968162
 20
986.2562622381728
 30
0.0000000000000018
 40
2.0
100
AcDbArc
 50
270.0
 51
0.0
  0
ARC
  5
1FF
330
1F
100
AcDbEntity
  8
HEWI
100
AcDbCircle
 10
1306.252962968162
 20
1052.256262238173
 30
0.0000000000000018
 40
2.0
100
AcDbArc
 50
0.0
 51
90.0
  0
ARC
  5
200
330
1F
100
AcDbEntity
  8
HEWI
100
AcDbCircle
 10
1319.252962968162
 20
1870.756262238172
 30
0.0000000000000046
 40
32.0
100
AcDbArc
 50
0.0
 51
90.0
  0
ARC
  5
201
330
1F
100
AcDbEntity
  8
HEWI
100
AcDbCircle
 10
1319.252962968162
 20
1870.756262238172
 30
0.0000000000000046
 40
65.0
100
AcDbArc
 50
0.0
 51
90.0
  0
LINE
  5
202
330
1F
100
AcDbEntity
  8
HEWI
100
AcDbLine
 10
1384.252962968162
 20
1019.256262238173
 30
0.0000000000000165
 11
1384.252962968162
 21
1067.756262238173
 31
0.0000000000000165
210
0.0
220
1.0
230
0.0
  0
LINE
  5
203
330
1F
100
AcDbEntity
  8
HEWI
100
AcDbLine
 10
1351.252962968162
 20
1067.756262238173
 30
0.0000000000000105
 11
1351.252962968162
 21
1019.256262238173
 31
0.0000000000000105
210
0.0
220
1.0
230
0.0
  0
LINE
  5
204
330
1F
100
AcDbEntity
  8
HEWI
100
AcDbLine
 10
1416.252962968162
 20
1035.756262238173
 30
0.0000000000000224
 11
1384.252962968162
 21
1035.756262238173
 31
0.0000000000000165
210
0.0
220
1.0
230
0.0
  0
LINE
  5
205
330
1F
100
AcDbEntity
  8
HEWI
100
AcDbLine
 10
1367.752962968162
 20
1002.756262238173
 30
0.0000000000000135
 11
1416.252962968162
 21
1002.756262238173
 31
0.0000000000000224
210
0.0
220
1.0
230
0.0
  0
LINE
  5
206
330
1F
100
AcDbEntity
  8
HEWI
100
AcDbLine
 10
2009.752962968162
 20
1002.756262238173
 30
0.0000000000001311
 11
2058.252962968162
 21
1002.756262238173
 31
0.00000000000014
210
0.0
220
1.0
230
0.0
  0
LINE
  5
207
330
1F
100
AcDbEntity
  8
HEWI
100
AcDbLine
 10
2058.252962968162
 20
1035.756262238173
 30
0.00000000000014
 11
2009.752962968162
 21
1035.756262238173
 31
0.0000000000001311
210
0.0
220
1.0
230
0.0
  0
LINE
  5
209
330
1F
100
AcDbEntity
  8
HEWI
100
AcDbLine
 10
419.3529629661622
 20
767.8562622261729
 30
0.0
 11
419.3529629661622
 21
734.8562622261729
 31
0.0
  0
LINE
  5
20A
330
1F
100
AcDbEntity
  8
HEWI
100
AcDbLine
 10
960.352962966162
 20
767.8562622261729
 30
0.0
 11
943.8529629661619
 21
751.3562622261729
 31
0.0
  0
LINE
  5
20B
330
1F
100
AcDbEntity
  8
HEWI
100
AcDbLine
 10
943.8529629661619
 20
751.3562622261729
 30
0.0
 11
927.352962966162
 21
767.8562622261729
 31
0.0
  0
LINE
  5
20C
330
1F
100
AcDbEntity
  8
HEWI
100
AcDbLine
 10
1077.852962966162
 20
617.356262226173
 30
0.0
 11
1061.352962966162
 21
633.8562622261733
 31
0.0
  0
LINE
  5
20D
330
1F
100
AcDbEntity
  8
HEWI
100
AcDbLine
 10
1061.352962966162
 20
633.856262226173
 30
0.0
 11
1077.852962966162
 21
650.356262226173
 31
0.0
  0
LINE
  5
20E
330
1F
100
AcDbEntity
  8
HEWI
100
AcDbLine
 10
419.3529629661622
 20
751.3562622261729
 30
0.0
 11
419.3529629661622
 21
767.8562622261729
 31
0.0
  0
LINE
  5
20F
330
1F
100
AcDbEntity
  8
HEWI
100
AcDbLine
 10
419.3529629661622
 20
734.8562622261729
 30
0.0
 11
419.3529629661622
 21
751.3562622261733
 31
0.0
  0
ARC
  5
211
330
1F
100
AcDbEntity
  8
HEWI
100
AcDbCircle
 10
370.8529629661621
 20
751.3562622261729
 30
0.0
 40
16.5
100
AcDbArc
 50
180.0
 51
0.0
  0
LINE
  5
213
330
1F
100
AcDbEntity
  8
HEWI
100
AcDbLine
 10
1132.852962966162
 20
668.856262226173
 30
0.0
 11
1132.852962966162
 21
598.856262226173
 31
0.0
  0
LINE
  5
214
330
1F
100
AcDbEntity
  8
HEWI
100
AcDbLine
 10
1120.852962966162
 20
666.856262226173
 30
0.0
 11
1120.852962966162
 21
600.856262226173
 31
0.0
  0
LINE
  5
215
330
1F
100
AcDbEntity
  8
HEWI
100
AcDbLine
 10
1132.852962966162
 20
95.85626222617294
 30
0.0
 11
1132.852962966162
 21
25.85626222617407
 31
0.0
  0
LINE
  5
216
330
1F
100
AcDbEntity
  8
HEWI
100
AcDbLine
 10
1120.852962966162
 20
93.85626222617293
 30
0.0
 11
1120.852962966162
 21
27.8562622261727
 31
0.0
  0
LINE
  5
217
330
1F
100
AcDbEntity
  8
HEWI
100
AcDbLine
 10
908.852962966162
 20
822.856262226173
 30
0.0
 11
978.8529629661619
 21
822.856262226173
 31
0.0
  0
LINE
  5
218
330
1F
100
AcDbEntity
  8
HEWI
100
AcDbLine
 10
910.8529629661619
 20
810.8562622261731
 30
0.0
 11
976.8529629661619
 21
810.8562622261731
 31
0.0
  0
LINE
  5
219
330
1F
100
AcDbEntity
  8
HEWI
100
AcDbLine
 10
335.8529629661623
 20
822.856262226173
 30
0.0
 11
405.8529629661621
 21
822.856262226173
 31
0.0
  0
LINE
  5
21A
330
1F
100
AcDbEntity
  8
HEWI
100
AcDbLine
 10
337.8529629661623
 20
810.8562622261731
 30
0.0
 11
403.8529629661621
 21
810.8562622261731
 31
0.0
  0
LINE
  5
21B
330
1F
100
AcDbEntity
  8
HEWI
100
AcDbLine
 10
405.8529629661621
 20
812.8562622261732
 30
0.0
 11
405.8529629661621
 21
822.856262226173
 31
0.0
  0
LINE
  5
21C
330
1F
100
AcDbEntity
  8
HEWI
100
AcDbLine
 10
335.8529629661623
 20
812.8562622261732
 30
0.0
 11
335.8529629661623
 21
822.856262226173
 31
0.0
  0
LINE
  5
21D
330
1F
100
AcDbEntity
  8
HEWI
100
AcDbLine
 10
978.8529629661619
 20
812.8562622261732
 30
0.0
 11
978.8529629661619
 21
822.856262226173
 31
0.0
  0
LINE
  5
21E
330
1F
100
AcDbEntity
  8
HEWI
100
AcDbLine
 10
908.852962966162
 20
812.8562622261732
 30
0.0
 11
908.852962966162
 21
822.856262226173
 31
0.0
  0
LINE
  5
21F
330
1F
100
AcDbEntity
  8
HEWI
100
AcDbLine
 10
1122.852962966162
 20
25.85626222617407
 30
0.0
 11
1132.852962966162
 21
25.85626222617407
 31
0.0
  0
LINE
  5
220
330
1F
100
AcDbEntity
  8
HEWI
100
AcDbLine
 10
1122.852962966162
 20
95.85626222617294
 30
0.0
 11
1132.852962966162
 21
95.85626222617294
 31
0.0
  0
LINE
  5
221
330
1F
100
AcDbEntity
  8
HEWI
100
AcDbLine
 10
1122.852962966162
 20
598.856262226173
 30
0.0
 11
1132.852962966162
 21
598.856262226173
 31
0.0
  0
LINE
  5
222
330
1F
100
AcDbEntity
  8
HEWI
100
AcDbLine
 10
1122.852962966162
 20
668.856262226173
 30
0.0
 11
1132.852962966162
 21
668.856262226173
 31
0.0
  0
LINE
  5
223
330
1F
100
AcDbEntity
  8
HEWI
100
AcDbLine
 10
354.3529629661622
 20
810.8562622261731
 30
0.0
 11
354.3529629661624
 21
799.8562622261729
 31
0.0
  0
LINE
  5
224
330
1F
100
AcDbEntity
  8
HEWI
100
AcDbLine
 10
387.3529629661621
 20
810.8562622261731
 30
0.0
 11
387.3529629661621
 21
799.8562622261729
 31
0.0
  0
LINE
  5
225
330
1F
100
AcDbEntity
  8
HEWI
100
AcDbLine
 10
1120.852962966162
 20
650.3562622261732
 30
0.0
 11
1077.852962966162
 21
650.356262226173
 31
0.0
  0
LINE
  5
226
330
1F
100
AcDbEntity
  8
HEWI
100
AcDbLine
 10
1120.852962966162
 20
617.356262226173
 30
0.0
 11
1077.852962966162
 21
617.356262226173
 31
0.0
  0
LINE
  5
227
330
1F
100
AcDbEntity
  8
HEWI
100
AcDbLine
 10
927.352962966162
 20
810.8562622261731
 30
0.0
 11
927.352962966162
 21
767.8562622261729
 31
0.0
  0
LINE
  5
228
330
1F
100
AcDbEntity
  8
HEWI
100
AcDbLine
 10
960.352962966162
 20
810.8562622261731
 30
0.0
 11
960.352962966162
 21
767.8562622261729
 31
0.0
  0
LINE
  5
229
330
1F
100
AcDbEntity
  8
HEWI
100
AcDbLine
 10
927.352962966162
 20
767.8562622261729
 30
0.0
 11
419.3529629661622
 21
767.8562622261729
 31
0.0
  0
LINE
  5
22A
330
1F
100
AcDbEntity
  8
HEWI
100
AcDbLine
 10
1012.852962966162
 20
767.8562622261729
 30
0.0
 11
960.352962966162
 21
767.8562622261729
 31
0.0
  0
LINE
  5
22B
330
1F
100
AcDbEntity
  8
HEWI
100
AcDbLine
 10
1012.852962966162
 20
734.8562622261729
 30
0.0
 11
419.3529629661622
 21
734.8562622261729
 31
0.0
  0
LINE
  5
22C
330
1F
100
AcDbEntity
  8
HEWI
100
AcDbLine
 10
1077.852962966162
 20
652.356262226173
 30
0.0
 11
1077.852962966162
 21
702.8562622261731
 31
0.0
  0
LINE
  5
22D
330
1F
100
AcDbEntity
  8
HEWI
100
AcDbLine
 10
1077.852962966162
 20
109.3562622261738
 30
0.0
 11
1077.852962966162
 21
617.356262226173
 31
0.0
  0
LINE
  5
22E
330
1F
100
AcDbEntity
  8
HEWI
100
AcDbLine
 10
1044.852962966162
 20
111.3562622261738
 30
0.0
 11
1044.852962966162
 21
702.8562622261731
 31
0.0
  0
LINE
  5
22F
330
1F
100
AcDbEntity
  8
HEWI
100
AcDbLine
 10
1120.852962966162
 20
77.35626222617293
 30
0.0
 11
1109.852962966162
 21
77.3562622261727
 31
0.0
  0
LINE
  5
230
330
1F
100
AcDbEntity
  8
HEWI
100
AcDbLine
 10
1120.852962966162
 20
44.3562622261727
 30
0.0
 11
1109.852962966162
 21
44.3562622261727
 31
0.0
  0
ARC
  5
231
330
1F
100
AcDbEntity
  8
HEWI
100
AcDbCircle
 10
337.8529629661623
 20
812.8562622261732
 30
0.0
 40
2.0
100
AcDbArc
 50
180.0
 51
270.0
  0
ARC
  5
232
330
1F
100
AcDbEntity
  8
HEWI
100
AcDbCircle
 10
403.8529629661621
 20
812.8562622261732
 30
0.0
 40
2.0
100
AcDbArc
 50
270.0
 51
0.0
  0
ARC
  5
233
330
1F
100
AcDbEntity
  8
HEWI
100
AcDbCircle
 10
910.8529629661619
 20
812.8562622261732
 30
0.0
 40
2.0
100
AcDbArc
 50
180.0
 51
270.0
  0
ARC
  5
234
330
1F
100
AcDbEntity
  8
HEWI
100
AcDbCircle
 10
976.8529629661619
 20
812.8562622261732
 30
0.0
 40
2.0
100
AcDbArc
 50
270.0
 51
0.0
  0
ARC
  5
235
330
1F
100
AcDbEntity
  8
HEWI
100
AcDbCircle
 10
1122.852962966162
 20
93.85626222617293
 30
0.0
 40
2.0
100
AcDbArc
 50
90.0
 51
180.0
  0
ARC
  5
236
330
1F
100
AcDbEntity
  8
HEWI
100
AcDbCircle
 10
1122.852962966162
 20
27.8562622261727
 30
0.0
 40
2.0
100
AcDbArc
 50
180.0
 51
270.0
  0
ARC
  5
237
330
1F
100
AcDbEntity
  8
HEWI
100
AcDbCircle
 10
1122.852962966162
 20
666.856262226173
 30
0.0
 40
2.0
100
AcDbArc
 50
90.0
 51
180.0
  0
ARC
  5
238
330
1F
100
AcDbEntity
  8
HEWI
100
AcDbCircle
 10
1122.852962966162
 20
600.856262226173
 30
0.0
 40
2.0
100
AcDbArc
 50
180.0
 51
270.0
  0
LINE
  5
239
330
1F
100
AcDbEntity
  8
HEWI
100
AcDbLine
 10
387.3529629661621
 20
751.3562622261729
 30
0.0
 11
387.3529629661621
 21
799.856262226173
 31
0.0
  0
LINE
  5
23A
330
1F
100
AcDbEntity
  8
HEWI
100
AcDbLine
 10
354.3529629661624
 20
799.856262226173
 30
0.0
 11
354.3529629661624
 21
751.3562622261729
 31
0.0
  0
LINE
  5
23B
330
1F
100
AcDbEntity
  8
HEWI
100
AcDbLine
 10
370.8529629661621
 20
734.8562622261729
 30
0.0
 11
419.3529629661624
 21
734.8562622261729
 31
0.0
  0
LINE
  5
23C
330
1F
100
AcDbEntity
  8
HEWI
100
AcDbLine
 10
419.3529629661624
 20
767.8562622261729
 30
0.0
 11
387.3529629661621
 21
767.8562622261729
 31
0.0
  0
ARC
  5
23D
330
1F
100
AcDbEntity
  8
HEWI
100
AcDbCircle
 10
1012.852962966162
 20
702.8562622261731
 30
0.0
 40
65.0
100
AcDbArc
 50
0.0
 51
90.0
  0
ARC
  5
23E
330
1F
100
AcDbEntity
  8
HEWI
100
AcDbCircle
 10
1012.852962966162
 20
702.8562622261731
 30
0.0
 40
32.0
100
AcDbArc
 50
0.0
 51
90.0
  0
ARC
  5
23F
330
1F
100
AcDbEntity
  8
HEWI
100
AcDbCircle
 10
1109.852962966162
 20
109.3562622261738
 30
0.0
 40
32.0
100
AcDbArc
 50
180.0
 51
270.0
  0
ARC
  5
240
330
1F
100
AcDbEntity
  8
HEWI
100
AcDbCircle
 10
1109.852962966162
 20
109.3562622261738
 30
0.0
 40
65.0
100
AcDbArc
 50
180.0
 51
270.0
  0
ENDSEC
  0
SECTION
  2
OBJECTS
  0
DICTIONARY
  5
C
330
0
100
AcDbDictionary
281
     1
  3
ACAD_CIP_PREVIOUS_PRODUCT_INFO
350
2B7
  3
ACAD_COLOR
350
298
  3
ACAD_DETAILVIEWSTYLE
350
2B1
  3
ACAD_GROUP
350
D
  3
ACAD_LAYOUT
350
1A
  3
ACAD_MATERIAL
350
266
  3
ACAD_MLEADERSTYLE
350
2AD
  3
ACAD_MLINESTYLE
350
17
  3
ACAD_PLOTSETTINGS
350
19
  3
ACAD_PLOTSTYLENAME
350
155
  3
ACAD_SCALELIST
350
29B
  3
ACAD_SECTIONVIEWSTYLE
350
2AF
  3
ACAD_TABLESTYLE
350
299
  3
ACAD_VISUALSTYLE
350
27F
  3
ACDB_RECOMPOSE_DATA
350
4C0
  3
AcDbVariableDictionary
350
3AE
  0
DICTIONARY
  5
4B7
330
10
100
AcDbDictionary
280
     1
281
     1
  3
ADSK_XREC_LAYER_RECONCILED
360
4B8
  0
DICTIONARY
  5
4B9
330
76
100
AcDbDictionary
280
     1
281
     1
  3
ADSK_XREC_LAYER_RECONCILED
360
4BA
  0
DICTIONARY
  5
33E
330
33D
100
AcDbDictionary
280
     1
281
     1
  3
ADSK_XREC_LAYER_RECONCILED
360
4BB
  0
DICTIONARY
  5
340
330
33F
100
AcDbDictionary
280
     1
281
     1
  3
ADSK_XREC_LAYER_RECONCILED
360
4BC
  0
DICTIONARY
  5
4BD
330
39F
100
AcDbDictionary
280
     1
281
     1
  3
ADSK_XREC_LAYER_RECONCILED
360
4BE
  0
DICTIONARY
  5
14F
330
1F
100
AcDbDictionary
281
     1
  3
ACAD_LAYOUTSELFREF
350
263
  0
DICTIONARY
  5
14D
330
1B
100
AcDbDictionary
281
     1
  3
ACAD_LAYOUTSELFREF
350
262
  0
DICTIONARY
  5
39B
330
345
100
AcDbDictionary
280
     1
281
     1
  0
XRECORD
  5
2B7
102
{ACAD_REACTORS
330
C
102
}
330
C
100
AcDbXrecord
280
     1
300
ACDLT
300
2016
300

  0
DICTIONARY
  5
298
102
{ACAD_REACTORS
330
C
102
}
330
C
100
AcDbDictionary
281
     1
  0
DICTIONARY
  5
2B1
102
{ACAD_REACTORS
330
C
102
}
330
C
100
AcDbDictionary
281
     1
  3
Imperial24
350
2B2
  0
DICTIONARY
  5
D
102
{ACAD_REACTORS
330
C
102
}
330
C
100
AcDbDictionary
281
     1
  0
DICTIONARY
  5
1A
102
{ACAD_REACTORS
330
C
102
}
330
C
100
AcDbDictionary
281
     1
  3
Layout1
350
2B4
  3
Model
350
2B3
  0
DICTIONARY
  5
266
102
{ACAD_REACTORS
330
C
102
}
330
C
100
AcDbDictionary
281
     1
  3
ByBlock
350
26F
  3
ByLayer
350
267
  3
Global
350
277
  0
DICTIONARY
  5
2AD
102
{ACAD_REACTORS
330
C
102
}
330
C
100
AcDbDictionary
281
     1
  3
Standard
350
2AE
  0
DICTIONARY
  5
17
102
{ACAD_REACTORS
330
C
102
}
330
C
100
AcDbDictionary
281
     1
  3
STANDARD
350
18
  0
DICTIONARY
  5
19
102
{ACAD_REACTORS
330
C
102
}
330
C
100
AcDbDictionary
281
     1
  0
ACDBDICTIONARYWDFLT
  5
155
102
{ACAD_REACTORS
330
C
102
}
330
C
100
AcDbDictionary
281
     1
  3
Normal
350
156
100
AcDbDictionaryWithDefault
340
156
  0
DICTIONARY
  5
29B
102
{ACAD_REACTORS
330
C
102
}
330
C
100
AcDbDictionary
281
     1
  3
A0
350
29C
  3
A1
350
29D
  3
A2
350
29E
  3
A3
350
29F
  3
A4
350
2A0
  3
A5
350
2A1
  3
A6
350
2A2
  3
A7
350
2A3
  3
A8
350
2A4
  3
A9
350
2A5
  3
B0
350
2A6
  3
B1
350
2A7
  3
B2
350
2A8
  3
B3
350
2A9
  3
B4
350
2AA
  3
B5
350
2AB
  3
B6
350
2AC
  0
DICTIONARY
  5
2AF
102
{ACAD_REACTORS
330
C
102
}
330
C
100
AcDbDictionary
281
     1
  3
Imperial24
350
2B0
  0
DICTIONARY
  5
299
102
{ACAD_REACTORS
330
C
102
}
330
C
100
AcDbDictionary
281
     1
  3
Standard
350
29A
  0
DICTIONARY
  5
27F
102
{ACAD_REACTORS
330
C
102
}
330
C
100
AcDbDictionary
281
     1
  3
2dWireframe
350
285
  3
Basic
350
284
  3
Brighten
350
28B
  3
ColorChange
350
28F
  3
Conceptual
350
288
  3
Dim
350
28A
  3
EdgeColorOff
350
297
  3
Facepattern
350
28E
  3
Flat
350
280
  3
FlatWithEdges
350
281
  3
Gouraud
350
282
  3
GouraudWithEdges
350
283
  3
Hidden
350
287
  3
JitterOff
350
295
  3
Linepattern
350
28D
  3
OverhangOff
350
296
  3
Realistic
350
289
  3
Shaded
350
294
  3
Shaded with edges
350
293
  3
Shades of Gray
350
290
  3
Sketchy
350
291
  3
Thicken
350
28C
  3
Wireframe
350
286
  3
X-Ray
350
292
  0
XRECORD
  5
4C0
102
{ACAD_REACTORS
330
C
102
}
330
C
100
AcDbXrecord
280
     1
 90
        1
330
29A
  0
DICTIONARY
  5
3AE
102
{ACAD_REACTORS
330
C
102
}
330
C
100
AcDbDictionary
281
     1
  3
CANNOSCALE
350
3B4
  3
CMLEADERSTYLE
350
3B0
  3
CTABLESTYLE
350
3AF
  3
CVIEWDETAILSTYLE
350
3B1
  3
CVIEWSECTIONSTYLE
350
3B2
  3
LAYEREVAL
350
3B6
  3
LAYERNOTIFY
350
3B7
  3
LIGHTINGUNITS
350
3B5
  3
MSLTSCALE
350
3B3
  0
XRECORD
  5
4B8
102
{ACAD_REACTORS
330
4B7
102
}
330
4B7
100
AcDbXrecord
280
     1
290
     1
  0
XRECORD
  5
4BA
102
{ACAD_REACTORS
330
4B9
102
}
330
4B9
100
AcDbXrecord
280
     1
290
     1
  0
XRECORD
  5
4BB
102
{ACAD_REACTORS
330
33E
102
}
330
33E
100
AcDbXrecord
280
     1
290
     1
  0
XRECORD
  5
4BC
102
{ACAD_REACTORS
330
340
102
}
330
340
100
AcDbXrecord
280
     1
290
     1
  0
XRECORD
  5
4BE
102
{ACAD_REACTORS
330
4BD
102
}
330
4BD
100
AcDbXrecord
280
     1
290
     1
  0
XRECORD
  5
263
102
{ACAD_REACTORS
330
14F
102
}
330
14F
100
AcDbXrecord
280
     1
340
1F
  0
XRECORD
  5
262
102
{ACAD_REACTORS
330
14D
102
}
330
14D
100
AcDbXrecord
280
     1
340
1B
  0
ACDBDETAILVIEWSTYLE
  5
2B2
102
{ACAD_XDICTIONARY
360
4F3
102
}
102
{ACAD_REACTORS
330
2B1
102
}
330
2B1
100
AcDbModelDocViewStyle
 70
     0
  3
Imperial24
290
     0
100
AcDbDetailViewStyle
 70
     0
 71
     0
 90
        3
 71
     1
340
11
 62
   256
 40
0.24
340
0
 62
   256
 40
0.24
300

 40
0.36
280
     3
 71
     2
340
16
 90
       25
 62
   256
 71
     3
340
11
 62
   256
 40
0.24
 90
        1
 40
0.75
 90
        1
300
%<\AcVar ViewType \f "%tc1">% %<\AcVar ViewDetailId>%\PVARIA %<\AcVar ViewScale \f "%sn">%
 71
     4
340
16
 90
       25
 62
   256
340
16
 90
       25
 62
   256
280
     0
  0
LAYOUT
  5
2B4
102
{ACAD_REACTORS
330
1A
102
}
330
1A
100
AcDbPlotSettings
  1

  2
\\srvadruck01\MFSA15
  4

  6

 40
0.0
 41
0.0
 42
0.0
 43
0.0
 44
0.0
 45
0.0
 46
0.0
 47
0.0
 48
0.0
 49
0.0
140
0.0
141
0.0
142
1.0
143
1.0
 70
   688
 72
     0
 73
     0
 74
     5
  7

 75
    16
147
1.0
 76
     0
 77
     2
 78
   300
148
0.0
149
0.0
100
AcDbLayout
  1
Layout1
 70
     1
 71
     1
 10
0.0
 20
0.0
 11
12.0
 21
9.0
 12
0.0
 22
0.0
 32
0.0
 14
1.000000000000000E+20
 24
1.000000000000000E+20
 34
1.000000000000000E+20
 15
-1.000000000000000E+20
 25
-1.000000000000000E+20
 35
-1.000000000000000E+20
146
0.0
 13
0.0
 23
0.0
 33
0.0
 16
1.0
 26
0.0
 36
0.0
 17
0.0
 27
1.0
 37
0.0
 76
     0
330
1B
  0
LAYOUT
  5
2B3
102
{ACAD_REACTORS
330
1A
102
}
330
1A
100
AcDbPlotSettings
  1

  2
\\srvadruck01\MFSA15
  4

  6

 40
0.0
 41
0.0
 42
0.0
 43
0.0
 44
0.0
 45
0.0
 46
0.0
 47
0.0
 48
0.0
 49
0.0
140
0.0
141
0.0
142
1.0
143
1.0
 70
  1712
 72
     0
 73
     0
 74
     0
  7

 75
     0
147
1.0
 76
     0
 77
     2
 78
   300
148
0.0
149
0.0
100
AcDbLayout
  1
Model
 70
     1
 71
     0
 10
0.0
 20
0.0
 11
12.0
 21
9.0
 12
0.0
 22
0.0
 32
0.0
 14
0.0
 24
0.0
 34
0.0
 15
0.0
 25
0.0
 35
0.0
146
0.0
 13
0.0
 23
0.0
 33
0.0
 16
1.0
 26
0.0
 36
0.0
 17
0.0
 27
1.0
 37
0.0
 76
     0
330
1F
331
241
  0
MATERIAL
  5
26F
102
{ACAD_XDICTIONARY
360
270
102
}
102
{ACAD_REACTORS
330
266
102
}
330
266
100
AcDbMaterial
  1
ByBlock
 72
     0
 43
0.0208333333333333
 43
0.0
 43
0.0
 43
0.0
 43
0.0
 43
0.0208333333333333
 43
0.0
 43
0.0
 43
0.0
 43
0.0
 43
1.0
 43
0.0
 43
0.0
 43
0.0
 43
0.0
 43
1.0
 77
     0
 47
0.0208333333333333
 47
0.0
 47
0.0
 47
0.0
 47
0.0
 47
0.0208333333333333
 47
0.0
 47
0.0
 47
0.0
 47
0.0
 47
1.0
 47
0.0
 47
0.0
 47
0.0
 47
0.0
 47
1.0
171
     0
 49
0.0208333333333333
 49
0.0
 49
0.0
 49
0.0
 49
0.0
 49
0.0208333333333333
 49
0.0
 49
0.0
 49
0.0
 49
0.0
 49
1.0
 49
0.0
 49
0.0
 49
0.0
 49
0.0
 49
1.0
175
     0
142
0.0208333333333333
142
0.0
142
0.0
142
0.0
142
0.0
142
0.0208333333333333
142
0.0
142
0.0
142
0.0
142
0.0
142
1.0
142
0.0
142
0.0
142
0.0
142
0.0
142
1.0
179
     0
144
0.0208333333333333
144
0.0
144
0.0
144
0.0
144
0.0
144
0.0208333333333333
144
0.0
144
0.0
144
0.0
144
0.0
144
1.0
144
0.0
144
0.0
144
0.0
144
0.0
144
1.0
147
0.0208333333333333
147
0.0
147
0.0
147
0.0
147
0.0
147
0.0208333333333333
147
0.0
147
0.0
147
0.0
147
0.0
147
1.0
147
0.0
147
0.0
147
0.0
147
0.0
147
1.0
  0
MATERIAL
  5
267
102
{ACAD_XDICTIONARY
360
268
102
}
102
{ACAD_REACTORS
330
266
102
}
330
266
100
AcDbMaterial
  1
ByLayer
 72
     0
 43
0.0208333333333333
 43
0.0
 43
0.0
 43
0.0
 43
0.0
 43
0.0208333333333333
 43
0.0
 43
0.0
 43
0.0
 43
0.0
 43
1.0
 43
0.0
 43
0.0
 43
0.0
 43
0.0
 43
1.0
 77
     0
 47
0.0208333333333333
 47
0.0
 47
0.0
 47
0.0
 47
0.0
 47
0.0208333333333333
 47
0.0
 47
0.0
 47
0.0
 47
0.0
 47
1.0
 47
0.0
 47
0.0
 47
0.0
 47
0.0
 47
1.0
171
     0
 49
0.0208333333333333
 49
0.0
 49
0.0
 49
0.0
 49
0.0
 49
0.0208333333333333
 49
0.0
 49
0.0
 49
0.0
 49
0.0
 49
1.0
 49
0.0
 49
0.0
 49
0.0
 49
0.0
 49
1.0
175
     0
142
0.0208333333333333
142
0.0
142
0.0
142
0.0
142
0.0
142
0.0208333333333333
142
0.0
142
0.0
142
0.0
142
0.0
142
1.0
142
0.0
142
0.0
142
0.0
142
0.0
142
1.0
179
     0
144
0.0208333333333333
144
0.0
144
0.0
144
0.0
144
0.0
144
0.0208333333333333
144
0.0
144
0.0
144
0.0
144
0.0
144
1.0
144
0.0
144
0.0
144
0.0
144
0.0
144
1.0
147
0.0208333333333333
147
0.0
147
0.0
147
0.0
147
0.0
147
0.0208333333333333
147
0.0
147
0.0
147
0.0
147
0.0
147
1.0
147
0.0
147
0.0
147
0.0
147
0.0
147
1.0
  0
MATERIAL
  5
277
102
{ACAD_XDICTIONARY
360
278
102
}
102
{ACAD_REACTORS
330
266
102
}
330
266
100
AcDbMaterial
  1
Global
 72
     0
 43
0.0208333333333333
 43
0.0
 43
0.0
 43
0.0
 43
0.0
 43
0.0208333333333333
 43
0.0
 43
0.0
 43
0.0
 43
0.0
 43
1.0
 43
0.0
 43
0.0
 43
0.0
 43
0.0
 43
1.0
 77
     0
 47
0.0208333333333333
 47
0.0
 47
0.0
 47
0.0
 47
0.0
 47
0.0208333333333333
 47
0.0
 47
0.0
 47
0.0
 47
0.0
 47
1.0
 47
0.0
 47
0.0
 47
0.0
 47
0.0
 47
1.0
171
     0
 49
0.0208333333333333
 49
0.0
 49
0.0
 49
0.0
 49
0.0
 49
0.0208333333333333
 49
0.0
 49
0.0
 49
0.0
 49
0.0
 49
1.0
 49
0.0
 49
0.0
 49
0.0
 49
0.0
 49
1.0
175
     0
142
0.0208333333333333
142
0.0
142
0.0
142
0.0
142
0.0
142
0.0208333333333333
142
0.0
142
0.0
142
0.0
142
0.0
142
1.0
142
0.0
142
0.0
142
0.0
142
0.0
142
1.0
179
     0
144
0.0208333333333333
144
0.0
144
0.0
144
0.0
144
0.0
144
0.0208333333333333
144
0.0
144
0.0
144
0.0
144
0.0
144
1.0
144
0.0
144
0.0
144
0.0
144
0.0
144
1.0
147
0.0208333333333333
147
0.0
147
0.0
147
0.0
147
0.0
147
0.0208333333333333
147
0.0
147
0.0
147
0.0
147
0.0
147
1.0
147
0.0
147
0.0
147
0.0
147
0.0
147
1.0
  0
MLEADERSTYLE
  5
2AE
102
{ACAD_REACTORS
330
2AD
102
}
330
2AD
100
AcDbMLeaderStyle
179
     2
170
     2
171
     1
172
     0
 90
        2
 40
0.0
 41
0.0
173
     1
 91
-1056964608
340
14
 92
       -2
290
     1
 42
0.09
291
     1
 43
0.36
  3
Standard
 44
0.18
300

342
11
174
     1
178
     6
175
     1
176
     0
 93
-1056964608
 45
0.18
292
     0
297
     0
 46
0.18
 94
-1056964608
 47
1.0
 49
1.0
140
1.0
293
     1
141
0.0
294
     1
177
     0
142
1.0
295
     0
296
     0
143
0.125
271
     0
272
     9
273
     9
  0
MLINESTYLE
  5
18
102
{ACAD_REACTORS
330
17
102
}
330
17
100
AcDbMlineStyle
  2
STANDARD
 70
     0
  3

 62
   256
 51
90.0
 52
90.0
 71
     2
 49
0.5
 62
   256
  6
BYLAYER
 49
-0.5
 62
   256
  6
BYLAYER
  0
ACDBPLACEHOLDER
  5
156
102
{ACAD_REACTORS
330
155
102
}
330
155
  0
SCALE
  5
29C
102
{ACAD_REACTORS
330
29B
102
}
330
29B
100
AcDbScale
 70
     0
300
1:1
140
1.0
141
1.0
290
     1
  0
SCALE
  5
29D
102
{ACAD_REACTORS
330
29B
102
}
330
29B
100
AcDbScale
 70
     0
300
1/128" = 1'-0"
140
0.0078125
141
12.0
290
     0
  0
SCALE
  5
29E
102
{ACAD_REACTORS
330
29B
102
}
330
29B
100
AcDbScale
 70
     0
300
1/64" = 1'-0"
140
0.015625
141
12.0
290
     0
  0
SCALE
  5
29F
102
{ACAD_REACTORS
330
29B
102
}
330
29B
100
AcDbScale
 70
     0
300
1/32" = 1'-0"
140
0.03125
141
12.0
290
     0
  0
SCALE
  5
2A0
102
{ACAD_REACTORS
330
29B
102
}
330
29B
100
AcDbScale
 70
     0
300
1/16" = 1'-0"
140
0.0625
141
12.0
290
     0
  0
SCALE
  5
2A1
102
{ACAD_REACTORS
330
29B
102
}
330
29B
100
AcDbScale
 70
     0
300
3/32" = 1'-0"
140
0.09375
141
12.0
290
     0
  0
SCALE
  5
2A2
102
{ACAD_REACTORS
330
29B
102
}
330
29B
100
AcDbScale
 70
     0
300
1/8" = 1'-0"
140
0.125
141
12.0
290
     0
  0
SCALE
  5
2A3
102
{ACAD_REACTORS
330
29B
102
}
330
29B
100
AcDbScale
 70
     0
300
3/16" = 1'-0"
140
0.1875
141
12.0
290
     0
  0
SCALE
  5
2A4
102
{ACAD_REACTORS
330
29B
102
}
330
29B
100
AcDbScale
 70
     0
300
1/4" = 1'-0"
140
0.25
141
12.0
290
     0
  0
SCALE
  5
2A5
102
{ACAD_REACTORS
330
29B
102
}
330
29B
100
AcDbScale
 70
     0
300
3/8" = 1'-0"
140
0.375
141
12.0
290
     0
  0
SCALE
  5
2A6
102
{ACAD_REACTORS
330
29B
102
}
330
29B
100
AcDbScale
 70
     0
300
1/2" = 1'-0"
140
0.5
141
12.0
290
     0
  0
SCALE
  5
2A7
102
{ACAD_REACTORS
330
29B
102
}
330
29B
100
AcDbScale
 70
     0
300
3/4" = 1'-0"
140
0.75
141
12.0
290
     0
  0
SCALE
  5
2A8
102
{ACAD_REACTORS
330
29B
102
}
330
29B
100
AcDbScale
 70
     0
300
1" = 1'-0"
140
1.0
141
12.0
290
     0
  0
SCALE
  5
2A9
102
{ACAD_REACTORS
330
29B
102
}
330
29B
100
AcDbScale
 70
     0
300
1-1/2" = 1'-0"
140
1.5
141
12.0
290
     0
  0
SCALE
  5
2AA
102
{ACAD_REACTORS
330
29B
102
}
330
29B
100
AcDbScale
 70
     0
300
3" = 1'-0"
140
3.0
141
12.0
290
     0
  0
SCALE
  5
2AB
102
{ACAD_REACTORS
330
29B
102
}
330
29B
100
AcDbScale
 70
     0
300
6" = 1'-0"
140
6.0
141
12.0
290
     0
  0
SCALE
  5
2AC
102
{ACAD_REACTORS
330
29B
102
}
330
29B
100
AcDbScale
 70
     0
300
1'-0" = 1'-0"
140
12.0
141
12.0
290
     0
  0
ACDBSECTIONVIEWSTYLE
  5
2B0
102
{ACAD_XDICTIONARY
360
4F1
102
}
102
{ACAD_REACTORS
330
2AF
102
}
330
2AF
100
AcDbModelDocViewStyle
 70
     0
  3
Imperial24
290
     0
100
AcDbSectionViewStyle
 70
     0
 71
     0
 90
       78
 71
     1
340
11
 62
   256
 40
0.24
340
0
340
0
 62
   256
 40
0.24
300
I, O, Q, S, X, Z
 40
0.48
 90
        3
 40
0.18
 90
        1
 71
     2
340
16
 90
       25
 62
   256
340
16
 90
       50
 62
   256
 40
0.24
 40
0.0
 40
0.24
 71
     3
340
11
 62
   256
 40
0.24
 90
        1
 40
0.75
 90
        1
300
%<\AcVar ViewType \f "%tc1">% %<\AcVar ViewSectionStartId>%-%<\AcVar ViewSectionEndId>%\PVARIA %<\AcVar ViewScale \f "%sn">%
 71
     4
 62
   256
 62
   257
300
ANSI31
 40
1.0
 90
        0
290
     0
290
     0
 90
        6
 40
0.0
 40
1.570796326794896
 40
0.2617993877991494
 40
1.308996938995747
 40
-0.2617993877991494
 40
1.832595714594045
  0
TABLESTYLE
  5
29A
102
{ACAD_XDICTIONARY
360
3B8
102
}
102
{ACAD_REACTORS
330
299
102
}
330
299
100
AcDbTableStyle
280
     0
  3
Standard
 70
     0
 71
     0
 40
0.06
 41
0.06
280
     0
281
     0
  7
STANDARD
140
0.18
170
     2
 62
     0
 63
     7
283
     0
 90
      512
 91
        0
  1

274
    -2
284
     1
 64
     0
275
    -2
285
     1
 65
     0
276
    -2
286
     1
 66
     0
277
    -2
287
     1
 67
     0
278
    -2
288
     1
 68
     0
279
    -2
289
     1
 69
     0
  7
STANDARD
140
0.25
170
     5
 62
     0
 63
     7
283
     0
 90
      512
 91
        0
  1

274
    -2
284
     1
 64
     0
275
    -2
285
     1
 65
     0
276
    -2
286
     1
 66
     0
277
    -2
287
     1
 67
     0
278
    -2
288
     1
 68
     0
279
    -2
289
     1
 69
     0
  7
STANDARD
140
0.18
170
     5
 62
     0
 63
     7
283
     0
 90
      512
 91
        0
  1

274
    -2
284
     1
 64
     0
275
    -2
285
     1
 65
     0
276
    -2
286
     1
 66
     0
277
    -2
287
     1
 67
     0
278
    -2
288
     1
 68
     0
279
    -2
289
     1
 69
     0
  0
VISUALSTYLE
  5
285
102
{ACAD_XDICTIONARY
360
4CB
102
}
102
{ACAD_REACTORS
330
27F
102
}
330
27F
100
AcDbVisualStyle
  2
2dWireframe
 70
     4
177
     2
291
     0
 71
     0
176
     1
 72
     2
176
     1
 73
     0
176
     1
 90
        0
176
     1
 40
0.6
176
     1
 41
30.0
176
     1
 63
     7
421
 16777215
176
     1
 74
     1
176
     1
 91
        4
176
     1
 64
     7
176
     1
 65
   257
176
     1
 75
     1
176
     1
175
     1
176
     1
 42
1.0
176
     1
 92
        0
176
     1
 66
   257
176
     1
 43
1.0
176
     1
 76
     1
176
     1
 77
     6
176
     1
 78
     2
176
     1
 67
     7
176
     1
 79
     5
176
     1
170
     0
176
     1
171
     0
176
     1
290
     0
176
     1
 93
        1
176
     1
 44
0.0
176
     1
173
     0
176
     1
1001
ACAD
1000
AcDbSavedByObjectVersion
1070
     0
  0
VISUALSTYLE
  5
284
102
{ACAD_XDICTIONARY
360
4C9
102
}
102
{ACAD_REACTORS
330
27F
102
}
330
27F
100
AcDbVisualStyle
  2
Basic
 70
     7
177
     2
291
     1
 71
     1
176
     1
 72
     0
176
     1
 73
     1
176
     1
 90
        0
176
     1
 40
0.6
176
     1
 41
30.0
176
     1
 63
     7
421
 16777215
176
     1
 74
     0
176
     1
 91
        4
176
     1
 64
     7
176
     1
 65
   257
176
     1
 75
     1
176
     1
175
     1
176
     1
 42
1.0
176
     1
 92
        8
176
     1
 66
     7
176
     1
 43
1.0
176
     1
 76
     1
176
     1
 77
     6
176
     1
 78
     2
176
     1
 67
     7
176
     1
 79
     5
176
     1
170
     0
176
     1
171
     0
176
     1
290
     0
176
     1
 93
        1
176
     1
 44
0.0
176
     1
173
     0
176
     1
1001
ACAD
1000
AcDbSavedByObjectVersion
1070
     0
  0
VISUALSTYLE
  5
28B
102
{ACAD_XDICTIONARY
360
4D7
102
}
102
{ACAD_REACTORS
330
27F
102
}
330
27F
100
AcDbVisualStyle
  2
Brighten
 70
    12
177
     2
291
     1
 71
     2
176
     1
 72
     2
176
     1
 73
     0
176
     1
 90
        0
176
     1
 40
0.6
176
     1
 41
30.0
176
     1
 63
     7
421
 16777215
176
     1
 74
     1
176
     1
 91
        4
176
     1
 64
     7
176
     1
 65
   257
176
     1
 75
     1
176
     1
175
     1
176
     1
 42
1.0
176
     1
 92
        8
176
     1
 66
     7
176
     1
 43
1.0
176
     1
 76
     1
176
     1
 77
     6
176
     1
 78
     2
176
     1
 67
     7
176
     1
 79
     5
176
     1
170
     0
176
     1
171
     0
176
     1
290
     0
176
     1
 93
        1
176
     1
 44
50.0
176
     1
173
     0
176
     1
1001
ACAD
1000
AcDbSavedByObjectVersion
1070
     0
  0
VISUALSTYLE
  5
28F
102
{ACAD_XDICTIONARY
360
4DF
102
}
102
{ACAD_REACTORS
330
27F
102
}
330
27F
100
AcDbVisualStyle
  2
ColorChange
 70
    16
177
     2
291
     1
 71
     2
176
     1
 72
     2
176
     1
 73
     3
176
     1
 90
        0
176
     1
 40
0.6
176
     1
 41
30.0
176
     1
 63
     8
421
  8421504
176
     1
 74
     1
176
     1
 91
        4
176
     1
 64
     7
176
     1
 65
   257
176
     1
 75
     1
176
     1
175
     1
176
     1
 42
1.0
176
     1
 92
        8
176
     1
 66
     8
424
  8421504
176
     1
 43
1.0
176
     1
 76
     1
176
     1
 77
     6
176
     1
 78
     2
176
     1
 67
     7
176
     1
 79
     5
176
     1
170
     0
176
     1
171
     0
176
     1
290
     0
176
     1
 93
        1
176
     1
 44
0.0
176
     1
173
     0
176
     1
1001
ACAD
1000
AcDbSavedByObjectVersion
1070
     0
  0
VISUALSTYLE
  5
288
102
{ACAD_XDICTIONARY
360
4D1
102
}
102
{ACAD_REACTORS
330
27F
102
}
330
27F
100
AcDbVisualStyle
  2
Conceptual
 70
     9
177
     2
291
     0
 71
     3
176
     1
 72
     2
176
     1
 73
     0
176
     1
 90
        0
176
     1
 40
0.6
176
     1
 41
30.0
176
     1
 63
     7
421
 16777215
176
     1
 74
     2
176
     1
 91
        2
176
     1
 64
     7
176
     1
 65
   257
176
     1
 75
     1
176
     1
175
     1
176
     1
 42
179.0
176
     1
 92
        8
176
     1
 66
     7
176
     1
 43
1.0
176
     1
 76
     1
176
     1
 77
     6
176
     1
 78
     2
176
     1
 67
     7
176
     1
 79
     3
176
     1
170
     0
176
     1
171
     0
176
     1
290
     0
176
     1
 93
        1
176
     1
 44
0.0
176
     1
173
     0
176
     1
1001
ACAD
1000
AcDbSavedByObjectVersion
1070
     0
  0
VISUALSTYLE
  5
28A
102
{ACAD_XDICTIONARY
360
4D5
102
}
102
{ACAD_REACTORS
330
27F
102
}
330
27F
100
AcDbVisualStyle
  2
Dim
 70
    11
177
     2
291
     1
 71
     2
176
     1
 72
     2
176
     1
 73
     0
176
     1
 90
        0
176
     1
 40
0.6
176
     1
 41
30.0
176
     1
 63
     7
421
 16777215
176
     1
 74
     1
176
     1
 91
        4
176
     1
 64
     7
176
     1
 65
   257
176
     1
 75
     1
176
     1
175
     1
176
     1
 42
1.0
176
     1
 92
        8
176
     1
 66
     7
176
     1
 43
1.0
176
     1
 76
     1
176
     1
 77
     6
176
     1
 78
     2
176
     1
 67
     7
176
     1
 79
     5
176
     1
170
     0
176
     1
171
     0
176
     1
290
     0
176
     1
 93
        1
176
     1
 44
-50.0
176
     1
173
     0
176
     1
1001
ACAD
1000
AcDbSavedByObjectVersion
1070
     0
  0
VISUALSTYLE
  5
297
102
{ACAD_XDICTIONARY
360
4EF
102
}
102
{ACAD_REACTORS
330
27F
102
}
330
27F
100
AcDbVisualStyle
  2
EdgeColorOff
 70
    22
177
     2
291
     1
 71
     2
176
     0
 72
     2
176
     0
 73
     0
176
     0
 90
        0
176
     0
 40
0.6
176
     0
 41
30.0
176
     0
 63
     7
421
 16777215
176
     0
 74
     1
176
     0
 91
        4
176
     0
 64
     7
176
     0
 65
   257
176
     0
 75
     1
176
     0
175
     1
176
     0
 42
1.0
176
     0
 92
        8
176
     2
 66
     7
176
     0
 43
1.0
176
     0
 76
     1
176
     0
 77
     6
176
     0
 78
     2
176
     0
 67
     7
176
     0
 79
     5
176
     0
170
     0
176
     0
171
     0
176
     0
290
     0
176
     0
 93
        1
176
     0
 44
0.0
176
     0
173
     0
176
     0
1001
ACAD
1000
AcDbSavedByObjectVersion
1070
     0
  0
VISUALSTYLE
  5
28E
102
{ACAD_XDICTIONARY
360
4DD
102
}
102
{ACAD_REACTORS
330
27F
102
}
330
27F
100
AcDbVisualStyle
  2
Facepattern
 70
    15
177
     2
291
     1
 71
     2
176
     1
 72
     2
176
     1
 73
     0
176
     1
 90
        0
176
     1
 40
0.6
176
     1
 41
30.0
176
     1
 63
     7
421
 16777215
176
     1
 74
     1
176
     1
 91
        4
176
     1
 64
     7
176
     1
 65
   257
176
     1
 75
     1
176
     1
175
     1
176
     1
 42
1.0
176
     1
 92
        8
176
     1
 66
     7
176
     1
 43
1.0
176
     1
 76
     1
176
     1
 77
     6
176
     1
 78
     2
176
     1
 67
     7
176
     1
 79
     5
176
     1
170
     0
176
     1
171
     0
176
     1
290
     0
176
     1
 93
        1
176
     1
 44
0.0
176
     1
173
     0
176
     1
1001
ACAD
1000
AcDbSavedByObjectVersion
1070
     0
  0
VISUALSTYLE
  5
280
102
{ACAD_XDICTIONARY
360
4C1
102
}
102
{ACAD_REACTORS
330
27F
102
}
330
27F
100
AcDbVisualStyle
  2
Flat
 70
     0
177
     2
291
     1
 71
     2
176
     1
 72
     1
176
     1
 73
     1
176
     1
 90
        2
176
     1
 40
0.6
176
     1
 41
30.0
176
     1
 63
     7
421
 16777215
176
     1
 74
     0
176
     1
 91
        0
176
     1
 64
     7
176
     1
 65
   257
176
     1
 75
     1
176
     1
175
     1
176
     1
 42
1.0
176
     1
 92
        8
176
     1
 66
     7
176
     1
 43
1.0
176
     1
 76
     1
176
     1
 77
     6
176
     1
 78
     2
176
     1
 67
     7
176
     1
 79
     5
176
     1
170
     0
176
     1
171
     0
176
     1
290
     0
176
     1
 93
       13
176
     1
 44
0.0
176
     1
173
     0
176
     1
1001
ACAD
1000
AcDbSavedByObjectVersion
1070
     0
  0
VISUALSTYLE
  5
281
102
{ACAD_XDICTIONARY
360
4C3
102
}
102
{ACAD_REACTORS
330
27F
102
}
330
27F
100
AcDbVisualStyle
  2
FlatWithEdges
 70
     1
177
     2
291
     1
 71
     2
176
     1
 72
     1
176
     1
 73
     1
176
     1
 90
        2
176
     1
 40
0.6
176
     1
 41
30.0
176
     1
 63
     7
421
 16777215
176
     1
 74
     1
176
     1
 91
        0
176
     1
 64
     7
176
     1
 65
   257
176
     1
 75
     1
176
     1
175
     1
176
     1
 42
1.0
176
     1
 92
        0
176
     1
 66
   257
176
     1
 43
1.0
176
     1
 76
     1
176
     1
 77
     6
176
     1
 78
     2
176
     1
 67
     7
176
     1
 79
     5
176
     1
170
     0
176
     1
171
     0
176
     1
290
     0
176
     1
 93
       13
176
     1
 44
0.0
176
     1
173
     0
176
     1
1001
ACAD
1000
AcDbSavedByObjectVersion
1070
     0
  0
VISUALSTYLE
  5
282
102
{ACAD_XDICTIONARY
360
4C5
102
}
102
{ACAD_REACTORS
330
27F
102
}
330
27F
100
AcDbVisualStyle
  2
Gouraud
 70
     2
177
     2
291
     1
 71
     2
176
     1
 72
     2
176
     1
 73
     1
176
     1
 90
        2
176
     1
 40
0.6
176
     1
 41
30.0
176
     1
 63
     7
421
 16777215
176
     1
 74
     0
176
     1
 91
        0
176
     1
 64
     7
176
     1
 65
   257
176
     1
 75
     1
176
     1
175
     1
176
     1
 42
1.0
176
     1
 92
        0
176
     1
 66
     7
176
     1
 43
1.0
176
     1
 76
     1
176
     1
 77
     6
176
     1
 78
     2
176
     1
 67
     7
176
     1
 79
     5
176
     1
170
     0
176
     1
171
     0
176
     1
290
     0
176
     1
 93
       13
176
     1
 44
0.0
176
     1
173
     0
176
     1
1001
ACAD
1000
AcDbSavedByObjectVersion
1070
     0
  0
VISUALSTYLE
  5
283
102
{ACAD_XDICTIONARY
360
4C7
102
}
102
{ACAD_REACTORS
330
27F
102
}
330
27F
100
AcDbVisualStyle
  2
GouraudWithEdges
 70
     3
177
     2
291
     1
 71
     2
176
     1
 72
     2
176
     1
 73
     1
176
     1
 90
        2
176
     1
 40
0.6
176
     1
 41
30.0
176
     1
 63
     7
421
 16777215
176
     1
 74
     1
176
     1
 91
        0
176
     1
 64
     7
176
     1
 65
   257
176
     1
 75
     1
176
     1
175
     1
176
     1
 42
1.0
176
     1
 92
        0
176
     1
 66
   257
176
     1
 43
1.0
176
     1
 76
     1
176
     1
 77
     6
176
     1
 78
     2
176
     1
 67
     7
176
     1
 79
     5
176
     1
170
     0
176
     1
171
     0
176
     1
290
     0
176
     1
 93
       13
176
     1
 44
0.0
176
     1
173
     0
176
     1
1001
ACAD
1000
AcDbSavedByObjectVersion
1070
     0
  0
VISUALSTYLE
  5
287
102
{ACAD_XDICTIONARY
360
4CF
102
}
102
{ACAD_REACTORS
330
27F
102
}
330
27F
100
AcDbVisualStyle
  2
Hidden
 70
     6
177
     2
291
     0
 71
     1
176
     1
 72
     2
176
     1
 73
     2
176
     1
 90
        0
176
     1
 40
0.6
176
     1
 41
30.0
176
     1
 63
     7
421
 16777215
176
     1
 74
     2
176
     1
 91
        2
176
     1
 64
     7
176
     1
 65
   257
176
     1
 75
     2
176
     1
175
     1
176
     1
 42
40.0
176
     1
 92
        0
176
     1
 66
   257
176
     1
 43
1.0
176
     1
 76
     1
176
     1
 77
     6
176
     1
 78
     2
176
     1
 67
     7
176
     1
 79
     3
176
     1
170
     0
176
     1
171
     0
176
     1
290
     0
176
     1
 93
        1
176
     1
 44
0.0
176
     1
173
     0
176
     1
1001
ACAD
1000
AcDbSavedByObjectVersion
1070
     0
  0
VISUALSTYLE
  5
295
102
{ACAD_XDICTIONARY
360
4EB
102
}
102
{ACAD_REACTORS
330
27F
102
}
330
27F
100
AcDbVisualStyle
  2
JitterOff
 70
    20
177
     2
291
     1
 71
     2
176
     0
 72
     2
176
     0
 73
     0
176
     0
 90
        0
176
     0
 40
0.6
176
     0
 41
30.0
176
     0
 63
     7
421
 16777215
176
     0
 74
     1
176
     0
 91
        4
176
     0
 64
     7
176
     0
 65
   257
176
     0
 75
     1
176
     0
175
     1
176
     0
 42
1.0
176
     0
 92
       10
176
     2
 66
     7
176
     0
 43
1.0
176
     0
 76
     1
176
     0
 77
     6
176
     0
 78
     2
176
     0
 67
     7
176
     0
 79
     5
176
     0
170
     0
176
     0
171
     0
176
     0
290
     0
176
     0
 93
        1
176
     0
 44
0.0
176
     0
173
     0
176
     0
1001
ACAD
1000
AcDbSavedByObjectVersion
1070
     0
  0
VISUALSTYLE
  5
28D
102
{ACAD_XDICTIONARY
360
4DB
102
}
102
{ACAD_REACTORS
330
27F
102
}
330
27F
100
AcDbVisualStyle
  2
Linepattern
 70
    14
177
     2
291
     1
 71
     2
176
     1
 72
     2
176
     1
 73
     0
176
     1
 90
        0
176
     1
 40
0.6
176
     1
 41
30.0
176
     1
 63
     7
421
 16777215
176
     1
 74
     1
176
     1
 91
        4
176
     1
 64
     7
176
     1
 65
   257
176
     1
 75
     7
176
     1
175
     7
176
     1
 42
1.0
176
     1
 92
        8
176
     1
 66
     7
176
     1
 43
1.0
176
     1
 76
     1
176
     1
 77
     6
176
     1
 78
     2
176
     1
 67
     7
176
     1
 79
     5
176
     1
170
     0
176
     1
171
     0
176
     1
290
     0
176
     1
 93
        1
176
     1
 44
0.0
176
     1
173
     0
176
     1
1001
ACAD
1000
AcDbSavedByObjectVersion
1070
     0
  0
VISUALSTYLE
  5
296
102
{ACAD_XDICTIONARY
360
4ED
102
}
102
{ACAD_REACTORS
330
27F
102
}
330
27F
100
AcDbVisualStyle
  2
OverhangOff
 70
    21
177
     2
291
     1
 71
     2
176
     0
 72
     2
176
     0
 73
     0
176
     0
 90
        0
176
     0
 40
0.6
176
     0
 41
30.0
176
     0
 63
     7
421
 16777215
176
     0
 74
     1
176
     0
 91
        4
176
     0
 64
     7
176
     0
 65
   257
176
     0
 75
     1
176
     0
175
     1
176
     0
 42
1.0
176
     0
 92
        9
176
     2
 66
     7
176
     0
 43
1.0
176
     0
 76
     1
176
     0
 77
     6
176
     0
 78
     2
176
     0
 67
     7
176
     0
 79
     5
176
     0
170
     0
176
     0
171
     0
176
     0
290
     0
176
     0
 93
        1
176
     0
 44
0.0
176
     0
173
     0
176
     0
1001
ACAD
1000
AcDbSavedByObjectVersion
1070
     0
  0
VISUALSTYLE
  5
289
102
{ACAD_XDICTIONARY
360
4D3
102
}
102
{ACAD_REACTORS
330
27F
102
}
330
27F
100
AcDbVisualStyle
  2
Realistic
 70
     8
177
     2
291
     0
 71
     2
176
     1
 72
     3
176
     1
 73
     0
176
     1
 90
        2
176
     1
 40
0.6
176
     1
 41
30.0
176
     1
 63
     7
421
 16777215
176
     1
 74
     0
176
     1
 91
        0
176
     1
 64
     7
176
     1
 65
   257
176
     1
 75
     1
176
     1
175
     1
176
     1
 42
1.0
176
     1
 92
        8
176
     1
 66
   257
176
     1
 43
1.0
176
     1
 76
     1
176
     1
 77
     6
176
     1
 78
     2
176
     1
 67
     7
176
     1
 79
     3
176
     1
170
     0
176
     1
171
     0
176
     1
290
     0
176
     1
 93
       13
176
     1
 44
0.0
176
     1
173
     0
176
     1
1001
ACAD
1000
AcDbSavedByObjectVersion
1070
     0
  0
VISUALSTYLE
  5
294
102
{ACAD_XDICTIONARY
360
4E9
102
}
102
{ACAD_REACTORS
330
27F
102
}
330
27F
100
AcDbVisualStyle
  2
Shaded
 70
    27
177
     2
291
     0
 71
     2
176
     1
 72
     2
176
     1
 73
     1
176
     1
 90
        2
176
     1
 40
0.6
176
     1
 41
30.0
176
     1
 63
     7
421
 16777215
176
     1
 74
     0
176
     1
 91
        4
176
     1
 64
     7
176
     1
 65
   257
176
     1
 75
     1
176
     1
175
     1
176
     1
 42
1.0
176
     1
 92
        8
176
     1
 66
   257
176
     1
 43
1.0
176
     1
 76
     1
176
     1
 77
     6
176
     1
 78
     2
176
     1
 67
     8
425
  7895160
176
     1
 79
     3
176
     1
170
     0
176
     1
171
     0
176
     1
290
     0
176
     1
 93
        5
176
     1
 44
0.0
176
     1
173
     0
176
     1
1001
ACAD
1000
AcDbSavedByObjectVersion
1070
     0
  0
VISUALSTYLE
  5
293
102
{ACAD_XDICTIONARY
360
4E7
102
}
102
{ACAD_REACTORS
330
27F
102
}
330
27F
100
AcDbVisualStyle
  2
Shaded with edges
 70
    26
177
     2
291
     0
 71
     2
176
     1
 72
     2
176
     1
 73
     1
176
     1
 90
        2
176
     1
 40
0.6
176
     1
 41
30.0
176
     1
 63
     7
421
 16777215
176
     1
 74
     1
176
     1
 91
       10
176
     1
 64
     7
176
     1
 65
   257
176
     1
 75
     2
176
     1
175
     1
176
     1
 42
1.0
176
     1
 92
        8
176
     1
 66
   257
176
     1
 43
1.0
176
     1
 76
     1
176
     1
 77
     6
176
     1
 78
     2
176
     1
 67
     7
176
     1
 79
     3
176
     1
170
     0
176
     1
171
     0
176
     1
290
     0
176
     1
 93
        5
176
     1
 44
0.0
176
     1
173
     0
176
     1
1001
ACAD
1000
AcDbSavedByObjectVersion
1070
     0
  0
VISUALSTYLE
  5
290
102
{ACAD_XDICTIONARY
360
4E1
102
}
102
{ACAD_REACTORS
330
27F
102
}
330
27F
100
AcDbVisualStyle
  2
Shades of Gray
 70
    23
177
     2
291
     0
 71
     2
176
     1
 72
     2
176
     1
 73
     3
176
     1
 90
        0
176
     1
 40
0.6
176
     1
 41
30.0
176
     1
 63
     7
421
 16777215
176
     1
 74
     2
176
     1
 91
        2
176
     1
 64
     7
176
     1
 65
     7
176
     1
 75
     1
176
     1
175
     1
176
     1
 42
40.0
176
     1
 92
        8
176
     1
 66
     7
176
     1
 43
1.0
176
     1
 76
     1
176
     1
 77
     6
176
     1
 78
     2
176
     1
 67
     7
176
     1
 79
     3
176
     1
170
     0
176
     1
171
     0
176
     1
290
     0
176
     1
 93
        1
176
     1
 44
0.0
176
     1
173
     0
176
     1
1001
ACAD
1000
AcDbSavedByObjectVersion
1070
     0
  0
VISUALSTYLE
  5
291
102
{ACAD_XDICTIONARY
360
4E3
102
}
102
{ACAD_REACTORS
330
27F
102
}
330
27F
100
AcDbVisualStyle
  2
Sketchy
 70
    24
177
     2
291
     0
 71
     1
176
     1
 72
     2
176
     1
 73
     2
176
     1
 90
        0
176
     1
 40
0.6
176
     1
 41
30.0
176
     1
 63
     7
421
 16777215
176
     1
 74
     2
176
     1
 91
        2
176
     1
 64
     7
176
     1
 65
     7
176
     1
 75
     1
176
     1
175
     1
176
     1
 42
40.0
176
     1
 92
       11
176
     1
 66
     7
176
     1
 43
1.0
176
     1
 76
     1
176
     1
 77
     6
176
     1
 78
     2
176
     1
 67
     7
176
     1
 79
     6
176
     1
170
     0
176
     1
171
     0
176
     1
290
     0
176
     1
 93
        1
176
     1
 44
0.0
176
     1
173
     0
176
     1
1001
ACAD
1000
AcDbSavedByObjectVersion
1070
     0
  0
VISUALSTYLE
  5
28C
102
{ACAD_XDICTIONARY
360
4D9
102
}
102
{ACAD_REACTORS
330
27F
102
}
330
27F
100
AcDbVisualStyle
  2
Thicken
 70
    13
177
     2
291
     1
 71
     2
176
     1
 72
     2
176
     1
 73
     0
176
     1
 90
        0
176
     1
 40
0.6
176
     1
 41
30.0
176
     1
 63
     7
421
 16777215
176
     1
 74
     1
176
     1
 91
        4
176
     1
 64
     7
176
     1
 65
   257
176
     1
 75
     1
176
     1
175
     1
176
     1
 42
1.0
176
     1
 92
       12
176
     1
 66
     7
176
     1
 43
1.0
176
     1
 76
     1
176
     1
 77
     6
176
     1
 78
     2
176
     1
 67
     7
176
     1
 79
     5
176
     1
170
     0
176
     1
171
     0
176
     1
290
     0
176
     1
 93
        1
176
     1
 44
0.0
176
     1
173
     0
176
     1
1001
ACAD
1000
AcDbSavedByObjectVersion
1070
     0
  0
VISUALSTYLE
  5
286
102
{ACAD_XDICTIONARY
360
4CD
102
}
102
{ACAD_REACTORS
330
27F
102
}
330
27F
100
AcDbVisualStyle
  2
Wireframe
 70
     5
177
     2
291
     0
 71
     0
176
     1
 72
     2
176
     1
 73
     0
176
     1
 90
        0
176
     1
 40
0.6
176
     1
 41
30.0
176
     1
 63
     7
421
 16777215
176
     1
 74
     1
176
     1
 91
        4
176
     1
 64
     7
176
     1
 65
   257
176
     1
 75
     1
176
     1
175
     1
176
     1
 42
1.0
176
     1
 92
        0
176
     1
 66
   257
176
     1
 43
1.0
176
     1
 76
     1
176
     1
 77
     6
176
     1
 78
     2
176
     1
 67
     7
176
     1
 79
     3
176
     1
170
     0
176
     1
171
     0
176
     1
290
     0
176
     1
 93
        1
176
     1
 44
0.0
176
     1
173
     0
176
     1
1001
ACAD
1000
AcDbSavedByObjectVersion
1070
     0
  0
VISUALSTYLE
  5
292
102
{ACAD_XDICTIONARY
360
4E5
102
}
102
{ACAD_REACTORS
330
27F
102
}
330
27F
100
AcDbVisualStyle
  2
X-Ray
 70
    25
177
     2
291
     0
 71
     2
176
     1
 72
     2
176
     1
 73
     1
176
     1
 90
        1
176
     1
 40
0.5
176
     1
 41
30.0
176
     1
 63
     7
421
 16777215
176
     1
 74
     1
176
     1
 91
        0
176
     1
 64
     7
176
     1
 65
   257
176
     1
 75
     1
176
     1
175
     1
176
     1
 42
1.0
176
     1
 92
        8
176
     1
 66
     7
176
     1
 43
1.0
176
     1
 76
     1
176
     1
 77
     6
176
     1
 78
     2
176
     1
 67
     7
176
     1
 79
     3
176
     1
170
     0
176
     1
171
     0
176
     1
290
     0
176
     1
 93
       13
176
     1
 44
0.0
176
     1
173
     0
176
     1
1001
ACAD
1000
AcDbSavedByObjectVersion
1070
     0
  0
DICTIONARYVAR
  5
3B4
102
{ACAD_REACTORS
330
3AE
102
}
330
3AE
100
DictionaryVariables
280
     0
  1
1:1
  0
DICTIONARYVAR
  5
3B0
102
{ACAD_REACTORS
330
3AE
102
}
330
3AE
100
DictionaryVariables
280
     0
  1
STANDARD
  0
DICTIONARYVAR
  5
3AF
102
{ACAD_REACTORS
330
3AE
102
}
330
3AE
100
DictionaryVariables
280
     0
  1
STANDARD
  0
DICTIONARYVAR
  5
3B1
102
{ACAD_REACTORS
330
3AE
102
}
330
3AE
100
DictionaryVariables
280
     0
  1
Imperial24
  0
DICTIONARYVAR
  5
3B2
102
{ACAD_REACTORS
330
3AE
102
}
330
3AE
100
DictionaryVariables
280
     0
  1
Imperial24
  0
DICTIONARYVAR
  5
3B6
102
{ACAD_REACTORS
330
3AE
102
}
330
3AE
100
DictionaryVariables
280
     0
  1
1
  0
DICTIONARYVAR
  5
3B7
102
{ACAD_REACTORS
330
3AE
102
}
330
3AE
100
DictionaryVariables
280
     0
  1
15
  0
DICTIONARYVAR
  5
3B5
102
{ACAD_REACTORS
330
3AE
102
}
330
3AE
100
DictionaryVariables
280
     0
  1
0
  0
DICTIONARYVAR
  5
3B3
102
{ACAD_REACTORS
330
3AE
102
}
330
3AE
100
DictionaryVariables
280
     0
  1
0
  0
DICTIONARY
  5
4F3
330
2B2
100
AcDbDictionary
280
     1
281
     1
  3
ACAD_XREC_ROUNDTRIP
360
4F4
  0
DICTIONARY
  5
270
330
26F
100
AcDbDictionary
280
     1
281
     1
  3
BUMPTILE
360
272
  3
DIFFUSETILE
360
271
  3
OPACITYTILE
360
275
  3
REFLECTIONTILE
360
274
  3
REFRACTIONTILE
360
276
  3
SPECULARTILE
360
273
  0
DICTIONARY
  5
268
330
267
100
AcDbDictionary
280
     1
281
     1
  3
BUMPTILE
360
26A
  3
DIFFUSETILE
360
269
  3
OPACITYTILE
360
26D
  3
REFLECTIONTILE
360
26C
  3
REFRACTIONTILE
360
26E
  3
SPECULARTILE
360
26B
  0
DICTIONARY
  5
278
330
277
100
AcDbDictionary
280
     1
281
     1
  3
BUMPTILE
360
27A
  3
DIFFUSETILE
360
279
  3
OPACITYTILE
360
27D
  3
REFLECTIONTILE
360
27C
  3
REFRACTIONTILE
360
27E
  3
SPECULARTILE
360
27B
  0
DICTIONARY
  5
4F1
330
2B0
100
AcDbDictionary
280
     1
281
     1
  3
ACAD_XREC_ROUNDTRIP
360
4F2
  0
DICTIONARY
  5
3B8
330
29A
100
AcDbDictionary
280
     1
281
     1
  3
ACAD_ROUNDTRIP_2008_TABLESTYLE_CELLSTYLEMAP
360
4BF
  0
DICTIONARY
  5
4CB
330
285
100
AcDbDictionary
280
     1
281
     1
  3
ACAD_XREC_ROUNDTRIP
360
4CC
  0
DICTIONARY
  5
4C9
330
284
100
AcDbDictionary
280
     1
281
     1
  3
ACAD_XREC_ROUNDTRIP
360
4CA
  0
DICTIONARY
  5
4D7
330
28B
100
AcDbDictionary
280
     1
281
     1
  3
ACAD_XREC_ROUNDTRIP
360
4D8
  0
DICTIONARY
  5
4DF
330
28F
100
AcDbDictionary
280
     1
281
     1
  3
ACAD_XREC_ROUNDTRIP
360
4E0
  0
DICTIONARY
  5
4D1
330
288
100
AcDbDictionary
280
     1
281
     1
  3
ACAD_XREC_ROUNDTRIP
360
4D2
  0
DICTIONARY
  5
4D5
330
28A
100
AcDbDictionary
280
     1
281
     1
  3
ACAD_XREC_ROUNDTRIP
360
4D6
  0
DICTIONARY
  5
4EF
330
297
100
AcDbDictionary
280
     1
281
     1
  3
ACAD_XREC_ROUNDTRIP
360
4F0
  0
DICTIONARY
  5
4DD
330
28E
100
AcDbDictionary
280
     1
281
     1
  3
ACAD_XREC_ROUNDTRIP
360
4DE
  0
DICTIONARY
  5
4C1
330
280
100
AcDbDictionary
280
     1
281
     1
  3
ACAD_XREC_ROUNDTRIP
360
4C2
  0
DICTIONARY
  5
4C3
330
281
100
AcDbDictionary
280
     1
281
     1
  3
ACAD_XREC_ROUNDTRIP
360
4C4
  0
DICTIONARY
  5
4C5
330
282
100
AcDbDictionary
280
     1
281
     1
  3
ACAD_XREC_ROUNDTRIP
360
4C6
  0
DICTIONARY
  5
4C7
330
283
100
AcDbDictionary
280
     1
281
     1
  3
ACAD_XREC_ROUNDTRIP
360
4C8
  0
DICTIONARY
  5
4CF
330
287
100
AcDbDictionary
280
     1
281
     1
  3
ACAD_XREC_ROUNDTRIP
360
4D0
  0
DICTIONARY
  5
4EB
330
295
100
AcDbDictionary
280
     1
281
     1
  3
ACAD_XREC_ROUNDTRIP
360
4EC
  0
DICTIONARY
  5
4DB
330
28D
100
AcDbDictionary
280
     1
281
     1
  3
ACAD_XREC_ROUNDTRIP
360
4DC
  0
DICTIONARY
  5
4ED
330
296
100
AcDbDictionary
280
     1
281
     1
  3
ACAD_XREC_ROUNDTRIP
360
4EE
  0
DICTIONARY
  5
4D3
330
289
100
AcDbDictionary
280
     1
281
     1
  3
ACAD_XREC_ROUNDTRIP
360
4D4
  0
DICTIONARY
  5
4E9
330
294
100
AcDbDictionary
280
     1
281
     1
  3
ACAD_XREC_ROUNDTRIP
360
4EA
  0
DICTIONARY
  5
4E7
330
293
100
AcDbDictionary
280
     1
281
     1
  3
ACAD_XREC_ROUNDTRIP
360
4E8
  0
DICTIONARY
  5
4E1
330
290
100
AcDbDictionary
280
     1
281
     1
  3
ACAD_XREC_ROUNDTRIP
360
4E2
  0
DICTIONARY
  5
4E3
330
291
100
AcDbDictionary
280
     1
281
     1
  3
ACAD_XREC_ROUNDTRIP
360
4E4
  0
DICTIONARY
  5
4D9
330
28C
100
AcDbDictionary
280
     1
281
     1
  3
ACAD_XREC_ROUNDTRIP
360
4DA
  0
DICTIONARY
  5
4CD
330
286
100
AcDbDictionary
280
     1
281
     1
  3
ACAD_XREC_ROUNDTRIP
360
4CE
  0
DICTIONARY
  5
4E5
330
292
100
AcDbDictionary
280
     1
281
     1
  3
ACAD_XREC_ROUNDTRIP
360
4E6
  0
XRECORD
  5
4F4
102
{ACAD_REACTORS
330
4F3
102
}
330
4F3
100
AcDbXrecord
280
     1
102
DISPLAYNAME
  1
Imperial24
102
FLAGS
 90
        0
  0
XRECORD
  5
272
102
{ACAD_REACTORS
330
270
102
}
330
270
100
AcDbXrecord
280
     1
270
     1
271
     1
  0
XRECORD
  5
271
102
{ACAD_REACTORS
330
270
102
}
330
270
100
AcDbXrecord
280
     1
270
     1
271
     1
  0
XRECORD
  5
275
102
{ACAD_REACTORS
330
270
102
}
330
270
100
AcDbXrecord
280
     1
270
     1
271
     1
  0
XRECORD
  5
274
102
{ACAD_REACTORS
330
270
102
}
330
270
100
AcDbXrecord
280
     1
270
     1
271
     1
  0
XRECORD
  5
276
102
{ACAD_REACTORS
330
270
102
}
330
270
100
AcDbXrecord
280
     1
270
     1
271
     1
  0
XRECORD
  5
273
102
{ACAD_REACTORS
330
270
102
}
330
270
100
AcDbXrecord
280
     1
270
     1
271
     1
  0
XRECORD
  5
26A
102
{ACAD_REACTORS
330
268
102
}
330
268
100
AcDbXrecord
280
     1
270
     1
271
     1
  0
XRECORD
  5
269
102
{ACAD_REACTORS
330
268
102
}
330
268
100
AcDbXrecord
280
     1
270
     1
271
     1
  0
XRECORD
  5
26D
102
{ACAD_REACTORS
330
268
102
}
330
268
100
AcDbXrecord
280
     1
270
     1
271
     1
  0
XRECORD
  5
26C
102
{ACAD_REACTORS
330
268
102
}
330
268
100
AcDbXrecord
280
     1
270
     1
271
     1
  0
XRECORD
  5
26E
102
{ACAD_REACTORS
330
268
102
}
330
268
100
AcDbXrecord
280
     1
270
     1
271
     1
  0
XRECORD
  5
26B
102
{ACAD_REACTORS
330
268
102
}
330
268
100
AcDbXrecord
280
     1
270
     1
271
     1
  0
XRECORD
  5
27A
102
{ACAD_REACTORS
330
278
102
}
330
278
100
AcDbXrecord
280
     1
270
     1
271
     1
  0
XRECORD
  5
279
102
{ACAD_REACTORS
330
278
102
}
330
278
100
AcDbXrecord
280
     1
270
     1
271
     1
  0
XRECORD
  5
27D
102
{ACAD_REACTORS
330
278
102
}
330
278
100
AcDbXrecord
280
     1
270
     1
271
     1
  0
XRECORD
  5
27C
102
{ACAD_REACTORS
330
278
102
}
330
278
100
AcDbXrecord
280
     1
270
     1
271
     1
  0
XRECORD
  5
27E
102
{ACAD_REACTORS
330
278
102
}
330
278
100
AcDbXrecord
280
     1
270
     1
271
     1
  0
XRECORD
  5
27B
102
{ACAD_REACTORS
330
278
102
}
330
278
100
AcDbXrecord
280
     1
270
     1
271
     1
  0
XRECORD
  5
4F2
102
{ACAD_REACTORS
330
4F1
102
}
330
4F1
100
AcDbXrecord
280
     1
102
DISPLAYNAME
  1
Imperial24
102
FLAGS
 90
        0
  0
CELLSTYLEMAP
  5
4BF
102
{ACAD_REACTORS
330
3B8
102
}
330
3B8
100
AcDbCellStyleMap
 90
        3
300
CELLSTYLE
  1
TABLEFORMAT_BEGIN
 90
        5
170
     1
 91
        0
 92
    32768
 62
   257
 93
        1
300
CONTENTFORMAT
  1
CONTENTFORMAT_BEGIN
 90
        0
 91
        0
 92
      512
 93
        0
300

 40
0.0
140
1.0
 94
        5
 62
     0
340
11
144
0.25
309
CONTENTFORMAT_END
171
     1
301
MARGIN
  1
CELLMARGIN_BEGIN
 40
0.06
 40
0.06
 40
0.06
 40
0.06
 40
0.18
 40
0.18
309
CELLMARGIN_END
 94
        6
 95
        1
302
GRIDFORMAT
  1
GRIDFORMAT_BEGIN
 90
        0
 91
        1
 62
     0
 92
       -2
340
0
 93
        0
 40
0.045
309
GRIDFORMAT_END
 95
        2
302
GRIDFORMAT
  1
GRIDFORMAT_BEGIN
 90
        0
 91
        1
 62
     0
 92
       -2
340
0
 93
        0
 40
0.045
309
GRIDFORMAT_END
 95
        4
302
GRIDFORMAT
  1
GRIDFORMAT_BEGIN
 90
        0
 91
        1
 62
     0
 92
       -2
340
0
 93
        0
 40
0.045
309
GRIDFORMAT_END
 95
        8
302
GRIDFORMAT
  1
GRIDFORMAT_BEGIN
 90
        0
 91
        1
 62
     0
 92
       -2
340
0
 93
        0
 40
0.045
309
GRIDFORMAT_END
 95
       16
302
GRIDFORMAT
  1
GRIDFORMAT_BEGIN
 90
        0
 91
        1
 62
     0
 92
       -2
340
0
 93
        0
 40
0.045
309
GRIDFORMAT_END
 95
       32
302
GRIDFORMAT
  1
GRIDFORMAT_BEGIN
 90
        0
 91
        1
 62
     0
 92
       -2
340
0
 93
        0
 40
0.045
309
GRIDFORMAT_END
309
TABLEFORMAT_END
  1
CELLSTYLE_BEGIN
 90
        1
 91
        1
300
_TITLE
309
CELLSTYLE_END
300
CELLSTYLE
  1
TABLEFORMAT_BEGIN
 90
        5
170
     1
 91
        0
 92
        0
 62
   257
 93
        1
300
CONTENTFORMAT
  1
CONTENTFORMAT_BEGIN
 90
        0
 91
        0
 92
      512
 93
        0
300

 40
0.0
140
1.0
 94
        5
 62
     0
340
11
144
0.18
309
CONTENTFORMAT_END
171
     1
301
MARGIN
  1
CELLMARGIN_BEGIN
 40
0.06
 40
0.06
 40
0.06
 40
0.06
 40
0.18
 40
0.18
309
CELLMARGIN_END
 94
        6
 95
        1
302
GRIDFORMAT
  1
GRIDFORMAT_BEGIN
 90
        0
 91
        1
 62
     0
 92
       -2
340
0
 93
        0
 40
0.045
309
GRIDFORMAT_END
 95
        2
302
GRIDFORMAT
  1
GRIDFORMAT_BEGIN
 90
        0
 91
        1
 62
     0
 92
       -2
340
0
 93
        0
 40
0.045
309
GRIDFORMAT_END
 95
        4
302
GRIDFORMAT
  1
GRIDFORMAT_BEGIN
 90
        0
 91
        1
 62
     0
 92
       -2
340
0
 93
        0
 40
0.045
309
GRIDFORMAT_END
 95
        8
302
GRIDFORMAT
  1
GRIDFORMAT_BEGIN
 90
        0
 91
        1
 62
     0
 92
       -2
340
0
 93
        0
 40
0.045
309
GRIDFORMAT_END
 95
       16
302
GRIDFORMAT
  1
GRIDFORMAT_BEGIN
 90
        0
 91
        1
 62
     0
 92
       -2
340
0
 93
        0
 40
0.045
309
GRIDFORMAT_END
 95
       32
302
GRIDFORMAT
  1
GRIDFORMAT_BEGIN
 90
        0
 91
        1
 62
     0
 92
       -2
340
0
 93
        0
 40
0.045
309
GRIDFORMAT_END
309
TABLEFORMAT_END
  1
CELLSTYLE_BEGIN
 90
        2
 91
        1
300
_HEADER
309
CELLSTYLE_END
300
CELLSTYLE
  1
TABLEFORMAT_BEGIN
 90
        5
170
     1
 91
        0
 92
        0
 62
   257
 93
        1
300
CONTENTFORMAT
  1
CONTENTFORMAT_BEGIN
 90
        0
 91
        0
 92
      512
 93
        0
300

 40
0.0
140
1.0
 94
        2
 62
     0
340
11
144
0.18
309
CONTENTFORMAT_END
171
     1
301
MARGIN
  1
CELLMARGIN_BEGIN
 40
0.06
 40
0.06
 40
0.06
 40
0.06
 40
0.18
 40
0.18
309
CELLMARGIN_END
 94
        6
 95
        1
302
GRIDFORMAT
  1
GRIDFORMAT_BEGIN
 90
        0
 91
        1
 62
     0
 92
       -2
340
0
 93
        0
 40
0.045
309
GRIDFORMAT_END
 95
        2
302
GRIDFORMAT
  1
GRIDFORMAT_BEGIN
 90
        0
 91
        1
 62
     0
 92
       -2
340
0
 93
        0
 40
0.045
309
GRIDFORMAT_END
 95
        4
302
GRIDFORMAT
  1
GRIDFORMAT_BEGIN
 90
        0
 91
        1
 62
     0
 92
       -2
340
0
 93
        0
 40
0.045
309
GRIDFORMAT_END
 95
        8
302
GRIDFORMAT
  1
GRIDFORMAT_BEGIN
 90
        0
 91
        1
 62
     0
 92
       -2
340
0
 93
        0
 40
0.045
309
GRIDFORMAT_END
 95
       16
302
GRIDFORMAT
  1
GRIDFORMAT_BEGIN
 90
        0
 91
        1
 62
     0
 92
       -2
340
0
 93
        0
 40
0.045
309
GRIDFORMAT_END
 95
       32
302
GRIDFORMAT
  1
GRIDFORMAT_BEGIN
 90
        0
 91
        1
 62
     0
 92
       -2
340
0
 93
        0
 40
0.045
309
GRIDFORMAT_END
309
TABLEFORMAT_END
  1
CELLSTYLE_BEGIN
 90
        3
 91
        2
300
_DATA
309
CELLSTYLE_END
  0
XRECORD
  5
4CC
102
{ACAD_REACTORS
330
4CB
102
}
330
4CB
100
AcDbXrecord
280
     1
102
RTVSPost2010Prop28
280
     1
102
RTVSPost2010PropOp28
 70
     1
102
RTVSPost2010Prop29
280
     1
102
RTVSPost2010PropOp29
 70
     1
102
RTVSPost2010Prop30
280
     0
102
RTVSPost2010PropOp30
 70
     1
102
RTVSPost2010Prop31
280
     0
102
RTVSPost2010PropOp31
 70
     1
102
RTVSPost2010Prop32
280
     0
102
RTVSPost2010PropOp32
 70
     1
102
RTVSPost2010Prop33
280
     0
102
RTVSPost2010PropOp33
 70
     1
102
RTVSPost2010Prop34
280
     0
102
RTVSPost2010PropOp34
 70
     1
102
RTVSPost2010Prop35
280
     0
102
RTVSPost2010PropOp35
 70
     1
102
RTVSPost2010Prop36
280
     0
102
RTVSPost2010PropOp36
 70
     1
102
RTVSPost2010Prop37
 90
       50
102
RTVSPost2010PropOp37
 70
     1
102
RTVSPost2010Prop38
140
0.0
102
RTVSPost2010PropOp38
 70
     1
102
RTVSPost2010Prop39
140
1.0
102
RTVSPost2010PropOp39
 70
     1
102
RTVSPost2010Prop40
 90
        0
102
RTVSPost2010PropOp40
 70
     1
102
RTVSPost2010Prop41ColorIndex
 90
       18
102
RTVSPost2010Prop41ColorRGB
 90
        0
102
RTVSPost2010PropOp41
 70
     1
102
RTVSPost2010Prop42
 90
       50
102
RTVSPost2010PropOp42
 70
     1
102
RTVSPost2010Prop43
 90
        3
102
RTVSPost2010PropOp43
 70
     1
102
RTVSPost2010Prop44ColorIndex
 90
        5
102
RTVSPost2010Prop44ColorRGB
 90
      255
102
RTVSPost2010PropOp44
 70
     1
102
RTVSPost2010Prop45
280
     0
102
RTVSPost2010PropOp45
 70
     1
102
RTVSPost2010Prop46
 90
       50
102
RTVSPost2010PropOp46
 70
     1
102
RTVSPost2010Prop47
 90
       50
102
RTVSPost2010PropOp47
 70
     1
102
RTVSPost2010Prop48
 90
       50
102
RTVSPost2010PropOp48
 70
     1
102
RTVSPost2010Prop49
280
     0
102
RTVSPost2010PropOp49
 70
     1
102
RTVSPost2010Prop50
 90
       50
102
RTVSPost2010PropOp50
 70
     1
102
RTVSPost2010Prop51ColorIndex
 90
      256
102
RTVSPost2010Prop51ColorRGB
 90
-16777216
102
RTVSPost2010PropOp51
 70
     0
102
RTVSPost2010Prop52
140
1.0
102
RTVSPost2010PropOp52
 70
     0
102
RTVSPost2010Prop53
 90
        2
102
RTVSPost2010PropOp53
 70
     1
102
RTVSPost2010Prop54
  1
strokes_ogs.tif
102
RTVSPost2010PropOp54
 70
     1
102
RTVSPost2010Prop55
280
     0
102
RTVSPost2010PropOp55
 70
     1
102
RTVSPost2010Prop56
140
1.0
102
RTVSPost2010PropOp56
 70
     1
102
RTVSPost2010Prop57
140
1.0
102
RTVSPost2010PropOp57
 70
     1
  0
XRECORD
  5
4CA
102
{ACAD_REACTORS
330
4C9
102
}
330
4C9
100
AcDbXrecord
280
     1
102
RTVSPost2010Prop28
280
     0
102
RTVSPost2010PropOp28
 70
     1
102
RTVSPost2010Prop29
280
     1
102
RTVSPost2010PropOp29
 70
     1
102
RTVSPost2010Prop30
280
     1
102
RTVSPost2010PropOp30
 70
     1
102
RTVSPost2010Prop31
280
     0
102
RTVSPost2010PropOp31
 70
     1
102
RTVSPost2010Prop32
280
     0
102
RTVSPost2010PropOp32
 70
     1
102
RTVSPost2010Prop33
280
     0
102
RTVSPost2010PropOp33
 70
     1
102
RTVSPost2010Prop34
280
     0
102
RTVSPost2010PropOp34
 70
     1
102
RTVSPost2010Prop35
280
     0
102
RTVSPost2010PropOp35
 70
     1
102
RTVSPost2010Prop36
280
     0
102
RTVSPost2010PropOp36
 70
     1
102
RTVSPost2010Prop37
 90
       50
102
RTVSPost2010PropOp37
 70
     1
102
RTVSPost2010Prop38
140
0.0
102
RTVSPost2010PropOp38
 70
     1
102
RTVSPost2010Prop39
140
1.0
102
RTVSPost2010PropOp39
 70
     1
102
RTVSPost2010Prop40
 90
        0
102
RTVSPost2010PropOp40
 70
     1
102
RTVSPost2010Prop41ColorIndex
 90
       18
102
RTVSPost2010Prop41ColorRGB
 90
        0
102
RTVSPost2010PropOp41
 70
     1
102
RTVSPost2010Prop42
 90
       50
102
RTVSPost2010PropOp42
 70
     1
102
RTVSPost2010Prop43
 90
        3
102
RTVSPost2010PropOp43
 70
     1
102
RTVSPost2010Prop44ColorIndex
 90
        5
102
RTVSPost2010Prop44ColorRGB
 90
      255
102
RTVSPost2010PropOp44
 70
     1
102
RTVSPost2010Prop45
280
     0
102
RTVSPost2010PropOp45
 70
     1
102
RTVSPost2010Prop46
 90
       50
102
RTVSPost2010PropOp46
 70
     1
102
RTVSPost2010Prop47
 90
       50
102
RTVSPost2010PropOp47
 70
     1
102
RTVSPost2010Prop48
 90
       50
102
RTVSPost2010PropOp48
 70
     1
102
RTVSPost2010Prop49
280
     0
102
RTVSPost2010PropOp49
 70
     1
102
RTVSPost2010Prop50
 90
       50
102
RTVSPost2010PropOp50
 70
     1
102
RTVSPost2010Prop51ColorIndex
 90
      256
102
RTVSPost2010Prop51ColorRGB
 90
-16777216
102
RTVSPost2010PropOp51
 70
     0
102
RTVSPost2010Prop52
140
1.0
102
RTVSPost2010PropOp52
 70
     0
102
RTVSPost2010Prop53
 90
        2
102
RTVSPost2010PropOp53
 70
     1
102
RTVSPost2010Prop54
  1
strokes_ogs.tif
102
RTVSPost2010PropOp54
 70
     1
102
RTVSPost2010Prop55
280
     0
102
RTVSPost2010PropOp55
 70
     1
102
RTVSPost2010Prop56
140
1.0
102
RTVSPost2010PropOp56
 70
     1
102
RTVSPost2010Prop57
140
1.0
102
RTVSPost2010PropOp57
 70
     1
  0
XRECORD
  5
4D8
102
{ACAD_REACTORS
330
4D7
102
}
330
4D7
100
AcDbXrecord
280
     1
102
RTVSPost2010Prop28
280
     0
102
RTVSPost2010PropOp28
 70
     1
102
RTVSPost2010Prop29
280
     1
102
RTVSPost2010PropOp29
 70
     1
102
RTVSPost2010Prop30
280
     1
102
RTVSPost2010PropOp30
 70
     1
102
RTVSPost2010Prop31
280
     0
102
RTVSPost2010PropOp31
 70
     1
102
RTVSPost2010Prop32
280
     0
102
RTVSPost2010PropOp32
 70
     1
102
RTVSPost2010Prop33
280
     0
102
RTVSPost2010PropOp33
 70
     1
102
RTVSPost2010Prop34
280
     0
102
RTVSPost2010PropOp34
 70
     1
102
RTVSPost2010Prop35
280
     0
102
RTVSPost2010PropOp35
 70
     1
102
RTVSPost2010Prop36
280
     0
102
RTVSPost2010PropOp36
 70
     1
102
RTVSPost2010Prop37
 90
       50
102
RTVSPost2010PropOp37
 70
     1
102
RTVSPost2010Prop38
140
0.0
102
RTVSPost2010PropOp38
 70
     1
102
RTVSPost2010Prop39
140
1.0
102
RTVSPost2010PropOp39
 70
     1
102
RTVSPost2010Prop40
 90
        0
102
RTVSPost2010PropOp40
 70
     1
102
RTVSPost2010Prop41ColorIndex
 90
       18
102
RTVSPost2010Prop41ColorRGB
 90
        0
102
RTVSPost2010PropOp41
 70
     1
102
RTVSPost2010Prop42
 90
       50
102
RTVSPost2010PropOp42
 70
     1
102
RTVSPost2010Prop43
 90
        3
102
RTVSPost2010PropOp43
 70
     1
102
RTVSPost2010Prop44ColorIndex
 90
        5
102
RTVSPost2010Prop44ColorRGB
 90
      255
102
RTVSPost2010PropOp44
 70
     1
102
RTVSPost2010Prop45
280
     0
102
RTVSPost2010PropOp45
 70
     1
102
RTVSPost2010Prop46
 90
       50
102
RTVSPost2010PropOp46
 70
     1
102
RTVSPost2010Prop47
 90
       50
102
RTVSPost2010PropOp47
 70
     1
102
RTVSPost2010Prop48
 90
       50
102
RTVSPost2010PropOp48
 70
     1
102
RTVSPost2010Prop49
280
     0
102
RTVSPost2010PropOp49
 70
     1
102
RTVSPost2010Prop50
 90
       50
102
RTVSPost2010PropOp50
 70
     1
102
RTVSPost2010Prop51ColorIndex
 90
      256
102
RTVSPost2010Prop51ColorRGB
 90
-16777216
102
RTVSPost2010PropOp51
 70
     0
102
RTVSPost2010Prop52
140
1.0
102
RTVSPost2010PropOp52
 70
     0
102
RTVSPost2010Prop53
 90
        2
102
RTVSPost2010PropOp53
 70
     1
102
RTVSPost2010Prop54
  1
strokes_ogs.tif
102
RTVSPost2010PropOp54
 70
     1
102
RTVSPost2010Prop55
280
     0
102
RTVSPost2010PropOp55
 70
     1
102
RTVSPost2010Prop56
140
1.0
102
RTVSPost2010PropOp56
 70
     1
102
RTVSPost2010Prop57
140
1.0
102
RTVSPost2010PropOp57
 70
     1
  0
XRECORD
  5
4E0
102
{ACAD_REACTORS
330
4DF
102
}
330
4DF
100
AcDbXrecord
280
     1
102
RTVSPost2010Prop28
280
     0
102
RTVSPost2010PropOp28
 70
     1
102
RTVSPost2010Prop29
280
     1
102
RTVSPost2010PropOp29
 70
     1
102
RTVSPost2010Prop30
280
     1
102
RTVSPost2010PropOp30
 70
     1
102
RTVSPost2010Prop31
280
     0
102
RTVSPost2010PropOp31
 70
     1
102
RTVSPost2010Prop32
280
     0
102
RTVSPost2010PropOp32
 70
     1
102
RTVSPost2010Prop33
280
     0
102
RTVSPost2010PropOp33
 70
     1
102
RTVSPost2010Prop34
280
     0
102
RTVSPost2010PropOp34
 70
     1
102
RTVSPost2010Prop35
280
     0
102
RTVSPost2010PropOp35
 70
     1
102
RTVSPost2010Prop36
280
     0
102
RTVSPost2010PropOp36
 70
     1
102
RTVSPost2010Prop37
 90
       50
102
RTVSPost2010PropOp37
 70
     1
102
RTVSPost2010Prop38
140
0.0
102
RTVSPost2010PropOp38
 70
     1
102
RTVSPost2010Prop39
140
1.0
102
RTVSPost2010PropOp39
 70
     1
102
RTVSPost2010Prop40
 90
        0
102
RTVSPost2010PropOp40
 70
     1
102
RTVSPost2010Prop41ColorIndex
 90
       18
102
RTVSPost2010Prop41ColorRGB
 90
        0
102
RTVSPost2010PropOp41
 70
     1
102
RTVSPost2010Prop42
 90
       50
102
RTVSPost2010PropOp42
 70
     1
102
RTVSPost2010Prop43
 90
        3
102
RTVSPost2010PropOp43
 70
     1
102
RTVSPost2010Prop44ColorIndex
 90
        5
102
RTVSPost2010Prop44ColorRGB
 90
      255
102
RTVSPost2010PropOp44
 70
     1
102
RTVSPost2010Prop45
280
     0
102
RTVSPost2010PropOp45
 70
     1
102
RTVSPost2010Prop46
 90
       50
102
RTVSPost2010PropOp46
 70
     1
102
RTVSPost2010Prop47
 90
       50
102
RTVSPost2010PropOp47
 70
     1
102
RTVSPost2010Prop48
 90
       50
102
RTVSPost2010PropOp48
 70
     1
102
RTVSPost2010Prop49
280
     0
102
RTVSPost2010PropOp49
 70
     1
102
RTVSPost2010Prop50
 90
       50
102
RTVSPost2010PropOp50
 70
     1
102
RTVSPost2010Prop51ColorIndex
 90
      256
102
RTVSPost2010Prop51ColorRGB
 90
-16777216
102
RTVSPost2010PropOp51
 70
     0
102
RTVSPost2010Prop52
140
1.0
102
RTVSPost2010PropOp52
 70
     0
102
RTVSPost2010Prop53
 90
        2
102
RTVSPost2010PropOp53
 70
     1
102
RTVSPost2010Prop54
  1
strokes_ogs.tif
102
RTVSPost2010PropOp54
 70
     1
102
RTVSPost2010Prop55
280
     0
102
RTVSPost2010PropOp55
 70
     1
102
RTVSPost2010Prop56
140
1.0
102
RTVSPost2010PropOp56
 70
     1
102
RTVSPost2010Prop57
140
1.0
102
RTVSPost2010PropOp57
 70
     1
  0
XRECORD
  5
4D2
102
{ACAD_REACTORS
330
4D1
102
}
330
4D1
100
AcDbXrecord
280
     1
102
RTVSPost2010Prop28
280
     0
102
RTVSPost2010PropOp28
 70
     1
102
RTVSPost2010Prop29
280
     1
102
RTVSPost2010PropOp29
 70
     1
102
RTVSPost2010Prop30
280
     1
102
RTVSPost2010PropOp30
 70
     1
102
RTVSPost2010Prop31
280
     0
102
RTVSPost2010PropOp31
 70
     1
102
RTVSPost2010Prop32
280
     0
102
RTVSPost2010PropOp32
 70
     1
102
RTVSPost2010Prop33
280
     0
102
RTVSPost2010PropOp33
 70
     1
102
RTVSPost2010Prop34
280
     0
102
RTVSPost2010PropOp34
 70
     1
102
RTVSPost2010Prop35
280
     0
102
RTVSPost2010PropOp35
 70
     1
102
RTVSPost2010Prop36
280
     0
102
RTVSPost2010PropOp36
 70
     1
102
RTVSPost2010Prop37
 90
       50
102
RTVSPost2010PropOp37
 70
     1
102
RTVSPost2010Prop38
140
0.0
102
RTVSPost2010PropOp38
 70
     1
102
RTVSPost2010Prop39
140
1.0
102
RTVSPost2010PropOp39
 70
     1
102
RTVSPost2010Prop40
 90
        0
102
RTVSPost2010PropOp40
 70
     1
102
RTVSPost2010Prop41ColorIndex
 90
       18
102
RTVSPost2010Prop41ColorRGB
 90
        0
102
RTVSPost2010PropOp41
 70
     1
102
RTVSPost2010Prop42
 90
       50
102
RTVSPost2010PropOp42
 70
     1
102
RTVSPost2010Prop43
 90
        3
102
RTVSPost2010PropOp43
 70
     1
102
RTVSPost2010Prop44ColorIndex
 90
        5
102
RTVSPost2010Prop44ColorRGB
 90
      255
102
RTVSPost2010PropOp44
 70
     1
102
RTVSPost2010Prop45
280
     0
102
RTVSPost2010PropOp45
 70
     1
102
RTVSPost2010Prop46
 90
       50
102
RTVSPost2010PropOp46
 70
     1
102
RTVSPost2010Prop47
 90
       50
102
RTVSPost2010PropOp47
 70
     1
102
RTVSPost2010Prop48
 90
       50
102
RTVSPost2010PropOp48
 70
     1
102
RTVSPost2010Prop49
280
     0
102
RTVSPost2010PropOp49
 70
     1
102
RTVSPost2010Prop50
 90
       50
102
RTVSPost2010PropOp50
 70
     1
102
RTVSPost2010Prop51ColorIndex
 90
      256
102
RTVSPost2010Prop51ColorRGB
 90
-16777216
102
RTVSPost2010PropOp51
 70
     0
102
RTVSPost2010Prop52
140
1.0
102
RTVSPost2010PropOp52
 70
     0
102
RTVSPost2010Prop53
 90
        2
102
RTVSPost2010PropOp53
 70
     1
102
RTVSPost2010Prop54
  1
strokes_ogs.tif
102
RTVSPost2010PropOp54
 70
     1
102
RTVSPost2010Prop55
280
     0
102
RTVSPost2010PropOp55
 70
     1
102
RTVSPost2010Prop56
140
1.0
102
RTVSPost2010PropOp56
 70
     1
102
RTVSPost2010Prop57
140
1.0
102
RTVSPost2010PropOp57
 70
     1
  0
XRECORD
  5
4D6
102
{ACAD_REACTORS
330
4D5
102
}
330
4D5
100
AcDbXrecord
280
     1
102
RTVSPost2010Prop28
280
     0
102
RTVSPost2010PropOp28
 70
     1
102
RTVSPost2010Prop29
280
     1
102
RTVSPost2010PropOp29
 70
     1
102
RTVSPost2010Prop30
280
     1
102
RTVSPost2010PropOp30
 70
     1
102
RTVSPost2010Prop31
280
     0
102
RTVSPost2010PropOp31
 70
     1
102
RTVSPost2010Prop32
280
     0
102
RTVSPost2010PropOp32
 70
     1
102
RTVSPost2010Prop33
280
     0
102
RTVSPost2010PropOp33
 70
     1
102
RTVSPost2010Prop34
280
     0
102
RTVSPost2010PropOp34
 70
     1
102
RTVSPost2010Prop35
280
     0
102
RTVSPost2010PropOp35
 70
     1
102
RTVSPost2010Prop36
280
     0
102
RTVSPost2010PropOp36
 70
     1
102
RTVSPost2010Prop37
 90
       50
102
RTVSPost2010PropOp37
 70
     1
102
RTVSPost2010Prop38
140
0.0
102
RTVSPost2010PropOp38
 70
     1
102
RTVSPost2010Prop39
140
1.0
102
RTVSPost2010PropOp39
 70
     1
102
RTVSPost2010Prop40
 90
        0
102
RTVSPost2010PropOp40
 70
     1
102
RTVSPost2010Prop41ColorIndex
 90
       18
102
RTVSPost2010Prop41ColorRGB
 90
        0
102
RTVSPost2010PropOp41
 70
     1
102
RTVSPost2010Prop42
 90
       50
102
RTVSPost2010PropOp42
 70
     1
102
RTVSPost2010Prop43
 90
        3
102
RTVSPost2010PropOp43
 70
     1
102
RTVSPost2010Prop44ColorIndex
 90
        5
102
RTVSPost2010Prop44ColorRGB
 90
      255
102
RTVSPost2010PropOp44
 70
     1
102
RTVSPost2010Prop45
280
     0
102
RTVSPost2010PropOp45
 70
     1
102
RTVSPost2010Prop46
 90
       50
102
RTVSPost2010PropOp46
 70
     1
102
RTVSPost2010Prop47
 90
       50
102
RTVSPost2010PropOp47
 70
     1
102
RTVSPost2010Prop48
 90
       50
102
RTVSPost2010PropOp48
 70
     1
102
RTVSPost2010Prop49
280
     0
102
RTVSPost2010PropOp49
 70
     1
102
RTVSPost2010Prop50
 90
       50
102
RTVSPost2010PropOp50
 70
     1
102
RTVSPost2010Prop51ColorIndex
 90
      256
102
RTVSPost2010Prop51ColorRGB
 90
-16777216
102
RTVSPost2010PropOp51
 70
     0
102
RTVSPost2010Prop52
140
1.0
102
RTVSPost2010PropOp52
 70
     0
102
RTVSPost2010Prop53
 90
        2
102
RTVSPost2010PropOp53
 70
     1
102
RTVSPost2010Prop54
  1
strokes_ogs.tif
102
RTVSPost2010PropOp54
 70
     1
102
RTVSPost2010Prop55
280
     0
102
RTVSPost2010PropOp55
 70
     1
102
RTVSPost2010Prop56
140
1.0
102
RTVSPost2010PropOp56
 70
     1
102
RTVSPost2010Prop57
140
1.0
102
RTVSPost2010PropOp57
 70
     1
  0
XRECORD
  5
4F0
102
{ACAD_REACTORS
330
4EF
102
}
330
4EF
100
AcDbXrecord
280
     1
102
RTVSPost2010Prop28
280
     0
102
RTVSPost2010PropOp28
 70
     1
102
RTVSPost2010Prop29
280
     1
102
RTVSPost2010PropOp29
 70
     1
102
RTVSPost2010Prop30
280
     1
102
RTVSPost2010PropOp30
 70
     1
102
RTVSPost2010Prop31
280
     0
102
RTVSPost2010PropOp31
 70
     1
102
RTVSPost2010Prop32
280
     0
102
RTVSPost2010PropOp32
 70
     1
102
RTVSPost2010Prop33
280
     0
102
RTVSPost2010PropOp33
 70
     1
102
RTVSPost2010Prop34
280
     0
102
RTVSPost2010PropOp34
 70
     1
102
RTVSPost2010Prop35
280
     0
102
RTVSPost2010PropOp35
 70
     1
102
RTVSPost2010Prop36
280
     0
102
RTVSPost2010PropOp36
 70
     1
102
RTVSPost2010Prop37
 90
       50
102
RTVSPost2010PropOp37
 70
     0
102
RTVSPost2010Prop38
140
0.0
102
RTVSPost2010PropOp38
 70
     0
102
RTVSPost2010Prop39
140
1.0
102
RTVSPost2010PropOp39
 70
     0
102
RTVSPost2010Prop40
 90
        0
102
RTVSPost2010PropOp40
 70
     0
102
RTVSPost2010Prop41ColorIndex
 90
       18
102
RTVSPost2010Prop41ColorRGB
 90
        0
102
RTVSPost2010PropOp41
 70
     0
102
RTVSPost2010Prop42
 90
       50
102
RTVSPost2010PropOp42
 70
     0
102
RTVSPost2010Prop43
 90
        3
102
RTVSPost2010PropOp43
 70
     0
102
RTVSPost2010Prop44ColorIndex
 90
        5
102
RTVSPost2010Prop44ColorRGB
 90
      255
102
RTVSPost2010PropOp44
 70
     0
102
RTVSPost2010Prop45
280
     0
102
RTVSPost2010PropOp45
 70
     1
102
RTVSPost2010Prop46
 90
       50
102
RTVSPost2010PropOp46
 70
     0
102
RTVSPost2010Prop47
 90
       50
102
RTVSPost2010PropOp47
 70
     0
102
RTVSPost2010Prop48
 90
       50
102
RTVSPost2010PropOp48
 70
     0
102
RTVSPost2010Prop49
280
     0
102
RTVSPost2010PropOp49
 70
     1
102
RTVSPost2010Prop50
 90
       50
102
RTVSPost2010PropOp50
 70
     0
102
RTVSPost2010Prop51ColorIndex
 90
      256
102
RTVSPost2010Prop51ColorRGB
 90
-16777216
102
RTVSPost2010PropOp51
 70
     0
102
RTVSPost2010Prop52
140
1.0
102
RTVSPost2010PropOp52
 70
     0
102
RTVSPost2010Prop53
 90
        2
102
RTVSPost2010PropOp53
 70
     0
102
RTVSPost2010Prop54
  1
strokes_ogs.tif
102
RTVSPost2010PropOp54
 70
     0
102
RTVSPost2010Prop55
280
     0
102
RTVSPost2010PropOp55
 70
     1
102
RTVSPost2010Prop56
140
1.0
102
RTVSPost2010PropOp56
 70
     0
102
RTVSPost2010Prop57
140
1.0
102
RTVSPost2010PropOp57
 70
     0
  0
XRECORD
  5
4DE
102
{ACAD_REACTORS
330
4DD
102
}
330
4DD
100
AcDbXrecord
280
     1
102
RTVSPost2010Prop28
280
     0
102
RTVSPost2010PropOp28
 70
     1
102
RTVSPost2010Prop29
280
     1
102
RTVSPost2010PropOp29
 70
     1
102
RTVSPost2010Prop30
280
     1
102
RTVSPost2010PropOp30
 70
     1
102
RTVSPost2010Prop31
280
     0
102
RTVSPost2010PropOp31
 70
     1
102
RTVSPost2010Prop32
280
     0
102
RTVSPost2010PropOp32
 70
     1
102
RTVSPost2010Prop33
280
     0
102
RTVSPost2010PropOp33
 70
     1
102
RTVSPost2010Prop34
280
     0
102
RTVSPost2010PropOp34
 70
     1
102
RTVSPost2010Prop35
280
     0
102
RTVSPost2010PropOp35
 70
     1
102
RTVSPost2010Prop36
280
     0
102
RTVSPost2010PropOp36
 70
     1
102
RTVSPost2010Prop37
 90
       50
102
RTVSPost2010PropOp37
 70
     1
102
RTVSPost2010Prop38
140
0.0
102
RTVSPost2010PropOp38
 70
     1
102
RTVSPost2010Prop39
140
1.0
102
RTVSPost2010PropOp39
 70
     1
102
RTVSPost2010Prop40
 90
        0
102
RTVSPost2010PropOp40
 70
     1
102
RTVSPost2010Prop41ColorIndex
 90
       18
102
RTVSPost2010Prop41ColorRGB
 90
        0
102
RTVSPost2010PropOp41
 70
     1
102
RTVSPost2010Prop42
 90
       50
102
RTVSPost2010PropOp42
 70
     1
102
RTVSPost2010Prop43
 90
        3
102
RTVSPost2010PropOp43
 70
     1
102
RTVSPost2010Prop44ColorIndex
 90
        5
102
RTVSPost2010Prop44ColorRGB
 90
      255
102
RTVSPost2010PropOp44
 70
     1
102
RTVSPost2010Prop45
280
     0
102
RTVSPost2010PropOp45
 70
     1
102
RTVSPost2010Prop46
 90
       50
102
RTVSPost2010PropOp46
 70
     1
102
RTVSPost2010Prop47
 90
       50
102
RTVSPost2010PropOp47
 70
     1
102
RTVSPost2010Prop48
 90
       50
102
RTVSPost2010PropOp48
 70
     1
102
RTVSPost2010Prop49
280
     0
102
RTVSPost2010PropOp49
 70
     1
102
RTVSPost2010Prop50
 90
       50
102
RTVSPost2010PropOp50
 70
     1
102
RTVSPost2010Prop51ColorIndex
 90
      256
102
RTVSPost2010Prop51ColorRGB
 90
-16777216
102
RTVSPost2010PropOp51
 70
     0
102
RTVSPost2010Prop52
140
1.0
102
RTVSPost2010PropOp52
 70
     0
102
RTVSPost2010Prop53
 90
        2
102
RTVSPost2010PropOp53
 70
     1
102
RTVSPost2010Prop54
  1
strokes_ogs.tif
102
RTVSPost2010PropOp54
 70
     1
102
RTVSPost2010Prop55
280
     0
102
RTVSPost2010PropOp55
 70
     1
102
RTVSPost2010Prop56
140
1.0
102
RTVSPost2010PropOp56
 70
     1
102
RTVSPost2010Prop57
140
1.0
102
RTVSPost2010PropOp57
 70
     1
  0
XRECORD
  5
4C2
102
{ACAD_REACTORS
330
4C1
102
}
330
4C1
100
AcDbXrecord
280
     1
102
RTVSPost2010Prop28
280
     0
102
RTVSPost2010PropOp28
 70
     1
102
RTVSPost2010Prop29
280
     1
102
RTVSPost2010PropOp29
 70
     1
102
RTVSPost2010Prop30
280
     1
102
RTVSPost2010PropOp30
 70
     1
102
RTVSPost2010Prop31
280
     0
102
RTVSPost2010PropOp31
 70
     1
102
RTVSPost2010Prop32
280
     0
102
RTVSPost2010PropOp32
 70
     1
102
RTVSPost2010Prop33
280
     0
102
RTVSPost2010PropOp33
 70
     1
102
RTVSPost2010Prop34
280
     0
102
RTVSPost2010PropOp34
 70
     1
102
RTVSPost2010Prop35
280
     0
102
RTVSPost2010PropOp35
 70
     1
102
RTVSPost2010Prop36
280
     0
102
RTVSPost2010PropOp36
 70
     1
102
RTVSPost2010Prop37
 90
       50
102
RTVSPost2010PropOp37
 70
     1
102
RTVSPost2010Prop38
140
0.0
102
RTVSPost2010PropOp38
 70
     1
102
RTVSPost2010Prop39
140
1.0
102
RTVSPost2010PropOp39
 70
     1
102
RTVSPost2010Prop40
 90
        0
102
RTVSPost2010PropOp40
 70
     1
102
RTVSPost2010Prop41ColorIndex
 90
       18
102
RTVSPost2010Prop41ColorRGB
 90
        0
102
RTVSPost2010PropOp41
 70
     1
102
RTVSPost2010Prop42
 90
       50
102
RTVSPost2010PropOp42
 70
     1
102
RTVSPost2010Prop43
 90
        3
102
RTVSPost2010PropOp43
 70
     1
102
RTVSPost2010Prop44ColorIndex
 90
        5
102
RTVSPost2010Prop44ColorRGB
 90
      255
102
RTVSPost2010PropOp44
 70
     1
102
RTVSPost2010Prop45
280
     0
102
RTVSPost2010PropOp45
 70
     1
102
RTVSPost2010Prop46
 90
       50
102
RTVSPost2010PropOp46
 70
     1
102
RTVSPost2010Prop47
 90
       50
102
RTVSPost2010PropOp47
 70
     1
102
RTVSPost2010Prop48
 90
       50
102
RTVSPost2010PropOp48
 70
     1
102
RTVSPost2010Prop49
280
     0
102
RTVSPost2010PropOp49
 70
     1
102
RTVSPost2010Prop50
 90
       50
102
RTVSPost2010PropOp50
 70
     1
102
RTVSPost2010Prop51ColorIndex
 90
      256
102
RTVSPost2010Prop51ColorRGB
 90
-16777216
102
RTVSPost2010PropOp51
 70
     0
102
RTVSPost2010Prop52
140
1.0
102
RTVSPost2010PropOp52
 70
     0
102
RTVSPost2010Prop53
 90
        2
102
RTVSPost2010PropOp53
 70
     1
102
RTVSPost2010Prop54
  1
strokes_ogs.tif
102
RTVSPost2010PropOp54
 70
     1
102
RTVSPost2010Prop55
280
     0
102
RTVSPost2010PropOp55
 70
     1
102
RTVSPost2010Prop56
140
1.0
102
RTVSPost2010PropOp56
 70
     1
102
RTVSPost2010Prop57
140
1.0
102
RTVSPost2010PropOp57
 70
     1
  0
XRECORD
  5
4C4
102
{ACAD_REACTORS
330
4C3
102
}
330
4C3
100
AcDbXrecord
280
     1
102
RTVSPost2010Prop28
280
     0
102
RTVSPost2010PropOp28
 70
     1
102
RTVSPost2010Prop29
280
     1
102
RTVSPost2010PropOp29
 70
     1
102
RTVSPost2010Prop30
280
     1
102
RTVSPost2010PropOp30
 70
     1
102
RTVSPost2010Prop31
280
     0
102
RTVSPost2010PropOp31
 70
     1
102
RTVSPost2010Prop32
280
     0
102
RTVSPost2010PropOp32
 70
     1
102
RTVSPost2010Prop33
280
     0
102
RTVSPost2010PropOp33
 70
     1
102
RTVSPost2010Prop34
280
     0
102
RTVSPost2010PropOp34
 70
     1
102
RTVSPost2010Prop35
280
     0
102
RTVSPost2010PropOp35
 70
     1
102
RTVSPost2010Prop36
280
     0
102
RTVSPost2010PropOp36
 70
     1
102
RTVSPost2010Prop37
 90
       50
102
RTVSPost2010PropOp37
 70
     1
102
RTVSPost2010Prop38
140
0.0
102
RTVSPost2010PropOp38
 70
     1
102
RTVSPost2010Prop39
140
1.0
102
RTVSPost2010PropOp39
 70
     1
102
RTVSPost2010Prop40
 90
        0
102
RTVSPost2010PropOp40
 70
     1
102
RTVSPost2010Prop41ColorIndex
 90
       18
102
RTVSPost2010Prop41ColorRGB
 90
        0
102
RTVSPost2010PropOp41
 70
     1
102
RTVSPost2010Prop42
 90
       50
102
RTVSPost2010PropOp42
 70
     1
102
RTVSPost2010Prop43
 90
        3
102
RTVSPost2010PropOp43
 70
     1
102
RTVSPost2010Prop44ColorIndex
 90
        5
102
RTVSPost2010Prop44ColorRGB
 90
      255
102
RTVSPost2010PropOp44
 70
     1
102
RTVSPost2010Prop45
280
     0
102
RTVSPost2010PropOp45
 70
     1
102
RTVSPost2010Prop46
 90
       50
102
RTVSPost2010PropOp46
 70
     1
102
RTVSPost2010Prop47
 90
       50
102
RTVSPost2010PropOp47
 70
     1
102
RTVSPost2010Prop48
 90
       50
102
RTVSPost2010PropOp48
 70
     1
102
RTVSPost2010Prop49
280
     0
102
RTVSPost2010PropOp49
 70
     1
102
RTVSPost2010Prop50
 90
       50
102
RTVSPost2010PropOp50
 70
     1
102
RTVSPost2010Prop51ColorIndex
 90
      256
102
RTVSPost2010Prop51ColorRGB
 90
-16777216
102
RTVSPost2010PropOp51
 70
     0
102
RTVSPost2010Prop52
140
1.0
102
RTVSPost2010PropOp52
 70
     0
102
RTVSPost2010Prop53
 90
        2
102
RTVSPost2010PropOp53
 70
     1
102
RTVSPost2010Prop54
  1
strokes_ogs.tif
102
RTVSPost2010PropOp54
 70
     1
102
RTVSPost2010Prop55
280
     0
102
RTVSPost2010PropOp55
 70
     1
102
RTVSPost2010Prop56
140
1.0
102
RTVSPost2010PropOp56
 70
     1
102
RTVSPost2010Prop57
140
1.0
102
RTVSPost2010PropOp57
 70
     1
  0
XRECORD
  5
4C6
102
{ACAD_REACTORS
330
4C5
102
}
330
4C5
100
AcDbXrecord
280
     1
102
RTVSPost2010Prop28
280
     0
102
RTVSPost2010PropOp28
 70
     1
102
RTVSPost2010Prop29
280
     1
102
RTVSPost2010PropOp29
 70
     1
102
RTVSPost2010Prop30
280
     1
102
RTVSPost2010PropOp30
 70
     1
102
RTVSPost2010Prop31
280
     0
102
RTVSPost2010PropOp31
 70
     1
102
RTVSPost2010Prop32
280
     0
102
RTVSPost2010PropOp32
 70
     1
102
RTVSPost2010Prop33
280
     0
102
RTVSPost2010PropOp33
 70
     1
102
RTVSPost2010Prop34
280
     0
102
RTVSPost2010PropOp34
 70
     1
102
RTVSPost2010Prop35
280
     0
102
RTVSPost2010PropOp35
 70
     1
102
RTVSPost2010Prop36
280
     0
102
RTVSPost2010PropOp36
 70
     1
102
RTVSPost2010Prop37
 90
       50
102
RTVSPost2010PropOp37
 70
     1
102
RTVSPost2010Prop38
140
0.0
102
RTVSPost2010PropOp38
 70
     1
102
RTVSPost2010Prop39
140
1.0
102
RTVSPost2010PropOp39
 70
     1
102
RTVSPost2010Prop40
 90
        0
102
RTVSPost2010PropOp40
 70
     1
102
RTVSPost2010Prop41ColorIndex
 90
       18
102
RTVSPost2010Prop41ColorRGB
 90
        0
102
RTVSPost2010PropOp41
 70
     1
102
RTVSPost2010Prop42
 90
       50
102
RTVSPost2010PropOp42
 70
     1
102
RTVSPost2010Prop43
 90
        3
102
RTVSPost2010PropOp43
 70
     1
102
RTVSPost2010Prop44ColorIndex
 90
        5
102
RTVSPost2010Prop44ColorRGB
 90
      255
102
RTVSPost2010PropOp44
 70
     1
102
RTVSPost2010Prop45
280
     0
102
RTVSPost2010PropOp45
 70
     1
102
RTVSPost2010Prop46
 90
       50
102
RTVSPost2010PropOp46
 70
     1
102
RTVSPost2010Prop47
 90
       50
102
RTVSPost2010PropOp47
 70
     1
102
RTVSPost2010Prop48
 90
       50
102
RTVSPost2010PropOp48
 70
     1
102
RTVSPost2010Prop49
280
     0
102
RTVSPost2010PropOp49
 70
     1
102
RTVSPost2010Prop50
 90
       50
102
RTVSPost2010PropOp50
 70
     1
102
RTVSPost2010Prop51ColorIndex
 90
      256
102
RTVSPost2010Prop51ColorRGB
 90
-16777216
102
RTVSPost2010PropOp51
 70
     0
102
RTVSPost2010Prop52
140
1.0
102
RTVSPost2010PropOp52
 70
     0
102
RTVSPost2010Prop53
 90
        2
102
RTVSPost2010PropOp53
 70
     1
102
RTVSPost2010Prop54
  1
strokes_ogs.tif
102
RTVSPost2010PropOp54
 70
     1
102
RTVSPost2010Prop55
280
     0
102
RTVSPost2010PropOp55
 70
     1
102
RTVSPost2010Prop56
140
1.0
102
RTVSPost2010PropOp56
 70
     1
102
RTVSPost2010Prop57
140
1.0
102
RTVSPost2010PropOp57
 70
     1
  0
XRECORD
  5
4C8
102
{ACAD_REACTORS
330
4C7
102
}
330
4C7
100
AcDbXrecord
280
     1
102
RTVSPost2010Prop28
280
     0
102
RTVSPost2010PropOp28
 70
     1
102
RTVSPost2010Prop29
280
     1
102
RTVSPost2010PropOp29
 70
     1
102
RTVSPost2010Prop30
280
     1
102
RTVSPost2010PropOp30
 70
     1
102
RTVSPost2010Prop31
280
     0
102
RTVSPost2010PropOp31
 70
     1
102
RTVSPost2010Prop32
280
     0
102
RTVSPost2010PropOp32
 70
     1
102
RTVSPost2010Prop33
280
     0
102
RTVSPost2010PropOp33
 70
     1
102
RTVSPost2010Prop34
280
     0
102
RTVSPost2010PropOp34
 70
     1
102
RTVSPost2010Prop35
280
     0
102
RTVSPost2010PropOp35
 70
     1
102
RTVSPost2010Prop36
280
     0
102
RTVSPost2010PropOp36
 70
     1
102
RTVSPost2010Prop37
 90
       50
102
RTVSPost2010PropOp37
 70
     1
102
RTVSPost2010Prop38
140
0.0
102
RTVSPost2010PropOp38
 70
     1
102
RTVSPost2010Prop39
140
1.0
102
RTVSPost2010PropOp39
 70
     1
102
RTVSPost2010Prop40
 90
        0
102
RTVSPost2010PropOp40
 70
     1
102
RTVSPost2010Prop41ColorIndex
 90
       18
102
RTVSPost2010Prop41ColorRGB
 90
        0
102
RTVSPost2010PropOp41
 70
     1
102
RTVSPost2010Prop42
 90
       50
102
RTVSPost2010PropOp42
 70
     1
102
RTVSPost2010Prop43
 90
        3
102
RTVSPost2010PropOp43
 70
     1
102
RTVSPost2010Prop44ColorIndex
 90
        5
102
RTVSPost2010Prop44ColorRGB
 90
      255
102
RTVSPost2010PropOp44
 70
     1
102
RTVSPost2010Prop45
280
     0
102
RTVSPost2010PropOp45
 70
     1
102
RTVSPost2010Prop46
 90
       50
102
RTVSPost2010PropOp46
 70
     1
102
RTVSPost2010Prop47
 90
       50
102
RTVSPost2010PropOp47
 70
     1
102
RTVSPost2010Prop48
 90
       50
102
RTVSPost2010PropOp48
 70
     1
102
RTVSPost2010Prop49
280
     0
102
RTVSPost2010PropOp49
 70
     1
102
RTVSPost2010Prop50
 90
       50
102
RTVSPost2010PropOp50
 70
     1
102
RTVSPost2010Prop51ColorIndex
 90
      256
102
RTVSPost2010Prop51ColorRGB
 90
-16777216
102
RTVSPost2010PropOp51
 70
     0
102
RTVSPost2010Prop52
140
1.0
102
RTVSPost2010PropOp52
 70
     0
102
RTVSPost2010Prop53
 90
        2
102
RTVSPost2010PropOp53
 70
     1
102
RTVSPost2010Prop54
  1
strokes_ogs.tif
102
RTVSPost2010PropOp54
 70
     1
102
RTVSPost2010Prop55
280
     0
102
RTVSPost2010PropOp55
 70
     1
102
RTVSPost2010Prop56
140
1.0
102
RTVSPost2010PropOp56
 70
     1
102
RTVSPost2010Prop57
140
1.0
102
RTVSPost2010PropOp57
 70
     1
  0
XRECORD
  5
4D0
102
{ACAD_REACTORS
330
4CF
102
}
330
4CF
100
AcDbXrecord
280
     1
102
RTVSPost2010Prop28
280
     0
102
RTVSPost2010PropOp28
 70
     1
102
RTVSPost2010Prop29
280
     1
102
RTVSPost2010PropOp29
 70
     1
102
RTVSPost2010Prop30
280
     1
102
RTVSPost2010PropOp30
 70
     1
102
RTVSPost2010Prop31
280
     0
102
RTVSPost2010PropOp31
 70
     1
102
RTVSPost2010Prop32
280
     0
102
RTVSPost2010PropOp32
 70
     1
102
RTVSPost2010Prop33
280
     0
102
RTVSPost2010PropOp33
 70
     1
102
RTVSPost2010Prop34
280
     0
102
RTVSPost2010PropOp34
 70
     1
102
RTVSPost2010Prop35
280
     0
102
RTVSPost2010PropOp35
 70
     1
102
RTVSPost2010Prop36
280
     0
102
RTVSPost2010PropOp36
 70
     1
102
RTVSPost2010Prop37
 90
       50
102
RTVSPost2010PropOp37
 70
     1
102
RTVSPost2010Prop38
140
0.0
102
RTVSPost2010PropOp38
 70
     1
102
RTVSPost2010Prop39
140
1.0
102
RTVSPost2010PropOp39
 70
     1
102
RTVSPost2010Prop40
 90
        0
102
RTVSPost2010PropOp40
 70
     1
102
RTVSPost2010Prop41ColorIndex
 90
       18
102
RTVSPost2010Prop41ColorRGB
 90
        0
102
RTVSPost2010PropOp41
 70
     1
102
RTVSPost2010Prop42
 90
       50
102
RTVSPost2010PropOp42
 70
     1
102
RTVSPost2010Prop43
 90
        3
102
RTVSPost2010PropOp43
 70
     1
102
RTVSPost2010Prop44ColorIndex
 90
        5
102
RTVSPost2010Prop44ColorRGB
 90
      255
102
RTVSPost2010PropOp44
 70
     1
102
RTVSPost2010Prop45
280
     0
102
RTVSPost2010PropOp45
 70
     1
102
RTVSPost2010Prop46
 90
       50
102
RTVSPost2010PropOp46
 70
     1
102
RTVSPost2010Prop47
 90
       50
102
RTVSPost2010PropOp47
 70
     1
102
RTVSPost2010Prop48
 90
       50
102
RTVSPost2010PropOp48
 70
     1
102
RTVSPost2010Prop49
280
     0
102
RTVSPost2010PropOp49
 70
     1
102
RTVSPost2010Prop50
 90
       50
102
RTVSPost2010PropOp50
 70
     1
102
RTVSPost2010Prop51ColorIndex
 90
      256
102
RTVSPost2010Prop51ColorRGB
 90
-16777216
102
RTVSPost2010PropOp51
 70
     0
102
RTVSPost2010Prop52
140
1.0
102
RTVSPost2010PropOp52
 70
     0
102
RTVSPost2010Prop53
 90
        2
102
RTVSPost2010PropOp53
 70
     1
102
RTVSPost2010Prop54
  1
strokes_ogs.tif
102
RTVSPost2010PropOp54
 70
     1
102
RTVSPost2010Prop55
280
     0
102
RTVSPost2010PropOp55
 70
     1
102
RTVSPost2010Prop56
140
1.0
102
RTVSPost2010PropOp56
 70
     1
102
RTVSPost2010Prop57
140
1.0
102
RTVSPost2010PropOp57
 70
     1
  0
XRECORD
  5
4EC
102
{ACAD_REACTORS
330
4EB
102
}
330
4EB
100
AcDbXrecord
280
     1
102
RTVSPost2010Prop28
280
     0
102
RTVSPost2010PropOp28
 70
     1
102
RTVSPost2010Prop29
280
     1
102
RTVSPost2010PropOp29
 70
     1
102
RTVSPost2010Prop30
280
     1
102
RTVSPost2010PropOp30
 70
     1
102
RTVSPost2010Prop31
280
     0
102
RTVSPost2010PropOp31
 70
     1
102
RTVSPost2010Prop32
280
     0
102
RTVSPost2010PropOp32
 70
     1
102
RTVSPost2010Prop33
280
     0
102
RTVSPost2010PropOp33
 70
     1
102
RTVSPost2010Prop34
280
     0
102
RTVSPost2010PropOp34
 70
     1
102
RTVSPost2010Prop35
280
     0
102
RTVSPost2010PropOp35
 70
     1
102
RTVSPost2010Prop36
280
     0
102
RTVSPost2010PropOp36
 70
     1
102
RTVSPost2010Prop37
 90
       50
102
RTVSPost2010PropOp37
 70
     0
102
RTVSPost2010Prop38
140
0.0
102
RTVSPost2010PropOp38
 70
     0
102
RTVSPost2010Prop39
140
1.0
102
RTVSPost2010PropOp39
 70
     0
102
RTVSPost2010Prop40
 90
        0
102
RTVSPost2010PropOp40
 70
     0
102
RTVSPost2010Prop41ColorIndex
 90
       18
102
RTVSPost2010Prop41ColorRGB
 90
        0
102
RTVSPost2010PropOp41
 70
     0
102
RTVSPost2010Prop42
 90
       50
102
RTVSPost2010PropOp42
 70
     0
102
RTVSPost2010Prop43
 90
        3
102
RTVSPost2010PropOp43
 70
     0
102
RTVSPost2010Prop44ColorIndex
 90
        5
102
RTVSPost2010Prop44ColorRGB
 90
      255
102
RTVSPost2010PropOp44
 70
     0
102
RTVSPost2010Prop45
280
     0
102
RTVSPost2010PropOp45
 70
     1
102
RTVSPost2010Prop46
 90
       50
102
RTVSPost2010PropOp46
 70
     0
102
RTVSPost2010Prop47
 90
       50
102
RTVSPost2010PropOp47
 70
     0
102
RTVSPost2010Prop48
 90
       50
102
RTVSPost2010PropOp48
 70
     0
102
RTVSPost2010Prop49
280
     0
102
RTVSPost2010PropOp49
 70
     1
102
RTVSPost2010Prop50
 90
       50
102
RTVSPost2010PropOp50
 70
     0
102
RTVSPost2010Prop51ColorIndex
 90
      256
102
RTVSPost2010Prop51ColorRGB
 90
-16777216
102
RTVSPost2010PropOp51
 70
     0
102
RTVSPost2010Prop52
140
1.0
102
RTVSPost2010PropOp52
 70
     0
102
RTVSPost2010Prop53
 90
        2
102
RTVSPost2010PropOp53
 70
     0
102
RTVSPost2010Prop54
  1
strokes_ogs.tif
102
RTVSPost2010PropOp54
 70
     0
102
RTVSPost2010Prop55
280
     0
102
RTVSPost2010PropOp55
 70
     1
102
RTVSPost2010Prop56
140
1.0
102
RTVSPost2010PropOp56
 70
     0
102
RTVSPost2010Prop57
140
1.0
102
RTVSPost2010PropOp57
 70
     0
  0
XRECORD
  5
4DC
102
{ACAD_REACTORS
330
4DB
102
}
330
4DB
100
AcDbXrecord
280
     1
102
RTVSPost2010Prop28
280
     0
102
RTVSPost2010PropOp28
 70
     1
102
RTVSPost2010Prop29
280
     1
102
RTVSPost2010PropOp29
 70
     1
102
RTVSPost2010Prop30
280
     1
102
RTVSPost2010PropOp30
 70
     1
102
RTVSPost2010Prop31
280
     0
102
RTVSPost2010PropOp31
 70
     1
102
RTVSPost2010Prop32
280
     0
102
RTVSPost2010PropOp32
 70
     1
102
RTVSPost2010Prop33
280
     0
102
RTVSPost2010PropOp33
 70
     1
102
RTVSPost2010Prop34
280
     0
102
RTVSPost2010PropOp34
 70
     1
102
RTVSPost2010Prop35
280
     0
102
RTVSPost2010PropOp35
 70
     1
102
RTVSPost2010Prop36
280
     0
102
RTVSPost2010PropOp36
 70
     1
102
RTVSPost2010Prop37
 90
       50
102
RTVSPost2010PropOp37
 70
     1
102
RTVSPost2010Prop38
140
0.0
102
RTVSPost2010PropOp38
 70
     1
102
RTVSPost2010Prop39
140
1.0
102
RTVSPost2010PropOp39
 70
     1
102
RTVSPost2010Prop40
 90
        0
102
RTVSPost2010PropOp40
 70
     1
102
RTVSPost2010Prop41ColorIndex
 90
       18
102
RTVSPost2010Prop41ColorRGB
 90
        0
102
RTVSPost2010PropOp41
 70
     1
102
RTVSPost2010Prop42
 90
       50
102
RTVSPost2010PropOp42
 70
     1
102
RTVSPost2010Prop43
 90
        3
102
RTVSPost2010PropOp43
 70
     1
102
RTVSPost2010Prop44ColorIndex
 90
        5
102
RTVSPost2010Prop44ColorRGB
 90
      255
102
RTVSPost2010PropOp44
 70
     1
102
RTVSPost2010Prop45
280
     0
102
RTVSPost2010PropOp45
 70
     1
102
RTVSPost2010Prop46
 90
       50
102
RTVSPost2010PropOp46
 70
     1
102
RTVSPost2010Prop47
 90
       50
102
RTVSPost2010PropOp47
 70
     1
102
RTVSPost2010Prop48
 90
       50
102
RTVSPost2010PropOp48
 70
     1
102
RTVSPost2010Prop49
280
     0
102
RTVSPost2010PropOp49
 70
     1
102
RTVSPost2010Prop50
 90
       50
102
RTVSPost2010PropOp50
 70
     1
102
RTVSPost2010Prop51ColorIndex
 90
      256
102
RTVSPost2010Prop51ColorRGB
 90
-16777216
102
RTVSPost2010PropOp51
 70
     0
102
RTVSPost2010Prop52
140
1.0
102
RTVSPost2010PropOp52
 70
     0
102
RTVSPost2010Prop53
 90
        2
102
RTVSPost2010PropOp53
 70
     1
102
RTVSPost2010Prop54
  1
strokes_ogs.tif
102
RTVSPost2010PropOp54
 70
     1
102
RTVSPost2010Prop55
280
     0
102
RTVSPost2010PropOp55
 70
     1
102
RTVSPost2010Prop56
140
1.0
102
RTVSPost2010PropOp56
 70
     1
102
RTVSPost2010Prop57
140
1.0
102
RTVSPost2010PropOp57
 70
     1
  0
XRECORD
  5
4EE
102
{ACAD_REACTORS
330
4ED
102
}
330
4ED
100
AcDbXrecord
280
     1
102
RTVSPost2010Prop28
280
     0
102
RTVSPost2010PropOp28
 70
     1
102
RTVSPost2010Prop29
280
     1
102
RTVSPost2010PropOp29
 70
     1
102
RTVSPost2010Prop30
280
     1
102
RTVSPost2010PropOp30
 70
     1
102
RTVSPost2010Prop31
280
     0
102
RTVSPost2010PropOp31
 70
     1
102
RTVSPost2010Prop32
280
     0
102
RTVSPost2010PropOp32
 70
     1
102
RTVSPost2010Prop33
280
     0
102
RTVSPost2010PropOp33
 70
     1
102
RTVSPost2010Prop34
280
     0
102
RTVSPost2010PropOp34
 70
     1
102
RTVSPost2010Prop35
280
     0
102
RTVSPost2010PropOp35
 70
     1
102
RTVSPost2010Prop36
280
     0
102
RTVSPost2010PropOp36
 70
     1
102
RTVSPost2010Prop37
 90
       50
102
RTVSPost2010PropOp37
 70
     0
102
RTVSPost2010Prop38
140
0.0
102
RTVSPost2010PropOp38
 70
     0
102
RTVSPost2010Prop39
140
1.0
102
RTVSPost2010PropOp39
 70
     0
102
RTVSPost2010Prop40
 90
        0
102
RTVSPost2010PropOp40
 70
     0
102
RTVSPost2010Prop41ColorIndex
 90
       18
102
RTVSPost2010Prop41ColorRGB
 90
        0
102
RTVSPost2010PropOp41
 70
     0
102
RTVSPost2010Prop42
 90
       50
102
RTVSPost2010PropOp42
 70
     0
102
RTVSPost2010Prop43
 90
        3
102
RTVSPost2010PropOp43
 70
     0
102
RTVSPost2010Prop44ColorIndex
 90
        5
102
RTVSPost2010Prop44ColorRGB
 90
      255
102
RTVSPost2010PropOp44
 70
     0
102
RTVSPost2010Prop45
280
     0
102
RTVSPost2010PropOp45
 70
     1
102
RTVSPost2010Prop46
 90
       50
102
RTVSPost2010PropOp46
 70
     0
102
RTVSPost2010Prop47
 90
       50
102
RTVSPost2010PropOp47
 70
     0
102
RTVSPost2010Prop48
 90
       50
102
RTVSPost2010PropOp48
 70
     0
102
RTVSPost2010Prop49
280
     0
102
RTVSPost2010PropOp49
 70
     1
102
RTVSPost2010Prop50
 90
       50
102
RTVSPost2010PropOp50
 70
     0
102
RTVSPost2010Prop51ColorIndex
 90
      256
102
RTVSPost2010Prop51ColorRGB
 90
-16777216
102
RTVSPost2010PropOp51
 70
     0
102
RTVSPost2010Prop52
140
1.0
102
RTVSPost2010PropOp52
 70
     0
102
RTVSPost2010Prop53
 90
        2
102
RTVSPost2010PropOp53
 70
     0
102
RTVSPost2010Prop54
  1
strokes_ogs.tif
102
RTVSPost2010PropOp54
 70
     0
102
RTVSPost2010Prop55
280
     0
102
RTVSPost2010PropOp55
 70
     1
102
RTVSPost2010Prop56
140
1.0
102
RTVSPost2010PropOp56
 70
     0
102
RTVSPost2010Prop57
140
1.0
102
RTVSPost2010PropOp57
 70
     0
  0
XRECORD
  5
4D4
102
{ACAD_REACTORS
330
4D3
102
}
330
4D3
100
AcDbXrecord
280
     1
102
RTVSPost2010Prop28
280
     0
102
RTVSPost2010PropOp28
 70
     1
102
RTVSPost2010Prop29
280
     1
102
RTVSPost2010PropOp29
 70
     1
102
RTVSPost2010Prop30
280
     1
102
RTVSPost2010PropOp30
 70
     1
102
RTVSPost2010Prop31
280
     0
102
RTVSPost2010PropOp31
 70
     1
102
RTVSPost2010Prop32
280
     0
102
RTVSPost2010PropOp32
 70
     1
102
RTVSPost2010Prop33
280
     0
102
RTVSPost2010PropOp33
 70
     1
102
RTVSPost2010Prop34
280
     0
102
RTVSPost2010PropOp34
 70
     1
102
RTVSPost2010Prop35
280
     0
102
RTVSPost2010PropOp35
 70
     1
102
RTVSPost2010Prop36
280
     0
102
RTVSPost2010PropOp36
 70
     1
102
RTVSPost2010Prop37
 90
       50
102
RTVSPost2010PropOp37
 70
     1
102
RTVSPost2010Prop38
140
0.0
102
RTVSPost2010PropOp38
 70
     1
102
RTVSPost2010Prop39
140
1.0
102
RTVSPost2010PropOp39
 70
     1
102
RTVSPost2010Prop40
 90
        0
102
RTVSPost2010PropOp40
 70
     1
102
RTVSPost2010Prop41ColorIndex
 90
       18
102
RTVSPost2010Prop41ColorRGB
 90
        0
102
RTVSPost2010PropOp41
 70
     1
102
RTVSPost2010Prop42
 90
       50
102
RTVSPost2010PropOp42
 70
     1
102
RTVSPost2010Prop43
 90
        3
102
RTVSPost2010PropOp43
 70
     1
102
RTVSPost2010Prop44ColorIndex
 90
        5
102
RTVSPost2010Prop44ColorRGB
 90
      255
102
RTVSPost2010PropOp44
 70
     1
102
RTVSPost2010Prop45
280
     0
102
RTVSPost2010PropOp45
 70
     1
102
RTVSPost2010Prop46
 90
       50
102
RTVSPost2010PropOp46
 70
     1
102
RTVSPost2010Prop47
 90
       50
102
RTVSPost2010PropOp47
 70
     1
102
RTVSPost2010Prop48
 90
       50
102
RTVSPost2010PropOp48
 70
     1
102
RTVSPost2010Prop49
280
     0
102
RTVSPost2010PropOp49
 70
     1
102
RTVSPost2010Prop50
 90
       50
102
RTVSPost2010PropOp50
 70
     1
102
RTVSPost2010Prop51ColorIndex
 90
      256
102
RTVSPost2010Prop51ColorRGB
 90
-16777216
102
RTVSPost2010PropOp51
 70
     0
102
RTVSPost2010Prop52
140
1.0
102
RTVSPost2010PropOp52
 70
     0
102
RTVSPost2010Prop53
 90
        2
102
RTVSPost2010PropOp53
 70
     1
102
RTVSPost2010Prop54
  1
strokes_ogs.tif
102
RTVSPost2010PropOp54
 70
     1
102
RTVSPost2010Prop55
280
     0
102
RTVSPost2010PropOp55
 70
     1
102
RTVSPost2010Prop56
140
1.0
102
RTVSPost2010PropOp56
 70
     1
102
RTVSPost2010Prop57
140
1.0
102
RTVSPost2010PropOp57
 70
     1
  0
XRECORD
  5
4EA
102
{ACAD_REACTORS
330
4E9
102
}
330
4E9
100
AcDbXrecord
280
     1
102
RTVSPost2010Prop28
280
     0
102
RTVSPost2010PropOp28
 70
     1
102
RTVSPost2010Prop29
280
     1
102
RTVSPost2010PropOp29
 70
     1
102
RTVSPost2010Prop30
280
     1
102
RTVSPost2010PropOp30
 70
     1
102
RTVSPost2010Prop31
280
     0
102
RTVSPost2010PropOp31
 70
     1
102
RTVSPost2010Prop32
280
     0
102
RTVSPost2010PropOp32
 70
     1
102
RTVSPost2010Prop33
280
     0
102
RTVSPost2010PropOp33
 70
     1
102
RTVSPost2010Prop34
280
     0
102
RTVSPost2010PropOp34
 70
     1
102
RTVSPost2010Prop35
280
     0
102
RTVSPost2010PropOp35
 70
     1
102
RTVSPost2010Prop36
280
     0
102
RTVSPost2010PropOp36
 70
     1
102
RTVSPost2010Prop37
 90
       50
102
RTVSPost2010PropOp37
 70
     1
102
RTVSPost2010Prop38
140
0.0
102
RTVSPost2010PropOp38
 70
     1
102
RTVSPost2010Prop39
140
1.0
102
RTVSPost2010PropOp39
 70
     1
102
RTVSPost2010Prop40
 90
        0
102
RTVSPost2010PropOp40
 70
     1
102
RTVSPost2010Prop41ColorIndex
 90
       18
102
RTVSPost2010Prop41ColorRGB
 90
        0
102
RTVSPost2010PropOp41
 70
     1
102
RTVSPost2010Prop42
 90
       50
102
RTVSPost2010PropOp42
 70
     1
102
RTVSPost2010Prop43
 90
        3
102
RTVSPost2010PropOp43
 70
     1
102
RTVSPost2010Prop44ColorIndex
 90
        5
102
RTVSPost2010Prop44ColorRGB
 90
      255
102
RTVSPost2010PropOp44
 70
     1
102
RTVSPost2010Prop45
280
     0
102
RTVSPost2010PropOp45
 70
     1
102
RTVSPost2010Prop46
 90
       50
102
RTVSPost2010PropOp46
 70
     1
102
RTVSPost2010Prop47
 90
       50
102
RTVSPost2010PropOp47
 70
     1
102
RTVSPost2010Prop48
 90
       50
102
RTVSPost2010PropOp48
 70
     1
102
RTVSPost2010Prop49
280
     0
102
RTVSPost2010PropOp49
 70
     1
102
RTVSPost2010Prop50
 90
       50
102
RTVSPost2010PropOp50
 70
     1
102
RTVSPost2010Prop51ColorIndex
 90
      256
102
RTVSPost2010Prop51ColorRGB
 90
-16777216
102
RTVSPost2010PropOp51
 70
     0
102
RTVSPost2010Prop52
140
1.0
102
RTVSPost2010PropOp52
 70
     0
102
RTVSPost2010Prop53
 90
        2
102
RTVSPost2010PropOp53
 70
     1
102
RTVSPost2010Prop54
  1
strokes_ogs.tif
102
RTVSPost2010PropOp54
 70
     1
102
RTVSPost2010Prop55
280
     0
102
RTVSPost2010PropOp55
 70
     1
102
RTVSPost2010Prop56
140
1.0
102
RTVSPost2010PropOp56
 70
     1
102
RTVSPost2010Prop57
140
1.0
102
RTVSPost2010PropOp57
 70
     1
  0
XRECORD
  5
4E8
102
{ACAD_REACTORS
330
4E7
102
}
330
4E7
100
AcDbXrecord
280
     1
102
RTVSPost2010Prop28
280
     0
102
RTVSPost2010PropOp28
 70
     1
102
RTVSPost2010Prop29
280
     1
102
RTVSPost2010PropOp29
 70
     1
102
RTVSPost2010Prop30
280
     1
102
RTVSPost2010PropOp30
 70
     1
102
RTVSPost2010Prop31
280
     0
102
RTVSPost2010PropOp31
 70
     1
102
RTVSPost2010Prop32
280
     0
102
RTVSPost2010PropOp32
 70
     1
102
RTVSPost2010Prop33
280
     0
102
RTVSPost2010PropOp33
 70
     1
102
RTVSPost2010Prop34
280
     0
102
RTVSPost2010PropOp34
 70
     1
102
RTVSPost2010Prop35
280
     0
102
RTVSPost2010PropOp35
 70
     1
102
RTVSPost2010Prop36
280
     0
102
RTVSPost2010PropOp36
 70
     1
102
RTVSPost2010Prop37
 90
       50
102
RTVSPost2010PropOp37
 70
     1
102
RTVSPost2010Prop38
140
0.0
102
RTVSPost2010PropOp38
 70
     1
102
RTVSPost2010Prop39
140
1.0
102
RTVSPost2010PropOp39
 70
     1
102
RTVSPost2010Prop40
 90
        0
102
RTVSPost2010PropOp40
 70
     1
102
RTVSPost2010Prop41ColorIndex
 90
       18
102
RTVSPost2010Prop41ColorRGB
 90
        0
102
RTVSPost2010PropOp41
 70
     1
102
RTVSPost2010Prop42
 90
       50
102
RTVSPost2010PropOp42
 70
     1
102
RTVSPost2010Prop43
 90
        3
102
RTVSPost2010PropOp43
 70
     1
102
RTVSPost2010Prop44ColorIndex
 90
        5
102
RTVSPost2010Prop44ColorRGB
 90
      255
102
RTVSPost2010PropOp44
 70
     1
102
RTVSPost2010Prop45
280
     0
102
RTVSPost2010PropOp45
 70
     1
102
RTVSPost2010Prop46
 90
       50
102
RTVSPost2010PropOp46
 70
     1
102
RTVSPost2010Prop47
 90
       50
102
RTVSPost2010PropOp47
 70
     1
102
RTVSPost2010Prop48
 90
       50
102
RTVSPost2010PropOp48
 70
     1
102
RTVSPost2010Prop49
280
     0
102
RTVSPost2010PropOp49
 70
     1
102
RTVSPost2010Prop50
 90
       50
102
RTVSPost2010PropOp50
 70
     1
102
RTVSPost2010Prop51ColorIndex
 90
      256
102
RTVSPost2010Prop51ColorRGB
 90
-16777216
102
RTVSPost2010PropOp51
 70
     0
102
RTVSPost2010Prop52
140
1.0
102
RTVSPost2010PropOp52
 70
     0
102
RTVSPost2010Prop53
 90
        2
102
RTVSPost2010PropOp53
 70
     1
102
RTVSPost2010Prop54
  1
strokes_ogs.tif
102
RTVSPost2010PropOp54
 70
     1
102
RTVSPost2010Prop55
280
     0
102
RTVSPost2010PropOp55
 70
     1
102
RTVSPost2010Prop56
140
1.0
102
RTVSPost2010PropOp56
 70
     1
102
RTVSPost2010Prop57
140
1.0
102
RTVSPost2010PropOp57
 70
     1
  0
XRECORD
  5
4E2
102
{ACAD_REACTORS
330
4E1
102
}
330
4E1
100
AcDbXrecord
280
     1
102
RTVSPost2010Prop28
280
     0
102
RTVSPost2010PropOp28
 70
     1
102
RTVSPost2010Prop29
280
     1
102
RTVSPost2010PropOp29
 70
     1
102
RTVSPost2010Prop30
280
     1
102
RTVSPost2010PropOp30
 70
     1
102
RTVSPost2010Prop31
280
     0
102
RTVSPost2010PropOp31
 70
     1
102
RTVSPost2010Prop32
280
     0
102
RTVSPost2010PropOp32
 70
     1
102
RTVSPost2010Prop33
280
     0
102
RTVSPost2010PropOp33
 70
     1
102
RTVSPost2010Prop34
280
     0
102
RTVSPost2010PropOp34
 70
     1
102
RTVSPost2010Prop35
280
     0
102
RTVSPost2010PropOp35
 70
     1
102
RTVSPost2010Prop36
280
     0
102
RTVSPost2010PropOp36
 70
     1
102
RTVSPost2010Prop37
 90
       50
102
RTVSPost2010PropOp37
 70
     1
102
RTVSPost2010Prop38
140
0.0
102
RTVSPost2010PropOp38
 70
     1
102
RTVSPost2010Prop39
140
1.0
102
RTVSPost2010PropOp39
 70
     1
102
RTVSPost2010Prop40
 90
        0
102
RTVSPost2010PropOp40
 70
     1
102
RTVSPost2010Prop41ColorIndex
 90
       18
102
RTVSPost2010Prop41ColorRGB
 90
        0
102
RTVSPost2010PropOp41
 70
     1
102
RTVSPost2010Prop42
 90
       50
102
RTVSPost2010PropOp42
 70
     1
102
RTVSPost2010Prop43
 90
        3
102
RTVSPost2010PropOp43
 70
     1
102
RTVSPost2010Prop44ColorIndex
 90
        5
102
RTVSPost2010Prop44ColorRGB
 90
      255
102
RTVSPost2010PropOp44
 70
     1
102
RTVSPost2010Prop45
280
     0
102
RTVSPost2010PropOp45
 70
     1
102
RTVSPost2010Prop46
 90
       50
102
RTVSPost2010PropOp46
 70
     1
102
RTVSPost2010Prop47
 90
       50
102
RTVSPost2010PropOp47
 70
     1
102
RTVSPost2010Prop48
 90
       50
102
RTVSPost2010PropOp48
 70
     1
102
RTVSPost2010Prop49
280
     0
102
RTVSPost2010PropOp49
 70
     1
102
RTVSPost2010Prop50
 90
       50
102
RTVSPost2010PropOp50
 70
     1
102
RTVSPost2010Prop51ColorIndex
 90
      256
102
RTVSPost2010Prop51ColorRGB
 90
-16777216
102
RTVSPost2010PropOp51
 70
     0
102
RTVSPost2010Prop52
140
1.0
102
RTVSPost2010PropOp52
 70
     0
102
RTVSPost2010Prop53
 90
        2
102
RTVSPost2010PropOp53
 70
     1
102
RTVSPost2010Prop54
  1
strokes_ogs.tif
102
RTVSPost2010PropOp54
 70
     1
102
RTVSPost2010Prop55
280
     0
102
RTVSPost2010PropOp55
 70
     1
102
RTVSPost2010Prop56
140
1.0
102
RTVSPost2010PropOp56
 70
     1
102
RTVSPost2010Prop57
140
1.0
102
RTVSPost2010PropOp57
 70
     1
  0
XRECORD
  5
4E4
102
{ACAD_REACTORS
330
4E3
102
}
330
4E3
100
AcDbXrecord
280
     1
102
RTVSPost2010Prop28
280
     0
102
RTVSPost2010PropOp28
 70
     1
102
RTVSPost2010Prop29
280
     1
102
RTVSPost2010PropOp29
 70
     1
102
RTVSPost2010Prop30
280
     1
102
RTVSPost2010PropOp30
 70
     1
102
RTVSPost2010Prop31
280
     0
102
RTVSPost2010PropOp31
 70
     1
102
RTVSPost2010Prop32
280
     0
102
RTVSPost2010PropOp32
 70
     1
102
RTVSPost2010Prop33
280
     0
102
RTVSPost2010PropOp33
 70
     1
102
RTVSPost2010Prop34
280
     0
102
RTVSPost2010PropOp34
 70
     1
102
RTVSPost2010Prop35
280
     0
102
RTVSPost2010PropOp35
 70
     1
102
RTVSPost2010Prop36
280
     0
102
RTVSPost2010PropOp36
 70
     1
102
RTVSPost2010Prop37
 90
       50
102
RTVSPost2010PropOp37
 70
     1
102
RTVSPost2010Prop38
140
0.0
102
RTVSPost2010PropOp38
 70
     1
102
RTVSPost2010Prop39
140
1.0
102
RTVSPost2010PropOp39
 70
     1
102
RTVSPost2010Prop40
 90
        0
102
RTVSPost2010PropOp40
 70
     1
102
RTVSPost2010Prop41ColorIndex
 90
       18
102
RTVSPost2010Prop41ColorRGB
 90
        0
102
RTVSPost2010PropOp41
 70
     1
102
RTVSPost2010Prop42
 90
       50
102
RTVSPost2010PropOp42
 70
     1
102
RTVSPost2010Prop43
 90
        3
102
RTVSPost2010PropOp43
 70
     1
102
RTVSPost2010Prop44ColorIndex
 90
        5
102
RTVSPost2010Prop44ColorRGB
 90
      255
102
RTVSPost2010PropOp44
 70
     1
102
RTVSPost2010Prop45
280
     0
102
RTVSPost2010PropOp45
 70
     1
102
RTVSPost2010Prop46
 90
       50
102
RTVSPost2010PropOp46
 70
     1
102
RTVSPost2010Prop47
 90
       50
102
RTVSPost2010PropOp47
 70
     1
102
RTVSPost2010Prop48
 90
       50
102
RTVSPost2010PropOp48
 70
     1
102
RTVSPost2010Prop49
280
     0
102
RTVSPost2010PropOp49
 70
     1
102
RTVSPost2010Prop50
 90
       50
102
RTVSPost2010PropOp50
 70
     1
102
RTVSPost2010Prop51ColorIndex
 90
      256
102
RTVSPost2010Prop51ColorRGB
 90
-16777216
102
RTVSPost2010PropOp51
 70
     0
102
RTVSPost2010Prop52
140
1.0
102
RTVSPost2010PropOp52
 70
     0
102
RTVSPost2010Prop53
 90
        2
102
RTVSPost2010PropOp53
 70
     1
102
RTVSPost2010Prop54
  1
strokes_ogs.tif
102
RTVSPost2010PropOp54
 70
     1
102
RTVSPost2010Prop55
280
     0
102
RTVSPost2010PropOp55
 70
     1
102
RTVSPost2010Prop56
140
1.0
102
RTVSPost2010PropOp56
 70
     1
102
RTVSPost2010Prop57
140
1.0
102
RTVSPost2010PropOp57
 70
     1
  0
XRECORD
  5
4DA
102
{ACAD_REACTORS
330
4D9
102
}
330
4D9
100
AcDbXrecord
280
     1
102
RTVSPost2010Prop28
280
     0
102
RTVSPost2010PropOp28
 70
     1
102
RTVSPost2010Prop29
280
     1
102
RTVSPost2010PropOp29
 70
     1
102
RTVSPost2010Prop30
280
     1
102
RTVSPost2010PropOp30
 70
     1
102
RTVSPost2010Prop31
280
     0
102
RTVSPost2010PropOp31
 70
     1
102
RTVSPost2010Prop32
280
     0
102
RTVSPost2010PropOp32
 70
     1
102
RTVSPost2010Prop33
280
     0
102
RTVSPost2010PropOp33
 70
     1
102
RTVSPost2010Prop34
280
     0
102
RTVSPost2010PropOp34
 70
     1
102
RTVSPost2010Prop35
280
     0
102
RTVSPost2010PropOp35
 70
     1
102
RTVSPost2010Prop36
280
     0
102
RTVSPost2010PropOp36
 70
     1
102
RTVSPost2010Prop37
 90
       50
102
RTVSPost2010PropOp37
 70
     1
102
RTVSPost2010Prop38
140
0.0
102
RTVSPost2010PropOp38
 70
     1
102
RTVSPost2010Prop39
140
1.0
102
RTVSPost2010PropOp39
 70
     1
102
RTVSPost2010Prop40
 90
        0
102
RTVSPost2010PropOp40
 70
     1
102
RTVSPost2010Prop41ColorIndex
 90
       18
102
RTVSPost2010Prop41ColorRGB
 90
        0
102
RTVSPost2010PropOp41
 70
     1
102
RTVSPost2010Prop42
 90
       50
102
RTVSPost2010PropOp42
 70
     1
102
RTVSPost2010Prop43
 90
        3
102
RTVSPost2010PropOp43
 70
     1
102
RTVSPost2010Prop44ColorIndex
 90
        5
102
RTVSPost2010Prop44ColorRGB
 90
      255
102
RTVSPost2010PropOp44
 70
     1
102
RTVSPost2010Prop45
280
     0
102
RTVSPost2010PropOp45
 70
     1
102
RTVSPost2010Prop46
 90
       50
102
RTVSPost2010PropOp46
 70
     1
102
RTVSPost2010Prop47
 90
       50
102
RTVSPost2010PropOp47
 70
     1
102
RTVSPost2010Prop48
 90
       50
102
RTVSPost2010PropOp48
 70
     1
102
RTVSPost2010Prop49
280
     0
102
RTVSPost2010PropOp49
 70
     1
102
RTVSPost2010Prop50
 90
       50
102
RTVSPost2010PropOp50
 70
     1
102
RTVSPost2010Prop51ColorIndex
 90
      256
102
RTVSPost2010Prop51ColorRGB
 90
-16777216
102
RTVSPost2010PropOp51
 70
     0
102
RTVSPost2010Prop52
140
1.0
102
RTVSPost2010PropOp52
 70
     0
102
RTVSPost2010Prop53
 90
        2
102
RTVSPost2010PropOp53
 70
     1
102
RTVSPost2010Prop54
  1
strokes_ogs.tif
102
RTVSPost2010PropOp54
 70
     1
102
RTVSPost2010Prop55
280
     0
102
RTVSPost2010PropOp55
 70
     1
102
RTVSPost2010Prop56
140
1.0
102
RTVSPost2010PropOp56
 70
     1
102
RTVSPost2010Prop57
140
1.0
102
RTVSPost2010PropOp57
 70
     1
  0
XRECORD
  5
4CE
102
{ACAD_REACTORS
330
4CD
102
}
330
4CD
100
AcDbXrecord
280
     1
102
RTVSPost2010Prop28
280
     0
102
RTVSPost2010PropOp28
 70
     1
102
RTVSPost2010Prop29
280
     1
102
RTVSPost2010PropOp29
 70
     1
102
RTVSPost2010Prop30
280
     1
102
RTVSPost2010PropOp30
 70
     1
102
RTVSPost2010Prop31
280
     0
102
RTVSPost2010PropOp31
 70
     1
102
RTVSPost2010Prop32
280
     0
102
RTVSPost2010PropOp32
 70
     1
102
RTVSPost2010Prop33
280
     0
102
RTVSPost2010PropOp33
 70
     1
102
RTVSPost2010Prop34
280
     0
102
RTVSPost2010PropOp34
 70
     1
102
RTVSPost2010Prop35
280
     0
102
RTVSPost2010PropOp35
 70
     1
102
RTVSPost2010Prop36
280
     0
102
RTVSPost2010PropOp36
 70
     1
102
RTVSPost2010Prop37
 90
       50
102
RTVSPost2010PropOp37
 70
     1
102
RTVSPost2010Prop38
140
0.0
102
RTVSPost2010PropOp38
 70
     1
102
RTVSPost2010Prop39
140
1.0
102
RTVSPost2010PropOp39
 70
     1
102
RTVSPost2010Prop40
 90
        0
102
RTVSPost2010PropOp40
 70
     1
102
RTVSPost2010Prop41ColorIndex
 90
       18
102
RTVSPost2010Prop41ColorRGB
 90
        0
102
RTVSPost2010PropOp41
 70
     1
102
RTVSPost2010Prop42
 90
       50
102
RTVSPost2010PropOp42
 70
     1
102
RTVSPost2010Prop43
 90
        3
102
RTVSPost2010PropOp43
 70
     1
102
RTVSPost2010Prop44ColorIndex
 90
        5
102
RTVSPost2010Prop44ColorRGB
 90
      255
102
RTVSPost2010PropOp44
 70
     1
102
RTVSPost2010Prop45
280
     0
102
RTVSPost2010PropOp45
 70
     1
102
RTVSPost2010Prop46
 90
       50
102
RTVSPost2010PropOp46
 70
     1
102
RTVSPost2010Prop47
 90
       50
102
RTVSPost2010PropOp47
 70
     1
102
RTVSPost2010Prop48
 90
       50
102
RTVSPost2010PropOp48
 70
     1
102
RTVSPost2010Prop49
280
     0
102
RTVSPost2010PropOp49
 70
     1
102
RTVSPost2010Prop50
 90
       50
102
RTVSPost2010PropOp50
 70
     1
102
RTVSPost2010Prop51ColorIndex
 90
      256
102
RTVSPost2010Prop51ColorRGB
 90
-16777216
102
RTVSPost2010PropOp51
 70
     0
102
RTVSPost2010Prop52
140
1.0
102
RTVSPost2010PropOp52
 70
     0
102
RTVSPost2010Prop53
 90
        2
102
RTVSPost2010PropOp53
 70
     1
102
RTVSPost2010Prop54
  1
strokes_ogs.tif
102
RTVSPost2010PropOp54
 70
     1
102
RTVSPost2010Prop55
280
     0
102
RTVSPost2010PropOp55
 70
     1
102
RTVSPost2010Prop56
140
1.0
102
RTVSPost2010PropOp56
 70
     1
102
RTVSPost2010Prop57
140
1.0
102
RTVSPost2010PropOp57
 70
     1
  0
XRECORD
  5
4E6
102
{ACAD_REACTORS
330
4E5
102
}
330
4E5
100
AcDbXrecord
280
     1
102
RTVSPost2010Prop28
280
     0
102
RTVSPost2010PropOp28
 70
     1
102
RTVSPost2010Prop29
280
     1
102
RTVSPost2010PropOp29
 70
     1
102
RTVSPost2010Prop30
280
     1
102
RTVSPost2010PropOp30
 70
     1
102
RTVSPost2010Prop31
280
     0
102
RTVSPost2010PropOp31
 70
     1
102
RTVSPost2010Prop32
280
     0
102
RTVSPost2010PropOp32
 70
     1
102
RTVSPost2010Prop33
280
     0
102
RTVSPost2010PropOp33
 70
     1
102
RTVSPost2010Prop34
280
     0
102
RTVSPost2010PropOp34
 70
     1
102
RTVSPost2010Prop35
280
     0
102
RTVSPost2010PropOp35
 70
     1
102
RTVSPost2010Prop36
280
     0
102
RTVSPost2010PropOp36
 70
     1
102
RTVSPost2010Prop37
 90
       50
102
RTVSPost2010PropOp37
 70
     1
102
RTVSPost2010Prop38
140
0.0
102
RTVSPost2010PropOp38
 70
     1
102
RTVSPost2010Prop39
140
1.0
102
RTVSPost2010PropOp39
 70
     1
102
RTVSPost2010Prop40
 90
        0
102
RTVSPost2010PropOp40
 70
     1
102
RTVSPost2010Prop41ColorIndex
 90
       18
102
RTVSPost2010Prop41ColorRGB
 90
        0
102
RTVSPost2010PropOp41
 70
     1
102
RTVSPost2010Prop42
 90
       50
102
RTVSPost2010PropOp42
 70
     1
102
RTVSPost2010Prop43
 90
        3
102
RTVSPost2010PropOp43
 70
     1
102
RTVSPost2010Prop44ColorIndex
 90
        5
102
RTVSPost2010Prop44ColorRGB
 90
      255
102
RTVSPost2010PropOp44
 70
     1
102
RTVSPost2010Prop45
280
     0
102
RTVSPost2010PropOp45
 70
     1
102
RTVSPost2010Prop46
 90
       50
102
RTVSPost2010PropOp46
 70
     1
102
RTVSPost2010Prop47
 90
       50
102
RTVSPost2010PropOp47
 70
     1
102
RTVSPost2010Prop48
 90
       50
102
RTVSPost2010PropOp48
 70
     1
102
RTVSPost2010Prop49
280
     0
102
RTVSPost2010PropOp49
 70
     1
102
RTVSPost2010Prop50
 90
       50
102
RTVSPost2010PropOp50
 70
     1
102
RTVSPost2010Prop51ColorIndex
 90
      256
102
RTVSPost2010Prop51ColorRGB
 90
-16777216
102
RTVSPost2010PropOp51
 70
     0
102
RTVSPost2010Prop52
140
1.0
102
RTVSPost2010PropOp52
 70
     0
102
RTVSPost2010Prop53
 90
        2
102
RTVSPost2010PropOp53
 70
     1
102
RTVSPost2010Prop54
  1
strokes_ogs.tif
102
RTVSPost2010PropOp54
 70
     1
102
RTVSPost2010Prop55
280
     0
102
RTVSPost2010PropOp55
 70
     1
102
RTVSPost2010Prop56
140
1.0
102
RTVSPost2010PropOp56
 70
     1
102
RTVSPost2010Prop57
140
1.0
102
RTVSPost2010PropOp57
 70
     1
  0
ENDSEC
  0
EOF
