  0
SECTION
  2
HEADER
  9
$ACADVER
  1
AC1027
  9
$ACADMAINTVER
 70
   125
  9
$DWGCODEPAGE
  3
ANSI_1252
  9
$LASTSAVEDBY
  1
kaschu
  9
$REQUIREDVERSIONS
160
                 0
  9
$INSBASE
 10
0.0
 20
0.0
 30
0.0
  9
$EXTMIN
 10
285.7023237558591
 20
-38.34159487444328
 30
-0.0000000000000249
  9
$EXTMAX
 10
4634.641575793249
 20
2558.767175881079
 30
0.0000000000001715
  9
$LIMMIN
 10
0.0
 20
0.0
  9
$LIMMAX
 10
420.0
 20
297.0
  9
$ORTHOMODE
 70
     1
  9
$REGENMODE
 70
     1
  9
$FILLMODE
 70
     1
  9
$QTEXTMODE
 70
     0
  9
$MIRRTEXT
 70
     0
  9
$LTSCALE
 40
1.0
  9
$ATTMODE
 70
     1
  9
$TEXTSIZE
 40
2.5
  9
$TRACEWID
 40
1.0
  9
$TEXTSTYLE
  7
STANDARD
  9
$CLAYER
  8
0
  9
$CELTYPE
  6
BYLAYER
  9
$CECOLOR
 62
   256
  9
$CELTSCALE
 40
1.0
  9
$DISPSILH
 70
     0
  9
$DIMSCALE
 40
1.0
  9
$DIMASZ
 40
2.5
  9
$DIMEXO
 40
0.625
  9
$DIMDLI
 40
3.75
  9
$DIMRND
 40
0.0
  9
$DIMDLE
 40
0.0
  9
$DIMEXE
 40
1.25
  9
$DIMTP
 40
0.0
  9
$DIMTM
 40
0.0
  9
$DIMTXT
 40
2.5
  9
$DIMCEN
 40
2.5
  9
$DIMTSZ
 40
0.0
  9
$DIMTOL
 70
     0
  9
$DIMLIM
 70
     0
  9
$DIMTIH
 70
     0
  9
$DIMTOH
 70
     0
  9
$DIMSE1
 70
     0
  9
$DIMSE2
 70
     0
  9
$DIMTAD
 70
     1
  9
$DIMZIN
 70
     8
  9
$DIMBLK
  1

  9
$DIMASO
 70
     1
  9
$DIMSHO
 70
     1
  9
$DIMPOST
  1

  9
$DIMAPOST
  1

  9
$DIMALT
 70
     0
  9
$DIMALTD
 70
     3
  9
$DIMALTF
 40
0.03937007874016
  9
$DIMLFAC
 40
1.0
  9
$DIMTOFL
 70
     1
  9
$DIMTVP
 40
0.0
  9
$DIMTIX
 70
     0
  9
$DIMSOXD
 70
     0
  9
$DIMSAH
 70
     0
  9
$DIMBLK1
  1

  9
$DIMBLK2
  1

  9
$DIMSTYLE
  2
ISO-25
  9
$DIMCLRD
 70
     0
  9
$DIMCLRE
 70
     0
  9
$DIMCLRT
 70
     0
  9
$DIMTFAC
 40
1.0
  9
$DIMGAP
 40
0.625
  9
$DIMJUST
 70
     0
  9
$DIMSD1
 70
     0
  9
$DIMSD2
 70
     0
  9
$DIMTOLJ
 70
     0
  9
$DIMTZIN
 70
     8
  9
$DIMALTZ
 70
     0
  9
$DIMALTTZ
 70
     0
  9
$DIMUPT
 70
     0
  9
$DIMDEC
 70
     2
  9
$DIMTDEC
 70
     2
  9
$DIMALTU
 70
     2
  9
$DIMALTTD
 70
     3
  9
$DIMTXSTY
  7
STANDARD
  9
$DIMAUNIT
 70
     0
  9
$DIMADEC
 70
     0
  9
$DIMALTRND
 40
0.0
  9
$DIMAZIN
 70
     0
  9
$DIMDSEP
 70
    44
  9
$DIMATFIT
 70
     3
  9
$DIMFRAC
 70
     0
  9
$DIMLDRBLK
  1

  9
$DIMLUNIT
 70
     2
  9
$DIMLWD
 70
    -2
  9
$DIMLWE
 70
    -2
  9
$DIMTMOVE
 70
     0
  9
$DIMFXL
 40
1.0
  9
$DIMFXLON
 70
     0
  9
$DIMJOGANG
 40
0.7853981633974483
  9
$DIMTFILL
 70
     0
  9
$DIMTFILLCLR
 70
     0
  9
$DIMARCSYM
 70
     0
  9
$DIMLTYPE
  6

  9
$DIMLTEX1
  6

  9
$DIMLTEX2
  6

  9
$DIMTXTDIRECTION
 70
     0
  9
$LUNITS
 70
     2
  9
$LUPREC
 70
     4
  9
$SKETCHINC
 40
1.0
  9
$FILLETRAD
 40
10.0
  9
$AUNITS
 70
     0
  9
$AUPREC
 70
     0
  9
$MENU
  1
.
  9
$ELEVATION
 40
0.0
  9
$PELEVATION
 40
0.0
  9
$THICKNESS
 40
0.0
  9
$LIMCHECK
 70
     0
  9
$CHAMFERA
 40
10.0
  9
$CHAMFERB
 40
10.0
  9
$CHAMFERC
 40
20.0
  9
$CHAMFERD
 40
0.0
  9
$SKPOLY
 70
     0
  9
$TDCREATE
 40
2453445.475196759
  9
$TDUCREATE
 40
2453445.433536945
  9
$TDUPDATE
 40
2459089.480312500
  9
$TDUUPDATE
 40
2459089.396979167
  9
$TDINDWG
 40
0.0095791551
  9
$TDUSRTIMER
 40
0.0095789815
  9
$USRTIMER
 70
     1
  9
$ANGBASE
 50
0.0
  9
$ANGDIR
 70
     0
  9
$PDMODE
 70
     0
  9
$PDSIZE
 40
0.0
  9
$PLINEWID
 40
0.0
  9
$SPLFRAME
 70
     0
  9
$SPLINETYPE
 70
     6
  9
$SPLINESEGS
 70
     8
  9
$HANDSEED
  5
F8E
  9
$SURFTAB1
 70
     6
  9
$SURFTAB2
 70
     6
  9
$SURFTYPE
 70
     6
  9
$SURFU
 70
     6
  9
$SURFV
 70
     6
  9
$UCSBASE
  2

  9
$UCSNAME
  2

  9
$UCSORG
 10
0.0
 20
0.0
 30
0.0
  9
$UCSXDIR
 10
1.0
 20
0.0
 30
0.0
  9
$UCSYDIR
 10
0.0
 20
1.0
 30
0.0
  9
$UCSORTHOREF
  2

  9
$UCSORTHOVIEW
 70
     0
  9
$UCSORGTOP
 10
0.0
 20
0.0
 30
0.0
  9
$UCSORGBOTTOM
 10
0.0
 20
0.0
 30
0.0
  9
$UCSORGLEFT
 10
0.0
 20
0.0
 30
0.0
  9
$UCSORGRIGHT
 10
0.0
 20
0.0
 30
0.0
  9
$UCSORGFRONT
 10
0.0
 20
0.0
 30
0.0
  9
$UCSORGBACK
 10
0.0
 20
0.0
 30
0.0
  9
$PUCSBASE
  2

  9
$PUCSNAME
  2

  9
$PUCSORG
 10
0.0
 20
0.0
 30
0.0
  9
$PUCSXDIR
 10
1.0
 20
0.0
 30
0.0
  9
$PUCSYDIR
 10
0.0
 20
1.0
 30
0.0
  9
$PUCSORTHOREF
  2

  9
$PUCSORTHOVIEW
 70
     0
  9
$PUCSORGTOP
 10
0.0
 20
0.0
 30
0.0
  9
$PUCSORGBOTTOM
 10
0.0
 20
0.0
 30
0.0
  9
$PUCSORGLEFT
 10
0.0
 20
0.0
 30
0.0
  9
$PUCSORGRIGHT
 10
0.0
 20
0.0
 30
0.0
  9
$PUCSORGFRONT
 10
0.0
 20
0.0
 30
0.0
  9
$PUCSORGBACK
 10
0.0
 20
0.0
 30
0.0
  9
$USERI1
 70
     0
  9
$USERI2
 70
     0
  9
$USERI3
 70
     0
  9
$USERI4
 70
     0
  9
$USERI5
 70
     0
  9
$USERR1
 40
0.0
  9
$USERR2
 40
0.0
  9
$USERR3
 40
0.0
  9
$USERR4
 40
0.0
  9
$USERR5
 40
0.0
  9
$WORLDVIEW
 70
     1
  9
$SHADEDGE
 70
     3
  9
$SHADEDIF
 70
    70
  9
$TILEMODE
 70
     1
  9
$MAXACTVP
 70
    64
  9
$PINSBASE
 10
0.0
 20
0.0
 30
0.0
  9
$PLIMCHECK
 70
     0
  9
$PEXTMIN
 10
0.0
 20
0.0
 30
0.0
  9
$PEXTMAX
 10
0.0
 20
0.0
 30
0.0
  9
$PLIMMIN
 10
0.0
 20
0.0
  9
$PLIMMAX
 10
12.0
 20
9.0
  9
$UNITMODE
 70
     0
  9
$VISRETAIN
 70
     1
  9
$PLINEGEN
 70
     0
  9
$PSLTSCALE
 70
     1
  9
$TREEDEPTH
 70
  3020
  9
$CMLSTYLE
  2
STANDARD
  9
$CMLJUST
 70
     0
  9
$CMLSCALE
 40
20.0
  9
$PROXYGRAPHICS
 70
     1
  9
$MEASUREMENT
 70
     1
  9
$CELWEIGHT
370
    -1
  9
$ENDCAPS
280
     0
  9
$JOINSTYLE
280
     0
  9
$LWDISPLAY
290
     0
  9
$INSUNITS
 70
     4
  9
$HYPERLINKBASE
  1

  9
$STYLESHEET
  1

  9
$XEDIT
290
     1
  9
$CEPSNTYPE
380
     0
  9
$PSTYLEMODE
290
     1
  9
$FINGERPRINTGUID
  2
{FDEAD578-A652-11D2-9A35-0060089B3A3F}
  9
$VERSIONGUID
  2
{21DD9FBE-472D-4248-8CAE-4E5A3F003F21}
  9
$EXTNAMES
290
     1
  9
$PSVPSCALE
 40
0.0
  9
$OLESTARTUP
290
     0
  9
$SORTENTS
280
   127
  9
$INDEXCTL
280
     0
  9
$HIDETEXT
280
     1
  9
$XCLIPFRAME
280
     2
  9
$HALOGAP
280
     0
  9
$OBSCOLOR
 70
   257
  9
$OBSLTYPE
280
     0
  9
$INTERSECTIONDISPLAY
280
     0
  9
$INTERSECTIONCOLOR
 70
   257
  9
$DIMASSOC
280
     2
  9
$PROJECTNAME
  1

  9
$CAMERADISPLAY
290
     0
  9
$LENSLENGTH
 40
50.0
  9
$CAMERAHEIGHT
 40
0.0
  9
$STEPSPERSEC
 40
2.0
  9
$STEPSIZE
 40
6.0
  9
$3DDWFPREC
 40
2.0
  9
$PSOLWIDTH
 40
0.25
  9
$PSOLHEIGHT
 40
4.0
  9
$LOFTANG1
 40
1.570796326794896
  9
$LOFTANG2
 40
1.570796326794896
  9
$LOFTMAG1
 40
0.0
  9
$LOFTMAG2
 40
0.0
  9
$LOFTPARAM
 70
     7
  9
$LOFTNORMALS
280
     1
  9
$LATITUDE
 40
37.795
  9
$LONGITUDE
 40
-122.394
  9
$NORTHDIRECTION
 40
0.0
  9
$TIMEZONE
 70
 -8000
  9
$LIGHTGLYPHDISPLAY
280
     1
  9
$TILEMODELIGHTSYNCH
280
     1
  9
$CMATERIAL
347
70B
  9
$SOLIDHIST
280
     0
  9
$SHOWHIST
280
     1
  9
$DWFFRAME
280
     2
  9
$DGNFRAME
280
     0
  9
$REALWORLDSCALE
290
     1
  9
$INTERFERECOLOR
 62
     1
  9
$INTERFEREOBJVS
345
72D
  9
$INTERFEREVPVS
346
72A
  9
$CSHADOW
280
     0
  9
$SHADOWPLANELOCATION
 40
0.0
  0
ENDSEC
  0
SECTION
  2
CLASSES
  0
CLASS
  1
ACDBDICTIONARYWDFLT
  2
AcDbDictionaryWithDefault
  3
ObjectDBX Classes
 90
        0
 91
        1
280
     0
281
     0
  0
CLASS
  1
DICTIONARYVAR
  2
AcDbDictionaryVar
  3
ObjectDBX Classes
 90
        0
 91
       12
280
     0
281
     0
  0
CLASS
  1
MATERIAL
  2
AcDbMaterial
  3
ObjectDBX Classes
 90
     1153
 91
        3
280
     0
281
     0
  0
CLASS
  1
VISUALSTYLE
  2
AcDbVisualStyle
  3
ObjectDBX Classes
 90
     4095
 91
       24
280
     0
281
     0
  0
CLASS
  1
TABLESTYLE
  2
AcDbTableStyle
  3
ObjectDBX Classes
 90
     4095
 91
        1
280
     0
281
     0
  0
CLASS
  1
SCALE
  2
AcDbScale
  3
ObjectDBX Classes
 90
     1153
 91
       17
280
     0
281
     0
  0
CLASS
  1
MLEADERSTYLE
  2
AcDbMLeaderStyle
  3
ACDB_MLEADERSTYLE_CLASS
 90
     4095
 91
        1
280
     0
281
     0
  0
CLASS
  1
ACDBSECTIONVIEWSTYLE
  2
AcDbSectionViewStyle
  3
ObjectDBX Classes
 90
     1025
 91
        2
280
     0
281
     0
  0
CLASS
  1
ACDBDETAILVIEWSTYLE
  2
AcDbDetailViewStyle
  3
ObjectDBX Classes
 90
     1025
 91
        2
280
     0
281
     0
  0
CLASS
  1
DIMASSOC
  2
AcDbDimAssoc
  3
"AcDbDimAssoc|Product Desc:     AcDim ARX App For Dimension|Company:          Autodesk, Inc.|WEB Address:      www.autodesk.com"
 90
        0
 91
        2
280
     0
281
     0
  0
CLASS
  1
CELLSTYLEMAP
  2
AcDbCellStyleMap
  3
ObjectDBX Classes
 90
     1152
 91
        3
280
     0
281
     0
  0
CLASS
  1
SORTENTSTABLE
  2
AcDbSortentsTable
  3
ObjectDBX Classes
 90
        0
 91
        2
280
     0
281
     0
  0
ENDSEC
  0
SECTION
  2
TABLES
  0
TABLE
  2
VPORT
  5
8
330
0
100
AcDbSymbolTable
 70
     1
1001
ACAD
1000
DbSaveVer
1071
      224
  0
VPORT
  5
6E1
330
8
100
AcDbSymbolTableRecord
100
AcDbViewportTableRecord
  2
*ACTIVE
 70
     0
 10
0.0
 20
0.0
 11
1.0
 21
1.0
 12
3777.535569620682
 22
750.4815718451334
 13
0.0
 23
0.0
 14
10.0
 24
10.0
 15
10.0
 25
10.0
 16
0.0
 26
0.0
 36
1.0
 17
0.0
 27
0.0
 37
0.0
 40
4091.756555362269
 41
2.305925030229746
 42
50.0
 43
0.0
 44
0.0
 50
0.0
 51
0.0
 71
     0
 72
  1000
 73
     1
 74
     3
 75
     0
 76
     0
 77
     0
 78
     0
281
     0
 65
     1
110
0.0
120
0.0
130
0.0
111
1.0
121
0.0
131
0.0
112
0.0
122
1.0
132
0.0
 79
     0
146
0.0
348
729
 60
     3
 61
     5
292
     1
282
     1
141
0.0
142
0.0
 63
   250
421
  3355443
1001
ACAD_NAV_VCDISPLAY
1070
     3
  0
ENDTAB
  0
TABLE
  2
LTYPE
  5
5
330
0
100
AcDbSymbolTable
 70
     3
  0
LTYPE
  5
14
330
5
100
AcDbSymbolTableRecord
100
AcDbLinetypeTableRecord
  2
BYBLOCK
 70
     0
  3

 72
    65
 73
     0
 40
0.0
  0
LTYPE
  5
15
330
5
100
AcDbSymbolTableRecord
100
AcDbLinetypeTableRecord
  2
BYLAYER
 70
     0
  3

 72
    65
 73
     0
 40
0.0
  0
LTYPE
  5
16
330
5
100
AcDbSymbolTableRecord
100
AcDbLinetypeTableRecord
  2
CONTINUOUS
 70
     0
  3
Solid line
 72
    65
 73
     0
 40
0.0
  0
LTYPE
  5
86
330
5
100
AcDbSymbolTableRecord
100
AcDbLinetypeTableRecord
  2
IMPORT
 70
     0
  3

 72
    65
 73
     0
 40
0.0
  0
LTYPE
  5
87
330
5
100
AcDbSymbolTableRecord
100
AcDbLinetypeTableRecord
  2
STANDARD
 70
     0
  3

 72
    65
 73
     0
 40
0.0
  0
ENDTAB
  0
TABLE
  2
LAYER
  5
2
330
0
100
AcDbSymbolTable
 70
     4
  0
LAYER
  5
10
102
{ACAD_XDICTIONARY
360
7A8
102
}
330
2
100
AcDbSymbolTableRecord
100
AcDbLayerTableRecord
  2
0
 70
     0
 62
     7
  6
CONTINUOUS
370
    -3
390
F
347
71B
348
0
  0
LAYER
  5
88
102
{ACAD_XDICTIONARY
360
7AA
102
}
330
2
100
AcDbSymbolTableRecord
100
AcDbLayerTableRecord
  2
STANDARD
 70
     0
 62
     7
  6
CONTINUOUS
370
    -3
390
F
347
71B
348
0
  0
LAYER
  5
6D4
330
2
100
AcDbSymbolTableRecord
100
AcDbLayerTableRecord
  2
DEFPOINTS
 70
     0
 62
     7
  6
CONTINUOUS
290
     0
370
    -3
390
F
347
71B
348
0
  0
LAYER
  5
7A5
102
{ACAD_XDICTIONARY
360
7AC
102
}
330
2
100
AcDbSymbolTableRecord
100
AcDbLayerTableRecord
  2
HEWI
 70
     0
 62
     7
  6
CONTINUOUS
370
    -3
390
F
347
71B
348
0
1001
AcAecLayerStandard
1000

1000

1001
AcCmTransparency
1071
        0
  0
ENDTAB
  0
TABLE
  2
STYLE
  5
3
330
0
100
AcDbSymbolTable
 70
     1
  0
STYLE
  5
11
330
3
100
AcDbSymbolTableRecord
100
AcDbTextStyleTableRecord
  2
STANDARD
 70
     0
 40
0.0
 41
1.0
 50
0.0
 71
     0
 42
2.5
  3
txt
  4

  0
ENDTAB
  0
TABLE
  2
VIEW
  5
6
330
0
100
AcDbSymbolTable
 70
     0
  0
ENDTAB
  0
TABLE
  2
UCS
  5
7
330
0
100
AcDbSymbolTable
 70
     0
  0
ENDTAB
  0
TABLE
  2
APPID
  5
9
330
0
100
AcDbSymbolTable
 70
     4
  0
APPID
  5
12
330
9
100
AcDbSymbolTableRecord
100
AcDbRegAppTableRecord
  2
ACAD
 70
     0
  0
APPID
  5
7A6
330
9
100
AcDbSymbolTableRecord
100
AcDbRegAppTableRecord
  2
AcAecLayerStandard
 70
     0
  0
APPID
  5
7A7
330
9
100
AcDbSymbolTableRecord
100
AcDbRegAppTableRecord
  2
AcCmTransparency
 70
     0
  0
APPID
  5
7B7
330
9
100
AcDbSymbolTableRecord
100
AcDbRegAppTableRecord
  2
ACAD_NAV_VCDISPLAY
 70
     0
  0
ENDTAB
  0
TABLE
  2
DIMSTYLE
  5
A
330
0
100
AcDbSymbolTable
 70
     2
100
AcDbDimStyleTable
 71
     1
340
27
  0
DIMSTYLE
105
27
330
A
100
AcDbSymbolTableRecord
100
AcDbDimStyleTableRecord
  2
ISO-25
 70
     0
 41
2.5
 42
0.625
 43
3.75
 44
1.25
 73
     0
 74
     0
 77
     1
 78
     8
140
2.5
141
2.5
143
0.03937007874016
147
0.625
171
     3
172
     1
271
     2
272
     2
274
     3
283
     0
284
     8
340
11
  0
DIMSTYLE
105
8A
330
A
100
AcDbSymbolTableRecord
100
AcDbDimStyleTableRecord
  2
STANDARD
 70
     0
340
11
  0
ENDTAB
  0
TABLE
  2
BLOCK_RECORD
  5
1
330
0
100
AcDbSymbolTable
 70
    12
  0
BLOCK_RECORD
  5
1F
102
{ACAD_XDICTIONARY
360
703
102
}
330
1
100
AcDbSymbolTableRecord
100
AcDbBlockTableRecord
  2
*MODEL_SPACE
340
756
 70
     0
280
     1
281
     0
  0
BLOCK_RECORD
  5
50
102
{ACAD_XDICTIONARY
360
705
102
}
330
1
100
AcDbSymbolTableRecord
100
AcDbBlockTableRecord
  2
*PAPER_SPACE
340
757
 70
     0
280
     1
281
     0
  0
BLOCK_RECORD
  5
75E
330
1
100
AcDbSymbolTableRecord
100
AcDbBlockTableRecord
  2
*D0
340
0
 70
     0
280
     1
281
     0
  0
BLOCK_RECORD
  5
776
330
1
100
AcDbSymbolTableRecord
100
AcDbBlockTableRecord
  2
*D1
340
0
 70
     0
280
     1
281
     0
  0
BLOCK_RECORD
  5
78E
330
1
100
AcDbSymbolTableRecord
100
AcDbBlockTableRecord
  2
*D2
340
0
 70
     0
280
     1
281
     0
  0
BLOCK_RECORD
  5
B8C
330
1
100
AcDbSymbolTableRecord
100
AcDbBlockTableRecord
  2
*D3
340
0
 70
     0
280
     1
281
     0
  0
BLOCK_RECORD
  5
BAF
330
1
100
AcDbSymbolTableRecord
100
AcDbBlockTableRecord
  2
*D4
340
0
 70
     0
280
     1
281
     0
  0
BLOCK_RECORD
  5
BC7
330
1
100
AcDbSymbolTableRecord
100
AcDbBlockTableRecord
  2
*D5
340
0
 70
     0
280
     1
281
     0
  0
BLOCK_RECORD
  5
BD4
330
1
100
AcDbSymbolTableRecord
100
AcDbBlockTableRecord
  2
*D6
340
0
 70
     0
280
     1
281
     0
  0
BLOCK_RECORD
  5
BEC
330
1
100
AcDbSymbolTableRecord
100
AcDbBlockTableRecord
  2
*D7
340
0
 70
     0
280
     1
281
     0
  0
BLOCK_RECORD
  5
C52
330
1
100
AcDbSymbolTableRecord
100
AcDbBlockTableRecord
  2
*D8
340
0
 70
     0
280
     1
281
     0
  0
BLOCK_RECORD
  5
F4B
330
1
100
AcDbSymbolTableRecord
100
AcDbBlockTableRecord
  2
*D10
340
0
 70
     0
280
     1
281
     0
  0
BLOCK_RECORD
  5
F63
330
1
100
AcDbSymbolTableRecord
100
AcDbBlockTableRecord
  2
*D11
340
0
 70
     0
280
     1
281
     0
  0
ENDTAB
  0
ENDSEC
  0
SECTION
  2
BLOCKS
  0
BLOCK
  5
20
330
1F
100
AcDbEntity
  8
0
100
AcDbBlockBegin
  2
*MODEL_SPACE
 70
     0
 10
0.0
 20
0.0
 30
0.0
  3
*MODEL_SPACE
  1

  0
ENDBLK
  5
21
330
1F
100
AcDbEntity
  8
0
100
AcDbBlockEnd
  0
BLOCK
  5
52
330
50
100
AcDbEntity
 67
     1
  8
0
100
AcDbBlockBegin
  2
*PAPER_SPACE
 70
     0
 10
0.0
 20
0.0
 30
0.0
  3
*PAPER_SPACE
  1

  0
ENDBLK
  5
53
330
50
100
AcDbEntity
 67
     1
  8
0
100
AcDbBlockEnd
  0
BLOCK
  5
75F
330
75E
100
AcDbEntity
  8
0
100
AcDbBlockBegin
  2
*D0
 70
     1
 10
0.0
 20
0.0
 30
0.0
  3
*D0
  1

  0
LINE
  5
76B
330
75E
100
AcDbEntity
  8
0
 62
     0
440
 16777216
370
    -2
100
AcDbLine
 10
2139.479514919096
 20
2822.676336741618
 30
0.0
 11
2139.479514919096
 21
2940.250005295379
 31
0.0
  0
LINE
  5
76C
330
75E
100
AcDbEntity
  8
0
 62
     0
440
 16777216
370
    -2
100
AcDbLine
 10
2229.479503624367
 20
2822.676336741618
 30
0.0
 11
2229.479503624367
 21
2940.250005295379
 31
0.0
  0
LINE
  5
76D
330
75E
100
AcDbEntity
  8
0
 62
     0
440
 16777216
370
    -2
100
AcDbLine
 10
2141.979514919096
 20
2939.000005295379
 30
0.0
 11
2226.979503624367
 21
2939.000005295379
 31
0.0
  0
SOLID
  5
76E
330
75E
100
AcDbEntity
  8
0
 62
     0
440
 16777216
100
AcDbTrace
 10
2141.979514919096
 20
2939.416671962046
 30
0.0
 11
2141.979514919096
 21
2938.583338628713
 31
0.0
 12
2139.479514919096
 22
2939.000005295379
 32
0.0
 13
2139.479514919096
 23
2939.000005295379
 33
0.0
  0
SOLID
  5
76F
330
75E
100
AcDbEntity
  8
0
 62
     0
440
 16777216
100
AcDbTrace
 10
2226.979503624367
 20
2939.416671962046
 30
0.0
 11
2226.979503624367
 21
2938.583338628713
 31
0.0
 12
2229.479503624367
 22
2939.000005295379
 32
0.0
 13
2229.479503624367
 23
2939.000005295379
 33
0.0
  0
MTEXT
  5
770
330
75E
100
AcDbEntity
  8
0
 62
     0
440
 16777216
100
AcDbMText
 10
2184.479509271731
 20
2940.875005295379
 30
0.0
 40
2.5
 41
0.0
 46
0.0
 71
     5
 72
     1
  1
90
 73
     1
 44
1.0
  0
POINT
  5
771
330
75E
100
AcDbEntity
  8
DEFPOINTS
 62
     0
440
 16777216
100
AcDbPoint
 10
2139.479514919096
 20
2822.051336741618
 30
0.0
  0
POINT
  5
772
330
75E
100
AcDbEntity
  8
DEFPOINTS
 62
     0
440
 16777216
100
AcDbPoint
 10
2229.479503624367
 20
2822.051336741618
 30
0.0
  0
POINT
  5
773
330
75E
100
AcDbEntity
  8
DEFPOINTS
 62
     0
440
 16777216
100
AcDbPoint
 10
2229.479503624367
 20
2939.000005295379
 30
0.0
  0
ENDBLK
  5
760
330
75E
100
AcDbEntity
  8
0
100
AcDbBlockEnd
  0
BLOCK
  5
777
330
776
100
AcDbEntity
  8
0
100
AcDbBlockBegin
  2
*D1
 70
     1
 10
0.0
 20
0.0
 30
0.0
  3
*D1
  1

  0
LINE
  5
783
330
776
100
AcDbEntity
  8
0
 62
     0
440
 16777216
370
    -2
100
AcDbLine
 10
2140.904466314761
 20
2824.555723218725
 30
0.0
 11
2140.904466314761
 21
2937.073173658412
 31
0.0
  0
LINE
  5
784
330
776
100
AcDbEntity
  8
0
 62
     0
440
 16777216
370
    -2
100
AcDbLine
 10
2229.479503624367
 20
2824.555723218725
 30
0.0
 11
2229.479503624367
 21
2937.073173658412
 31
0.0
  0
LINE
  5
785
330
776
100
AcDbEntity
  8
0
 62
     0
440
 16777216
370
    -2
100
AcDbLine
 10
2143.404466314762
 20
2935.823173658412
 30
0.0
 11
2226.979503624367
 21
2935.823173658412
 31
0.0
  0
SOLID
  5
786
330
776
100
AcDbEntity
  8
0
 62
     0
440
 16777216
100
AcDbTrace
 10
2143.404466314762
 20
2936.239840325079
 30
0.0
 11
2143.404466314762
 21
2935.406506991746
 31
0.0
 12
2140.904466314761
 22
2935.823173658412
 32
0.0
 13
2140.904466314761
 23
2935.823173658412
 33
0.0
  0
SOLID
  5
787
330
776
100
AcDbEntity
  8
0
 62
     0
440
 16777216
100
AcDbTrace
 10
2226.979503624367
 20
2936.239840325079
 30
0.0
 11
2226.979503624367
 21
2935.406506991746
 31
0.0
 12
2229.479503624367
 22
2935.823173658412
 32
0.0
 13
2229.479503624367
 23
2935.823173658412
 33
0.0
  0
MTEXT
  5
788
330
776
100
AcDbEntity
  8
0
 62
     0
440
 16777216
100
AcDbMText
 10
2185.191984969564
 20
2937.906506991746
 30
0.0
 40
2.5
 41
0.0
 46
0.0
 71
     5
 72
     1
  1
88,58
 73
     1
 44
1.0
  0
POINT
  5
789
330
776
100
AcDbEntity
  8
DEFPOINTS
 62
     0
440
 16777216
100
AcDbPoint
 10
2140.904466314761
 20
2823.930723218726
 30
0.0
  0
POINT
  5
78A
330
776
100
AcDbEntity
  8
DEFPOINTS
 62
     0
440
 16777216
100
AcDbPoint
 10
2229.479503624367
 20
2823.930723218726
 30
0.0
  0
POINT
  5
78B
330
776
100
AcDbEntity
  8
DEFPOINTS
 62
     0
440
 16777216
100
AcDbPoint
 10
2229.479503624367
 20
2935.823173658412
 30
0.0
  0
ENDBLK
  5
778
330
776
100
AcDbEntity
  8
0
100
AcDbBlockEnd
  0
BLOCK
  5
78F
330
78E
100
AcDbEntity
  8
0
100
AcDbBlockBegin
  2
*D2
 70
     1
 10
0.0
 20
0.0
 30
0.0
  3
*D2
  1

  0
LINE
  5
79B
330
78E
100
AcDbEntity
  8
0
 62
     0
440
 16777216
370
    -2
100
AcDbLine
 10
2478.596134021531
 20
3921.428405333144
 30
0.0
 11
2478.596134021531
 21
3815.17991963962
 31
0.0
  0
LINE
  5
79C
330
78E
100
AcDbEntity
  8
0
 62
     0
440
 16777216
370
    -2
100
AcDbLine
 10
2566.596134021529
 20
3854.428397703748
 30
0.0
 11
2566.596134021529
 21
3815.17991963962
 31
0.0
  0
LINE
  5
79D
330
78E
100
AcDbEntity
  8
0
 62
     0
440
 16777216
370
    -2
100
AcDbLine
 10
2481.096134021532
 20
3816.429919639619
 30
0.0
 11
2564.096134021529
 21
3816.429919639619
 31
0.0
  0
SOLID
  5
79E
330
78E
100
AcDbEntity
  8
0
 62
     0
440
 16777216
100
AcDbTrace
 10
2481.096134021532
 20
3816.846586306287
 30
0.0
 11
2481.096134021532
 21
3816.013252972953
 31
0.0
 12
2478.596134021531
 22
3816.429919639619
 32
0.0
 13
2478.596134021531
 23
3816.429919639619
 33
0.0
  0
SOLID
  5
79F
330
78E
100
AcDbEntity
  8
0
 62
     0
440
 16777216
100
AcDbTrace
 10
2564.096134021529
 20
3816.846586306287
 30
0.0
 11
2564.096134021529
 21
3816.013252972953
 31
0.0
 12
2566.596134021529
 22
3816.429919639619
 32
0.0
 13
2566.596134021529
 23
3816.429919639619
 33
0.0
  0
MTEXT
  5
7A0
330
78E
100
AcDbEntity
  8
0
 62
     0
440
 16777216
100
AcDbMText
 10
2522.59613402153
 20
3818.304919639621
 30
0.0
 40
2.5
 41
0.0
 46
0.0
 71
     5
 72
     1
  1
88
 73
     1
 44
1.0
  0
POINT
  5
7A1
330
78E
100
AcDbEntity
  8
DEFPOINTS
 62
     0
440
 16777216
100
AcDbPoint
 10
2478.596134021531
 20
3922.053405333144
 30
0.0
  0
POINT
  5
7A2
330
78E
100
AcDbEntity
  8
DEFPOINTS
 62
     0
440
 16777216
100
AcDbPoint
 10
2566.596134021529
 20
3855.053397703747
 30
0.0
  0
POINT
  5
7A3
330
78E
100
AcDbEntity
  8
DEFPOINTS
 62
     0
440
 16777216
100
AcDbPoint
 10
2566.596134021529
 20
3816.429919639619
 30
0.0
  0
ENDBLK
  5
790
330
78E
100
AcDbEntity
  8
0
100
AcDbBlockEnd
  0
BLOCK
  5
B8D
330
B8C
100
AcDbEntity
  8
0
100
AcDbBlockBegin
  2
*D3
 70
     1
 10
0.0
 20
0.0
 30
0.0
  3
*D3
  1

  0
LINE
  5
B99
330
B8C
100
AcDbEntity
  8
0
 62
     0
440
 16777216
370
    -2
100
AcDbLine
 10
2478.596134021531
 20
2825.411607212171
 30
0.0
 11
2478.596134021531
 21
2960.554218189471
 31
0.0
  0
LINE
  5
B9A
330
B8C
100
AcDbEntity
  8
0
 62
     0
440
 16777216
370
    -2
100
AcDbLine
 10
3235.435437895672
 20
2825.41160721217
 30
0.0
 11
3235.435437895672
 21
2960.554218189471
 31
0.0
  0
LINE
  5
B9B
330
B8C
100
AcDbEntity
  8
0
 62
     0
440
 16777216
370
    -2
100
AcDbLine
 10
2481.096134021532
 20
2959.304218189471
 30
0.0
 11
3232.935437895672
 21
2959.304218189471
 31
0.0
  0
SOLID
  5
B9C
330
B8C
100
AcDbEntity
  8
0
 62
     0
440
 16777216
100
AcDbTrace
 10
2481.096134021532
 20
2959.720884856137
 30
0.0
 11
2481.096134021532
 21
2958.887551522805
 31
0.0
 12
2478.596134021531
 22
2959.304218189471
 32
0.0
 13
2478.596134021531
 23
2959.304218189471
 33
0.0
  0
SOLID
  5
B9D
330
B8C
100
AcDbEntity
  8
0
 62
     0
440
 16777216
100
AcDbTrace
 10
3232.935437895672
 20
2959.720884856137
 30
0.0
 11
3232.935437895672
 21
2958.887551522805
 31
0.0
 12
3235.435437895672
 22
2959.304218189471
 32
0.0
 13
3235.435437895672
 23
2959.304218189471
 33
0.0
  0
MTEXT
  5
B9E
330
B8C
100
AcDbEntity
  8
0
 62
     0
440
 16777216
100
AcDbMText
 10
2857.015785958603
 20
2961.387551522804
 30
0.0
 40
2.5
 41
0.0
 46
0.0
 71
     5
 72
     1
  1
756,84
 73
     1
 44
1.0
  0
POINT
  5
B9F
330
B8C
100
AcDbEntity
  8
DEFPOINTS
 62
     0
440
 16777216
100
AcDbPoint
 10
2478.596134021531
 20
2824.786607212171
 30
0.0
  0
POINT
  5
BA0
330
B8C
100
AcDbEntity
  8
DEFPOINTS
 62
     0
440
 16777216
100
AcDbPoint
 10
3235.435437895672
 20
2824.78660721217
 30
0.0
  0
POINT
  5
BA1
330
B8C
100
AcDbEntity
  8
DEFPOINTS
 62
     0
440
 16777216
100
AcDbPoint
 10
3235.435437895672
 20
2959.304218189471
 30
0.0
  0
ENDBLK
  5
B8E
330
B8C
100
AcDbEntity
  8
0
100
AcDbBlockEnd
  0
BLOCK
  5
BB0
330
BAF
100
AcDbEntity
  8
0
100
AcDbBlockBegin
  2
*D4
 70
     1
 10
0.0
 20
0.0
 30
0.0
  3
*D4
  1

  0
LINE
  5
BBC
330
BAF
100
AcDbEntity
  8
0
 62
     0
440
 16777216
370
    -2
100
AcDbLine
 10
4533.122221762889
 20
2616.269229450844
 30
0.0
 11
4533.122221762889
 21
2709.366660659864
 31
0.0
  0
LINE
  5
BBD
330
BAF
100
AcDbEntity
  8
0
 62
     0
440
 16777216
370
    -2
100
AcDbLine
 10
4722.12222176289
 20
2427.269229450844
 30
0.0
 11
4722.12222176289
 21
2709.366660659864
 31
0.0
  0
LINE
  5
BBE
330
BAF
100
AcDbEntity
  8
0
 62
     0
440
 16777216
370
    -2
100
AcDbLine
 10
4535.622221762888
 20
2708.116660659864
 30
0.0
 11
4719.62222176289
 21
2708.116660659864
 31
0.0
  0
SOLID
  5
BBF
330
BAF
100
AcDbEntity
  8
0
 62
     0
440
 16777216
100
AcDbTrace
 10
4535.622221762888
 20
2708.53332732653
 30
0.0
 11
4535.622221762888
 21
2707.699993993197
 31
0.0
 12
4533.122221762889
 22
2708.116660659864
 32
0.0
 13
4533.122221762889
 23
2708.116660659864
 33
0.0
  0
SOLID
  5
BC0
330
BAF
100
AcDbEntity
  8
0
 62
     0
440
 16777216
100
AcDbTrace
 10
4719.62222176289
 20
2708.53332732653
 30
0.0
 11
4719.62222176289
 21
2707.699993993197
 31
0.0
 12
4722.12222176289
 22
2708.116660659864
 32
0.0
 13
4722.12222176289
 23
2708.116660659864
 33
0.0
  0
MTEXT
  5
BC1
330
BAF
100
AcDbEntity
  8
0
 62
     0
440
 16777216
100
AcDbMText
 10
4627.622221762889
 20
2709.991660659864
 30
0.0
 40
2.5
 41
0.0
 46
0.0
 71
     5
 72
     1
  1
189
 73
     1
 44
1.0
  0
POINT
  5
BC2
330
BAF
100
AcDbEntity
  8
DEFPOINTS
 62
     0
440
 16777216
100
AcDbPoint
 10
4533.122221762889
 20
2615.644229450845
 30
0.0
  0
POINT
  5
BC3
330
BAF
100
AcDbEntity
  8
DEFPOINTS
 62
     0
440
 16777216
100
AcDbPoint
 10
4722.12222176289
 20
2426.644229450845
 30
0.0
  0
POINT
  5
BC4
330
BAF
100
AcDbEntity
  8
DEFPOINTS
 62
     0
440
 16777216
100
AcDbPoint
 10
4722.12222176289
 20
2708.116660659864
 30
0.0
  0
ENDBLK
  5
BB1
330
BAF
100
AcDbEntity
  8
0
100
AcDbBlockEnd
  0
BLOCK
  5
BC8
330
BC7
100
AcDbEntity
  8
0
100
AcDbBlockBegin
  2
*D5
 70
     1
 10
0.0
 20
0.0
 30
0.0
  3
*D5
  1

  0
LINE
  5
BCA
330
BC7
100
AcDbEntity
  8
0
 62
     0
440
 16777216
370
    -2
100
AcDbLine
 10
4533.747221762889
 20
2616.269229450844
 30
0.0
 11
4955.920357095042
 21
2616.269229450844
 31
0.0
  0
LINE
  5
BCB
330
BC7
100
AcDbEntity
  8
0
 62
     0
440
 16777216
370
    -2
100
AcDbLine
 10
4722.747221762889
 20
2426.644229450845
 30
0.0
 11
4955.920357095042
 21
2426.644229450845
 31
0.0
  0
LINE
  5
BCC
330
BC7
100
AcDbEntity
  8
0
 62
     0
440
 16777216
370
    -2
100
AcDbLine
 10
4954.670357095041
 20
2613.769229450844
 30
0.0
 11
4954.670357095041
 21
2429.144229450844
 31
0.0
  0
SOLID
  5
BCD
330
BC7
100
AcDbEntity
  8
0
 62
     0
440
 16777216
100
AcDbTrace
 10
4954.253690428374
 20
2613.769229450844
 30
0.0
 11
4955.087023761707
 21
2613.769229450844
 31
0.0
 12
4954.670357095041
 22
2616.269229450844
 32
0.0
 13
4954.670357095041
 23
2616.269229450844
 33
0.0
  0
SOLID
  5
BCE
330
BC7
100
AcDbEntity
  8
0
 62
     0
440
 16777216
100
AcDbTrace
 10
4954.253690428374
 20
2429.144229450844
 30
0.0
 11
4955.087023761707
 21
2429.144229450844
 31
0.0
 12
4954.670357095041
 22
2426.644229450845
 32
0.0
 13
4954.670357095041
 23
2426.644229450845
 33
0.0
  0
MTEXT
  5
BCF
330
BC7
100
AcDbEntity
  8
0
 62
     0
440
 16777216
100
AcDbMText
 10
4952.587023761708
 20
2521.456729450844
 30
0.0
 40
2.5
 41
0.0
 46
0.0
 71
     5
 72
     1
  1
189,63
 11
0.0000000000000001
 21
1.0
 31
0.0
 73
     1
 44
1.0
  0
POINT
  5
BD0
330
BC7
100
AcDbEntity
  8
DEFPOINTS
 62
     0
440
 16777216
100
AcDbPoint
 10
4533.122221762889
 20
2616.269229450844
 30
0.0
  0
POINT
  5
BD1
330
BC7
100
AcDbEntity
  8
DEFPOINTS
 62
     0
440
 16777216
100
AcDbPoint
 10
4722.12222176289
 20
2426.644229450845
 30
0.0
  0
POINT
  5
BD2
330
BC7
100
AcDbEntity
  8
DEFPOINTS
 62
     0
440
 16777216
100
AcDbPoint
 10
4954.670357095041
 20
2426.644229450845
 30
0.0
  0
ENDBLK
  5
BC9
330
BC7
100
AcDbEntity
  8
0
100
AcDbBlockEnd
  0
BLOCK
  5
BD5
330
BD4
100
AcDbEntity
  8
0
100
AcDbBlockBegin
  2
*D6
 70
     1
 10
0.0
 20
0.0
 30
0.0
  3
*D6
  1

  0
LINE
  5
BE1
330
BD4
100
AcDbEntity
  8
0
 62
     0
440
 16777216
370
    -2
100
AcDbLine
 10
4532.497221762889
 20
2616.269229450844
 30
0.0
 11
4432.979190954662
 21
2616.269229450844
 31
0.0
  0
LINE
  5
BE2
330
BD4
100
AcDbEntity
  8
0
 62
     0
440
 16777216
370
    -2
100
AcDbLine
 10
4532.497221762889
 20
2527.644229450844
 30
0.0
 11
4432.979190954662
 21
2527.644229450844
 31
0.0
  0
LINE
  5
BE3
330
BD4
100
AcDbEntity
  8
0
 62
     0
440
 16777216
370
    -2
100
AcDbLine
 10
4434.229190954662
 20
2613.769229450844
 30
0.0
 11
4434.229190954662
 21
2530.144229450844
 31
0.0
  0
SOLID
  5
BE4
330
BD4
100
AcDbEntity
  8
0
 62
     0
440
 16777216
100
AcDbTrace
 10
4433.812524287995
 20
2613.769229450844
 30
0.0
 11
4434.645857621329
 21
2613.769229450844
 31
0.0
 12
4434.229190954662
 22
2616.269229450844
 32
0.0
 13
4434.229190954662
 23
2616.269229450844
 33
0.0
  0
SOLID
  5
BE5
330
BD4
100
AcDbEntity
  8
0
 62
     0
440
 16777216
100
AcDbTrace
 10
4433.812524287995
 20
2530.144229450844
 30
0.0
 11
4434.645857621329
 21
2530.144229450844
 31
0.0
 12
4434.229190954662
 22
2527.644229450844
 32
0.0
 13
4434.229190954662
 23
2527.644229450844
 33
0.0
  0
MTEXT
  5
BE6
330
BD4
100
AcDbEntity
  8
0
 62
     0
440
 16777216
100
AcDbMText
 10
4432.145857621327
 20
2571.956729450845
 30
0.0
 40
2.5
 41
0.0
 46
0.0
 71
     5
 72
     1
  1
88,63
 11
0.0000000000000001
 21
1.0
 31
0.0
 73
     1
 44
1.0
  0
POINT
  5
BE7
330
BD4
100
AcDbEntity
  8
DEFPOINTS
 62
     0
440
 16777216
100
AcDbPoint
 10
4533.122221762889
 20
2616.269229450844
 30
0.0
  0
POINT
  5
BE8
330
BD4
100
AcDbEntity
  8
DEFPOINTS
 62
     0
440
 16777216
100
AcDbPoint
 10
4533.122221762889
 20
2527.644229450844
 30
0.0
  0
POINT
  5
BE9
330
BD4
100
AcDbEntity
  8
DEFPOINTS
 62
     0
440
 16777216
100
AcDbPoint
 10
4434.229190954662
 20
2527.644229450844
 30
0.0
  0
ENDBLK
  5
BD6
330
BD4
100
AcDbEntity
  8
0
100
AcDbBlockEnd
  0
BLOCK
  5
BED
330
BEC
100
AcDbEntity
  8
0
100
AcDbBlockBegin
  2
*D7
 70
     1
 10
0.0
 20
0.0
 30
0.0
  3
*D7
  1

  0
LINE
  5
C03
330
BEC
100
AcDbEntity
  8
0
 62
     0
440
 16777216
370
    -2
100
AcDbLine
 10
4263.169628236013
 20
2615.644229450845
 30
0.0
 11
4352.455887634099
 21
2615.644229450845
 31
0.0
  0
LINE
  5
C04
330
BEC
100
AcDbEntity
  8
0
 62
     0
440
 16777216
370
    -2
100
AcDbLine
 10
4263.072859320854
 20
2527.713680444999
 30
0.0
 11
4352.455887634099
 21
2527.713680444999
 31
0.0
  0
LINE
  5
C05
330
BEC
100
AcDbEntity
  8
0
 62
     0
440
 16777216
370
    -2
100
AcDbLine
 10
4351.2058876341
 20
2613.144229450844
 30
0.0
 11
4351.2058876341
 21
2530.213680445
 31
0.0
  0
SOLID
  5
C06
330
BEC
100
AcDbEntity
  8
0
 62
     0
440
 16777216
100
AcDbTrace
 10
4350.789220967433
 20
2613.144229450844
 30
0.0
 11
4351.622554300766
 21
2613.144229450844
 31
0.0
 12
4351.2058876341
 22
2615.644229450845
 32
0.0
 13
4351.2058876341
 23
2615.644229450845
 33
0.0
  0
SOLID
  5
C07
330
BEC
100
AcDbEntity
  8
0
 62
     0
440
 16777216
100
AcDbTrace
 10
4350.789220967433
 20
2530.213680445
 30
0.0
 11
4351.622554300766
 21
2530.213680445
 31
0.0
 12
4351.2058876341
 22
2527.713680444999
 32
0.0
 13
4351.2058876341
 23
2527.713680444999
 33
0.0
  0
MTEXT
  5
C08
330
BEC
100
AcDbEntity
  8
0
 62
     0
440
 16777216
100
AcDbMText
 10
4349.122554300765
 20
2571.678954947922
 30
0.0
 40
2.5
 41
0.0
 46
0.0
 71
     5
 72
     1
  1
87,93
 11
0.0000000000000001
 21
1.0
 31
0.0
 73
     1
 44
1.0
  0
POINT
  5
C09
330
BEC
100
AcDbEntity
  8
DEFPOINTS
 62
     0
440
 16777216
100
AcDbPoint
 10
4262.544628236013
 20
2615.644229450845
 30
-0.0000000000000105
  0
POINT
  5
C0A
330
BEC
100
AcDbEntity
  8
DEFPOINTS
 62
     0
440
 16777216
100
AcDbPoint
 10
4262.447859320854
 20
2527.713680444999
 30
-0.0000000000000105
  0
POINT
  5
C0B
330
BEC
100
AcDbEntity
  8
DEFPOINTS
 62
     0
440
 16777216
100
AcDbPoint
 10
4351.2058876341
 20
2527.713680444999
 30
0.0
  0
ENDBLK
  5
BEE
330
BEC
100
AcDbEntity
  8
0
100
AcDbBlockEnd
  0
BLOCK
  5
C53
330
C52
100
AcDbEntity
  8
0
100
AcDbBlockBegin
  2
*D8
 70
     1
 10
0.0
 20
0.0
 30
0.0
  3
*D8
  1

  0
LINE
  5
C5F
330
C52
100
AcDbEntity
  8
0
 62
     0
440
 16777216
370
    -2
100
AcDbLine
 10
1082.077512862211
 20
1147.832292919271
 30
0.0
 11
929.1279451540209
 21
1147.832292919271
 31
0.0
  0
LINE
  5
C60
330
C52
100
AcDbEntity
  8
0
 62
     0
440
 16777216
370
    -2
100
AcDbLine
 10
1309.823816821204
 20
2247.894792919271
 30
0.0
 11
929.1279451540212
 21
2247.894792919272
 31
0.0
  0
LINE
  5
C61
330
C52
100
AcDbEntity
  8
0
 62
     0
440
 16777216
370
    -2
100
AcDbLine
 10
930.377945154021
 20
1150.332292919271
 30
0.0
 11
930.3779451540213
 21
2245.394792919272
 31
0.0
  0
SOLID
  5
C62
330
C52
100
AcDbEntity
  8
0
 62
     0
440
 16777216
100
AcDbTrace
 10
929.9612784873543
 20
1150.332292919271
 30
0.0
 11
930.7946118206876
 21
1150.332292919271
 31
0.0
 12
930.377945154021
 22
1147.832292919271
 32
0.0
 13
930.377945154021
 23
1147.832292919271
 33
0.0
  0
SOLID
  5
C63
330
C52
100
AcDbEntity
  8
0
 62
     0
440
 16777216
100
AcDbTrace
 10
929.9612784873547
 20
2245.394792919272
 30
0.0
 11
930.794611820688
 21
2245.394792919272
 31
0.0
 12
930.3779451540213
 22
2247.894792919272
 32
0.0
 13
930.3779451540213
 23
2247.894792919272
 33
0.0
  0
MTEXT
  5
C64
330
C52
100
AcDbEntity
  8
0
 62
     0
440
 16777216
100
AcDbMText
 10
928.2946118206876
 20
1697.863542919271
 30
0.0
 40
2.5
 41
0.0
 46
0.0
 71
     5
 72
     1
  1
1100,06
 11
0.0000000000000001
 21
1.0
 31
0.0
 73
     1
 44
1.0
  0
POINT
  5
C65
330
C52
100
AcDbEntity
  8
DEFPOINTS
 62
     0
440
 16777216
100
AcDbPoint
 10
1082.702512862211
 20
1147.832292919271
 30
-0.0000000000000018
  0
POINT
  5
C66
330
C52
100
AcDbEntity
  8
DEFPOINTS
 62
     0
440
 16777216
100
AcDbPoint
 10
1310.448816821204
 20
2247.894792919271
 30
-0.0000000000000018
  0
POINT
  5
C67
330
C52
100
AcDbEntity
  8
DEFPOINTS
 62
     0
440
 16777216
100
AcDbPoint
 10
930.3779451540213
 20
2247.894792919272
 30
0.0
  0
ENDBLK
  5
C54
330
C52
100
AcDbEntity
  8
0
100
AcDbBlockEnd
  0
BLOCK
  5
F4C
330
F4B
100
AcDbEntity
  8
0
100
AcDbBlockBegin
  2
*D10
 70
     1
 10
0.0
 20
0.0
 30
0.0
  3
*D10
  1

  0
LINE
  5
F58
330
F4B
100
AcDbEntity
  8
0
 62
     0
440
 16777216
370
    -2
100
AcDbLine
 10
320.7023668604334
 20
1147.207227451421
 30
0.0
 11
320.7023668604334
 21
1061.861836639795
 31
0.0
  0
LINE
  5
F59
330
F4B
100
AcDbEntity
  8
0
 62
     0
440
 16777216
370
    -2
100
AcDbLine
 10
1082.702512862211
 20
1147.207227451421
 30
0.0
 11
1082.702512862211
 21
1061.861836639795
 31
0.0
  0
LINE
  5
F5A
330
F4B
100
AcDbEntity
  8
0
 62
     0
440
 16777216
370
    -2
100
AcDbLine
 10
323.2023668604334
 20
1063.111836639795
 30
0.0
 11
1080.202512862211
 21
1063.111836639795
 31
0.0
  0
SOLID
  5
F5B
330
F4B
100
AcDbEntity
  8
0
 62
     0
440
 16777216
100
AcDbTrace
 10
323.2023668604334
 20
1063.528503306462
 30
0.0
 11
323.2023668604334
 21
1062.695169973128
 31
0.0
 12
320.7023668604334
 22
1063.111836639795
 32
0.0
 13
320.7023668604334
 23
1063.111836639795
 33
0.0
  0
SOLID
  5
F5C
330
F4B
100
AcDbEntity
  8
0
 62
     0
440
 16777216
100
AcDbTrace
 10
1080.202512862211
 20
1063.528503306462
 30
0.0
 11
1080.202512862211
 21
1062.695169973128
 31
0.0
 12
1082.702512862211
 22
1063.111836639795
 32
0.0
 13
1082.702512862211
 23
1063.111836639795
 33
0.0
  0
MTEXT
  5
F5D
330
F4B
100
AcDbEntity
  8
0
 62
     0
440
 16777216
100
AcDbMText
 10
701.7024398613222
 20
1064.986836639795
 30
0.0
 40
2.5
 41
0.0
 46
0.0
 71
     5
 72
     1
  1
762
 73
     1
 44
1.0
  0
POINT
  5
F5E
330
F4B
100
AcDbEntity
  8
DEFPOINTS
 62
     0
440
 16777216
100
AcDbPoint
 10
320.7023668604334
 20
1147.832227451421
 30
-0.0000000000000018
  0
POINT
  5
F5F
330
F4B
100
AcDbEntity
  8
DEFPOINTS
 62
     0
440
 16777216
100
AcDbPoint
 10
1082.702512862211
 20
1147.832227451421
 30
-0.0000000000000018
  0
POINT
  5
F60
330
F4B
100
AcDbEntity
  8
DEFPOINTS
 62
     0
440
 16777216
100
AcDbPoint
 10
1082.702512862211
 20
1063.111836639795
 30
0.0
  0
ENDBLK
  5
F4D
330
F4B
100
AcDbEntity
  8
0
100
AcDbBlockEnd
  0
BLOCK
  5
F64
330
F63
100
AcDbEntity
  8
0
100
AcDbBlockBegin
  2
*D11
 70
     1
 10
0.0
 20
0.0
 30
0.0
  3
*D11
  1

  0
LINE
  5
F70
330
F63
100
AcDbEntity
  8
0
 62
     0
440
 16777216
370
    -2
100
AcDbLine
 10
1373.023277555321
 20
1273.767175881078
 30
0.0
 11
1088.61428667386
 21
1273.767175881078
 31
0.0
  0
LINE
  5
F71
330
F63
100
AcDbEntity
  8
0
 62
     0
440
 16777216
370
    -2
100
AcDbLine
 10
1373.023277555321
 20
2373.767175881079
 30
0.0
 11
1088.61428667386
 21
2373.767175881079
 31
0.0
  0
LINE
  5
F72
330
F63
100
AcDbEntity
  8
0
 62
     0
440
 16777216
370
    -2
100
AcDbLine
 10
1089.86428667386
 20
1276.267175881078
 30
0.0
 11
1089.86428667386
 21
2371.267175881079
 31
0.0
  0
SOLID
  5
F73
330
F63
100
AcDbEntity
  8
0
 62
     0
440
 16777216
100
AcDbTrace
 10
1089.447620007193
 20
1276.267175881078
 30
0.0
 11
1090.280953340527
 21
1276.267175881078
 31
0.0
 12
1089.86428667386
 22
1273.767175881078
 32
0.0
 13
1089.86428667386
 23
1273.767175881078
 33
0.0
  0
SOLID
  5
F74
330
F63
100
AcDbEntity
  8
0
 62
     0
440
 16777216
100
AcDbTrace
 10
1089.447620007193
 20
2371.267175881079
 30
0.0
 11
1090.280953340527
 21
2371.267175881079
 31
0.0
 12
1089.86428667386
 22
2373.767175881079
 32
0.0
 13
1089.86428667386
 23
2373.767175881079
 33
0.0
  0
MTEXT
  5
F75
330
F63
100
AcDbEntity
  8
0
 62
     0
440
 16777216
100
AcDbMText
 10
1087.98928667386
 20
1823.767175881078
 30
0.0
 40
2.5
 41
0.0
 46
0.0
 71
     5
 72
     1
  1
1100
 11
0.0000000000000001
 21
1.0
 31
0.0
 73
     1
 44
1.0
  0
POINT
  5
F76
330
F63
100
AcDbEntity
  8
DEFPOINTS
 62
     0
440
 16777216
100
AcDbPoint
 10
1373.648277555321
 20
1273.767175881078
 30
0.0
  0
POINT
  5
F77
330
F63
100
AcDbEntity
  8
DEFPOINTS
 62
     0
440
 16777216
100
AcDbPoint
 10
1373.648277555321
 20
2373.767175881079
 30
0.0
  0
POINT
  5
F78
330
F63
100
AcDbEntity
  8
DEFPOINTS
 62
     0
440
 16777216
100
AcDbPoint
 10
1089.86428667386
 20
2373.767175881079
 30
0.0
  0
ENDBLK
  5
F65
330
F63
100
AcDbEntity
  8
0
100
AcDbBlockEnd
  0
ENDSEC
  0
SECTION
  2
ENTITIES
  0
ARC
  5
DFC
330
1F
100
AcDbEntity
  8
HEWI
100
AcDbCircle
 10
1074.401973596327
 20
1273.704675881078
 30
-0.000000000000009
 40
16.5
100
AcDbArc
 50
90.0
 51
270.0
  0
ARC
  5
DFD
330
1F
100
AcDbEntity
  8
HEWI
100
AcDbCircle
 10
383.9019735963261
 20
2523.704675881079
 30
0.0
 40
16.5
100
AcDbArc
 50
0.0
 51
180.0
  0
LINE
  5
DFE
330
1F
100
AcDbEntity
  8
HEWI
100
AcDbLine
 10
325.551973596328
 20
2026.2046758811
 30
-0.0000000000000072
 11
325.551973596328
 21
2026.089181172313
 31
-0.0000000000000072
210
0.0
220
1.0
230
0.0
  0
LINE
  5
DFF
330
1F
100
AcDbEntity
  8
HEWI
100
AcDbLine
 10
325.551973596328
 20
2026.089181172313
 30
-0.0000000000000072
 11
325.551973596328
 21
2009.296435883141
 31
-0.0000000000000072
210
0.0
220
1.0
230
0.0
  0
LINE
  5
E00
330
1F
100
AcDbEntity
  8
HEWI
100
AcDbLine
 10
325.551973596328
 20
2009.296435883141
 30
-0.0000000000000072
 11
325.551973596328
 21
1988.2046758811
 31
-0.0000000000000072
210
0.0
220
1.0
230
0.0
  0
LINE
  5
E01
330
1F
100
AcDbEntity
  8
HEWI
100
AcDbLine
 10
351.051973596328
 20
2021.346811504832
 30
-0.000000000000004
 11
351.051973596328
 21
1987.2046758811
 31
-0.000000000000004
210
0.0
220
1.0
230
0.0
  0
LINE
  5
E02
330
1F
100
AcDbEntity
  8
HEWI
100
AcDbLine
 10
351.051973596328
 20
2027.2046758811
 30
-0.000000000000004
 11
351.051973596328
 21
2021.346811504832
 31
-0.000000000000004
210
0.0
220
1.0
230
0.0
  0
ELLIPSE
  5
E03
330
1F
100
AcDbEntity
  8
HEWI
100
AcDbEllipse
 10
383.9019735963261
 20
1942.373168798373
 30
0.0
 11
12.70449773839052
 21
0.0
 31
0.0000000000000016
210
-0.0000000000000001
220
0.0
230
1.0
 40
0.9961946980917455
 41
0.0
 42
6.283185307179584
  0
ELLIPSE
  5
E04
330
1F
100
AcDbEntity
  8
HEWI
100
AcDbEllipse
 10
383.9019735963261
 20
1942.30254612708
 30
0.0
 11
-18.81828199961667
 21
0.0
 31
-0.0000000000000023
210
-0.0000000000000001
220
0.0
230
1.0
 40
0.9961946980917455
 41
-2.409769549797642
 42
-0.7318231037921505
  0
SPLINE
  5
E05
330
1F
100
AcDbEntity
  8
HEWI
100
AcDbSpline
210
-0.0000000000000003
220
0.0
230
1.0
 70
     8
 71
     3
 72
    14
 73
    10
 74
     0
 42
0.000000001
 43
0.0000000001
 40
8.794524056531006
 40
8.794524056531006
 40
8.794524056531006
 40
8.794524056531006
 40
9.579456439527339
 40
9.579456439527339
 40
10.36438882252367
 40
10.36438882252367
 40
11.09774755945767
 40
11.09774755945767
 40
11.18149517898411
 40
11.18149517898411
 40
11.18149517898411
 40
11.18149517898411
 10
398.9019735963261
 20
1957.063130090385
 30
0.0000000000000018
 10
398.9019735963261
 20
1956.853803181727
 30
0.0000000000000018
 10
398.8712793645814
 20
1956.623012626644
 30
0.0000000000000018
 10
398.7530839723577
 20
1956.154473948231
 30
0.0000000000000018
 10
398.6663365507311
 20
1955.916151990726
 30
0.0000000000000018
 10
398.4853173247743
 20
1955.488754905154
 30
0.0000000000000018
 10
398.3759459099852
 20
1955.260642884496
 30
0.0000000000000018
 10
398.2449576772383
 20
1955.003561269395
 30
0.0000000000000017
 10
398.2314351292789
 20
1954.977177528081
 30
0.0000000000000017
 10
398.2178424623453
 20
1954.950788232019
 30
0.0000000000000017
  0
SPLINE
  5
E06
330
1F
100
AcDbEntity
  8
HEWI
100
AcDbSpline
210
0.0
220
0.0
230
1.0
 70
     8
 71
     3
 72
    20
 73
    16
 74
     0
 42
0.000000001
 43
0.0000000001
 40
1.658125044755959
 40
1.658125044755959
 40
1.658125044755959
 40
1.658125044755959
 40
1.696828082632773
 40
1.696828082632773
 40
1.798652902623284
 40
1.798652902623284
 40
1.900477722613793
 40
1.900477722613793
 40
1.93829658602752
 40
1.93829658602752
 40
1.976115449441245
 40
1.976115449441245
 40
2.029036545889153
 40
2.029036545889153
 40
2.081957642337064
 40
2.081957642337064
 40
2.081957642337064
 40
2.081957642337064
 10
398.2178424623453
 20
1954.950788232019
 30
0.0000000000000017
 10
398.211793009174
 20
1954.939043604453
 30
0.0000000000000017
 10
398.2055348698182
 20
1954.927466148636
 30
0.0000000000000017
 10
398.182000738891
 20
1954.886327204014
 30
0.0000000000000017
 10
398.1635889926797
 20
1954.858394086025
 30
0.0000000000000017
 10
398.1217863753923
 20
1954.809170151674
 30
0.0000000000000017
 10
398.0990390542392
 20
1954.787344426287
 30
0.0000000000000017
 10
398.0573734644272
 20
1954.768511478053
 30
0.0000000000000017
 10
398.044346904333
 20
1954.764622238469
 30
0.0000000000000017
 10
398.0177438847486
 20
1954.762178649084
 30
0.0000000000000017
 10
398.0041626831781
 20
1954.763665014101
 30
0.0000000000000017
 10
397.9750692194543
 20
1954.771707208582
 30
0.0000000000000017
 10
397.9582814609194
 20
1954.780586497182
 30
0.0000000000000017
 10
397.9276591594562
 20
1954.803028901783
 30
0.0000000000000017
 10
397.913761365825
 20
1954.816506336802
 30
0.0000000000000017
 10
397.9019735963261
 20
1954.829580077536
 30
0.0000000000000017
  0
SPLINE
  5
E07
330
1F
100
AcDbEntity
  8
HEWI
100
AcDbSpline
210
-0.0000000000000002
220
0.0000000000000004
230
1.0
 70
     8
 71
     3
 72
    20
 73
    16
 74
     0
 42
0.000000001
 43
0.0000000001
 40
-2.081957642337048
 40
-2.081957642337048
 40
-2.081957642337048
 40
-2.081957642337048
 40
-2.029036545889133
 40
-2.029036545889133
 40
-1.976115449441223
 40
-1.976115449441223
 40
-1.938296586027501
 40
-1.938296586027501
 40
-1.900477722613779
 40
-1.900477722613779
 40
-1.79865290262327
 40
-1.79865290262327
 40
-1.696828082632761
 40
-1.696828082632761
 40
-1.658125044755919
 40
-1.658125044755919
 40
-1.658125044755919
 40
-1.658125044755919
 10
369.9019735963261
 20
1954.829580077536
 30
-0.0000000000000017
 10
369.8901858268277
 20
1954.816506336802
 30
-0.0000000000000017
 10
369.8762880331956
 20
1954.803028901783
 30
-0.0000000000000017
 10
369.8456657317329
 20
1954.780586497182
 30
-0.0000000000000017
 10
369.8288779731979
 20
1954.771707208582
 30
-0.0000000000000017
 10
369.7997845094742
 20
1954.763665014101
 30
-0.0000000000000017
 10
369.7862033079037
 20
1954.762178649084
 30
-0.0000000000000017
 10
369.7596002883197
 20
1954.764622238469
 30
-0.0000000000000017
 10
369.7465737282246
 20
1954.768511478053
 30
-0.0000000000000017
 10
369.704908138413
 20
1954.787344426287
 30
-0.0000000000000018
 10
369.6821608172595
 20
1954.809170151674
 30
-0.0000000000000018
 10
369.6403581999725
 20
1954.858394086025
 30
-0.0000000000000018
 10
369.6219464537608
 20
1954.886327204014
 30
-0.0000000000000018
 10
369.5984123228341
 20
1954.927466148636
 30
-0.0000000000000018
 10
369.5921541834778
 20
1954.939043604453
 30
-0.0000000000000018
 10
369.586104730306
 20
1954.950788232019
 30
-0.0000000000000018
  0
SPLINE
  5
E08
330
1F
100
AcDbEntity
  8
HEWI
100
AcDbSpline
210
0.0000000000000004
220
0.0000000000000002
230
1.0
 70
     8
 71
     3
 72
    14
 73
    10
 74
     0
 42
0.000000001
 43
0.0000000001
 40
0.649611117407552
 40
0.649611117407552
 40
0.649611117407552
 40
0.649611117407552
 40
0.7333587369340008
 40
0.7333587369340008
 40
1.466717473868001
 40
1.466717473868001
 40
2.251649856864295
 40
2.251649856864295
 40
3.036582239860591
 40
3.036582239860591
 40
3.036582239860591
 40
3.036582239860591
 10
369.586104730306
 20
1954.950788232019
 30
-0.0000000000000018
 10
369.5725120633733
 20
1954.977177528081
 30
-0.0000000000000018
 10
369.5589895154135
 20
1955.003561269395
 30
-0.0000000000000018
 10
369.4280012826666
 20
1955.260642884496
 30
-0.0000000000000018
 10
369.3186298678779
 20
1955.488754905154
 30
-0.0000000000000018
 10
369.1376106419211
 20
1955.916151990726
 30
-0.0000000000000018
 10
369.0508632202945
 20
1956.154473948232
 30
-0.0000000000000018
 10
368.9326678280709
 20
1956.623012626644
 30
-0.0000000000000018
 10
368.9019735963261
 20
1956.853803181727
 30
-0.0000000000000019
 10
368.9019735963261
 20
1957.063130090385
 30
-0.0000000000000019
  0
LINE
  5
E09
330
1F
100
AcDbEntity
  8
HEWI
100
AcDbLine
 10
368.9019735963261
 20
1987.767645434711
 30
-0.0000000000000019
 11
368.9019735963261
 21
1957.063130090385
 31
-0.0000000000000019
210
0.0
220
1.0
230
0.0
  0
LINE
  5
E0A
330
1F
100
AcDbEntity
  8
HEWI
100
AcDbLine
 10
398.9019735963261
 20
1987.767645434711
 30
0.0000000000000018
 11
398.9019735963261
 21
1957.063130090385
 31
0.0000000000000018
210
0.0
220
1.0
230
0.0
  0
LINE
  5
E0B
330
1F
100
AcDbEntity
  8
HEWI
100
AcDbLine
 10
397.9019735963261
 20
1988.031926372115
 30
0.0000000000000017
 11
369.9019735963261
 21
1988.031926372115
 31
-0.0000000000000017
210
0.0
220
1.0
230
0.0
  0
SPLINE
  5
E0C
330
1F
100
AcDbEntity
  8
HEWI
100
AcDbSpline
210
-0.0000000000000001
220
-0.0000000000000003
230
1.0
 70
     8
 71
     3
 72
    14
 73
    10
 74
     0
 42
0.000000001
 43
0.0000000001
 40
0.0
 40
0.0
 40
0.0
 40
0.0
 40
0.3766543382939877
 40
0.3766543382939877
 40
0.7533086765879756
 40
0.7533086765879756
 40
1.135751222155823
 40
1.135751222155823
 40
1.51819376772367
 40
1.51819376772367
 40
1.51819376772367
 40
1.51819376772367
 10
369.9019735963261
 20
1988.031926372115
 30
-0.0000000000000017
 10
369.776422150228
 20
1988.031926372115
 30
-0.0000000000000017
 10
369.6426995159536
 20
1988.024583500849
 30
-0.0000000000000018
 10
369.3971205077232
 20
1987.995496376884
 30
-0.0000000000000018
 10
369.2852510370303
 20
1987.973829177356
 30
-0.0000000000000018
 10
369.1073634461482
 20
1987.925171415115
 30
-0.0000000000000018
 10
369.0299283252161
 20
1987.894814225259
 30
-0.0000000000000018
 10
368.9272330380418
 20
1987.831035709241
 30
-0.0000000000000018
 10
368.9019735963261
 20
1987.797679757012
 30
-0.0000000000000019
 10
368.9019735963261
 20
1987.767645434711
 30
-0.0000000000000019
  0
SPLINE
  5
E0D
330
1F
100
AcDbEntity
  8
HEWI
100
AcDbSpline
210
-0.0000000000000002
220
-0.0000000000000004
230
1.0
 70
     8
 71
     3
 72
    14
 73
    10
 74
     0
 42
0.000000001
 43
0.0000000001
 40
-1.51819376772367
 40
-1.51819376772367
 40
-1.51819376772367
 40
-1.51819376772367
 40
-1.135751222155821
 40
-1.135751222155821
 40
-0.7533086765879721
 40
-0.7533086765879721
 40
-0.376654338293986
 40
-0.376654338293986
 40
0.0
 40
0.0
 40
0.0
 40
0.0
 10
398.9019735963261
 20
1987.767645434711
 30
0.0000000000000018
 10
398.9019735963261
 20
1987.797679757012
 30
0.0000000000000018
 10
398.87671415461
 20
1987.831035709241
 30
0.0000000000000018
 10
398.7740188674361
 20
1987.894814225259
 30
0.0000000000000018
 10
398.6965837465041
 20
1987.925171415115
 30
0.0000000000000018
 10
398.5186961556219
 20
1987.973829177356
 30
0.0000000000000018
 10
398.406826684929
 20
1987.995496376884
 30
0.0000000000000018
 10
398.1612476766981
 20
1988.024583500849
 30
0.0000000000000017
 10
398.0275250424238
 20
1988.031926372115
 30
0.0000000000000017
 10
397.9019735963261
 20
1988.031926372115
 30
0.0000000000000017
  0
LINE
  5
E0E
330
1F
100
AcDbEntity
  8
HEWI
100
AcDbLine
 10
401.4019735963261
 20
1987.204653336773
 30
0.0000000000000021
 11
401.4019735963261
 21
2027.204698425427
 31
0.0000000000000021
210
0.0
220
1.0
230
0.0
  0
LINE
  5
E0F
330
1F
100
AcDbEntity
  8
HEWI
100
AcDbLine
 10
407.9019735963261
 20
2007.2046758811
 30
0.0000000000000029
 11
407.9019735963261
 21
1987.2046758811
 31
0.0000000000000029
210
0.0
220
1.0
230
0.0
  0
LINE
  5
E10
330
1F
100
AcDbEntity
  8
HEWI
100
AcDbLine
 10
407.9019735963261
 20
2027.2046758811
 30
0.0000000000000029
 11
407.9019735963261
 21
2007.2046758811
 31
0.0000000000000029
210
0.0
220
1.0
230
0.0
  0
LINE
  5
E11
330
1F
100
AcDbEntity
  8
HEWI
100
AcDbLine
 10
366.4019735963261
 20
2027.204698425427
 30
-0.0000000000000022
 11
366.4019735963261
 21
1987.204653336773
 31
-0.0000000000000022
210
0.0
220
1.0
230
0.0
  0
LINE
  5
E12
330
1F
100
AcDbEntity
  8
HEWI
100
AcDbLine
 10
359.9019735963261
 20
2007.2046758811
 30
-0.000000000000003
 11
359.9019735963261
 21
1987.2046758811
 31
-0.000000000000003
210
0.0
220
1.0
230
0.0
  0
LINE
  5
E13
330
1F
100
AcDbEntity
  8
HEWI
100
AcDbLine
 10
359.9019735963261
 20
2027.2046758811
 30
-0.000000000000003
 11
359.9019735963261
 21
2007.2046758811
 31
-0.000000000000003
210
0.0
220
1.0
230
0.0
  0
LINE
  5
E14
330
1F
100
AcDbEntity
  8
HEWI
100
AcDbLine
 10
402.9019735963247
 20
1919.2046758811
 30
0.0000000000000023
 11
364.9019735963257
 21
1919.2046758811
 31
-0.0000000000000023
210
0.0
220
1.0
230
0.0
  0
LINE
  5
E15
330
1F
100
AcDbEntity
  8
HEWI
100
AcDbLine
 10
416.6019735963259
 20
2007.204675881089
 30
0.000000000000004
 11
416.6019735963259
 21
1987.204675881088
 31
0.000000000000004
210
0.0
220
1.0
230
0.0
  0
LINE
  5
E16
330
1F
100
AcDbEntity
  8
HEWI
100
AcDbLine
 10
416.6019735963259
 20
2027.204675881089
 30
0.000000000000004
 11
416.6019735963259
 21
2007.204675881087
 31
0.000000000000004
210
0.0
220
1.0
230
0.0
  0
LINE
  5
E17
330
1F
100
AcDbEntity
  8
HEWI
100
AcDbLine
 10
408.1019735963259
 20
1987.204675881088
 30
0.0000000000000029
 11
408.1019735963259
 21
2027.204675881089
 31
0.0000000000000029
210
0.0
220
1.0
230
0.0
  0
LINE
  5
E18
330
1F
100
AcDbEntity
  8
HEWI
100
AcDbLine
 10
359.7019735963263
 20
2025.204675881078
 30
-0.000000000000003
 11
359.9019735963261
 21
2025.204675881078
 31
-0.000000000000003
210
0.0
220
1.0
230
0.0
  0
LINE
  5
E19
330
1F
100
AcDbEntity
  8
HEWI
100
AcDbLine
 10
407.9019735963261
 20
2025.204675881078
 30
0.0000000000000029
 11
408.1019735963259
 21
2025.204675881078
 31
0.0000000000000029
210
0.0
220
1.0
230
0.0
  0
LINE
  5
E1A
330
1F
100
AcDbEntity
  8
HEWI
100
AcDbLine
 10
408.1019735963255
 20
2022.504675881078
 30
0.0000000000000029
 11
407.9019735963261
 21
2022.504675881078
 31
0.0000000000000029
210
0.0
220
1.0
230
0.0
  0
LINE
  5
E1B
330
1F
100
AcDbEntity
  8
HEWI
100
AcDbLine
 10
359.9019735963261
 20
2022.504675881078
 30
-0.000000000000003
 11
359.7019735963268
 21
2022.504675881078
 31
-0.000000000000003
210
0.0
220
1.0
230
0.0
  0
LINE
  5
E1C
330
1F
100
AcDbEntity
  8
HEWI
100
AcDbLine
 10
359.7019735963268
 20
1991.9046758811
 30
-0.000000000000003
 11
359.9019735963261
 21
1991.9046758811
 31
-0.000000000000003
210
0.0
220
1.0
230
0.0
  0
LINE
  5
E1D
330
1F
100
AcDbEntity
  8
HEWI
100
AcDbLine
 10
407.9019735963261
 20
1991.9046758811
 30
0.0000000000000029
 11
408.1019735963255
 21
1991.9046758811
 31
0.0000000000000029
210
0.0
220
1.0
230
0.0
  0
LINE
  5
E1E
330
1F
100
AcDbEntity
  8
HEWI
100
AcDbLine
 10
408.1019735963259
 20
1989.204675881099
 30
0.0000000000000029
 11
407.9019735963261
 21
1989.204675881099
 31
0.0000000000000029
210
0.0
220
1.0
230
0.0
  0
LINE
  5
E1F
330
1F
100
AcDbEntity
  8
HEWI
100
AcDbLine
 10
359.9019735963261
 20
1989.204675881099
 30
-0.000000000000003
 11
359.7019735963263
 21
1989.204675881099
 31
-0.000000000000003
210
0.0
220
1.0
230
0.0
  0
LINE
  5
E20
330
1F
100
AcDbEntity
  8
HEWI
100
AcDbLine
 10
351.2019735963263
 20
2007.204675881089
 30
-0.000000000000004
 11
351.2019735963263
 21
1987.204675881088
 31
-0.000000000000004
210
0.0
220
1.0
230
0.0
  0
LINE
  5
E21
330
1F
100
AcDbEntity
  8
HEWI
100
AcDbLine
 10
351.2019735963263
 20
2027.204675881089
 30
-0.000000000000004
 11
351.2019735963263
 21
2007.204675881087
 31
-0.000000000000004
210
0.0
220
1.0
230
0.0
  0
LINE
  5
E22
330
1F
100
AcDbEntity
  8
HEWI
100
AcDbLine
 10
359.7019735963263
 20
1987.204675881088
 30
-0.000000000000003
 11
359.7019735963263
 21
2027.204675881089
 31
-0.000000000000003
210
0.0
220
1.0
230
0.0
  0
LINE
  5
E23
330
1F
100
AcDbEntity
  8
HEWI
100
AcDbLine
 10
418.751973596326
 20
2025.2046758811
 30
0.0000000000000043
 11
418.751973596326
 21
1989.2046758811
 31
0.0000000000000043
210
0.0
220
1.0
230
0.0
  0
LINE
  5
E24
330
1F
100
AcDbEntity
  8
HEWI
100
AcDbLine
 10
416.751973596326
 20
2027.2046758811
 30
0.000000000000004
 11
416.751973596326
 21
1987.2046758811
 31
0.000000000000004
210
0.0
220
1.0
230
0.0
  0
LINE
  5
E25
330
1F
100
AcDbEntity
  8
HEWI
100
AcDbLine
 10
359.7019735963263
 20
2001.547821631608
 30
-0.000000000000003
 11
359.9019735963261
 21
2001.547821631608
 31
-0.000000000000003
210
0.0
220
1.0
230
0.0
  0
LINE
  5
E26
330
1F
100
AcDbEntity
  8
HEWI
100
AcDbLine
 10
359.7019735963263
 20
2001.409120923365
 30
-0.000000000000003
 11
359.9019735963261
 21
2001.409120923365
 31
-0.000000000000003
210
0.0
220
1.0
230
0.0
  0
LINE
  5
E27
330
1F
100
AcDbEntity
  8
HEWI
100
AcDbLine
 10
359.9019735963261
 20
1999.477269270788
 30
-0.000000000000003
 11
359.7019735963263
 21
1999.477269270788
 31
-0.000000000000003
210
0.0
220
1.0
230
0.0
  0
LINE
  5
E28
330
1F
100
AcDbEntity
  8
HEWI
100
AcDbLine
 10
1145.901973596325
 20
1308.704675881078
 30
0.0
 11
1145.901973596325
 21
1238.704675881078
 31
0.0
210
0.0
220
1.0
230
0.0
  0
LINE
  5
E29
330
1F
100
AcDbEntity
  8
HEWI
100
AcDbLine
 10
1133.901973596326
 20
1306.704675881078
 30
-0.0000000000000015
 11
1133.901973596326
 21
1240.704675881078
 31
-0.0000000000000015
210
0.0
220
1.0
230
0.0
  0
ARC
  5
E2A
330
1F
100
AcDbEntity
  8
HEWI
100
AcDbCircle
 10
960.9019735963256
 20
1273.704675881078
 30
-0.0000000000000231
 40
35.0
100
AcDbArc
 50
28.12706821858737
 51
151.8729317814126
  0
ARC
  5
E2B
330
1F
100
AcDbEntity
  8
HEWI
100
AcDbCircle
 10
960.9019735963256
 20
1273.704675881078
 30
-0.0000000000000231
 40
35.0
100
AcDbArc
 50
208.1270682185866
 51
331.8729317814126
  0
ARC
  5
E2C
330
1F
100
AcDbEntity
  8
HEWI
100
AcDbCircle
 10
960.9019735963256
 20
1273.704675881078
 30
-0.0000000000000231
 40
16.8
100
AcDbArc
 50
79.15593743629887
 51
100.8440625637011
  0
ARC
  5
E2D
330
1F
100
AcDbEntity
  8
HEWI
100
AcDbCircle
 10
960.9019735963256
 20
1273.704675881078
 30
-0.0000000000000231
 40
16.8
100
AcDbArc
 50
259.1559374362988
 51
280.8440625637011
  0
ARC
  5
E2E
330
1F
100
AcDbEntity
  8
HEWI
100
AcDbCircle
 10
383.9019735963261
 20
1388.704675881078
 30
0.0
 40
35.0
100
AcDbArc
 50
118.1270682186022
 51
180.0
  0
ARC
  5
E2F
330
1F
100
AcDbEntity
  8
HEWI
100
AcDbCircle
 10
383.9019735963261
 20
1388.704675881078
 30
0.0
 40
35.0
100
AcDbArc
 50
298.1270682186022
 51
61.87293178139782
  0
ARC
  5
E30
330
1F
100
AcDbEntity
  8
HEWI
100
AcDbCircle
 10
383.9019735963261
 20
1388.704675881078
 30
0.0
 40
35.0
100
AcDbArc
 50
180.0
 51
241.8729317813978
  0
ARC
  5
E31
330
1F
100
AcDbEntity
  8
HEWI
100
AcDbCircle
 10
383.9019735963261
 20
1388.704675881078
 30
0.0
 40
16.8
100
AcDbArc
 50
169.1559374362922
 51
180.0
  0
ARC
  5
E32
330
1F
100
AcDbEntity
  8
HEWI
100
AcDbCircle
 10
383.9019735963261
 20
1388.704675881078
 30
0.0
 40
16.8
100
AcDbArc
 50
349.1559374362922
 51
10.84406256370781
  0
ARC
  5
E33
330
1F
100
AcDbEntity
  8
HEWI
100
AcDbCircle
 10
383.9019735963261
 20
1388.704675881078
 30
0.0
 40
16.8
100
AcDbArc
 50
180.0
 51
190.8440625637078
  0
ARC
  5
E34
330
1F
100
AcDbEntity
  8
HEWI
100
AcDbCircle
 10
383.9019735963261
 20
2523.704675881079
 30
0.0
 40
35.0
100
AcDbArc
 50
298.1270682186021
 51
180.0
  0
ARC
  5
E35
330
1F
100
AcDbEntity
  8
HEWI
100
AcDbCircle
 10
383.9019735963261
 20
2523.704675881079
 30
0.0
 40
35.0
100
AcDbArc
 50
180.0
 51
241.8729317813979
  0
ARC
  5
E36
330
1F
100
AcDbEntity
  8
HEWI
100
AcDbCircle
 10
383.9019735963261
 20
2523.704675881079
 30
0.0
 40
16.8
100
AcDbArc
 50
349.1559374362922
 51
180.0
  0
ARC
  5
E37
330
1F
100
AcDbEntity
  8
HEWI
100
AcDbCircle
 10
383.9019735963261
 20
2523.704675881079
 30
0.0
 40
16.8
100
AcDbArc
 50
180.0
 51
190.8440625637078
  0
LINE
  5
E38
330
1F
100
AcDbEntity
  8
HEWI
100
AcDbLine
 10
1135.901973596327
 20
1238.704675881078
 30
-0.0000000000000012
 11
1145.901973596325
 21
1238.704675881078
 31
0.0
210
0.0
220
1.0
230
0.0
  0
LINE
  5
E39
330
1F
100
AcDbEntity
  8
HEWI
100
AcDbLine
 10
1135.901973596327
 20
1308.704675881078
 30
-0.0000000000000012
 11
1145.901973596325
 21
1308.704675881078
 31
0.0
210
0.0
220
1.0
230
0.0
  0
LINE
  5
E3A
330
1F
100
AcDbEntity
  8
HEWI
100
AcDbLine
 10
407.9019735963261
 20
1999.204675881101
 30
0.0000000000000029
 11
408.1019735963259
 21
1999.204675881101
 31
0.0000000000000029
210
0.0
220
1.0
230
0.0
  0
LINE
  5
E3B
330
1F
100
AcDbEntity
  8
HEWI
100
AcDbLine
 10
359.7019735963263
 20
1999.204675881101
 30
-0.000000000000003
 11
359.9019735963261
 21
1999.204675881101
 31
-0.000000000000003
210
0.0
220
1.0
230
0.0
  0
LINE
  5
E3C
330
1F
100
AcDbEntity
  8
HEWI
100
AcDbLine
 10
407.9019735963261
 20
2015.204675881101
 30
0.0000000000000029
 11
408.1019735963259
 21
2015.204675881101
 31
0.0000000000000029
210
0.0
220
1.0
230
0.0
  0
LINE
  5
E3D
330
1F
100
AcDbEntity
  8
HEWI
100
AcDbLine
 10
359.7019735963263
 20
2015.204675881101
 30
-0.000000000000003
 11
359.9019735963261
 21
2015.204675881101
 31
-0.000000000000003
210
0.0
220
1.0
230
0.0
  0
LINE
  5
E3E
330
1F
100
AcDbEntity
  8
HEWI
100
AcDbLine
 10
416.6019735963259
 20
1989.8046758811
 30
0.000000000000004
 11
416.751973596326
 21
1989.8046758811
 31
0.000000000000004
210
0.0
220
1.0
230
0.0
  0
LINE
  5
E3F
330
1F
100
AcDbEntity
  8
HEWI
100
AcDbLine
 10
416.6019735963259
 20
2024.6046758811
 30
0.000000000000004
 11
416.751973596326
 21
2024.6046758811
 31
0.000000000000004
210
0.0
220
1.0
230
0.0
  0
LINE
  5
E40
330
1F
100
AcDbEntity
  8
HEWI
100
AcDbLine
 10
359.7019735963263
 20
2027.204675881089
 30
-0.000000000000003
 11
351.2019735963263
 21
2027.204675881089
 31
-0.000000000000004
210
0.0
220
1.0
230
0.0
  0
LINE
  5
E41
330
1F
100
AcDbEntity
  8
HEWI
100
AcDbLine
 10
359.7019735963263
 20
1987.204675881088
 30
-0.000000000000003
 11
351.2019735963263
 21
1987.204675881088
 31
-0.000000000000004
210
0.0
220
1.0
230
0.0
  0
LINE
  5
E42
330
1F
100
AcDbEntity
  8
HEWI
100
AcDbLine
 10
416.6019735963259
 20
2027.204675881089
 30
0.000000000000004
 11
408.1019735963259
 21
2027.204675881089
 31
0.0000000000000029
210
0.0
220
1.0
230
0.0
  0
LINE
  5
E43
330
1F
100
AcDbEntity
  8
HEWI
100
AcDbLine
 10
416.6019735963259
 20
1987.204675881088
 30
0.000000000000004
 11
408.1019735963259
 21
1987.204675881088
 31
0.0000000000000029
210
0.0
220
1.0
230
0.0
  0
LINE
  5
E44
330
1F
100
AcDbEntity
  8
HEWI
100
AcDbLine
 10
403.6019735963249
 20
1919.9046758811
 30
0.0000000000000024
 11
403.6019735963249
 21
1931.117782264521
 31
0.0000000000000024
210
0.0
220
1.0
230
0.0
  0
LINE
  5
E45
330
1F
100
AcDbEntity
  8
HEWI
100
AcDbLine
 10
403.6019735963249
 20
1952.790064047661
 30
0.0000000000000024
 11
403.6019735963255
 21
1987.2046758811
 31
0.0000000000000024
210
0.0
220
1.0
230
0.0
  0
LINE
  5
E46
330
1F
100
AcDbEntity
  8
HEWI
100
AcDbLine
 10
364.2019735963254
 20
1919.9046758811
 30
-0.0000000000000024
 11
364.2019735963254
 21
1931.117782264524
 31
-0.0000000000000024
210
0.0
220
1.0
230
0.0
  0
LINE
  5
E47
330
1F
100
AcDbEntity
  8
HEWI
100
AcDbLine
 10
364.2019735963254
 20
1952.790064047658
 30
-0.0000000000000024
 11
364.2019735963259
 21
1987.2046758811
 31
-0.0000000000000024
210
0.0
220
1.0
230
0.0
  0
LINE
  5
E48
330
1F
100
AcDbEntity
  8
HEWI
100
AcDbLine
 10
366.4019735963261
 20
2027.2046758811
 30
-0.0000000000000022
 11
359.9019735963261
 21
2027.2046758811
 31
-0.000000000000003
210
0.0
220
1.0
230
0.0
  0
LINE
  5
E49
330
1F
100
AcDbEntity
  8
HEWI
100
AcDbLine
 10
366.4019735963261
 20
1987.2046758811
 30
-0.0000000000000022
 11
359.9019735963261
 21
1987.2046758811
 31
-0.000000000000003
210
0.0
220
1.0
230
0.0
  0
LINE
  5
E4A
330
1F
100
AcDbEntity
  8
HEWI
100
AcDbLine
 10
407.9019735963261
 20
2027.2046758811
 30
0.0000000000000029
 11
401.4019735963261
 21
2027.2046758811
 31
0.0000000000000021
210
0.0
220
1.0
230
0.0
  0
LINE
  5
E4B
330
1F
100
AcDbEntity
  8
HEWI
100
AcDbLine
 10
407.9019735963261
 20
1987.2046758811
 30
0.0000000000000029
 11
401.4019735963261
 21
1987.2046758811
 31
0.0000000000000021
210
0.0
220
1.0
230
0.0
  0
LINE
  5
E4C
330
1F
100
AcDbEntity
  8
HEWI
100
AcDbLine
 10
401.4019735963261
 20
2027.204698425427
 30
0.0000000000000021
 11
366.4019735963261
 21
2027.204698425427
 31
-0.0000000000000022
210
0.0
220
1.0
230
0.0
  0
LINE
  5
E4D
330
1F
100
AcDbEntity
  8
HEWI
100
AcDbLine
 10
368.9019735963261
 20
1987.204653336773
 30
-0.0000000000000019
 11
366.4019735963261
 21
1987.204653336773
 31
-0.0000000000000022
210
0.0
220
1.0
230
0.0
  0
LINE
  5
E4E
330
1F
100
AcDbEntity
  8
HEWI
100
AcDbLine
 10
401.4019735963261
 20
1987.204653336773
 30
0.0000000000000021
 11
398.9019735963261
 21
1987.204653336773
 31
0.0000000000000018
210
0.0
220
1.0
230
0.0
  0
LINE
  5
E4F
330
1F
100
AcDbEntity
  8
HEWI
100
AcDbLine
 10
326.551973596328
 20
1987.2046758811
 30
-0.000000000000007
 11
351.051973596328
 21
1987.2046758811
 31
-0.000000000000004
210
0.0
220
1.0
230
0.0
  0
LINE
  5
E50
330
1F
100
AcDbEntity
  8
HEWI
100
AcDbLine
 10
326.551973596328
 20
2027.2046758811
 30
-0.000000000000007
 11
351.051973596328
 21
2027.2046758811
 31
-0.000000000000004
210
0.0
220
1.0
230
0.0
  0
LINE
  5
E51
330
1F
100
AcDbEntity
  8
HEWI
100
AcDbLine
 10
329.873787533812
 20
2013.67287441662
 30
-0.0000000000000066
 11
329.2212124118705
 21
2013.67287441662
 31
-0.0000000000000067
210
0.0
220
1.0
230
0.0
  0
LINE
  5
E52
330
1F
100
AcDbEntity
  8
HEWI
100
AcDbLine
 10
351.051973596328
 20
1989.8046758811
 30
-0.000000000000004
 11
351.2019735963263
 21
1989.8046758811
 31
-0.000000000000004
210
0.0
220
1.0
230
0.0
  0
LINE
  5
E53
330
1F
100
AcDbEntity
  8
HEWI
100
AcDbLine
 10
351.051973596328
 20
2024.6046758811
 30
-0.000000000000004
 11
351.2019735963263
 21
2024.6046758811
 31
-0.000000000000004
210
0.0
220
1.0
230
0.0
  0
LINE
  5
E54
330
1F
100
AcDbEntity
  8
HEWI
100
AcDbLine
 10
1027.901973596325
 20
1290.204675881078
 30
-0.0000000000000149
 11
432.401973596326
 21
1290.204675881078
 31
0.0000000000000059
210
0.0
220
1.0
230
0.0
  0
LINE
  5
E55
330
1F
100
AcDbEntity
  8
HEWI
100
AcDbLine
 10
1027.901973596325
 20
1257.204675881078
 30
-0.0000000000000149
 11
432.401973596326
 21
1257.204675881078
 31
0.0000000000000059
210
0.0
220
1.0
230
0.0
  0
LINE
  5
E56
330
1F
100
AcDbEntity
  8
HEWI
100
AcDbLine
 10
1133.901973596326
 20
1290.204675881078
 30
-0.0000000000000017
 11
1122.901973596327
 21
1290.204675881078
 31
-0.0000000000000031
210
0.0
220
1.0
230
0.0
  0
LINE
  5
E57
330
1F
100
AcDbEntity
  8
HEWI
100
AcDbLine
 10
1133.901973596326
 20
1257.204675881078
 30
-0.0000000000000017
 11
1122.901973596327
 21
1257.204675881078
 31
-0.0000000000000031
210
0.0
220
1.0
230
0.0
  0
LINE
  5
E58
330
1F
100
AcDbEntity
  8
HEWI
100
AcDbLine
 10
367.4019735963261
 20
2492.838027212977
 30
-0.000000000000002
 11
367.4019735963261
 21
2027.204698425427
 31
-0.000000000000002
210
0.0
220
1.0
230
0.0
  0
LINE
  5
E59
330
1F
100
AcDbEntity
  8
HEWI
100
AcDbLine
 10
367.4019735963261
 20
1919.2046758811
 30
-0.000000000000002
 11
367.4019735963261
 21
1322.204675881078
 31
-0.000000000000002
210
0.0
220
1.0
230
0.0
  0
LINE
  5
E5A
330
1F
100
AcDbEntity
  8
HEWI
100
AcDbLine
 10
400.4019735963261
 20
2492.838027212977
 30
0.000000000000002
 11
400.4019735963261
 21
2027.204698425427
 31
0.000000000000002
210
0.0
220
1.0
230
0.0
  0
LINE
  5
E5B
330
1F
100
AcDbEntity
  8
HEWI
100
AcDbLine
 10
400.4019735963261
 20
1919.2046758811
 30
0.000000000000002
 11
400.4019735963261
 21
1322.204675881078
 31
0.000000000000002
210
0.0
220
1.0
230
0.0
  0
ARC
  5
E5C
330
1F
100
AcDbEntity
  8
HEWI
100
AcDbCircle
 10
1135.901973596327
 20
1306.704675881078
 30
-0.0000000000000012
 40
2.0
100
AcDbArc
 50
90.0
 51
180.0
  0
ARC
  5
E5D
330
1F
100
AcDbEntity
  8
HEWI
100
AcDbCircle
 10
1135.901973596327
 20
1240.704675881078
 30
-0.0000000000000012
 40
2.0
100
AcDbArc
 50
180.0
 51
270.0
  0
ARC
  5
E5E
330
1F
100
AcDbEntity
  8
HEWI
100
AcDbCircle
 10
416.751973596326
 20
2025.2046758811
 30
0.000000000000004
 40
1.999999999999999
100
AcDbArc
 50
0.0
 51
90.0
  0
ARC
  5
E5F
330
1F
100
AcDbEntity
  8
HEWI
100
AcDbCircle
 10
416.751973596326
 20
1989.2046758811
 30
0.000000000000004
 40
1.999999999999999
100
AcDbArc
 50
270.0
 51
0.0
  0
ARC
  5
E60
330
1F
100
AcDbEntity
  8
HEWI
100
AcDbCircle
 10
364.9019735963257
 20
1919.9046758811
 30
-0.0000000000000023
 40
0.6999999999999319
100
AcDbArc
 50
179.999999999987
 51
270.0
  0
ARC
  5
E61
330
1F
100
AcDbEntity
  8
HEWI
100
AcDbCircle
 10
402.9019735963247
 20
1919.9046758811
 30
0.0000000000000023
 40
0.6999999999999319
100
AcDbArc
 50
270.0
 51
0.0
  0
SPLINE
  5
E62
330
1F
100
AcDbEntity
  8
HEWI
100
AcDbSpline
210
-0.0000000000000001
220
0.0
230
1.0
 70
     8
 71
     3
 72
    35
 73
    31
 74
     0
 42
0.000000001
 43
0.0000000001
 40
132.3072857087884
 40
132.3072857087884
 40
132.3072857087884
 40
132.3072857087884
 40
136.7855331455956
 40
136.7855331455956
 40
141.755570234172
 40
141.755570234172
 40
141.755570234172
 40
150.5350853175938
 40
150.5350853175938
 40
159.315806993731
 40
159.315806993731
 40
168.1015031155489
 40
168.1015031155489
 40
176.8930034281765
 40
176.8930034281765
 40
185.6877688664799
 40
185.6877688664799
 40
194.4814480186248
 40
194.4814480186248
 40
203.2703476028044
 40
203.2703476028044
 40
212.0534605094474
 40
212.0534605094474
 40
220.833091053498
 40
220.833091053498
 40
229.6136189378001
 40
229.6136189378001
 40
238.3989428851335
 40
238.3989428851335
 40
241.1243396664098
 40
241.1243396664098
 40
241.1243396664098
 40
241.1243396664098
 10
368.901973605467
 20
1958.671969243746
 30
-0.0000000000000019
 10
367.7896744514864
 20
1957.680211943462
 30
-0.000000000000002
 10
366.7787360073762
 20
1956.580265817005
 30
-0.0000000000000021
 10
364.8917009264824
 20
1954.065244045221
 30
-0.0000000000000023
 10
364.0486776817697
 20
1952.63692108407
 30
-0.0000000000000024
 10
363.3706639091279
 20
1951.129226194187
 30
-0.0000000000000025
 10
362.1729601420152
 20
1948.465899987358
 30
-0.0000000000000027
 10
361.5081261129044
 20
1945.594830912318
 30
-0.0000000000000028
 10
361.319222216719
 20
1939.759529901751
 30
-0.0000000000000028
 10
361.7971222855808
 20
1936.851270961781
 30
-0.0000000000000027
 10
363.8442555418469
 20
1931.379426044224
 30
-0.0000000000000025
 10
365.3944600876275
 20
1928.868534312682
 30
-0.0000000000000023
 10
369.3738806901388
 20
1924.5792314186
 30
-0.0000000000000018
 10
371.7655609043991
 20
1922.842379814941
 30
-0.0000000000000015
 10
377.0827199090991
 20
1920.380377645008
 30
-0.0000000000000009
 10
379.9576107587377
 20
1919.679114648926
 30
-0.0000000000000005
 10
385.814557167439
 20
1919.415275627874
 30
0.0000000000000002
 10
388.7407700177401
 20
1919.855073860207
 30
0.0000000000000006
 10
394.2577718128509
 20
1921.828189967692
 30
0.0000000000000013
 10
396.7961518467068
 20
1923.34210719775
 30
0.0000000000000016
 10
401.1466599712739
 20
1927.253980189696
 30
0.0000000000000021
 10
402.9177112840402
 20
1929.613997085678
 30
0.0000000000000023
 10
405.4526160286068
 20
1934.877381209795
 30
0.0000000000000026
 10
406.192589707135
 20
1937.730135191475
 30
0.0000000000000027
 10
406.5345853372036
 20
1943.558459013109
 30
0.0000000000000028
 10
406.133208655422
 20
1946.478126824794
 30
0.0000000000000027
 10
404.2304921395889
 20
1952.001364054216
 30
0.0000000000000025
 10
402.7468136699626
 20
1954.551765590823
 30
0.0000000000000023
 10
400.2154763836456
 20
1957.427783139991
 30
0.000000000000002
 10
399.5765452154201
 20
1958.070499245594
 30
0.0000000000000019
 10
398.9019699720766
 20
1958.671965185794
 30
0.0000000000000018
  0
SPLINE
  5
E63
330
1F
100
AcDbEntity
  8
HEWI
100
AcDbSpline
210
-0.0000000000000055
220
-0.0000000000000074
230
1.0
 70
     8
 71
     3
 72
    24
 73
    20
 74
     0
 42
0.000000001
 43
0.0000000001
 40
0.0
 40
0.0
 40
0.0
 40
0.0
 40
0.0069048122861337
 40
0.0069048122861337
 40
0.0247659201958065
 40
0.0247659201958065
 40
0.0545551747126454
 40
0.0545551747126454
 40
0.064355803429052
 40
0.064355803429052
 40
0.0859948263386695
 40
0.0859948263386695
 40
0.1473005414935413
 40
0.1473005414935413
 40
0.1844537936440395
 40
0.1844537936440395
 40
0.205942164416787
 40
0.205942164416787
 40
0.2061964735894092
 40
0.2061964735894092
 40
0.2061964735894092
 40
0.2061964735894092
 10
330.5202102320509
 20
2013.471265471162
 30
-0.0000000000000066
 10
330.5220985549918
 20
2013.470303553026
 30
-0.0000000000000066
 10
330.5239822902095
 20
2013.469334924408
 30
-0.0000000000000066
 10
330.5307223084187
 20
2013.465836775713
 30
-0.0000000000000066
 10
330.5355524789602
 20
2013.463269287627
 30
-0.0000000000000066
 10
330.5483565799414
 20
2013.456302484779
 30
-0.0000000000000065
 10
330.5562753758941
 20
2013.451825120345
 30
-0.0000000000000065
 10
330.5666867122254
 20
2013.445716450478
 30
-0.0000000000000065
 10
330.5692548147636
 20
2013.444191386208
 30
-0.0000000000000065
 10
330.577463567995
 20
2013.439258218821
 30
-0.0000000000000065
 10
330.5830681174616
 20
2013.435801001095
 30
-0.0000000000000065
 10
330.6043806199568
 20
2013.422315745349
 30
-0.0000000000000065
 10
330.6197629686203
 20
2013.411868404567
 30
-0.0000000000000065
 10
330.6439224630767
 20
2013.394348888424
 30
-0.0000000000000065
 10
330.6529076861843
 20
2013.387573386008
 30
-0.0000000000000065
 10
330.6668958088108
 20
2013.376626050456
 30
-0.0000000000000065
 10
330.6719791636201
 20
2013.372561936865
 30
-0.0000000000000065
 10
330.6770815855298
 20
2013.368397327236
 30
-0.0000000000000065
 10
330.6771412592088
 20
2013.368348609532
 30
-0.0000000000000065
 10
330.6772009270517
 20
2013.368299884701
 30
-0.0000000000000065
  0
SPLINE
  5
E64
330
1F
100
AcDbEntity
  8
HEWI
100
AcDbSpline
210
0.0
220
0.0
230
1.0
 70
     8
 71
     3
 72
    18
 73
    14
 74
     0
 42
0.000000001
 43
0.0000000001
 40
0.2039001700724437
 40
0.2039001700724437
 40
0.2039001700724437
 40
0.2039001700724437
 40
0.4140914887339405
 40
0.4140914887339405
 40
0.5531594004309192
 40
0.5531594004309192
 40
0.9342624836310184
 40
0.9342624836310184
 40
1.05871585154823
 40
1.05871585154823
 40
1.209079350124788
 40
1.209079350124788
 40
1.267392488841178
 40
1.267392488841178
 40
1.267392488841178
 40
1.267392488841178
 10
329.8737472044049
 20
2013.672970036024
 30
-0.0000000000000066
 10
329.9221257622548
 20
2013.672977267065
 30
-0.0000000000000066
 10
329.9680626220275
 20
2013.667420125926
 30
-0.0000000000000066
 10
330.0353245564533
 20
2013.655617766413
 30
-0.0000000000000066
 10
330.0622655255079
 20
2013.649732683877
 30
-0.0000000000000066
 10
330.1634681268561
 20
2013.623993632696
 30
-0.0000000000000066
 10
330.2389427018324
 20
2013.597662952749
 30
-0.0000000000000066
 10
330.3410224339764
 20
2013.55556532447
 30
-0.0000000000000066
 10
330.3662804202117
 20
2013.544624786846
 30
-0.0000000000000066
 10
330.4223115834784
 20
2013.519307514169
 30
-0.0000000000000066
 10
330.4531422950627
 20
2013.504687885016
 30
-0.0000000000000066
 10
330.4961246671551
 20
2013.483445098893
 30
-0.0000000000000066
 10
330.5081576803359
 20
2013.47740508205
 30
-0.0000000000000066
 10
330.5202102320668
 20
2013.471265471154
 30
-0.0000000000000066
  0
SPLINE
  5
E65
330
1F
100
AcDbEntity
  8
HEWI
100
AcDbSpline
210
-0.0000000000000001
220
0.0
230
1.0
 70
     8
 71
     3
 72
    20
 73
    16
 74
     0
 42
0.000000001
 43
0.0000000001
 40
1.736023434719417
 40
1.736023434719417
 40
1.736023434719417
 40
1.736023434719417
 40
4.481724718735246
 40
4.481724718735246
 40
8.494256553305275
 40
8.494256553305275
 40
12.23020985304464
 40
12.23020985304464
 40
16.01900340660798
 40
16.01900340660798
 40
20.63191901927132
 40
20.63191901927132
 40
24.5572638423871
 40
24.5572638423871
 40
27.0936601993847
 40
27.0936601993847
 40
27.0936601993847
 40
27.0936601993847
 10
330.677124757472
 20
2013.368150546233
 30
-0.0000000000000065
 10
331.3722978407204
 20
2012.80039266214
 30
-0.0000000000000064
 10
332.1311480808663
 20
2012.295366865778
 30
-0.0000000000000064
 10
334.1230177896377
 20
2011.27975450289
 30
-0.0000000000000061
 10
335.4022037282848
 20
2010.88171007201
 30
-0.000000000000006
 10
337.9773302453791
 20
2010.657546001923
 30
-0.0000000000000056
 10
339.2063134943073
 20
2010.798858143465
 30
-0.0000000000000055
 10
341.5993928476491
 20
2011.532506679501
 30
-0.0000000000000052
 10
342.7263134134678
 20
2012.119588307523
 30
-0.0000000000000051
 10
344.9708263161756
 20
2013.722081851689
 30
-0.0000000000000048
 10
346.0409467094432
 20
2014.807100521153
 30
-0.0000000000000047
 10
347.5928148701641
 20
2016.948480117365
 30
-0.0000000000000045
 10
348.1352752514972
 20
2017.980115650035
 30
-0.0000000000000044
 10
348.6825830740263
 20
2019.638931091823
 30
-0.0000000000000043
 10
348.8056279199795
 20
2020.267391105424
 30
-0.0000000000000043
 10
348.8348600556528
 20
2020.860323930753
 30
-0.0000000000000043
  0
SPLINE
  5
E66
330
1F
100
AcDbEntity
  8
HEWI
100
AcDbSpline
210
0.0000000000000004
220
-0.0000000000000002
230
1.0
 70
     8
 71
     3
 72
    24
 73
    20
 74
     0
 42
0.000000001
 43
0.0000000001
 40
0.0
 40
0.0
 40
0.0
 40
0.0
 40
0.0756974007296981
 40
0.0756974007296981
 40
0.2789853411733985
 40
0.2789853411733985
 40
0.3497529015357024
 40
0.3497529015357024
 40
0.5919349001439281
 40
0.5919349001439281
 40
1.276514795577083
 40
1.276514795577083
 40
1.476316936617529
 40
1.476316936617529
 40
1.827563147590284
 40
1.827563147590284
 40
1.910592365072264
 40
1.910592365072264
 40
1.954297335527741
 40
1.954297335527741
 40
1.954297335527741
 40
1.954297335527741
 10
325.551973596328
 20
2009.296435883141
 30
-0.0000000000000072
 10
325.551973596328
 20
2009.31752539989
 30
-0.0000000000000072
 10
325.5527361300069
 20
2009.338696782007
 30
-0.0000000000000072
 10
325.5579314566162
 20
2009.416725778119
 30
-0.0000000000000072
 10
325.5663696149777
 20
2009.474305895684
 30
-0.0000000000000072
 10
325.5822674739875
 20
2009.552650855582
 30
-0.0000000000000072
 10
325.5867851273797
 20
2009.572943047499
 30
-0.0000000000000072
 10
325.6084222008212
 20
2009.662915161257
 30
-0.0000000000000072
 10
325.6295489012055
 20
2009.733298449505
 30
-0.0000000000000072
 10
325.7233228376918
 20
2010.003903941387
 30
-0.0000000000000071
 10
325.8204283784043
 20
2010.209762584895
 30
-0.0000000000000071
 10
325.9670124889731
 20
2010.465086574455
 30
-0.0000000000000071
 10
326.0017409315824
 20
2010.522385163583
 30
-0.0000000000000071
 10
326.1014434291901
 20
2010.678234973054
 30
-0.0000000000000071
 10
326.1698412122728
 20
2010.775864047908
 30
-0.0000000000000071
 10
326.2591929592741
 20
2010.891044034991
 30
-0.0000000000000071
 10
326.2765161825091
 20
2010.912844078126
 30
-0.0000000000000071
 10
326.3033038270791
 20
2010.94571068643
 30
-0.0000000000000071
 10
326.3126065355164
 20
2010.95697325248
 30
-0.0000000000000071
 10
326.3219721428777
 20
2010.968156900383
 30
-0.0000000000000071
  0
SPLINE
  5
E67
330
1F
100
AcDbEntity
  8
HEWI
100
AcDbSpline
210
-0.0000000000000003
220
0.0000000000000004
230
1.0
 70
     8
 71
     3
 72
    18
 73
    14
 74
     0
 42
0.000000001
 43
0.0000000001
 40
1.654074785728808
 40
1.654074785728808
 40
1.654074785728808
 40
1.654074785728808
 40
1.715582394945186
 40
1.715582394945186
 40
1.90297020920732
 40
1.90297020920732
 40
2.03173417515012
 40
2.03173417515012
 40
2.255265240814857
 40
2.255265240814857
 40
2.814065232784983
 40
2.814065232784983
 40
3.138692671708189
 40
3.138692671708189
 40
3.138692671708189
 40
3.138692671708189
 10
328.1738355232887
 20
2013.077403920943
 30
-0.0000000000000068
 10
328.1875071217119
 20
2013.092270723041
 30
-0.0000000000000068
 10
328.2013128395097
 20
2013.106918750381
 30
-0.0000000000000068
 10
328.2576403953226
 20
2013.165270045279
 30
-0.0000000000000068
 10
328.301177527961
 20
2013.207159290341
 30
-0.0000000000000068
 10
328.3757721432921
 20
2013.273995471044
 30
-0.0000000000000068
 10
328.4065105568607
 20
2013.300176040035
 30
-0.0000000000000068
 10
328.4912703613559
 20
2013.368763953272
 30
-0.0000000000000068
 10
328.5458796033154
 20
2013.409025391816
 30
-0.0000000000000068
 10
328.7383744063691
 20
2013.537175038445
 30
-0.0000000000000068
 10
328.8683751610792
 20
2013.59968316188
 30
-0.0000000000000068
 10
329.0572742373597
 20
2013.656651774425
 30
-0.0000000000000067
 10
329.137170101797
 20
2013.672916004859
 30
-0.0000000000000067
 10
329.2212253427415
 20
2013.67288579873
 30
-0.0000000000000067
  0
SPLINE
  5
E68
330
1F
100
AcDbEntity
  8
HEWI
100
AcDbSpline
210
-0.0000000000000001
220
-0.0000000000000001
230
1.0
 70
     8
 71
     3
 72
    10
 73
     6
 74
     0
 42
0.000000001
 43
0.0000000001
 40
0.5238557413347951
 40
0.5238557413347951
 40
0.5238557413347951
 40
0.5238557413347951
 40
3.344927373449298
 40
3.344927373449298
 40
3.375545046730853
 40
3.375545046730853
 40
3.375545046730853
 40
3.375545046730853
 10
326.3219719249355
 20
2010.968157157888
 30
-0.0000000000000071
 10
326.920032774879
 20
2011.68231423089
 30
-0.000000000000007
 10
327.5320812070577
 20
2012.378874027672
 30
-0.0000000000000069
 10
328.1603411429296
 20
2013.062725889905
 30
-0.0000000000000068
 10
328.1670878047353
 20
2013.070065958334
 30
-0.0000000000000068
 10
328.1738356980109
 20
2013.077403794504
 30
-0.0000000000000068
  0
ARC
  5
E69
330
1F
100
AcDbEntity
  8
HEWI
100
AcDbCircle
 10
326.551973596328
 20
1988.2046758811
 30
-0.000000000000007
 40
0.9999999999999998
100
AcDbArc
 50
180.0
 51
270.0
  0
ARC
  5
E6A
330
1F
100
AcDbEntity
  8
HEWI
100
AcDbCircle
 10
326.551973596328
 20
2026.2046758811
 30
-0.000000000000007
 40
0.9999999999999998
100
AcDbArc
 50
90.0
 51
180.0
  0
LINE
  5
E6B
330
1F
100
AcDbEntity
  8
HEWI
100
AcDbLine
 10
400.4019735963261
 20
2475.204675881078
 30
0.000000000000002
 11
400.4019735963261
 21
2523.704675881079
 31
0.000000000000002
210
0.0
220
1.0
230
0.0
  0
LINE
  5
E6C
330
1F
100
AcDbEntity
  8
HEWI
100
AcDbLine
 10
367.4019735963261
 20
2523.704675881079
 30
-0.000000000000002
 11
367.4019735963261
 21
2475.204675881078
 31
-0.000000000000002
210
0.0
220
1.0
230
0.0
  0
ARC
  5
E6D
330
1F
100
AcDbEntity
  8
HEWI
100
AcDbCircle
 10
432.401973596326
 20
1322.204675881078
 30
0.0000000000000059
 40
65.0
100
AcDbArc
 50
180.0
 51
270.0
  0
ARC
  5
E6E
330
1F
100
AcDbEntity
  8
HEWI
100
AcDbCircle
 10
432.401973596326
 20
1322.204675881078
 30
0.0000000000000059
 40
32.0
100
AcDbArc
 50
180.0
 51
270.0
  0
LINE
  5
E6F
330
1F
100
AcDbEntity
  8
HEWI
100
AcDbLine
 10
1076.401973596327
 20
1290.204675881078
 30
-0.000000000000009
 11
1027.901973596325
 21
1290.204675881078
 31
-0.0000000000000149
210
0.0
220
1.0
230
0.0
  0
LINE
  5
E70
330
1F
100
AcDbEntity
  8
HEWI
100
AcDbLine
 10
1027.901973596325
 20
1257.204675881078
 30
-0.0000000000000149
 11
1076.401973596327
 21
1257.204675881078
 31
-0.000000000000009
210
0.0
220
1.0
230
0.0
  0
LINE
  5
E71
330
1F
100
AcDbEntity
  8
HEWI
100
AcDbLine
 10
1074.401973596327
 20
1257.204675881078
 30
-0.000000000000009
 11
1122.901973596327
 21
1257.204675881078
 31
-0.0000000000000031
210
0.0
220
1.0
230
0.0
  0
LINE
  5
E72
330
1F
100
AcDbEntity
  8
HEWI
100
AcDbLine
 10
1122.901973596327
 20
1290.204675881078
 30
-0.0000000000000031
 11
1074.401973596327
 21
1290.204675881078
 31
-0.000000000000009
210
0.0
220
1.0
230
0.0
  0
LINE
  5
E73
330
1F
100
AcDbEntity
  8
HEWI
100
AcDbLine
 10
1428.648277555321
 20
1372.267175881078
 30
0.0000000000000105
 11
1445.148277555321
 21
1388.767175881078
 31
0.0000000000000135
210
0.0
220
1.0
230
0.0
  0
LINE
  5
E74
330
1F
100
AcDbEntity
  8
HEWI
100
AcDbLine
 10
1445.148277555321
 20
1388.767175881078
 30
0.0000000000000135
 11
1428.648277555321
 21
1405.267175881077
 31
0.0000000000000105
210
0.0
220
1.0
230
0.0
  0
ARC
  5
E75
330
1F
100
AcDbEntity
  8
HEWI
100
AcDbCircle
 10
2335.648277555321
 20
1273.767175881078
 30
0.00000000000014
 40
16.5
100
AcDbArc
 50
270.0
 51
90.0
  0
ARC
  5
E76
330
1F
100
AcDbEntity
  8
HEWI
100
AcDbCircle
 10
1445.148277555321
 20
1273.767175881078
 30
0.0000000000000135
 40
16.5
100
AcDbArc
 50
180.0
 51
0.0
  0
ARC
  5
E77
330
1F
100
AcDbEntity
  8
HEWI
100
AcDbCircle
 10
1492.616476090839
 20
2025.463296477979
 30
0.0000000000000222
 40
1.000000000000051
100
AcDbArc
 50
315.0000000000097
 51
73.27371363136006
  0
LINE
  5
E78
330
1F
100
AcDbEntity
  8
HEWI
100
AcDbLine
 10
1469.659263739629
 20
2001.091870564393
 30
0.000000000000018
 11
1493.323582872027
 21
2024.756189696792
 31
0.0000000000000224
210
0.0
220
1.0
230
0.0
  0
ARC
  5
E79
330
1F
100
AcDbEntity
  8
HEWI
100
AcDbCircle
 10
1468.952156958442
 20
2001.79897734558
 30
0.0000000000000179
 40
1.000000000000051
100
AcDbArc
 50
196.7262863686331
 51
315.0000000000097
  0
LINE
  5
E7A
330
1F
100
AcDbEntity
  8
HEWI
100
AcDbLine
 10
1504.637291371012
 20
2013.442481197807
 30
0.0000000000000244
 11
1480.972972238614
 21
1989.778162065408
 31
0.0000000000000201
210
0.0
220
1.0
230
0.0
  0
ARC
  5
E7B
330
1F
100
AcDbEntity
  8
HEWI
100
AcDbCircle
 10
1481.6800790198
 20
1989.071055284222
 30
0.0000000000000202
 40
1.000000000000051
100
AcDbArc
 50
135.0000000000096
 51
253.27371363136
  0
ARC
  5
E7C
330
1F
100
AcDbEntity
  8
HEWI
100
AcDbCircle
 10
1505.344398152199
 20
2012.73537441662
 30
0.0000000000000246
 40
1.000000000000051
100
AcDbArc
 50
16.72628636863311
 51
135.0000000000096
  0
ARC
  5
E7D
330
1F
100
AcDbEntity
  8
HEWI
100
AcDbCircle
 10
1487.14827755532
 20
2007.2671758811
 30
0.0000000000000212
 40
20.0
100
AcDbArc
 50
253.27371363136
 51
259.5567007108248
  0
ARC
  5
E7E
330
1F
100
AcDbEntity
  8
HEWI
100
AcDbCircle
 10
1487.14827755532
 20
2007.2671758811
 30
0.0000000000000212
 40
20.0
100
AcDbArc
 50
259.5567007108248
 51
10.44329928918517
  0
ARC
  5
E7F
330
1F
100
AcDbEntity
  8
HEWI
100
AcDbCircle
 10
1487.14827755532
 20
2007.2671758811
 30
0.0000000000000212
 40
20.0
100
AcDbArc
 50
10.44329928918517
 51
16.72628636863311
  0
ARC
  5
E80
330
1F
100
AcDbEntity
  8
HEWI
100
AcDbCircle
 10
1487.14827755532
 20
2007.2671758811
 30
0.0000000000000212
 40
20.0
100
AcDbArc
 50
73.27371363136006
 51
79.55670071082484
  0
ARC
  5
E81
330
1F
100
AcDbEntity
  8
HEWI
100
AcDbCircle
 10
1487.14827755532
 20
2007.2671758811
 30
0.0000000000000212
 40
20.0
100
AcDbArc
 50
79.55670071082484
 51
190.4432992891852
  0
ARC
  5
E82
330
1F
100
AcDbEntity
  8
HEWI
100
AcDbCircle
 10
1487.14827755532
 20
2007.2671758811
 30
0.0000000000000212
 40
20.0
100
AcDbArc
 50
190.4432992891852
 51
196.7262863686331
  0
SPLINE
  5
E83
330
1F
100
AcDbEntity
  8
HEWI
100
AcDbSpline
210
-0.0000000000000002
220
0.0
230
1.0
 70
     8
 71
     3
 72
    38
 73
    34
 74
     0
 42
0.000000001
 43
0.0000000001
 40
7.989195374219391
 40
7.989195374219391
 40
7.989195374219391
 40
7.989195374219391
 40
8.254479951649056
 40
8.254479951649056
 40
9.559037833637082
 40
9.559037833637082
 40
10.8635957156251
 40
10.8635957156251
 40
12.16815359761313
 40
12.16815359761313
 40
13.47206133512371
 40
13.47206133512371
 40
14.77596907263428
 40
14.77596907263428
 40
16.07987681014485
 40
16.07987681014485
 40
17.38378454765543
 40
17.38378454765543
 40
18.68769228516605
 40
18.68769228516605
 40
19.99160002267667
 40
19.99160002267667
 40
21.29550776018728
 40
21.29550776018728
 40
22.59941549769791
 40
22.59941549769791
 40
23.90397337968593
 40
23.90397337968593
 40
25.20853126167392
 40
25.20853126167392
 40
26.51308914366193
 40
26.51308914366193
 40
26.77837372109186
 40
26.77837372109186
 40
26.77837372109186
 40
26.77837372109186
 10
1492.904302841173
 20
2026.420978457023
 30
0.0000000000000223
 10
1492.968373223798
 20
2026.401724486464
 30
0.0000000000000223
 10
1493.033636587323
 20
2026.381761560908
 30
0.0000000000000223
 10
1493.426535334065
 20
2026.259291136301
 30
0.0000000000000224
 10
1493.780337860434
 20
2026.139696430041
 30
0.0000000000000224
 10
1494.520882715109
 20
2025.862899822875
 30
0.0000000000000226
 10
1494.907810583729
 20
2025.705520899135
 30
0.0000000000000226
 10
1495.688948428805
 20
2025.356948153129
 30
0.0000000000000228
 10
1496.083129396352
 20
2025.165677740079
 30
0.0000000000000229
 10
1496.850130922376
 20
2024.761797916933
 30
0.000000000000023
 10
1497.256050082683
 20
2024.53190794911
 30
0.0000000000000231
 10
1498.085858946273
 20
2024.018514698083
 30
0.0000000000000232
 10
1498.509706804215
 20
2023.734926287418
 30
0.0000000000000233
 10
1499.347778927053
 20
2023.124068524476
 30
0.0000000000000235
 10
1499.76240381435
 20
2022.79643014815
 30
0.0000000000000235
 10
1500.557342520624
 20
2022.115438275255
 30
0.0000000000000237
 10
1500.937649816121
 20
2021.762074867762
 30
0.0000000000000237
 10
1501.643176541982
 20
2021.056548141901
 30
0.0000000000000239
 10
1501.996539949476
 20
2020.676240846404
 30
0.0000000000000239
 10
1502.67753182237
 20
2019.88130214013
 30
0.0000000000000241
 10
1503.005170198695
 20
2019.466677252833
 30
0.0000000000000241
 10
1503.616027961638
 20
2018.628605129994
 30
0.0000000000000242
 10
1503.899616372302
 20
2018.204757272053
 30
0.0000000000000243
 10
1504.41300962333
 20
2017.374948408463
 30
0.0000000000000244
 10
1504.642899591154
 20
2016.969029248156
 30
0.0000000000000244
 10
1505.046779414298
 20
2016.202027722132
 30
0.0000000000000245
 10
1505.238049827348
 20
2015.807846754585
 30
0.0000000000000245
 10
1505.586622573356
 20
2015.026708909508
 30
0.0000000000000246
 10
1505.744001497095
 20
2014.63978104089
 30
0.0000000000000246
 10
1506.020798104262
 20
2013.899236186215
 30
0.0000000000000247
 10
1506.140392810521
 20
2013.545433659846
 30
0.0000000000000247
 10
1506.262863235127
 20
2013.152534913103
 30
0.0000000000000247
 10
1506.282826160683
 20
2013.087271549577
 30
0.0000000000000247
 10
1506.302080131243
 20
2013.023201166953
 30
0.0000000000000247
  0
SPLINE
  5
E84
330
1F
100
AcDbEntity
  8
HEWI
100
AcDbSpline
210
-0.0000000000000002
220
0.0
230
1.0
 70
     8
 71
     3
 72
    46
 73
    42
 74
     0
 42
0.000000001
 43
0.0000000001
 40
-26.25009051702367
 40
-26.25009051702367
 40
-26.25009051702367
 40
-26.25009051702367
 40
-25.19226716828404
 40
-25.19226716828404
 40
-24.06297385938894
 40
-24.06297385938894
 40
-22.97039393615168
 40
-22.97039393615168
 40
-21.87781401291442
 40
-21.87781401291442
 40
-20.78523408967716
 40
-20.78523408967716
 40
-19.69265416643989
 40
-19.69265416643989
 40
-18.59462246291696
 40
-18.59462246291696
 40
-17.49659075939401
 40
-17.49659075939401
 40
-16.39855905587109
 40
-16.39855905587109
 40
-15.30052735234815
 40
-15.30052735234815
 40
-14.20249564882519
 40
-14.20249564882519
 40
-13.10446394530224
 40
-13.10446394530224
 40
-12.00643224177928
 40
-12.00643224177928
 40
-10.90840053825633
 40
-10.90840053825633
 40
-9.815820615019132
 40
-9.815820615019132
 40
-8.723240691781931
 40
-8.723240691781931
 40
-7.630660768544732
 40
-7.630660768544732
 40
-6.538080845307532
 40
-6.538080845307532
 40
-5.408787536412319
 40
-5.408787536412319
 40
-4.350964187672476
 40
-4.350964187672476
 40
-4.350964187672476
 40
-4.350964187672476
 10
1481.392272999737
 20
1988.113367136653
 30
0.0000000000000202
 10
1481.22100390595
 20
1988.164841397788
 30
0.0000000000000201
 10
1481.029272112204
 20
1988.225001572676
 30
0.0000000000000201
 10
1480.605709086052
 20
1988.366172160827
 30
0.00000000000002
 10
1480.37210526224
 20
1988.448370657208
 30
0.00000000000002
 10
1479.906183260103
 20
1988.622822276099
 30
0.0000000000000199
 10
1479.653691229519
 20
1988.72217907279
 30
0.0000000000000198
 10
1479.114025218702
 20
1988.949519911882
 30
0.0000000000000197
 10
1478.82688414342
 20
1989.077557215942
 30
0.0000000000000197
 10
1478.234268701387
 20
1989.360521764502
 30
0.0000000000000196
 10
1477.928663406171
 20
1989.515574063126
 30
0.0000000000000195
 10
1477.317807242517
 20
1989.846426597783
 30
0.0000000000000194
 10
1477.012576459305
 20
1990.022262970927
 30
0.0000000000000194
 10
1476.421304390505
 20
1990.383672102819
 30
0.0000000000000192
 10
1476.10888923786
 20
1990.585394524743
 30
0.0000000000000192
 10
1475.471485315287
 20
1991.025179494323
 30
0.0000000000000191
 10
1475.146520687927
 20
1991.263288134643
 30
0.000000000000019
 10
1474.503577909827
 20
1991.766267463188
 30
0.0000000000000189
 10
1474.185372550888
 20
1992.031354338227
 30
0.0000000000000188
 10
1473.573535325106
 20
1992.573859794408
 30
0.0000000000000187
 10
1473.279903864821
 20
1992.851278324136
 30
0.0000000000000187
 10
1472.732379998357
 20
1993.398802190601
 30
0.0000000000000186
 10
1472.454961468628
 20
1993.692433650886
 30
0.0000000000000185
 10
1471.912456012447
 20
1994.304270876668
 30
0.0000000000000184
 10
1471.647369137407
 20
1994.622476235608
 30
0.0000000000000184
 10
1471.144389808863
 20
1995.265419013707
 30
0.0000000000000183
 10
1470.906281168543
 20
1995.590383641067
 30
0.0000000000000182
 10
1470.466496198963
 20
1996.22778756364
 30
0.0000000000000182
 10
1470.264773777039
 20
1996.540202716284
 30
0.0000000000000181
 10
1469.903364645147
 20
1997.131474785085
 30
0.000000000000018
 10
1469.727528272003
 20
1997.436705568297
 30
0.000000000000018
 10
1469.396675737346
 20
1998.047561731952
 30
0.000000000000018
 10
1469.241623438723
 20
1998.353167027168
 30
0.0000000000000179
 10
1468.958658890163
 20
1998.9457824692
 30
0.0000000000000179
 10
1468.830621586102
 20
1999.232923544482
 30
0.0000000000000179
 10
1468.603280747009
 20
1999.7725895553
 30
0.0000000000000178
 10
1468.503923950319
 20
2000.025081585883
 30
0.0000000000000178
 10
1468.329472331428
 20
2000.491003588019
 30
0.0000000000000178
 10
1468.247273835048
 20
2000.724607411831
 30
0.0000000000000177
 10
1468.106103246896
 20
2001.148170437984
 30
0.0000000000000177
 10
1468.045943072008
 20
2001.33990223173
 30
0.0000000000000177
 10
1467.994468810873
 20
2001.511171325517
 30
0.0000000000000177
  0
LINE
  5
E85
330
1F
100
AcDbEntity
  8
HEWI
100
AcDbLine
 10
1486.957709149671
 20
1954.253330802711
 30
0.0000000000000212
 11
1489.172249022922
 21
1928.941024224905
 31
0.0000000000000216
210
0.0
220
1.0
230
0.0
  0
LINE
  5
E86
330
1F
100
AcDbEntity
  8
HEWI
100
AcDbLine
 10
1496.541708387662
 20
1955.091822087276
 30
0.0000000000000229
 11
1498.756248260912
 21
1929.77951550947
 31
0.0000000000000233
210
0.0
220
1.0
230
0.0
  0
LINE
  5
E87
330
1F
100
AcDbEntity
  8
HEWI
100
AcDbLine
 10
1492.840955136152
 20
1988.094426372115
 30
0.0000000000000223
 11
1495.74578403939
 21
1954.892080077536
 31
0.0000000000000228
210
0.0
220
1.0
230
0.0
  0
SPLINE
  5
E88
330
1F
100
AcDbEntity
  8
HEWI
100
AcDbSpline
210
0.0
220
0.0
230
1.0
 70
     8
 71
     3
 72
    20
 73
    16
 74
     0
 42
0.000000001
 43
0.0000000001
 40
-2.081957642337048
 40
-2.081957642337048
 40
-2.081957642337048
 40
-2.081957642337048
 40
-2.029036545889133
 40
-2.029036545889133
 40
-1.976115449441223
 40
-1.976115449441223
 40
-1.938296586027501
 40
-1.938296586027501
 40
-1.900477722613779
 40
-1.900477722613779
 40
-1.79865290262327
 40
-1.79865290262327
 40
-1.696828082632761
 40
-1.696828082632761
 40
-1.658125044755919
 40
-1.658125044755919
 40
-1.658125044755919
 40
-1.658125044755919
 10
1495.74578403939
 20
1954.892080077536
 30
0.0000000000000228
 10
1495.746927843494
 20
1954.879006336802
 30
0.0000000000000228
 10
1495.747893670195
 20
1954.865528901783
 30
0.0000000000000228
 10
1495.74859585816
 20
1954.843086497182
 30
0.0000000000000228
 10
1495.74830804291
 20
1954.834207208582
 30
0.0000000000000228
 10
1495.746370644765
 20
1954.826165014101
 30
0.0000000000000228
 10
1495.745022144598
 20
1954.824678649084
 30
0.0000000000000228
 10
1495.741332467516
 20
1954.827122238469
 30
0.0000000000000228
 10
1495.738998634579
 20
1954.831011478053
 30
0.0000000000000228
 10
1495.730280540415
 20
1954.849844426287
 30
0.0000000000000228
 10
1495.72325695263
 20
1954.871670151674
 30
0.0000000000000228
 10
1495.708543364502
 20
1954.920894086025
 30
0.0000000000000228
 10
1495.70082641684
 20
1954.948827204014
 30
0.0000000000000228
 10
1495.689875637276
 20
1954.989966148636
 30
0.0000000000000228
 10
1495.686836147826
 20
1955.001543604453
 30
0.0000000000000228
 10
1495.683786991133
 20
1955.013288232019
 30
0.0000000000000228
  0
SPLINE
  5
E89
330
1F
100
AcDbEntity
  8
HEWI
100
AcDbSpline
210
0.0000000000000001
220
0.0000000000000001
230
1.0
 70
     8
 71
     3
 72
    14
 73
    10
 74
     0
 42
0.000000001
 43
0.0000000001
 40
0.649611117407552
 40
0.649611117407552
 40
0.649611117407552
 40
0.649611117407552
 40
0.7333587369340008
 40
0.7333587369340008
 40
1.466717473868001
 40
1.466717473868001
 40
2.251649856864295
 40
2.251649856864295
 40
3.036582239860591
 40
3.036582239860591
 40
3.036582239860591
 40
3.036582239860591
 10
1495.683786991133
 20
1955.013288232019
 30
0.0000000000000228
 10
1495.676935765053
 20
1955.039677528081
 30
0.0000000000000228
 10
1495.669782482126
 20
1955.066061269395
 30
0.0000000000000228
 10
1495.597133105292
 20
1955.323142884496
 30
0.0000000000000228
 10
1495.508165528877
 20
1955.551254905154
 30
0.0000000000000228
 10
1495.306428113034
 20
1955.978651990726
 30
0.0000000000000227
 10
1495.172163353527
 20
1956.216973948232
 30
0.0000000000000227
 10
1494.870413338494
 20
1956.685512626644
 30
0.0000000000000226
 10
1494.703524896344
 20
1956.916303181727
 30
0.0000000000000226
 10
1494.546553896304
 20
1957.125630090385
 30
0.0000000000000226
  0
SPLINE
  5
E8A
330
1F
100
AcDbEntity
  8
HEWI
100
AcDbSpline
210
-0.0000000000000002
220
0.0
230
1.0
 70
     8
 71
     3
 72
    30
 73
    26
 74
     0
 42
0.000000001
 43
0.0000000001
 40
50.21703549202495
 40
50.21703549202495
 40
50.21703549202495
 40
50.21703549202495
 40
50.53039260880385
 40
50.53039260880385
 40
51.29598074329932
 40
51.29598074329932
 40
51.92914302530023
 40
51.92914302530023
 40
52.56230530730113
 40
52.56230530730113
 40
53.12551373138332
 40
53.12551373138332
 40
53.68872215546555
 40
53.68872215546555
 40
54.25193057954776
 40
54.25193057954776
 40
54.81513900362998
 40
54.81513900362998
 40
55.44830128563085
 40
55.44830128563085
 40
56.08146356763175
 40
56.08146356763175
 40
56.84705170212724
 40
56.84705170212724
 40
57.16040881890615
 40
57.16040881890615
 40
57.16040881890615
 40
57.16040881890615
 10
1494.546553896304
 20
1957.125630090385
 30
0.0000000000000226
 10
1494.478980833637
 20
1957.215741386823
 30
0.0000000000000226
 10
1494.407488885914
 20
1957.304892809002
 30
0.0000000000000225
 10
1494.150807854986
 20
1957.602502610695
 30
0.0000000000000225
 10
1493.949391267815
 20
1957.79664466424
 30
0.0000000000000225
 10
1493.585571562001
 20
1958.088234124993
 30
0.0000000000000224
 10
1493.394398041645
 20
1958.219146461742
 30
0.0000000000000224
 10
1492.990117199083
 20
1958.439920700626
 30
0.0000000000000223
 10
1492.776884030174
 20
1958.5295520747
 30
0.0000000000000223
 10
1492.39619457966
 20
1958.648334203348
 30
0.0000000000000222
 10
1492.195093370682
 20
1958.692825398393
 30
0.0000000000000221
 10
1491.788178282295
 20
1958.738442974236
 30
0.0000000000000221
 10
1491.582354213355
 20
1958.739478417117
 30
0.000000000000022
 10
1491.208310716029
 20
1958.706753851435
 30
0.000000000000022
 10
1491.00579337995
 20
1958.669993164768
 30
0.0000000000000219
 10
1490.612981655004
 20
1958.55440855884
 30
0.0000000000000219
 10
1490.422661440203
 20
1958.475672426553
 30
0.0000000000000218
 10
1490.068381818027
 20
1958.292588836002
 30
0.0000000000000218
 10
1489.873952464856
 20
1958.167291612701
 30
0.0000000000000217
 10
1489.514150600965
 20
1957.879668799008
 30
0.0000000000000217
 10
1489.348614124659
 20
1957.717548381384
 30
0.0000000000000216
 10
1489.040955636159
 20
1957.367212190824
 30
0.0000000000000216
 10
1488.876311433335
 20
1957.141043967994
 30
0.0000000000000215
 10
1488.675209363747
 20
1956.803383334651
 30
0.0000000000000215
 10
1488.620284521349
 20
1956.703171876457
 30
0.0000000000000215
 10
1488.569385707753
 20
1956.602695633898
 30
0.0000000000000215
  0
SPLINE
  5
E8B
330
1F
100
AcDbEntity
  8
HEWI
100
AcDbSpline
210
0.0000000000000001
220
-0.0000000000000001
230
1.0
 70
     8
 71
     3
 72
    14
 73
    10
 74
     0
 42
0.000000001
 43
0.0000000001
 40
8.778950683888792
 40
8.778950683888792
 40
8.778950683888792
 40
8.778950683888792
 40
9.563883066885145
 40
9.563883066885145
 40
10.34881544988148
 40
10.34881544988148
 40
11.08217418681549
 40
11.08217418681549
 40
11.16592180634193
 40
11.16592180634193
 40
11.16592180634193
 40
11.16592180634193
 10
1488.569385707753
 20
1956.602695633898
 30
0.0000000000000215
 10
1488.451148686142
 20
1956.369291143235
 30
0.0000000000000215
 10
1488.326872013735
 20
1956.113026941415
 30
0.0000000000000214
 10
1488.111067147134
 20
1955.599208078106
 30
0.0000000000000214
 10
1488.020226344634
 20
1955.341191935828
 30
0.0000000000000214
 10
1487.895770498487
 20
1954.885256637713
 30
0.0000000000000214
 10
1487.84776577616
 20
1954.645161093698
 30
0.0000000000000213
 10
1487.820861860576
 20
1954.379369694094
 30
0.0000000000000213
 10
1487.818398740689
 20
1954.35214462655
 30
0.0000000000000213
 10
1487.816234053298
 20
1954.324966540269
 30
0.0000000000000213
  0
SPLINE
  5
E8C
330
1F
100
AcDbEntity
  8
HEWI
100
AcDbSpline
210
0.0
220
0.0
230
1.0
 70
     8
 71
     3
 72
    20
 73
    16
 74
     0
 42
0.000000001
 43
0.0000000001
 40
1.658125044756507
 40
1.658125044756507
 40
1.658125044756507
 40
1.658125044756507
 40
1.696828082632723
 40
1.696828082632723
 40
1.798652902623234
 40
1.798652902623234
 40
1.900477722613745
 40
1.900477722613745
 40
1.938296586027634
 40
1.938296586027634
 40
1.97611544944152
 40
1.97611544944152
 40
2.029036545890053
 40
2.029036545890053
 40
2.081957642338585
 40
2.081957642338585
 40
2.081957642338585
 40
2.081957642338585
 10
1487.816234053298
 20
1954.324966540269
 30
0.0000000000000213
 10
1487.815270653322
 20
1954.312870859482
 30
0.0000000000000213
 10
1487.81428774465
 20
1954.300941489429
 30
0.0000000000000213
 10
1487.810647034799
 20
1954.258525954901
 30
0.0000000000000213
 10
1487.807897859947
 20
1954.22967716984
 30
0.0000000000000213
 10
1487.801955450782
 20
1954.178646069892
 30
0.0000000000000213
 10
1487.798828564515
 20
1954.155932293097
 30
0.0000000000000213
 10
1487.793513224932
 20
1954.135871578499
 30
0.0000000000000213
 10
1487.791890207529
 20
1954.131636159368
 30
0.0000000000000213
 10
1487.788680909777
 20
1954.128588987895
 30
0.0000000000000213
 10
1487.787094791778
 20
1954.129818607088
 30
0.0000000000000213
 10
1487.78379031465
 20
1954.137402196907
 30
0.0000000000000213
 10
1487.781964999677
 20
1954.146096610569
 30
0.0000000000000213
 10
1487.778759437167
 20
1954.168319998276
 30
0.0000000000000213
 10
1487.77737025876
 20
1954.181760394821
 30
0.0000000000000213
 10
1487.776226454656
 20
1954.194834135555
 30
0.0000000000000213
  0
LINE
  5
E8D
330
1F
100
AcDbEntity
  8
HEWI
100
AcDbLine
 10
1484.871397551418
 20
1987.397180430135
 30
0.0000000000000208
 11
1487.776226454656
 21
1954.194834135555
 31
0.0000000000000213
210
0.0
220
1.0
230
0.0
  0
ARC
  5
E8E
330
1F
100
AcDbEntity
  8
HEWI
100
AcDbCircle
 10
1487.148277555321
 20
2007.2671758811
 30
0.0000000000000212
 40
20.00002254432668
100
AcDbArc
 50
244.1579338864954
 51
115.8420661136204
  0
LINE
  5
E8F
330
1F
100
AcDbEntity
  8
HEWI
100
AcDbLine
 10
1464.14827755532
 20
1919.2671758811
 30
0.000000000000017
 11
1426.148277555321
 21
1919.2671758811
 31
0.00000000000001
210
0.0
220
1.0
230
0.0
  0
LINE
  5
E90
330
1F
100
AcDbEntity
  8
HEWI
100
AcDbLine
 10
1420.448277555322
 20
1989.267175881099
 30
0.000000000000009
 11
1445.148277555321
 21
1989.267175881099
 31
0.0000000000000135
210
0.0
220
1.0
230
0.0
  0
LINE
  5
E91
330
1F
100
AcDbEntity
  8
HEWI
100
AcDbLine
 10
1420.448277555322
 20
2025.267175881078
 30
0.000000000000009
 11
1445.148277555321
 21
2025.267175881078
 31
0.0000000000000135
210
0.0
220
1.0
230
0.0
  0
LINE
  5
E92
330
1F
100
AcDbEntity
  8
HEWI
100
AcDbLine
 10
1445.148277555321
 20
2025.267175881079
 30
0.0000000000000135
 11
1478.430479668223
 21
2025.267175881079
 31
0.0000000000000196
210
0.0
220
1.0
230
0.0
  0
LINE
  5
E93
330
1F
100
AcDbEntity
  8
HEWI
100
AcDbLine
 10
1445.148277555321
 20
1989.267175881101
 30
0.0000000000000135
 11
1478.430479668213
 21
1989.267175881101
 31
0.0000000000000196
210
0.0
220
1.0
230
0.0
  0
ARC
  5
E94
330
1F
100
AcDbEntity
  8
HEWI
100
AcDbCircle
 10
1562.648277555321
 20
1273.704675881078
 30
0.0
 40
35.0
100
AcDbArc
 50
28.12706821858737
 51
151.8729317814126
  0
ARC
  5
E95
330
1F
100
AcDbEntity
  8
HEWI
100
AcDbCircle
 10
1562.648277555321
 20
1273.704675881078
 30
0.0
 40
35.0
100
AcDbArc
 50
208.1270682185866
 51
331.8729317814126
  0
ARC
  5
E96
330
1F
100
AcDbEntity
  8
HEWI
100
AcDbCircle
 10
1562.648277555321
 20
1273.704675881078
 30
0.0
 40
16.8
100
AcDbArc
 50
79.15593743629887
 51
100.8440625637011
  0
ARC
  5
E97
330
1F
100
AcDbEntity
  8
HEWI
100
AcDbCircle
 10
1562.648277555321
 20
1273.704675881078
 30
0.0
 40
16.8
100
AcDbArc
 50
259.1559374362988
 51
280.8440625637011
  0
ARC
  5
E98
330
1F
100
AcDbEntity
  8
HEWI
100
AcDbCircle
 10
2335.648277555321
 20
1273.767175881078
 30
0.00000000000014
 40
35.0
100
AcDbArc
 50
208.1270682185866
 51
151.8729317814134
  0
ARC
  5
E99
330
1F
100
AcDbEntity
  8
HEWI
100
AcDbCircle
 10
2335.648277555321
 20
1273.767175881078
 30
0.00000000000014
 40
16.8
100
AcDbArc
 50
259.1559374362988
 51
100.8440625637011
  0
LINE
  5
E9A
330
1F
100
AcDbEntity
  8
HEWI
100
AcDbLine
 10
1373.648277555321
 20
1273.767175881078
 30
0.0
 11
1373.648277555321
 21
1308.767175881078
 31
0.0
210
0.0
220
1.0
230
0.0
  0
LINE
  5
E9B
330
1F
100
AcDbEntity
  8
HEWI
100
AcDbLine
 10
1373.648277555321
 20
1238.767175881078
 30
0.0
 11
1373.648277555321
 21
1273.767175881078
 31
0.0
210
0.0
220
1.0
230
0.0
  0
LINE
  5
E9C
330
1F
100
AcDbEntity
  8
HEWI
100
AcDbLine
 10
1385.648277555321
 20
1273.767175881078
 30
0.0000000000000022
 11
1385.648277555321
 21
1306.767175881078
 31
0.0000000000000022
210
0.0
220
1.0
230
0.0
  0
LINE
  5
E9D
330
1F
100
AcDbEntity
  8
HEWI
100
AcDbLine
 10
1385.648277555321
 20
1240.767175881078
 30
0.0000000000000022
 11
1385.648277555321
 21
1273.767175881078
 31
0.0000000000000022
210
0.0
220
1.0
230
0.0
  0
LINE
  5
E9E
330
1F
100
AcDbEntity
  8
HEWI
100
AcDbLine
 10
1373.648277555321
 20
1388.767175881078
 30
0.0
 11
1373.648277555321
 21
1423.767175881078
 31
0.0
210
0.0
220
1.0
230
0.0
  0
LINE
  5
E9F
330
1F
100
AcDbEntity
  8
HEWI
100
AcDbLine
 10
1373.648277555321
 20
1353.767175881078
 30
0.0
 11
1373.648277555321
 21
1388.767175881078
 31
0.0
210
0.0
220
1.0
230
0.0
  0
LINE
  5
EA0
330
1F
100
AcDbEntity
  8
HEWI
100
AcDbLine
 10
1385.648277555321
 20
1388.767175881078
 30
0.0000000000000022
 11
1385.648277555321
 21
1421.767175881078
 31
0.0000000000000022
210
0.0
220
1.0
230
0.0
  0
LINE
  5
EA1
330
1F
100
AcDbEntity
  8
HEWI
100
AcDbLine
 10
1385.648277555321
 20
1355.767175881078
 30
0.0000000000000022
 11
1385.648277555321
 21
1388.767175881078
 31
0.0000000000000022
210
0.0
220
1.0
230
0.0
  0
LINE
  5
EA2
330
1F
100
AcDbEntity
  8
HEWI
100
AcDbLine
 10
1373.648277555321
 20
2523.767175881078
 30
0.0
 11
1373.648277555321
 21
2558.767175881079
 31
0.0
210
0.0
220
1.0
230
0.0
  0
LINE
  5
EA3
330
1F
100
AcDbEntity
  8
HEWI
100
AcDbLine
 10
1373.648277555321
 20
2488.767175881079
 30
0.0
 11
1373.648277555321
 21
2523.767175881078
 31
0.0
210
0.0
220
1.0
230
0.0
  0
LINE
  5
EA4
330
1F
100
AcDbEntity
  8
HEWI
100
AcDbLine
 10
1385.648277555321
 20
2523.767175881078
 30
0.0000000000000022
 11
1385.648277555321
 21
2556.767175881078
 31
0.0000000000000022
210
0.0
220
1.0
230
0.0
  0
LINE
  5
EA5
330
1F
100
AcDbEntity
  8
HEWI
100
AcDbLine
 10
1385.648277555321
 20
2490.767175881079
 30
0.0000000000000022
 11
1385.648277555321
 21
2523.767175881078
 31
0.0000000000000022
210
0.0
220
1.0
230
0.0
  0
LINE
  5
EA6
330
1F
100
AcDbEntity
  8
HEWI
100
AcDbLine
 10
1383.648277555321
 20
2558.767175881079
 30
0.0000000000000018
 11
1373.648277555321
 21
2558.767175881079
 31
0.0
210
0.0
220
1.0
230
0.0
  0
LINE
  5
EA7
330
1F
100
AcDbEntity
  8
HEWI
100
AcDbLine
 10
1383.648277555321
 20
2488.767175881079
 30
0.0000000000000018
 11
1373.648277555321
 21
2488.767175881079
 31
0.0
210
0.0
220
1.0
230
0.0
  0
LINE
  5
EA8
330
1F
100
AcDbEntity
  8
HEWI
100
AcDbLine
 10
1383.648277555321
 20
1423.767175881078
 30
0.0000000000000018
 11
1373.648277555321
 21
1423.767175881078
 31
0.0
210
0.0
220
1.0
230
0.0
  0
LINE
  5
EA9
330
1F
100
AcDbEntity
  8
HEWI
100
AcDbLine
 10
1383.648277555321
 20
1353.767175881078
 30
0.0000000000000018
 11
1373.648277555321
 21
1353.767175881078
 31
0.0
210
0.0
220
1.0
230
0.0
  0
LINE
  5
EAA
330
1F
100
AcDbEntity
  8
HEWI
100
AcDbLine
 10
1383.648277555321
 20
1308.767175881078
 30
0.0000000000000018
 11
1373.648277555321
 21
1308.767175881078
 31
0.0
210
0.0
220
1.0
230
0.0
  0
LINE
  5
EAB
330
1F
100
AcDbEntity
  8
HEWI
100
AcDbLine
 10
1383.648277555321
 20
1238.767175881078
 30
0.0000000000000018
 11
1373.648277555321
 21
1238.767175881078
 31
0.0
210
0.0
220
1.0
230
0.0
  0
LINE
  5
EAC
330
1F
100
AcDbEntity
  8
HEWI
100
AcDbLine
 10
1418.448277555322
 20
1991.267175881099
 30
0.0000000000000086
 11
1418.448277555322
 21
2023.267175881078
 31
0.0000000000000086
210
0.0
220
1.0
230
0.0
  0
LINE
  5
EAD
330
1F
100
AcDbEntity
  8
HEWI
100
AcDbLine
 10
1464.84827755532
 20
1919.9671758811
 30
0.0000000000000171
 11
1464.84827755532
 21
1989.2671758811
 31
0.0000000000000171
210
0.0
220
1.0
230
0.0
  0
LINE
  5
EAE
330
1F
100
AcDbEntity
  8
HEWI
100
AcDbLine
 10
1425.448277555321
 20
1919.9671758811
 30
0.0000000000000099
 11
1425.448277555321
 21
1989.2671758811
 31
0.0000000000000099
210
0.0
220
1.0
230
0.0
  0
ARC
  5
EAF
330
1F
100
AcDbEntity
  8
HEWI
100
AcDbCircle
 10
1378.77746110668
 20
1932.035758625705
 30
0.0000000000000013
 40
119.9999999999995
100
AcDbArc
 50
11.07734021683978
 51
14.02230851985578
  0
ARC
  5
EB0
330
1F
100
AcDbEntity
  8
HEWI
100
AcDbCircle
 10
1378.77746110668
 20
1932.035758625705
 30
0.0000000000000013
 40
119.9999999999995
100
AcDbArc
 50
355.8231250330065
 51
358.9226597831435
  0
ARC
  5
EB1
330
1F
100
AcDbEntity
  8
HEWI
100
AcDbCircle
 10
1606.936496303904
 20
1951.997087686475
 30
0.0000000000000432
 40
120.0000000000005
100
AcDbArc
 50
191.0773402168398
 51
194.1768749669792
  0
ARC
  5
EB2
330
1F
100
AcDbEntity
  8
HEWI
100
AcDbCircle
 10
1606.936496303904
 20
1951.997087686475
 30
0.0000000000000432
 40
120.0000000000005
100
AcDbArc
 50
175.9776914801295
 51
178.9226597831435
  0
LINE
  5
EB3
330
1F
100
AcDbEntity
  8
HEWI
100
AcDbLine
 10
1385.648277555321
 20
2507.267175881078
 30
0.0000000000000026
 11
1396.648277555321
 21
2507.267175881078
 31
0.0000000000000046
210
0.0
220
1.0
230
0.0
  0
LINE
  5
EB4
330
1F
100
AcDbEntity
  8
HEWI
100
AcDbLine
 10
1385.648277555321
 20
2540.267175881079
 30
0.0000000000000026
 11
1396.648277555321
 21
2540.267175881079
 31
0.0000000000000046
210
0.0
220
1.0
230
0.0
  0
LINE
  5
EB5
330
1F
100
AcDbEntity
  8
HEWI
100
AcDbLine
 10
1385.648277555321
 20
1257.267175881078
 30
0.0000000000000026
 11
1445.148277555321
 21
1257.267175881078
 31
0.0000000000000135
210
0.0
220
1.0
230
0.0
  0
LINE
  5
EB6
330
1F
100
AcDbEntity
  8
HEWI
100
AcDbLine
 10
1385.648277555321
 20
1290.267175881078
 30
0.0000000000000026
 11
1428.648277555321
 21
1290.267175881078
 31
0.0000000000000105
210
0.0
220
1.0
230
0.0
  0
LINE
  5
EB7
330
1F
100
AcDbEntity
  8
HEWI
100
AcDbLine
 10
2304.78162888722
 20
1290.267175881078
 30
0.0000000000001715
 11
1493.648277555321
 21
1290.267175881078
 31
0.0000000000000224
210
0.0
220
1.0
230
0.0
  0
LINE
  5
EB8
330
1F
100
AcDbEntity
  8
HEWI
100
AcDbLine
 10
2304.78162888722
 20
1257.267175881078
 30
0.0000000000001715
 11
1493.648277555321
 21
1257.267175881078
 31
0.0000000000000224
210
0.0
220
1.0
230
0.0
  0
LINE
  5
EB9
330
1F
100
AcDbEntity
  8
HEWI
100
AcDbLine
 10
1428.648277555321
 20
1372.267175881078
 30
0.0000000000000105
 11
1428.648277555321
 21
1322.267175881078
 31
0.0000000000000105
210
0.0
220
1.0
230
0.0
  0
LINE
  5
EBA
330
1F
100
AcDbEntity
  8
HEWI
100
AcDbLine
 10
1428.648277555321
 20
2475.267175881078
 30
0.0000000000000105
 11
1428.648277555321
 21
2025.267175881078
 31
0.0000000000000105
210
0.0
220
1.0
230
0.0
  0
LINE
  5
EBB
330
1F
100
AcDbEntity
  8
HEWI
100
AcDbLine
 10
1428.648277555321
 20
1919.2671758811
 30
0.0000000000000105
 11
1428.648277555321
 21
1405.267175881077
 31
0.0000000000000105
210
0.0
220
1.0
230
0.0
  0
LINE
  5
EBC
330
1F
100
AcDbEntity
  8
HEWI
100
AcDbLine
 10
1461.648277555321
 20
2475.267175881078
 30
0.0000000000000165
 11
1461.648277555321
 21
2025.267175881078
 31
0.0000000000000165
210
0.0
220
1.0
230
0.0
  0
LINE
  5
EBD
330
1F
100
AcDbEntity
  8
HEWI
100
AcDbLine
 10
1461.648277555321
 20
1919.2671758811
 30
0.0000000000000165
 11
1461.648277555321
 21
1322.267175881078
 31
0.0000000000000165
210
0.0
220
1.0
230
0.0
  0
LINE
  5
EBE
330
1F
100
AcDbEntity
  8
HEWI
100
AcDbLine
 10
1385.648277555321
 20
1372.267175881078
 30
0.0000000000000026
 11
1428.648277555321
 21
1372.267175881078
 31
0.0000000000000105
210
0.0
220
1.0
230
0.0
  0
LINE
  5
EBF
330
1F
100
AcDbEntity
  8
HEWI
100
AcDbLine
 10
1385.648277555321
 20
1405.267175881078
 30
0.0000000000000026
 11
1428.648277555321
 21
1405.267175881077
 31
0.0000000000000105
210
0.0
220
1.0
230
0.0
  0
ARC
  5
EC0
330
1F
100
AcDbEntity
  8
HEWI
100
AcDbCircle
 10
1383.648277555321
 20
2490.767175881079
 30
0.0000000000000018
 40
2.0
100
AcDbArc
 50
270.0
 51
0.0
  0
ARC
  5
EC1
330
1F
100
AcDbEntity
  8
HEWI
100
AcDbCircle
 10
1383.648277555321
 20
2556.767175881078
 30
0.0000000000000018
 40
2.0
100
AcDbArc
 50
0.0
 51
90.0
  0
ARC
  5
EC2
330
1F
100
AcDbEntity
  8
HEWI
100
AcDbCircle
 10
1383.648277555321
 20
1355.767175881078
 30
0.0000000000000018
 40
2.0
100
AcDbArc
 50
270.0
 51
0.0
  0
ARC
  5
EC3
330
1F
100
AcDbEntity
  8
HEWI
100
AcDbCircle
 10
1383.648277555321
 20
1421.767175881078
 30
0.0000000000000018
 40
2.0
100
AcDbArc
 50
0.0
 51
90.0
  0
ARC
  5
EC4
330
1F
100
AcDbEntity
  8
HEWI
100
AcDbCircle
 10
1383.648277555321
 20
1240.767175881078
 30
0.0000000000000018
 40
2.0
100
AcDbArc
 50
270.0
 51
0.0
  0
ARC
  5
EC5
330
1F
100
AcDbEntity
  8
HEWI
100
AcDbCircle
 10
1383.648277555321
 20
1306.767175881078
 30
0.0000000000000018
 40
2.0
100
AcDbArc
 50
0.0
 51
90.0
  0
ARC
  5
EC6
330
1F
100
AcDbEntity
  8
HEWI
100
AcDbCircle
 10
1420.448277555322
 20
1991.267175881099
 30
0.000000000000009
 40
1.999999999999999
100
AcDbArc
 50
180.0
 51
270.0
  0
ARC
  5
EC7
330
1F
100
AcDbEntity
  8
HEWI
100
AcDbCircle
 10
1420.448277555322
 20
2023.267175881078
 30
0.000000000000009
 40
1.999999999999995
100
AcDbArc
 50
90.0
 51
180.0
  0
ARC
  5
EC8
330
1F
100
AcDbEntity
  8
HEWI
100
AcDbCircle
 10
1426.148277555321
 20
1919.9671758811
 30
0.00000000000001
 40
0.6999999999999319
100
AcDbArc
 50
180.0
 51
270.0
  0
ARC
  5
EC9
330
1F
100
AcDbEntity
  8
HEWI
100
AcDbCircle
 10
1464.14827755532
 20
1919.9671758811
 30
0.000000000000017
 40
0.6999999999999319
100
AcDbArc
 50
270.0
 51
0.0
  0
ARC
  5
ECA
330
1F
100
AcDbEntity
  8
HEWI
100
AcDbCircle
 10
1494.469359946124
 20
1923.586821241394
 30
0.0000000000000226
 40
4.000000000000073
100
AcDbArc
 50
194.1768749669792
 51
355.8231250330065
  0
ARC
  5
ECB
330
1F
100
AcDbEntity
  8
HEWI
100
AcDbCircle
 10
1396.648277555321
 20
2475.267175881078
 30
0.0000000000000046
 40
32.0
100
AcDbArc
 50
0.0
 51
90.0
  0
ARC
  5
ECC
330
1F
100
AcDbEntity
  8
HEWI
100
AcDbCircle
 10
1396.648277555321
 20
2475.267175881078
 30
0.0000000000000046
 40
65.0
100
AcDbArc
 50
0.0
 51
90.0
  0
LINE
  5
ECD
330
1F
100
AcDbEntity
  8
HEWI
100
AcDbLine
 10
1461.648277555321
 20
1273.767175881078
 30
0.0000000000000165
 11
1461.648277555321
 21
1322.267175881078
 31
0.0000000000000165
210
0.0
220
1.0
230
0.0
  0
LINE
  5
ECE
330
1F
100
AcDbEntity
  8
HEWI
100
AcDbLine
 10
1428.648277555321
 20
1322.267175881078
 30
0.0000000000000105
 11
1428.648277555321
 21
1273.767175881078
 31
0.0000000000000105
210
0.0
220
1.0
230
0.0
  0
LINE
  5
ECF
330
1F
100
AcDbEntity
  8
HEWI
100
AcDbLine
 10
1493.648277555321
 20
1290.267175881078
 30
0.0000000000000224
 11
1461.648277555321
 21
1290.267175881078
 31
0.0000000000000165
210
0.0
220
1.0
230
0.0
  0
LINE
  5
ED0
330
1F
100
AcDbEntity
  8
HEWI
100
AcDbLine
 10
1445.148277555321
 20
1257.267175881078
 30
0.0000000000000135
 11
1493.648277555321
 21
1257.267175881078
 31
0.0000000000000224
210
0.0
220
1.0
230
0.0
  0
LINE
  5
ED1
330
1F
100
AcDbEntity
  8
HEWI
100
AcDbLine
 10
2287.148277555322
 20
1257.267175881078
 30
0.0000000000001311
 11
2335.648277555321
 21
1257.267175881078
 31
0.00000000000014
210
0.0
220
1.0
230
0.0
  0
LINE
  5
ED2
330
1F
100
AcDbEntity
  8
HEWI
100
AcDbLine
 10
2335.648277555321
 20
1290.267175881078
 30
0.00000000000014
 11
2287.148277555322
 21
1290.267175881078
 31
0.0000000000001311
210
0.0
220
1.0
230
0.0
  0
LINE
  5
ED3
330
1F
100
AcDbEntity
  8
HEWI
100
AcDbLine
 10
973.4019735963256
 20
1029.530788087365
 30
0.0
 11
956.9019735963257
 21
1013.030788087365
 31
0.0
  0
LINE
  5
ED4
330
1F
100
AcDbEntity
  8
HEWI
100
AcDbLine
 10
956.9019735963257
 20
1013.030788087365
 30
0.0
 11
940.4019735963261
 21
1029.530788087365
 31
0.0
  0
LINE
  5
ED5
330
1F
100
AcDbEntity
  8
HEWI
100
AcDbLine
 10
1090.901973596327
 20
879.0307880873653
 30
0.0
 11
1074.401973596325
 21
895.530788087365
 31
0.0
  0
LINE
  5
ED6
330
1F
100
AcDbEntity
  8
HEWI
100
AcDbLine
 10
1074.401973596327
 20
895.530788087365
 30
0.0
 11
1090.901973596327
 21
912.0307880873653
 31
0.0
  0
ARC
  5
ED7
330
1F
100
AcDbEntity
  8
HEWI
100
AcDbCircle
 10
383.9019735963266
 20
1013.030788087365
 30
0.0
 40
16.5
100
AcDbArc
 50
180.0
 51
0.0
  0
LINE
  5
ED8
330
1F
100
AcDbEntity
  8
HEWI
100
AcDbLine
 10
325.5519735963285
 20
990.0307880873661
 30
0.0
 11
325.5519735963285
 21
968.9390280853251
 31
0.0
  0
LINE
  5
ED9
330
1F
100
AcDbEntity
  8
HEWI
100
AcDbLine
 10
325.5519735963285
 20
952.146282796153
 30
0.0
 11
325.5519735963285
 21
952.0307880873662
 31
0.0
  0
LINE
  5
EDA
330
1F
100
AcDbEntity
  8
HEWI
100
AcDbLine
 10
325.5519735963285
 20
968.9390280853251
 30
0.0
 11
325.5519735963285
 21
952.146282796153
 31
0.0
  0
LINE
  5
EDB
330
1F
100
AcDbEntity
  8
HEWI
100
AcDbLine
 10
351.051973596328
 20
956.8886524636351
 30
0.0
 11
351.051973596328
 21
951.0307880873662
 31
0.0
  0
LINE
  5
EDC
330
1F
100
AcDbEntity
  8
HEWI
100
AcDbLine
 10
351.051973596328
 20
991.0307880873661
 30
0.0
 11
351.051973596328
 21
956.8886524636349
 31
0.0
  0
LINE
  5
EDD
330
1F
100
AcDbEntity
  8
HEWI
100
AcDbLine
 10
401.401973596327
 20
951.0307655430393
 30
0.0
 11
401.401973596327
 21
979.7486376946018
 31
0.0
  0
LINE
  5
EDE
330
1F
100
AcDbEntity
  8
HEWI
100
AcDbLine
 10
407.901973596327
 20
979.7485859744796
 30
0.0
 11
407.901973596327
 21
951.0307880873662
 31
0.0
  0
LINE
  5
EDF
330
1F
100
AcDbEntity
  8
HEWI
100
AcDbLine
 10
366.4019735963266
 20
979.7486376946018
 30
0.0
 11
366.4019735963266
 21
951.0307655430393
 31
0.0
  0
LINE
  5
EE0
330
1F
100
AcDbEntity
  8
HEWI
100
AcDbLine
 10
359.9019735963266
 20
979.7485859744796
 30
0.0
 11
359.9019735963266
 21
951.0307880873662
 31
0.0
  0
ARC
  5
EE1
330
1F
100
AcDbEntity
  8
HEWI
100
AcDbCircle
 10
383.9019735963266
 20
1013.030788087365
 30
0.0
 40
26.69999999999935
100
AcDbArc
 50
0.0
 51
51.83140718637869
  0
ARC
  5
EE2
330
1F
100
AcDbEntity
  8
HEWI
100
AcDbCircle
 10
383.9019735963266
 20
1013.030788087365
 30
0.0
 40
26.69999999999935
100
AcDbArc
 50
128.1685928136213
 51
180.0
  0
LINE
  5
EE3
330
1F
100
AcDbEntity
  8
HEWI
100
AcDbLine
 10
410.6019735963254
 20
1013.030788087365
 30
0.0
 11
410.6019735963254
 21
983.0307880873757
 31
0.0
  0
ARC
  5
EE4
330
1F
100
AcDbEntity
  8
HEWI
100
AcDbCircle
 10
383.9019735963266
 20
1013.030788087366
 30
0.0
 40
17.00000000000011
100
AcDbArc
 50
166.0694454376381
 51
174.9095327646434
  0
ARC
  5
EE5
330
1F
100
AcDbEntity
  8
HEWI
100
AcDbCircle
 10
362.2019735963263
 20
1013.030788087365
 30
0.0
 40
5.000000000000047
100
AcDbArc
 50
342.4416349365521
 51
17.55836506344025
  0
ARC
  5
EE6
330
1F
100
AcDbEntity
  8
HEWI
100
AcDbCircle
 10
383.9019735963275
 20
1013.030788087365
 30
0.0
 40
17.0000000000003
100
AcDbArc
 50
185.0904672353566
 51
234.9095327646385
  0
ARC
  5
EE7
330
1F
100
AcDbEntity
  8
HEWI
100
AcDbCircle
 10
373.0519735963271
 20
994.2380368252436
 30
0.0
 40
4.999999999999737
100
AcDbArc
 50
42.44163493654933
 51
77.55836506343064
  0
ARC
  5
EE8
330
1F
100
AcDbEntity
  8
HEWI
100
AcDbCircle
 10
383.9019735963266
 20
1013.030788087366
 30
0.0
 40
17.00000000000053
100
AcDbArc
 50
245.0904672353634
 51
294.9095327646366
  0
ARC
  5
EE9
330
1F
100
AcDbEntity
  8
HEWI
100
AcDbCircle
 10
394.7519735963274
 20
994.2380368252422
 30
0.0
 40
5.000000000001613
100
AcDbArc
 50
102.4416349365693
 51
137.5583650634506
  0
ARC
  5
EEA
330
1F
100
AcDbEntity
  8
HEWI
100
AcDbCircle
 10
383.9019735963266
 20
1013.030788087366
 30
0.0
 40
17.00000000000041
100
AcDbArc
 50
305.0904672353615
 51
354.9095327646303
  0
ARC
  5
EEB
330
1F
100
AcDbEntity
  8
HEWI
100
AcDbCircle
 10
405.6019735963268
 20
1013.030788087366
 30
0.0
 40
5.000000000000047
100
AcDbArc
 50
162.4416349365597
 51
197.5583650634402
  0
ARC
  5
EEC
330
1F
100
AcDbEntity
  8
HEWI
100
AcDbCircle
 10
383.9019735963261
 20
1013.030788087366
 30
0.0
 40
17.00000000000025
100
AcDbArc
 50
5.090467235356617
 51
13.93055456235013
  0
LINE
  5
EED
330
1F
100
AcDbEntity
  8
HEWI
100
AcDbLine
 10
357.2019735963272
 20
1013.030788087365
 30
0.0
 11
357.2019735963272
 21
983.0307880873757
 31
0.0
  0
LINE
  5
EEE
330
1F
100
AcDbEntity
  8
HEWI
100
AcDbLine
 10
416.6019735963259
 20
991.0307880873645
 30
0.0
 11
416.6019735963259
 21
951.0307880873645
 31
0.0
  0
SPLINE
  5
EEF
330
1F
100
AcDbEntity
  8
HEWI
100
AcDbSpline
210
0.0
220
0.0
230
1.0
 70
     8
 71
     3
 72
    18
 73
    14
 74
     0
 42
0.000000001
 43
0.0000000001
 40
0.0
 40
0.0
 40
0.0
 40
0.0
 40
0.3978591234259627
 40
0.3978591234259627
 40
0.7957182468519255
 40
0.7957182468519255
 40
1.59143649370385
 40
1.59143649370385
 40
2.317215028378711
 40
2.317215028378711
 40
3.042993563053578
 40
3.042993563053578
 40
4.494550632403308
 40
4.494550632403308
 40
4.494550632403308
 40
4.494550632403308
 10
408.6019735963255
 20
979.7485859744639
 30
0.0
 10
408.7345933041347
 20
979.7485859744639
 30
0.0
 10
408.8602876303156
 20
979.7757002846308
 30
0.0
 10
409.0973412778662
 20
979.8686342214057
 30
0.0
 10
409.2086653682222
 20
979.9345119636104
 30
0.0
 10
409.5191697704353
 20
980.1691659365515
 30
0.0
 10
409.6944255826319
 20
980.3748644601066
 30
0.0
 10
409.9589038103918
 20
980.7551705496971
 30
0.0
 10
410.0695214949569
 20
980.9518965252165
 30
0.0
 10
410.2610552589157
 20
981.3607673522513
 30
0.0
 10
410.3418157632145
 20
981.5729616268795
 30
0.0
 10
410.5367332842938
 20
982.2129412153364
 30
0.0
 10
410.6019735963254
 20
982.643706202216
 30
0.0
 10
410.6019735963254
 20
983.0307880873757
 30
0.0
  0
LINE
  5
EF0
330
1F
100
AcDbEntity
  8
HEWI
100
AcDbLine
 10
408.1019735963259
 20
951.0307880873645
 30
0.0
 11
408.1019735963259
 21
979.7485859744666
 31
0.0
  0
LINE
  5
EF1
330
1F
100
AcDbEntity
  8
HEWI
100
AcDbLine
 10
408.1019735963259
 20
979.7485859744666
 30
0.0
 11
408.6019735963255
 21
979.7485859744666
 31
0.0
  0
LINE
  5
EF2
330
1F
100
AcDbEntity
  8
HEWI
100
AcDbLine
 10
359.7019735963268
 20
979.7485859744666
 30
0.0
 11
366.4019735963266
 21
979.7485859744666
 31
0.0
  0
LINE
  5
EF3
330
1F
100
AcDbEntity
  8
HEWI
100
AcDbLine
 10
401.401973596327
 20
979.7485859744666
 30
0.0
 11
408.1019735963259
 21
979.7485859744666
 31
0.0
  0
LINE
  5
EF4
330
1F
100
AcDbEntity
  8
HEWI
100
AcDbLine
 10
351.2019735963268
 20
991.0307880873645
 30
0.0
 11
351.2019735963268
 21
951.0307880873645
 31
0.0
  0
LINE
  5
EF5
330
1F
100
AcDbEntity
  8
HEWI
100
AcDbLine
 10
359.7019735963268
 20
951.0307880873645
 30
0.0
 11
359.7019735963268
 21
979.7485859744666
 31
0.0
  0
SPLINE
  5
EF6
330
1F
100
AcDbEntity
  8
HEWI
100
AcDbSpline
210
0.0
220
0.0
230
1.0
 70
     8
 71
     3
 72
    18
 73
    14
 74
     0
 42
0.000000001
 43
0.0000000001
 40
-4.49455063240396
 40
-4.49455063240396
 40
-4.49455063240396
 40
-4.49455063240396
 40
-3.042993563053926
 40
-3.042993563053926
 40
-2.317215028378913
 40
-2.317215028378913
 40
-1.591436493703898
 40
-1.591436493703898
 40
-0.7957182468519495
 40
-0.7957182468519495
 40
-0.3978591234259738
 40
-0.3978591234259738
 40
0.0
 40
0.0
 40
0.0
 40
0.0
 10
357.2019735963272
 20
983.0307880873757
 30
0.0
 10
357.2019735963272
 20
982.643706202216
 30
0.0
 10
357.2672139083588
 20
982.2129412153364
 30
0.0
 10
357.4621314294382
 20
981.5729616268795
 30
0.0
 10
357.5428919337373
 20
981.3607673522513
 30
0.0
 10
357.7344256976958
 20
980.9518965252157
 30
0.0
 10
357.8450433822609
 20
980.7551705496967
 30
0.0
 10
358.1095216100202
 20
980.3748644601059
 30
0.0
 10
358.2847774222173
 20
980.1691659365504
 30
0.0
 10
358.5952818244305
 20
979.9345119636098
 30
0.0
 10
358.7066059147864
 20
979.868634221405
 30
0.0
 10
358.9436595623365
 20
979.7757002846301
 30
0.0
 10
359.0693538885184
 20
979.7485859744638
 30
0.0
 10
359.2019735963277
 20
979.7485859744638
 30
0.0
  0
LINE
  5
EF7
330
1F
100
AcDbEntity
  8
HEWI
100
AcDbLine
 10
359.2019735963277
 20
979.7485859744666
 30
0.0
 11
359.7019735963268
 21
979.7485859744666
 31
0.0
  0
LINE
  5
EF8
330
1F
100
AcDbEntity
  8
HEWI
100
AcDbLine
 10
418.751973596326
 20
983.7587101487239
 30
0.0
 11
418.751973596326
 21
953.0307880873662
 31
0.0
  0
LINE
  5
EF9
330
1F
100
AcDbEntity
  8
HEWI
100
AcDbLine
 10
418.751973596326
 20
989.0307880873661
 30
0.0
 11
418.751973596326
 21
983.7587101487239
 31
0.0
  0
LINE
  5
EFA
330
1F
100
AcDbEntity
  8
HEWI
100
AcDbLine
 10
416.7519735963264
 20
985.1729237110967
 30
0.0
 11
416.7519735963264
 21
951.0307880873662
 31
0.0
  0
LINE
  5
EFB
330
1F
100
AcDbEntity
  8
HEWI
100
AcDbLine
 10
416.7519735963264
 20
991.0307880873661
 30
0.0
 11
416.7519735963264
 21
985.1729237110967
 31
0.0
  0
LINE
  5
EFC
330
1F
100
AcDbEntity
  8
HEWI
100
AcDbLine
 10
359.7019735963268
 20
976.6876423368579
 30
0.0
 11
359.9019735963266
 21
976.6876423368579
 31
0.0
  0
LINE
  5
EFD
330
1F
100
AcDbEntity
  8
HEWI
100
AcDbLine
 10
359.9019735963266
 20
973.101340448186
 30
0.0
 11
359.7019735963268
 21
973.101340448186
 31
0.0
  0
LINE
  5
EFE
330
1F
100
AcDbEntity
  8
HEWI
100
AcDbLine
 10
359.9019735963266
 20
975.2734287744857
 30
0.0
 11
359.7019735963268
 21
975.2734287744857
 31
0.0
  0
LINE
  5
EFF
330
1F
100
AcDbEntity
  8
HEWI
100
AcDbLine
 10
1145.901973596325
 20
930.5307880873654
 30
0.0
 11
1145.901973596325
 21
860.5307880873654
 31
0.0
  0
LINE
  5
F00
330
1F
100
AcDbEntity
  8
HEWI
100
AcDbLine
 10
1133.901973596326
 20
928.5307880873654
 30
0.0
 11
1133.901973596326
 21
862.5307880873652
 31
0.0
  0
LINE
  5
F01
330
1F
100
AcDbEntity
  8
HEWI
100
AcDbLine
 10
1145.901973596325
 20
157.5307880873662
 30
0.0
 11
1145.901973596325
 21
87.53078808736608
 31
0.0
  0
LINE
  5
F02
330
1F
100
AcDbEntity
  8
HEWI
100
AcDbLine
 10
1133.901973596326
 20
155.5307880873662
 30
0.0
 11
1133.901973596326
 21
89.53078808736609
 31
0.0
  0
LINE
  5
F03
330
1F
100
AcDbEntity
  8
HEWI
100
AcDbLine
 10
921.9019735963261
 20
1084.530788087365
 30
0.0
 11
991.9019735963257
 21
1084.530788087365
 31
0.0
  0
LINE
  5
F04
330
1F
100
AcDbEntity
  8
HEWI
100
AcDbLine
 10
923.901973596326
 20
1072.530788087365
 30
0.0
 11
989.9019735963257
 21
1072.530788087365
 31
0.0
  0
LINE
  5
F05
330
1F
100
AcDbEntity
  8
HEWI
100
AcDbLine
 10
348.9019735963266
 20
1084.530788087365
 30
0.0
 11
418.9019735963269
 21
1084.530788087365
 31
0.0
  0
LINE
  5
F06
330
1F
100
AcDbEntity
  8
HEWI
100
AcDbLine
 10
350.9019735963266
 20
1072.530788087365
 30
0.0
 11
416.901973596327
 21
1072.530788087365
 31
0.0
  0
LINE
  5
F07
330
1F
100
AcDbEntity
  8
HEWI
100
AcDbLine
 10
418.9019735963269
 20
1074.530788087365
 30
0.0
 11
418.9019735963269
 21
1084.530788087365
 31
0.0
  0
LINE
  5
F08
330
1F
100
AcDbEntity
  8
HEWI
100
AcDbLine
 10
348.9019735963266
 20
1074.530788087365
 30
0.0
 11
348.9019735963266
 21
1084.530788087365
 31
0.0
  0
LINE
  5
F09
330
1F
100
AcDbEntity
  8
HEWI
100
AcDbLine
 10
991.9019735963257
 20
1074.530788087365
 30
0.0
 11
991.9019735963257
 21
1084.530788087365
 31
0.0
  0
LINE
  5
F0A
330
1F
100
AcDbEntity
  8
HEWI
100
AcDbLine
 10
921.9019735963261
 20
1074.530788087365
 30
0.0
 11
921.9019735963261
 21
1084.530788087365
 31
0.0
  0
LINE
  5
F0B
330
1F
100
AcDbEntity
  8
HEWI
100
AcDbLine
 10
1135.901973596325
 20
87.53078808736608
 30
0.0
 11
1145.901973596325
 21
87.53078808736608
 31
0.0
  0
LINE
  5
F0C
330
1F
100
AcDbEntity
  8
HEWI
100
AcDbLine
 10
1135.901973596325
 20
157.5307880873662
 30
0.0
 11
1145.901973596325
 21
157.5307880873662
 31
0.0
  0
LINE
  5
F0D
330
1F
100
AcDbEntity
  8
HEWI
100
AcDbLine
 10
1135.901973596325
 20
860.5307880873654
 30
0.0
 11
1145.901973596325
 21
860.5307880873654
 31
0.0
  0
LINE
  5
F0E
330
1F
100
AcDbEntity
  8
HEWI
100
AcDbLine
 10
1135.901973596325
 20
930.5307880873654
 30
0.0
 11
1145.901973596325
 21
930.5307880873654
 31
0.0
  0
LINE
  5
F0F
330
1F
100
AcDbEntity
  8
HEWI
100
AcDbLine
 10
359.7019735963268
 20
963.0307880873667
 30
0.0
 11
359.9019735963266
 21
963.0307880873667
 31
0.0
  0
LINE
  5
F10
330
1F
100
AcDbEntity
  8
HEWI
100
AcDbLine
 10
407.901973596327
 20
963.0307880873667
 30
0.0
 11
408.1019735963259
 21
963.0307880873667
 31
0.0
  0
LINE
  5
F11
330
1F
100
AcDbEntity
  8
HEWI
100
AcDbLine
 10
359.7019735963268
 20
979.0307880873656
 30
0.0
 11
359.9019735963266
 21
979.0307880873656
 31
0.0
  0
LINE
  5
F12
330
1F
100
AcDbEntity
  8
HEWI
100
AcDbLine
 10
407.901973596327
 20
979.0307880873656
 30
0.0
 11
408.1019735963259
 21
979.0307880873656
 31
0.0
  0
LINE
  5
F13
330
1F
100
AcDbEntity
  8
HEWI
100
AcDbLine
 10
416.6019735963259
 20
953.6307880873659
 30
0.0
 11
416.7519735963264
 21
953.6307880873659
 31
0.0
  0
LINE
  5
F14
330
1F
100
AcDbEntity
  8
HEWI
100
AcDbLine
 10
416.6019735963259
 20
988.4307880873661
 30
0.0
 11
416.7519735963264
 21
988.4307880873661
 31
0.0
  0
LINE
  5
F15
330
1F
100
AcDbEntity
  8
HEWI
100
AcDbLine
 10
357.2019735963272
 20
991.0307880873645
 30
0.0
 11
351.2019735963268
 21
991.0307880873645
 31
0.0
  0
LINE
  5
F16
330
1F
100
AcDbEntity
  8
HEWI
100
AcDbLine
 10
359.7019735963268
 20
951.0307880873645
 30
0.0
 11
351.2019735963268
 21
951.0307880873645
 31
0.0
  0
LINE
  5
F17
330
1F
100
AcDbEntity
  8
HEWI
100
AcDbLine
 10
416.6019735963259
 20
991.0307880873645
 30
0.0
 11
410.6019735963254
 21
991.0307880873645
 31
0.0
  0
LINE
  5
F18
330
1F
100
AcDbEntity
  8
HEWI
100
AcDbLine
 10
416.6019735963259
 20
951.0307880873645
 30
0.0
 11
408.1019735963259
 21
951.0307880873645
 31
0.0
  0
LINE
  5
F19
330
1F
100
AcDbEntity
  8
HEWI
100
AcDbLine
 10
366.4019735963266
 20
951.0307880873662
 30
0.0
 11
359.9019735963266
 21
951.0307880873662
 31
0.0
  0
LINE
  5
F1A
330
1F
100
AcDbEntity
  8
HEWI
100
AcDbLine
 10
407.901973596327
 20
951.0307880873662
 30
0.0
 11
401.401973596327
 21
951.0307880873662
 31
0.0
  0
LINE
  5
F1B
330
1F
100
AcDbEntity
  8
HEWI
100
AcDbLine
 10
401.401973596327
 20
951.0307655430393
 30
0.0
 11
366.4019735963266
 21
951.0307655430393
 31
0.0
  0
LINE
  5
F1C
330
1F
100
AcDbEntity
  8
HEWI
100
AcDbLine
 10
326.5519735963285
 20
951.0307880873662
 30
0.0
 11
351.051973596328
 21
951.0307880873662
 31
0.0
  0
LINE
  5
F1D
330
1F
100
AcDbEntity
  8
HEWI
100
AcDbLine
 10
326.5519735963285
 20
991.0307880873661
 30
0.0
 11
351.051973596328
 21
991.0307880873661
 31
0.0
  0
LINE
  5
F1E
330
1F
100
AcDbEntity
  8
HEWI
100
AcDbLine
 10
329.221212411871
 20
964.562589551846
 30
0.0
 11
329.8737875338125
 21
964.562589551846
 31
0.0
  0
LINE
  5
F1F
330
1F
100
AcDbEntity
  8
HEWI
100
AcDbLine
 10
351.051973596328
 20
953.630788087366
 30
0.0
 11
351.2019735963268
 21
953.630788087366
 31
0.0
  0
LINE
  5
F20
330
1F
100
AcDbEntity
  8
HEWI
100
AcDbLine
 10
351.051973596328
 20
988.4307880873665
 30
0.0
 11
351.2019735963268
 21
988.4307880873665
 31
0.0
  0
LINE
  5
F21
330
1F
100
AcDbEntity
  8
HEWI
100
AcDbLine
 10
367.4019735963266
 20
1072.530788087365
 30
0.0
 11
367.4019735963266
 21
1059.530788087365
 31
0.0
  0
LINE
  5
F22
330
1F
100
AcDbEntity
  8
HEWI
100
AcDbLine
 10
400.401973596327
 20
1072.530788087365
 30
0.0
 11
400.401973596327
 21
1059.530788087365
 31
0.0
  0
LINE
  5
F23
330
1F
100
AcDbEntity
  8
HEWI
100
AcDbLine
 10
1133.901973596326
 20
912.0307880873653
 30
0.0
 11
1090.901973596327
 21
912.0307880873653
 31
0.0
  0
LINE
  5
F24
330
1F
100
AcDbEntity
  8
HEWI
100
AcDbLine
 10
1133.901973596326
 20
879.0307880873653
 30
0.0
 11
1090.901973596327
 21
879.0307880873653
 31
0.0
  0
LINE
  5
F25
330
1F
100
AcDbEntity
  8
HEWI
100
AcDbLine
 10
940.4019735963261
 20
1072.530788087365
 30
0.0
 11
940.4019735963261
 21
1029.530788087365
 31
0.0
  0
LINE
  5
F26
330
1F
100
AcDbEntity
  8
HEWI
100
AcDbLine
 10
973.4019735963256
 20
1072.530788087365
 30
0.0
 11
973.4019735963256
 21
1029.530788087365
 31
0.0
  0
LINE
  5
F27
330
1F
100
AcDbEntity
  8
HEWI
100
AcDbLine
 10
940.4019735963261
 20
1029.530788087365
 30
0.0
 11
432.401973596327
 21
1029.530788087365
 31
0.0
  0
LINE
  5
F28
330
1F
100
AcDbEntity
  8
HEWI
100
AcDbLine
 10
1032.124759436285
 20
1029.138402251907
 30
0.0
 11
973.4019735963256
 21
1029.530788087365
 31
0.0
  0
LINE
  5
F29
330
1F
100
AcDbEntity
  8
HEWI
100
AcDbLine
 10
1023.901973596325
 20
996.5307880873654
 30
0.0
 11
432.401973596327
 21
996.5307880873654
 31
0.0
  0
LINE
  5
F2A
330
1F
100
AcDbEntity
  8
HEWI
100
AcDbLine
 10
1090.901973596327
 20
912.0307880873653
 30
0.0
 11
1090.488881471593
 21
964.9848627320139
 31
0.0
  0
LINE
  5
F2B
330
1F
100
AcDbEntity
  8
HEWI
100
AcDbLine
 10
1090.901973596327
 20
171.0307880873662
 30
0.0
 11
1090.901973596327
 21
881.0307880873654
 31
0.0
  0
LINE
  5
F2C
330
1F
100
AcDbEntity
  8
HEWI
100
AcDbLine
 10
1057.93368320232
 20
169.0007035374074
 30
0.0
 11
1057.901973596325
 21
964.5307880873653
 31
0.0
  0
LINE
  5
F2D
330
1F
100
AcDbEntity
  8
HEWI
100
AcDbLine
 10
1133.901973596326
 20
139.0307880873662
 30
0.0
 11
1122.901973596327
 21
139.0307880873662
 31
0.0
  0
LINE
  5
F2E
330
1F
100
AcDbEntity
  8
HEWI
100
AcDbLine
 10
1133.901973596326
 20
106.0307880873662
 30
0.0
 11
1122.901973596327
 21
106.0307880873662
 31
0.0
  0
ARC
  5
F2F
330
1F
100
AcDbEntity
  8
HEWI
100
AcDbCircle
 10
350.9019735963266
 20
1074.530788087365
 30
0.0
 40
2.0
100
AcDbArc
 50
180.0
 51
270.0
  0
ARC
  5
F30
330
1F
100
AcDbEntity
  8
HEWI
100
AcDbCircle
 10
416.901973596327
 20
1074.530788087365
 30
0.0
 40
2.0
100
AcDbArc
 50
270.0
 51
0.0
  0
ARC
  5
F31
330
1F
100
AcDbEntity
  8
HEWI
100
AcDbCircle
 10
923.901973596326
 20
1074.530788087365
 30
0.0
 40
2.0
100
AcDbArc
 50
180.0
 51
270.0
  0
ARC
  5
F32
330
1F
100
AcDbEntity
  8
HEWI
100
AcDbCircle
 10
989.9019735963257
 20
1074.530788087365
 30
0.0
 40
2.0
100
AcDbArc
 50
270.0
 51
0.0
  0
ARC
  5
F33
330
1F
100
AcDbEntity
  8
HEWI
100
AcDbCircle
 10
1135.901973596325
 20
155.5307880873662
 30
0.0
 40
2.0
100
AcDbArc
 50
90.0
 51
180.0
  0
ARC
  5
F34
330
1F
100
AcDbEntity
  8
HEWI
100
AcDbCircle
 10
1135.901973596325
 20
89.53078808736609
 30
0.0
 40
2.0
100
AcDbArc
 50
180.0
 51
270.0
  0
ARC
  5
F35
330
1F
100
AcDbEntity
  8
HEWI
100
AcDbCircle
 10
1135.901973596325
 20
928.5307880873654
 30
0.0
 40
2.0
100
AcDbArc
 50
90.0
 51
180.0
  0
ARC
  5
F36
330
1F
100
AcDbEntity
  8
HEWI
100
AcDbCircle
 10
1135.901973596325
 20
862.5307880873652
 30
0.0
 40
2.0
100
AcDbArc
 50
180.0
 51
270.0
  0
ARC
  5
F37
330
1F
100
AcDbEntity
  8
HEWI
100
AcDbCircle
 10
416.7519735963264
 20
989.0307880873661
 30
0.0
 40
1.999999999999999
100
AcDbArc
 50
0.0
 51
90.0
  0
ARC
  5
F38
330
1F
100
AcDbEntity
  8
HEWI
100
AcDbCircle
 10
416.7519735963264
 20
953.0307880873662
 30
0.0
 40
1.999999999999999
100
AcDbArc
 50
270.0
 51
0.0
  0
SPLINE
  5
F39
330
1F
100
AcDbEntity
  8
HEWI
100
AcDbSpline
210
0.0
220
0.0
230
1.0
 70
     8
 71
     3
 72
    20
 73
    16
 74
     0
 42
0.000000001
 43
0.0000000001
 40
0.1476979929205797
 40
0.1476979929205797
 40
0.1476979929205797
 40
0.1476979929205797
 40
0.2758377595454468
 40
0.2758377595454468
 40
0.29333176510487
 40
0.29333176510487
 40
0.3014269805316985
 40
0.3014269805316985
 40
0.3203756434681517
 40
0.3203756434681517
 40
0.3465421789993729
 40
0.3465421789993729
 40
0.3510425785403986
 40
0.3510425785403986
 40
0.3544692144905295
 40
0.3544692144905295
 40
0.3544692144905295
 40
0.3544692144905295
 10
330.6772009864176
 20
964.8671638639482
 30
0.0
 10
330.647240776128
 20
964.8426977531395
 30
0.0
 10
330.6159092486037
 20
964.8201100156729
 30
0.0
 10
330.5783352547633
 20
964.7967500374967
 30
0.0
 10
330.573792671074
 20
964.7939839123376
 30
0.0
 10
330.5671049169819
 20
964.7899969980095
 30
0.0
 10
330.5649829669042
 20
964.7887444260469
 30
0.0
 10
330.5578730894668
 20
964.7845891705607
 30
0.0
 10
330.5528571299251
 20
964.7817257883257
 30
0.0
 10
330.5408322287317
 20
964.7750245425582
 30
0.0
 10
330.5337921642977
 20
964.7712310910135
 30
0.0
 10
330.5254642193904
 20
964.7668970402614
 30
0.0
 10
330.5242401438686
 20
964.7662638382904
 30
0.0
 10
330.5220806235098
 20
964.7651535028664
 30
0.0
 10
330.5211459912803
 20
964.7646751762414
 30
0.0
 10
330.5202102320513
 20
964.7641984973033
 30
0.0
  0
SPLINE
  5
F3A
330
1F
100
AcDbEntity
  8
HEWI
100
AcDbSpline
210
0.0
220
0.0
230
1.0
 70
     8
 71
     3
 72
    14
 73
    10
 74
     0
 42
0.000000001
 43
0.0000000001
 40
0.0
 40
0.0
 40
0.0
 40
0.0
 40
0.1027022129760789
 40
0.1027022129760789
 40
0.7279570392985876
 40
0.7279570392985876
 40
0.8787115470636795
 40
0.8787115470636795
 40
1.00757375971354
 40
1.00757375971354
 40
1.00757375971354
 40
1.00757375971354
 10
330.5202102320668
 20
964.764198497312
 30
0.0
 10
330.4931975131494
 20
964.7504381263063
 30
0.0
 10
330.4662816229206
 20
964.7371768413536
 30
0.0
 10
330.2763644039314
 20
964.6470702326721
 30
0.0
 10
330.1397520948617
 20
964.6002770472705
 30
0.0
 10
329.9969993199561
 20
964.5727863418372
 30
0.0
 10
329.9693130128371
 20
964.5686462273944
 30
0.0
 10
329.9182721736301
 20
964.5637099482172
 30
0.0
 10
329.8956099061356
 20
964.5625617902775
 30
0.0
 10
329.8737206930687
 20
964.5625452923848
 30
0.0
  0
SPLINE
  5
F3B
330
1F
100
AcDbEntity
  8
HEWI
100
AcDbSpline
210
0.0
220
0.0
230
1.0
 70
     8
 71
     3
 72
    22
 73
    18
 74
     0
 42
0.000000001
 43
0.0000000001
 40
3.061871436951401
 40
3.061871436951401
 40
3.061871436951401
 40
3.061871436951401
 40
3.560368615891488
 40
3.560368615891488
 40
7.493792974703276
 40
7.493792974703276
 40
12.10816926551439
 40
12.10816926551439
 40
16.79563105603264
 40
16.79563105603264
 40
20.70282533586548
 40
20.70282533586548
 40
24.42008836555656
 40
24.42008836555656
 40
27.33511547715496
 40
27.33511547715496
 40
28.43964690263492
 40
28.43964690263492
 40
28.43964690263492
 40
28.43964690263492
 10
348.8348936342527
 20
957.3751854037896
 30
0.0
 10
348.8291066973666
 20
957.4915349904513
 30
0.0
 10
348.8196900100025
 20
957.609688814621
 30
0.0
 10
348.7033278029398
 20
958.6759501366561
 30
0.0
 10
348.3749210772757
 20
959.6904209352038
 30
0.0
 10
347.226134718142
 20
961.9076098508479
 30
0.0
 10
346.3448754428418
 20
963.0840548638083
 30
0.0
 10
344.1827622591418
 20
965.16588946041
 30
0.0
 10
342.8901781353066
 20
966.071294512427
 30
0.0
 10
340.2702258321965
 20
967.1901286580945
 30
0.0
 10
339.0050154978653
 20
967.4832924198497
 30
0.0
 10
336.462696391724
 20
967.5239841703783
 30
0.0
 10
335.2502829754972
 20
967.2965348480619
 30
0.0
 10
333.1889671075646
 20
966.5228642603821
 30
0.0
 10
332.3333567282825
 20
966.0622624319435
 30
0.0
 10
331.2458640599757
 20
965.3130665714565
 30
0.0
 10
330.9564069184858
 20
965.0951959671569
 30
0.0
 10
330.6771860823842
 20
964.867194212915
 30
0.0
  0
ARC
  5
F3C
330
1F
100
AcDbEntity
  8
HEWI
100
AcDbCircle
 10
326.5519735963285
 20
952.0307880873662
 30
0.0
 40
0.9999999999999998
100
AcDbArc
 50
180.0
 51
270.0
  0
SPLINE
  5
F3D
330
1F
100
AcDbEntity
  8
HEWI
100
AcDbSpline
210
0.0
220
0.0
230
1.0
 70
     8
 71
     3
 72
    16
 73
    12
 74
     0
 42
0.000000001
 43
0.0000000001
 40
0.2153933378747647
 40
0.2153933378747647
 40
0.2153933378747647
 40
0.2153933378747647
 40
0.4400106382931944
 40
0.4400106382931944
 40
0.7443622165869365
 40
0.7443622165869365
 40
0.7898558523043758
 40
0.7898558523043758
 40
0.8400475889893838
 40
0.8400475889893838
 40
0.9391014517216389
 40
0.9391014517216389
 40
0.9391014517216389
 40
0.9391014517216389
 10
329.2212159927808
 20
964.5625874192104
 30
0.0
 10
329.1115890162914
 20
964.5625664058652
 30
0.0
 10
329.001439011055
 20
964.5901618498406
 30
0.0
 10
328.7566981482387
 20
964.6871209473815
 30
0.0
 10
328.6069110574531
 20
964.7756958477053
 30
0.0
 10
328.4325491105815
 20
964.9139964745517
 30
0.0
 10
328.4099987124132
 20
964.9325758394965
 30
0.0
 10
328.3629172742908
 20
964.9728465631948
 30
0.0
 10
328.3384073651086
 20
964.9946738282894
 30
0.0
 10
328.2662791831713
 20
965.0615567724456
 30
0.0
 10
328.2192951657912
 20
965.1086257712542
 30
0.0
 10
328.1738356808605
 20
965.1580601605004
 30
0.0
  0
SPLINE
  5
F3E
330
1F
100
AcDbEntity
  8
HEWI
100
AcDbSpline
210
0.0
220
0.0
230
1.0
 70
     8
 71
     3
 72
    22
 73
    18
 74
     0
 42
0.000000001
 43
0.0000000001
 40
0.0
 40
0.0
 40
0.0
 40
0.0
 40
0.1010342156346406
 40
0.1010342156346406
 40
0.3279516765822095
 40
0.3279516765822095
 40
0.5175559881771342
 40
0.5175559881771342
 40
0.7979184822918344
 40
0.7979184822918344
 40
1.199996363126329
 40
1.199996363126329
 40
1.322552195150312
 40
1.322552195150312
 40
1.603510893648653
 40
1.603510893648653
 40
2.026822364600081
 40
2.026822364600081
 40
2.026822364600081
 40
2.026822364600081
 10
326.3219721428782
 20
967.2673070680829
 30
0.0
 10
326.3005249425132
 20
967.2929175734298
 30
0.0
 10
326.2794027189334
 20
967.3189473352374
 30
0.0
 10
326.2119719419734
 20
967.4045255878047
 30
0.0
 10
326.1669364629361
 20
967.465595275078
 30
0.0
 10
326.0877255742867
 20
967.5796364923689
 30
0.0
 10
326.0528742101414
 20
967.6324462258513
 30
0.0
 10
325.9698518609744
 20
967.7646274070278
 30
0.0
 10
325.9230625125115
 20
967.8449712637137
 30
0.0
 10
325.8171266412469
 20
968.0416289016024
 30
0.0
 10
325.7608451280125
 20
968.1594465518102
 30
0.0
 10
325.6982122135641
 20
968.3120445074214
 30
0.0
 10
325.6843239243512
 20
968.3476854326157
 30
0.0
 10
325.6413245407821
 20
968.4647557864071
 30
0.0
 10
325.6156294132911
 20
968.5459668653399
 30
0.0
 10
325.5654259049106
 20
968.7470075472049
 30
0.0
 10
325.5519735963285
 20
968.850495207184
 30
0.0
 10
325.5519735963285
 20
968.9390280853251
 30
0.0
  0
SPLINE
  5
F3F
330
1F
100
AcDbEntity
  8
HEWI
100
AcDbSpline
210
0.0
220
0.0
230
1.0
 70
     8
 71
     3
 72
    10
 73
     6
 74
     0
 42
0.000000001
 43
0.0000000001
 40
1.861395455753385
 40
1.861395455753385
 40
1.861395455753385
 40
1.861395455753385
 40
3.07404711623358
 40
3.07404711623358
 40
4.714235913704281
 40
4.714235913704281
 40
4.714235913704281
 40
4.714235913704281
 10
328.1738354444224
 20
965.1580598037348
 30
0.0
 10
327.9065086665319
 20
965.4487579859791
 30
0.0
 10
327.6410839895252
 20
965.7429934242818
 30
0.0
 10
327.0218748712768
 20
966.4431283685207
 30
0.0
 10
326.6695971762765
 20
966.8522012078389
 30
0.0
 10
326.3219720889924
 20
967.2673070084583
 30
0.0
  0
ARC
  5
F40
330
1F
100
AcDbEntity
  8
HEWI
100
AcDbCircle
 10
326.5519735963285
 20
990.0307880873661
 30
0.0
 40
0.9999999999999998
100
AcDbArc
 50
90.0
 51
180.0
  0
LINE
  5
F41
330
1F
100
AcDbEntity
  8
HEWI
100
AcDbLine
 10
400.401973596327
 20
1013.030788087365
 30
0.0
 11
400.401973596327
 21
1061.530788087365
 31
0.0
  0
LINE
  5
F42
330
1F
100
AcDbEntity
  8
HEWI
100
AcDbLine
 10
367.4019735963266
 20
1061.530788087365
 30
0.0
 11
367.4019735963266
 21
1013.030788087365
 31
0.0
  0
LINE
  5
F43
330
1F
100
AcDbEntity
  8
HEWI
100
AcDbLine
 10
383.9019735963266
 20
996.5307880873654
 30
0.0
 11
387.9946499822604
 21
996.5307880873654
 31
0.0
  0
LINE
  5
F44
330
1F
100
AcDbEntity
  8
HEWI
100
AcDbLine
 10
410.6019735963254
 20
996.5307880873654
 30
0.0
 11
432.401973596327
 21
996.5307880873654
 31
0.0
  0
LINE
  5
F45
330
1F
100
AcDbEntity
  8
HEWI
100
AcDbLine
 10
432.401973596327
 20
1029.530788087365
 30
0.0
 11
404.8934004177685
 21
1029.530788087365
 31
0.0
  0
ARC
  5
F46
330
1F
100
AcDbEntity
  8
HEWI
100
AcDbCircle
 10
1025.490859163355
 20
964.4778163655358
 30
0.0
 40
65.0
100
AcDbArc
 50
0.0
 51
90.0
  0
ARC
  5
F47
330
1F
100
AcDbEntity
  8
HEWI
100
AcDbCircle
 10
1025.490859163355
 20
964.4778163655358
 30
0.0
 40
32.0
100
AcDbArc
 50
0.0
 51
90.0
  0
ARC
  5
F48
330
1F
100
AcDbEntity
  8
HEWI
100
AcDbCircle
 10
1122.901973596327
 20
171.0307880873662
 30
0.0
 40
32.0
100
AcDbArc
 50
180.0
 51
270.0
  0
ARC
  5
F49
330
1F
100
AcDbEntity
  8
HEWI
100
AcDbCircle
 10
1122.901973596327
 20
171.0307880873662
 30
0.0
 40
65.0
100
AcDbArc
 50
180.0
 51
270.0
  0
ENDSEC
  0
SECTION
  2
OBJECTS
  0
DICTIONARY
  5
C
330
0
100
AcDbDictionary
281
     1
  3
ACAD_CIP_PREVIOUS_PRODUCT_INFO
350
75A
  3
ACAD_COLOR
350
6B
  3
ACAD_DETAILVIEWSTYLE
350
754
  3
ACAD_GROUP
350
D
  3
ACAD_LAYOUT
350
1A
  3
ACAD_MATERIAL
350
6A
  3
ACAD_MLEADERSTYLE
350
750
  3
ACAD_MLINESTYLE
350
17
  3
ACAD_PLOTSETTINGS
350
19
  3
ACAD_PLOTSTYLENAME
350
E
  3
ACAD_SCALELIST
350
73E
  3
ACAD_SECTIONVIEWSTYLE
350
752
  3
ACAD_TABLESTYLE
350
73C
  3
ACAD_VISUALSTYLE
350
723
  3
ACDB_RECOMPOSE_DATA
350
F85
  3
ACDBVARIABLEDICTIONARY
350
5E
  3
AEC_PROPERTY_SET_DEFS
350
DFA
  0
DICTIONARY
  5
7A8
330
10
100
AcDbDictionary
280
     1
281
     1
  3
ADSK_XREC_LAYER_RECONCILED
360
7A9
  0
DICTIONARY
  5
7AA
330
88
100
AcDbDictionary
280
     1
281
     1
  3
ADSK_XREC_LAYER_RECONCILED
360
7AB
  0
DICTIONARY
  5
7AC
330
7A5
100
AcDbDictionary
280
     1
281
     1
  3
ADSK_XREC_LAYER_RECONCILED
360
7AD
  0
DICTIONARY
  5
703
330
1F
100
AcDbDictionary
280
     1
281
     1
  3
ACAD_LAYOUTSELFREF
360
704
  3
ACAD_SORTENTS
360
BA5
  0
DICTIONARY
  5
705
330
50
100
AcDbDictionary
280
     1
281
     1
  3
ACAD_LAYOUTSELFREF
360
706
  0
XRECORD
  5
75A
102
{ACAD_REACTORS
330
C
102
}
330
C
100
AcDbXrecord
280
     1
300
ACDLT
300
2021
300
ACDLT_F_S
  0
DICTIONARY
  5
6B
102
{ACAD_REACTORS
330
C
102
}
330
C
100
AcDbDictionary
281
     1
  0
DICTIONARY
  5
754
102
{ACAD_REACTORS
330
C
102
}
330
C
100
AcDbDictionary
281
     1
  3
Imperial24
350
7F4
  3
Metric50
350
755
  0
DICTIONARY
  5
D
102
{ACAD_REACTORS
330
C
102
}
330
C
100
AcDbDictionary
281
     1
  0
DICTIONARY
  5
1A
102
{ACAD_REACTORS
330
C
102
}
330
C
100
AcDbDictionary
281
     1
  3
Layout1
350
757
  3
Model
350
756
  0
DICTIONARY
  5
6A
102
{ACAD_REACTORS
330
C
102
}
330
C
100
AcDbDictionary
281
     1
  3
ByBlock
350
713
  3
ByLayer
350
70B
  3
Global
350
71B
  0
DICTIONARY
  5
750
102
{ACAD_REACTORS
330
C
102
}
330
C
100
AcDbDictionary
281
     1
  3
Standard
350
751
  0
DICTIONARY
  5
17
102
{ACAD_REACTORS
330
C
102
}
330
C
100
AcDbDictionary
281
     1
  3
STANDARD
350
18
  0
DICTIONARY
  5
19
102
{ACAD_REACTORS
330
C
102
}
330
C
100
AcDbDictionary
281
     1
  0
ACDBDICTIONARYWDFLT
  5
E
102
{ACAD_REACTORS
330
C
102
}
330
C
100
AcDbDictionary
281
     1
  3
Normal
350
F
100
AcDbDictionaryWithDefault
340
F
  0
DICTIONARY
  5
73E
102
{ACAD_REACTORS
330
C
102
}
330
C
100
AcDbDictionary
281
     1
  3
A0
350
73F
  3
A1
350
740
  3
A2
350
741
  3
A3
350
742
  3
A4
350
743
  3
A5
350
744
  3
A6
350
745
  3
A7
350
746
  3
A8
350
747
  3
A9
350
748
  3
B0
350
749
  3
B1
350
74A
  3
B2
350
74B
  3
B3
350
74C
  3
B4
350
74D
  3
B5
350
74E
  3
B6
350
74F
  0
DICTIONARY
  5
752
102
{ACAD_REACTORS
330
C
102
}
330
C
100
AcDbDictionary
281
     1
  3
Imperial24
350
7F3
  3
Metric50
350
753
  0
DICTIONARY
  5
73C
102
{ACAD_REACTORS
330
C
102
}
330
C
100
AcDbDictionary
281
     1
  3
Standard
350
73D
  0
DICTIONARY
  5
723
102
{ACAD_REACTORS
330
C
102
}
330
C
100
AcDbDictionary
281
     1
  3
2dWireframe
350
729
  3
Basic
350
728
  3
Brighten
350
72F
  3
ColorChange
350
733
  3
Conceptual
350
72C
  3
Dim
350
72E
  3
EdgeColorOff
350
73B
  3
Facepattern
350
732
  3
Flat
350
724
  3
FlatWithEdges
350
725
  3
Gouraud
350
726
  3
GouraudWithEdges
350
727
  3
Hidden
350
72B
  3
JitterOff
350
739
  3
Linepattern
350
731
  3
OverhangOff
350
73A
  3
Realistic
350
72D
  3
Shaded
350
738
  3
Shaded with edges
350
737
  3
Shades of Gray
350
734
  3
Sketchy
350
735
  3
Thicken
350
730
  3
Wireframe
350
72A
  3
X-Ray
350
736
  0
XRECORD
  5
F85
102
{ACAD_REACTORS
330
C
102
}
330
C
100
AcDbXrecord
280
     1
 90
        1
330
73D
  0
DICTIONARY
  5
5E
102
{ACAD_REACTORS
330
C
102
}
330
C
100
AcDbDictionary
281
     1
  3
CANNOSCALE
350
7B3
  3
CMLEADERSTYLE
350
7AF
  3
CTABLESTYLE
350
7AE
  3
CVIEWDETAILSTYLE
350
7B0
  3
CVIEWSECTIONSTYLE
350
7B1
  3
DIMASSOC
350
5F
  3
HIDETEXT
350
63
  3
LAYEREVAL
350
7B5
  3
LAYERNOTIFY
350
7B6
  3
LIGHTINGUNITS
350
7B4
  3
MSLTSCALE
350
7B2
  3
PROJECTNAME
350
23B
  0
DICTIONARY
  5
DFA
102
{ACAD_REACTORS
330
C
102
}
330
C
100
AcDbDictionary
281
     1
  0
XRECORD
  5
7A9
102
{ACAD_REACTORS
330
7A8
102
}
330
7A8
100
AcDbXrecord
280
     1
290
     1
  0
XRECORD
  5
7AB
102
{ACAD_REACTORS
330
7AA
102
}
330
7AA
100
AcDbXrecord
280
     1
290
     1
  0
XRECORD
  5
7AD
102
{ACAD_REACTORS
330
7AC
102
}
330
7AC
100
AcDbXrecord
280
     1
290
     1
  0
XRECORD
  5
704
102
{ACAD_REACTORS
330
703
102
}
330
703
100
AcDbXrecord
280
     1
340
1F
  0
SORTENTSTABLE
  5
BA5
102
{ACAD_REACTORS
330
703
102
}
330
703
100
AcDbSortentsTable
330
1F
  0
XRECORD
  5
706
102
{ACAD_REACTORS
330
705
102
}
330
705
100
AcDbXrecord
280
     1
340
50
  0
ACDBDETAILVIEWSTYLE
  5
7F4
102
{ACAD_XDICTIONARY
360
F8C
102
}
102
{ACAD_REACTORS
330
754
102
}
330
754
100
AcDbModelDocViewStyle
 70
     0
  3
Imperial24
290
     0
100
AcDbDetailViewStyle
 70
     0
 71
     0
 90
        3
 71
     1
340
11
 62
   256
 40
0.24
340
0
 62
   256
 40
0.24
300

 40
0.36
280
     3
 71
     2
340
16
 90
       25
 62
   256
 71
     3
340
11
 62
   256
 40
0.24
 90
        1
 40
0.75
 90
        1
300
%<\AcVar ViewType \f "%tc1">% %<\AcVar ViewDetailId>%\PVARIA %<\AcVar ViewScale \f "%sn">%
 71
     4
340
16
 90
       25
 62
   256
340
16
 90
       25
 62
   256
280
     0
  0
ACDBDETAILVIEWSTYLE
  5
755
102
{ACAD_XDICTIONARY
360
F88
102
}
102
{ACAD_REACTORS
330
754
102
}
330
754
100
AcDbModelDocViewStyle
 70
     0
  3
Metric50
290
     0
100
AcDbDetailViewStyle
 70
     0
 71
     0
 90
        3
 71
     1
340
11
 62
   256
 40
5.0
340
0
 62
   256
 40
5.0
300

 40
0.0
280
     1
 71
     2
340
16
 90
       25
 62
   256
 71
     3
340
11
 62
   256
 40
5.0
 90
        0
 40
15.0
 90
        1
300
%<\AcVar ViewDetailId>% (%<\AcVar ViewScale \f "%sn">%)
 71
     4
340
16
 90
       25
 62
   256
340
16
 90
       25
 62
   256
280
     0
  0
LAYOUT
  5
757
102
{ACAD_REACTORS
330
1A
102
}
330
1A
100
AcDbPlotSettings
  1

  2
\\srvadruck01\MFSA15
  4

  6

 40
0.0
 41
0.0
 42
0.0
 43
0.0
 44
0.0
 45
0.0
 46
0.0
 47
0.0
 48
0.0
 49
0.0
140
0.0
141
0.0
142
1.0
143
1.0
 70
   688
 72
     0
 73
     0
 74
     5
  7

 75
    16
147
1.0
 76
     0
 77
     2
 78
   300
148
0.0
149
0.0
100
AcDbLayout
  1
Layout1
 70
     1
 71
     1
 10
0.0
 20
0.0
 11
12.0
 21
9.0
 12
0.0
 22
0.0
 32
0.0
 14
0.0
 24
0.0
 34
0.0
 15
0.0
 25
0.0
 35
0.0
146
0.0
 13
0.0
 23
0.0
 33
0.0
 16
1.0
 26
0.0
 36
0.0
 17
0.0
 27
1.0
 37
0.0
 76
     0
330
50
  0
LAYOUT
  5
756
102
{ACAD_REACTORS
330
1A
102
}
330
1A
100
AcDbPlotSettings
  1

  2
\\srvadruck01\MFSA15
  4

  6

 40
0.0
 41
0.0
 42
0.0
 43
0.0
 44
0.0
 45
0.0
 46
0.0
 47
0.0
 48
0.0
 49
0.0
140
0.0
141
0.0
142
1.0
143
1.0
 70
  1712
 72
     0
 73
     0
 74
     0
  7

 75
     0
147
1.0
 76
     0
 77
     2
 78
   300
148
0.0
149
0.0
100
AcDbLayout
  1
Model
 70
     1
 71
     0
 10
0.0
 20
0.0
 11
12.0
 21
9.0
 12
0.0
 22
0.0
 32
0.0
 14
0.0
 24
0.0
 34
0.0
 15
0.0
 25
0.0
 35
0.0
146
0.0
 13
0.0
 23
0.0
 33
0.0
 16
1.0
 26
0.0
 36
0.0
 17
0.0
 27
1.0
 37
0.0
 76
     0
330
1F
331
6E1
  0
MATERIAL
  5
713
102
{ACAD_XDICTIONARY
360
714
102
}
102
{ACAD_REACTORS
330
6A
102
}
330
6A
100
AcDbMaterial
  1
ByBlock
 72
     0
 43
0.0008202099737533
 43
0.0
 43
0.0
 43
0.0
 43
0.0
 43
0.0008202099737533
 43
0.0
 43
0.0
 43
0.0
 43
0.0
 43
1.0
 43
0.0
 43
0.0
 43
0.0
 43
0.0
 43
1.0
 77
     0
 47
0.0008202099737533
 47
0.0
 47
0.0
 47
0.0
 47
0.0
 47
0.0008202099737533
 47
0.0
 47
0.0
 47
0.0
 47
0.0
 47
1.0
 47
0.0
 47
0.0
 47
0.0
 47
0.0
 47
1.0
171
     0
 49
0.0008202099737533
 49
0.0
 49
0.0
 49
0.0
 49
0.0
 49
0.0008202099737533
 49
0.0
 49
0.0
 49
0.0
 49
0.0
 49
1.0
 49
0.0
 49
0.0
 49
0.0
 49
0.0
 49
1.0
175
     0
142
0.0008202099737533
142
0.0
142
0.0
142
0.0
142
0.0
142
0.0008202099737533
142
0.0
142
0.0
142
0.0
142
0.0
142
1.0
142
0.0
142
0.0
142
0.0
142
0.0
142
1.0
179
     0
144
0.0008202099737533
144
0.0
144
0.0
144
0.0
144
0.0
144
0.0008202099737533
144
0.0
144
0.0
144
0.0
144
0.0
144
1.0
144
0.0
144
0.0
144
0.0
144
0.0
144
1.0
147
0.0008202099737533
147
0.0
147
0.0
147
0.0
147
0.0
147
0.0008202099737533
147
0.0
147
0.0
147
0.0
147
0.0
147
1.0
147
0.0
147
0.0
147
0.0
147
0.0
147
1.0
  0
MATERIAL
  5
70B
102
{ACAD_XDICTIONARY
360
70C
102
}
102
{ACAD_REACTORS
330
6A
102
}
330
6A
100
AcDbMaterial
  1
ByLayer
 72
     0
 43
0.0008202099737533
 43
0.0
 43
0.0
 43
0.0
 43
0.0
 43
0.0008202099737533
 43
0.0
 43
0.0
 43
0.0
 43
0.0
 43
1.0
 43
0.0
 43
0.0
 43
0.0
 43
0.0
 43
1.0
 77
     0
 47
0.0008202099737533
 47
0.0
 47
0.0
 47
0.0
 47
0.0
 47
0.0008202099737533
 47
0.0
 47
0.0
 47
0.0
 47
0.0
 47
1.0
 47
0.0
 47
0.0
 47
0.0
 47
0.0
 47
1.0
171
     0
 49
0.0008202099737533
 49
0.0
 49
0.0
 49
0.0
 49
0.0
 49
0.0008202099737533
 49
0.0
 49
0.0
 49
0.0
 49
0.0
 49
1.0
 49
0.0
 49
0.0
 49
0.0
 49
0.0
 49
1.0
175
     0
142
0.0008202099737533
142
0.0
142
0.0
142
0.0
142
0.0
142
0.0008202099737533
142
0.0
142
0.0
142
0.0
142
0.0
142
1.0
142
0.0
142
0.0
142
0.0
142
0.0
142
1.0
179
     0
144
0.0008202099737533
144
0.0
144
0.0
144
0.0
144
0.0
144
0.0008202099737533
144
0.0
144
0.0
144
0.0
144
0.0
144
1.0
144
0.0
144
0.0
144
0.0
144
0.0
144
1.0
147
0.0008202099737533
147
0.0
147
0.0
147
0.0
147
0.0
147
0.0008202099737533
147
0.0
147
0.0
147
0.0
147
0.0
147
1.0
147
0.0
147
0.0
147
0.0
147
0.0
147
1.0
  0
MATERIAL
  5
71B
102
{ACAD_XDICTIONARY
360
71C
102
}
102
{ACAD_REACTORS
330
6A
102
}
330
6A
100
AcDbMaterial
  1
Global
 72
     0
 43
0.0008202099737533
 43
0.0
 43
0.0
 43
0.0
 43
0.0
 43
0.0008202099737533
 43
0.0
 43
0.0
 43
0.0
 43
0.0
 43
1.0
 43
0.0
 43
0.0
 43
0.0
 43
0.0
 43
1.0
 77
     0
 47
0.0008202099737533
 47
0.0
 47
0.0
 47
0.0
 47
0.0
 47
0.0008202099737533
 47
0.0
 47
0.0
 47
0.0
 47
0.0
 47
1.0
 47
0.0
 47
0.0
 47
0.0
 47
0.0
 47
1.0
171
     0
 49
0.0008202099737533
 49
0.0
 49
0.0
 49
0.0
 49
0.0
 49
0.0008202099737533
 49
0.0
 49
0.0
 49
0.0
 49
0.0
 49
1.0
 49
0.0
 49
0.0
 49
0.0
 49
0.0
 49
1.0
175
     0
142
0.0008202099737533
142
0.0
142
0.0
142
0.0
142
0.0
142
0.0008202099737533
142
0.0
142
0.0
142
0.0
142
0.0
142
1.0
142
0.0
142
0.0
142
0.0
142
0.0
142
1.0
179
     0
144
0.0008202099737533
144
0.0
144
0.0
144
0.0
144
0.0
144
0.0008202099737533
144
0.0
144
0.0
144
0.0
144
0.0
144
1.0
144
0.0
144
0.0
144
0.0
144
0.0
144
1.0
147
0.0008202099737533
147
0.0
147
0.0
147
0.0
147
0.0
147
0.0008202099737533
147
0.0
147
0.0
147
0.0
147
0.0
147
1.0
147
0.0
147
0.0
147
0.0
147
0.0
147
1.0
  0
MLEADERSTYLE
  5
751
102
{ACAD_REACTORS
330
750
102
}
330
750
100
AcDbMLeaderStyle
179
     2
170
     2
171
     1
172
     0
 90
        2
 40
0.0
 41
0.0
173
     1
 91
-1056964608
340
14
 92
       -2
290
     1
 42
2.0
291
     1
 43
0.36
  3
Standard
 44
4.0
300

342
11
174
     1
178
     6
175
     1
176
     0
 93
-1056964608
 45
4.0
292
     0
297
     0
 46
4.0
 94
-1056964608
 47
1.0
 49
1.0
140
1.0
293
     1
141
0.0
294
     1
177
     0
142
1.0
295
     0
296
     0
143
0.125
271
     0
272
     9
273
     9
298
     0
  0
MLINESTYLE
  5
18
102
{ACAD_REACTORS
330
17
102
}
330
17
100
AcDbMlineStyle
  2
STANDARD
 70
     0
  3

 62
   256
 51
90.0
 52
90.0
 71
     2
 49
0.5
 62
   256
  6
BYLAYER
 49
-0.5
 62
   256
  6
BYLAYER
  0
ACDBPLACEHOLDER
  5
F
102
{ACAD_REACTORS
330
E
102
}
330
E
  0
SCALE
  5
73F
102
{ACAD_REACTORS
330
73E
102
}
330
73E
100
AcDbScale
 70
     0
300
1:1
140
1.0
141
1.0
290
     1
  0
SCALE
  5
740
102
{ACAD_REACTORS
330
73E
102
}
330
73E
100
AcDbScale
 70
     0
300
1:2
140
1.0
141
2.0
290
     0
  0
SCALE
  5
741
102
{ACAD_REACTORS
330
73E
102
}
330
73E
100
AcDbScale
 70
     0
300
1:4
140
1.0
141
4.0
290
     0
  0
SCALE
  5
742
102
{ACAD_REACTORS
330
73E
102
}
330
73E
100
AcDbScale
 70
     0
300
1:5
140
1.0
141
5.0
290
     0
  0
SCALE
  5
743
102
{ACAD_REACTORS
330
73E
102
}
330
73E
100
AcDbScale
 70
     0
300
1:8
140
1.0
141
8.0
290
     0
  0
SCALE
  5
744
102
{ACAD_REACTORS
330
73E
102
}
330
73E
100
AcDbScale
 70
     0
300
1:10
140
1.0
141
10.0
290
     0
  0
SCALE
  5
745
102
{ACAD_REACTORS
330
73E
102
}
330
73E
100
AcDbScale
 70
     0
300
1:16
140
1.0
141
16.0
290
     0
  0
SCALE
  5
746
102
{ACAD_REACTORS
330
73E
102
}
330
73E
100
AcDbScale
 70
     0
300
1:20
140
1.0
141
20.0
290
     0
  0
SCALE
  5
747
102
{ACAD_REACTORS
330
73E
102
}
330
73E
100
AcDbScale
 70
     0
300
1:30
140
1.0
141
30.0
290
     0
  0
SCALE
  5
748
102
{ACAD_REACTORS
330
73E
102
}
330
73E
100
AcDbScale
 70
     0
300
1:40
140
1.0
141
40.0
290
     0
  0
SCALE
  5
749
102
{ACAD_REACTORS
330
73E
102
}
330
73E
100
AcDbScale
 70
     0
300
1:50
140
1.0
141
50.0
290
     0
  0
SCALE
  5
74A
102
{ACAD_REACTORS
330
73E
102
}
330
73E
100
AcDbScale
 70
     0
300
1:100
140
1.0
141
100.0
290
     0
  0
SCALE
  5
74B
102
{ACAD_REACTORS
330
73E
102
}
330
73E
100
AcDbScale
 70
     0
300
2:1
140
2.0
141
1.0
290
     0
  0
SCALE
  5
74C
102
{ACAD_REACTORS
330
73E
102
}
330
73E
100
AcDbScale
 70
     0
300
4:1
140
4.0
141
1.0
290
     0
  0
SCALE
  5
74D
102
{ACAD_REACTORS
330
73E
102
}
330
73E
100
AcDbScale
 70
     0
300
8:1
140
8.0
141
1.0
290
     0
  0
SCALE
  5
74E
102
{ACAD_REACTORS
330
73E
102
}
330
73E
100
AcDbScale
 70
     0
300
10:1
140
10.0
141
1.0
290
     0
  0
SCALE
  5
74F
102
{ACAD_REACTORS
330
73E
102
}
330
73E
100
AcDbScale
 70
     0
300
100:1
140
100.0
141
1.0
290
     0
  0
ACDBSECTIONVIEWSTYLE
  5
7F3
102
{ACAD_XDICTIONARY
360
F8A
102
}
102
{ACAD_REACTORS
330
752
102
}
330
752
100
AcDbModelDocViewStyle
 70
     0
  3
Imperial24
290
     0
100
AcDbSectionViewStyle
 70
     0
 71
     0
 90
       78
 71
     1
340
11
 62
   256
 40
0.24
340
0
340
0
 62
   256
 40
0.24
300
I, O, Q, S, X, Z
 40
0.48
 90
        3
 40
0.18
 90
        1
 71
     2
340
16
 90
       25
 62
   256
340
16
 90
       50
 62
   256
 40
0.24
 40
0.0
 40
0.24
 71
     3
340
11
 62
   256
 40
0.24
 90
        1
 40
0.75
 90
        1
300
%<\AcVar ViewType \f "%tc1">% %<\AcVar ViewSectionStartId>%-%<\AcVar ViewSectionEndId>%\PVARIA %<\AcVar ViewScale \f "%sn">%
 71
     4
 62
   256
 62
   257
300
ANSI31
 40
1.0
 90
        0
290
     0
290
     0
 90
        6
 40
0.0
 40
1.570796326794896
 40
0.2617993877991494
 40
1.308996938995747
 40
-0.2617993877991494
 40
1.832595714594044
  0
ACDBSECTIONVIEWSTYLE
  5
753
102
{ACAD_XDICTIONARY
360
F86
102
}
102
{ACAD_REACTORS
330
752
102
}
330
752
100
AcDbModelDocViewStyle
 70
     0
  3
Metric50
290
     0
100
AcDbSectionViewStyle
 70
     0
 71
     0
 90
      102
 71
     1
340
11
 62
   256
 40
5.0
340
0
340
0
 62
   256
 40
5.0
300
I, O, Q, S, X, Z
 40
10.0
 90
        0
 40
2.5
 90
        0
 71
     2
340
16
 90
       25
 62
   256
340
16
 90
       50
 62
   256
 40
5.0
 40
2.5
 40
5.0
 71
     3
340
11
 62
   256
 40
5.0
 90
        0
 40
15.0
 90
        1
300
%<\AcVar ViewSectionStartId>%-%<\AcVar ViewSectionEndId>% (%<\AcVar ViewScale \f "%sn">%)
 71
     4
 62
   256
 62
   257
300
ANSI31
 40
1.0
 90
        0
290
     0
290
     0
 90
        6
 40
0.0
 40
1.570796326794896
 40
0.2617993877991494
 40
1.308996938995747
 40
-0.2617993877991494
 40
1.832595714594044
  0
TABLESTYLE
  5
73D
102
{ACAD_XDICTIONARY
360
7B8
102
}
102
{ACAD_REACTORS
330
73C
102
}
330
73C
100
AcDbTableStyle
280
     0
  3
Standard
 70
     0
 71
     0
 40
1.5
 41
1.5
280
     0
281
     0
  7
STANDARD
140
4.5
170
     2
 62
     0
 63
     7
283
     0
 90
      512
 91
        0
  1

274
    -2
284
     1
 64
     0
275
    -2
285
     1
 65
     0
276
    -2
286
     1
 66
     0
277
    -2
287
     1
 67
     0
278
    -2
288
     1
 68
     0
279
    -2
289
     1
 69
     0
  7
STANDARD
140
6.0
170
     5
 62
     0
 63
     7
283
     0
 90
      512
 91
        0
  1

274
    -2
284
     1
 64
     0
275
    -2
285
     1
 65
     0
276
    -2
286
     1
 66
     0
277
    -2
287
     1
 67
     0
278
    -2
288
     1
 68
     0
279
    -2
289
     1
 69
     0
  7
STANDARD
140
4.5
170
     5
 62
     0
 63
     7
283
     0
 90
      512
 91
        0
  1

274
    -2
284
     1
 64
     0
275
    -2
285
     1
 65
     0
276
    -2
286
     1
 66
     0
277
    -2
287
     1
 67
     0
278
    -2
288
     1
 68
     0
279
    -2
289
     1
 69
     0
  0
VISUALSTYLE
  5
729
102
{ACAD_REACTORS
330
723
102
}
330
723
100
AcDbVisualStyle
  2
2dWireframe
 70
     4
177
     3
291
     0
 70
    58
 90
        0
176
     1
 90
        2
176
     1
 90
        0
176
     1
 90
        0
176
     1
 40
0.6
176
     1
 40
30.0
176
     1
 62
     7
420
 16777215
176
     1
 90
        1
176
     1
 90
        4
176
     1
 62
     7
176
     1
 62
   257
176
     1
 90
        1
176
     1
 90
        1
176
     1
 40
1.0
176
     1
 90
        0
176
     1
 62
   257
176
     1
 40
1.0
176
     1
 90
        1
176
     1
 90
        6
176
     1
 90
        2
176
     1
 62
     7
176
     1
 90
        5
176
     1
 90
        0
176
     1
 90
        0
176
     1
290
     0
176
     1
 90
        1
176
     1
 40
0.0
176
     1
 90
        0
176
     1
290
     1
176
     1
290
     1
176
     1
290
     0
176
     1
290
     0
176
     1
290
     0
176
     1
290
     0
176
     1
290
     0
176
     1
290
     0
176
     1
290
     0
176
     1
 90
       50
176
     1
 40
0.0
176
     1
 40
1.0
176
     1
 90
        0
176
     1
 62
    18
420
        0
176
     1
 90
       50
176
     1
 90
        3
176
     1
 62
     5
420
      255
176
     1
290
     0
176
     1
 90
       50
176
     1
 90
       50
176
     1
 90
       50
176
     1
290
     0
176
     1
 90
       50
176
     1
 62
   256
176
     0
 40
1.0
176
     0
 90
        2
176
     1
  1
strokes_ogs.tif
176
     1
290
     0
176
     1
 40
1.0
176
     1
 40
1.0
176
     1
1001
ACAD
1000
AcDbSavedByObjectVersion
1070
     0
  0
VISUALSTYLE
  5
728
102
{ACAD_REACTORS
330
723
102
}
330
723
100
AcDbVisualStyle
  2
Basic
 70
     7
177
     3
291
     1
 70
    58
 90
        1
176
     1
 90
        0
176
     1
 90
        1
176
     1
 90
        0
176
     1
 40
0.6
176
     1
 40
30.0
176
     1
 62
     7
420
 16777215
176
     1
 90
        0
176
     1
 90
        4
176
     1
 62
     7
176
     1
 62
   257
176
     1
 90
        1
176
     1
 90
        1
176
     1
 40
1.0
176
     1
 90
        8
176
     1
 62
     7
176
     1
 40
1.0
176
     1
 90
        1
176
     1
 90
        6
176
     1
 90
        2
176
     1
 62
     7
176
     1
 90
        5
176
     1
 90
        0
176
     1
 90
        0
176
     1
290
     0
176
     1
 90
        1
176
     1
 40
0.0
176
     1
 90
        0
176
     1
290
     0
176
     1
290
     1
176
     1
290
     1
176
     1
290
     0
176
     1
290
     0
176
     1
290
     0
176
     1
290
     0
176
     1
290
     0
176
     1
290
     0
176
     1
 90
       50
176
     1
 40
0.0
176
     1
 40
1.0
176
     1
 90
        0
176
     1
 62
    18
420
        0
176
     1
 90
       50
176
     1
 90
        3
176
     1
 62
     5
420
      255
176
     1
290
     0
176
     1
 90
       50
176
     1
 90
       50
176
     1
 90
       50
176
     1
290
     0
176
     1
 90
       50
176
     1
 62
   256
176
     0
 40
1.0
176
     0
 90
        2
176
     1
  1
strokes_ogs.tif
176
     1
290
     0
176
     1
 40
1.0
176
     1
 40
1.0
176
     1
1001
ACAD
1000
AcDbSavedByObjectVersion
1070
     0
  0
VISUALSTYLE
  5
72F
102
{ACAD_REACTORS
330
723
102
}
330
723
100
AcDbVisualStyle
  2
Brighten
 70
    12
177
     3
291
     1
 70
    58
 90
        2
176
     1
 90
        2
176
     1
 90
        0
176
     1
 90
        0
176
     1
 40
0.6
176
     1
 40
30.0
176
     1
 62
     7
420
 16777215
176
     1
 90
        1
176
     1
 90
        4
176
     1
 62
     7
176
     1
 62
   257
176
     1
 90
        1
176
     1
 90
        1
176
     1
 40
1.0
176
     1
 90
        8
176
     1
 62
     7
176
     1
 40
1.0
176
     1
 90
        1
176
     1
 90
        6
176
     1
 90
        2
176
     1
 62
     7
176
     1
 90
        5
176
     1
 90
        0
176
     1
 90
        0
176
     1
290
     0
176
     1
 90
        1
176
     1
 40
50.0
176
     1
 90
        0
176
     1
290
     0
176
     1
290
     1
176
     1
290
     1
176
     1
290
     0
176
     1
290
     0
176
     1
290
     0
176
     1
290
     0
176
     1
290
     0
176
     1
290
     0
176
     1
 90
       50
176
     1
 40
0.0
176
     1
 40
1.0
176
     1
 90
        0
176
     1
 62
    18
420
        0
176
     1
 90
       50
176
     1
 90
        3
176
     1
 62
     5
420
      255
176
     1
290
     0
176
     1
 90
       50
176
     1
 90
       50
176
     1
 90
       50
176
     1
290
     0
176
     1
 90
       50
176
     1
 62
   256
176
     0
 40
1.0
176
     0
 90
        2
176
     1
  1
strokes_ogs.tif
176
     1
290
     0
176
     1
 40
1.0
176
     1
 40
1.0
176
     1
1001
ACAD
1000
AcDbSavedByObjectVersion
1070
     0
  0
VISUALSTYLE
  5
733
102
{ACAD_REACTORS
330
723
102
}
330
723
100
AcDbVisualStyle
  2
ColorChange
 70
    16
177
     3
291
     1
 70
    58
 90
        2
176
     1
 90
        2
176
     1
 90
        3
176
     1
 90
        0
176
     1
 40
0.6
176
     1
 40
30.0
176
     1
 62
     8
420
  8421504
176
     1
 90
        1
176
     1
 90
        4
176
     1
 62
     7
176
     1
 62
   257
176
     1
 90
        1
176
     1
 90
        1
176
     1
 40
1.0
176
     1
 90
        8
176
     1
 62
     8
420
  8421504
176
     1
 40
1.0
176
     1
 90
        1
176
     1
 90
        6
176
     1
 90
        2
176
     1
 62
     7
176
     1
 90
        5
176
     1
 90
        0
176
     1
 90
        0
176
     1
290
     0
176
     1
 90
        1
176
     1
 40
0.0
176
     1
 90
        0
176
     1
290
     0
176
     1
290
     1
176
     1
290
     1
176
     1
290
     0
176
     1
290
     0
176
     1
290
     0
176
     1
290
     0
176
     1
290
     0
176
     1
290
     0
176
     1
 90
       50
176
     1
 40
0.0
176
     1
 40
1.0
176
     1
 90
        0
176
     1
 62
    18
420
        0
176
     1
 90
       50
176
     1
 90
        3
176
     1
 62
     5
420
      255
176
     1
290
     0
176
     1
 90
       50
176
     1
 90
       50
176
     1
 90
       50
176
     1
290
     0
176
     1
 90
       50
176
     1
 62
   256
176
     0
 40
1.0
176
     0
 90
        2
176
     1
  1
strokes_ogs.tif
176
     1
290
     0
176
     1
 40
1.0
176
     1
 40
1.0
176
     1
1001
ACAD
1000
AcDbSavedByObjectVersion
1070
     0
  0
VISUALSTYLE
  5
72C
102
{ACAD_REACTORS
330
723
102
}
330
723
100
AcDbVisualStyle
  2
Conceptual
 70
     9
177
     3
291
     0
 70
    58
 90
        3
176
     1
 90
        2
176
     1
 90
        0
176
     1
 90
        0
176
     1
 40
0.6
176
     1
 40
30.0
176
     1
 62
     7
420
 16777215
176
     1
 90
        2
176
     1
 90
        2
176
     1
 62
     7
176
     1
 62
   257
176
     1
 90
        1
176
     1
 90
        1
176
     1
 40
179.0
176
     1
 90
        8
176
     1
 62
     7
176
     1
 40
1.0
176
     1
 90
        1
176
     1
 90
        6
176
     1
 90
        2
176
     1
 62
     7
176
     1
 90
        3
176
     1
 90
        0
176
     1
 90
        0
176
     1
290
     0
176
     1
 90
        1
176
     1
 40
0.0
176
     1
 90
        0
176
     1
290
     0
176
     1
290
     1
176
     1
290
     1
176
     1
290
     0
176
     1
290
     0
176
     1
290
     0
176
     1
290
     0
176
     1
290
     0
176
     1
290
     0
176
     1
 90
       50
176
     1
 40
0.0
176
     1
 40
1.0
176
     1
 90
        0
176
     1
 62
    18
420
        0
176
     1
 90
       50
176
     1
 90
        3
176
     1
 62
     5
420
      255
176
     1
290
     0
176
     1
 90
       50
176
     1
 90
       50
176
     1
 90
       50
176
     1
290
     0
176
     1
 90
       50
176
     1
 62
   256
176
     0
 40
1.0
176
     0
 90
        2
176
     1
  1
strokes_ogs.tif
176
     1
290
     0
176
     1
 40
1.0
176
     1
 40
1.0
176
     1
1001
ACAD
1000
AcDbSavedByObjectVersion
1070
     0
  0
VISUALSTYLE
  5
72E
102
{ACAD_REACTORS
330
723
102
}
330
723
100
AcDbVisualStyle
  2
Dim
 70
    11
177
     3
291
     1
 70
    58
 90
        2
176
     1
 90
        2
176
     1
 90
        0
176
     1
 90
        0
176
     1
 40
0.6
176
     1
 40
30.0
176
     1
 62
     7
420
 16777215
176
     1
 90
        1
176
     1
 90
        4
176
     1
 62
     7
176
     1
 62
   257
176
     1
 90
        1
176
     1
 90
        1
176
     1
 40
1.0
176
     1
 90
        8
176
     1
 62
     7
176
     1
 40
1.0
176
     1
 90
        1
176
     1
 90
        6
176
     1
 90
        2
176
     1
 62
     7
176
     1
 90
        5
176
     1
 90
        0
176
     1
 90
        0
176
     1
290
     0
176
     1
 90
        1
176
     1
 40
-50.0
176
     1
 90
        0
176
     1
290
     0
176
     1
290
     1
176
     1
290
     1
176
     1
290
     0
176
     1
290
     0
176
     1
290
     0
176
     1
290
     0
176
     1
290
     0
176
     1
290
     0
176
     1
 90
       50
176
     1
 40
0.0
176
     1
 40
1.0
176
     1
 90
        0
176
     1
 62
    18
420
        0
176
     1
 90
       50
176
     1
 90
        3
176
     1
 62
     5
420
      255
176
     1
290
     0
176
     1
 90
       50
176
     1
 90
       50
176
     1
 90
       50
176
     1
290
     0
176
     1
 90
       50
176
     1
 62
   256
176
     0
 40
1.0
176
     0
 90
        2
176
     1
  1
strokes_ogs.tif
176
     1
290
     0
176
     1
 40
1.0
176
     1
 40
1.0
176
     1
1001
ACAD
1000
AcDbSavedByObjectVersion
1070
     0
  0
VISUALSTYLE
  5
73B
102
{ACAD_REACTORS
330
723
102
}
330
723
100
AcDbVisualStyle
  2
EdgeColorOff
 70
    22
177
     3
291
     1
 70
    58
 90
        2
176
     0
 90
        2
176
     0
 90
        0
176
     0
 90
        0
176
     0
 40
0.6
176
     0
 40
30.0
176
     0
 62
     7
420
 16777215
176
     0
 90
        1
176
     0
 90
        4
176
     0
 62
     7
176
     0
 62
   257
176
     0
 90
        1
176
     0
 90
        1
176
     0
 40
1.0
176
     0
 90
        8
176
     2
 62
     7
176
     0
 40
1.0
176
     0
 90
        1
176
     0
 90
        6
176
     0
 90
        2
176
     0
 62
     7
176
     0
 90
        5
176
     0
 90
        0
176
     0
 90
        0
176
     0
290
     0
176
     0
 90
        1
176
     0
 40
0.0
176
     0
 90
        0
176
     0
290
     0
176
     1
290
     1
176
     1
290
     1
176
     1
290
     0
176
     1
290
     0
176
     1
290
     0
176
     1
290
     0
176
     1
290
     0
176
     1
290
     0
176
     1
 90
       50
176
     0
 40
0.0
176
     0
 40
1.0
176
     0
 90
        0
176
     0
 62
    18
420
        0
176
     0
 90
       50
176
     0
 90
        3
176
     0
 62
     5
420
      255
176
     0
290
     0
176
     1
 90
       50
176
     0
 90
       50
176
     0
 90
       50
176
     0
290
     0
176
     1
 90
       50
176
     0
 62
   256
176
     0
 40
1.0
176
     0
 90
        2
176
     0
  1
strokes_ogs.tif
176
     0
290
     0
176
     1
 40
1.0
176
     0
 40
1.0
176
     0
1001
ACAD
1000
AcDbSavedByObjectVersion
1070
     0
  0
VISUALSTYLE
  5
732
102
{ACAD_REACTORS
330
723
102
}
330
723
100
AcDbVisualStyle
  2
Facepattern
 70
    15
177
     3
291
     1
 70
    58
 90
        2
176
     1
 90
        2
176
     1
 90
        0
176
     1
 90
        0
176
     1
 40
0.6
176
     1
 40
30.0
176
     1
 62
     7
420
 16777215
176
     1
 90
        1
176
     1
 90
        4
176
     1
 62
     7
176
     1
 62
   257
176
     1
 90
        1
176
     1
 90
        1
176
     1
 40
1.0
176
     1
 90
        8
176
     1
 62
     7
176
     1
 40
1.0
176
     1
 90
        1
176
     1
 90
        6
176
     1
 90
        2
176
     1
 62
     7
176
     1
 90
        5
176
     1
 90
        0
176
     1
 90
        0
176
     1
290
     0
176
     1
 90
        1
176
     1
 40
0.0
176
     1
 90
        0
176
     1
290
     0
176
     1
290
     1
176
     1
290
     1
176
     1
290
     0
176
     1
290
     0
176
     1
290
     0
176
     1
290
     0
176
     1
290
     0
176
     1
290
     0
176
     1
 90
       50
176
     1
 40
0.0
176
     1
 40
1.0
176
     1
 90
        0
176
     1
 62
    18
420
        0
176
     1
 90
       50
176
     1
 90
        3
176
     1
 62
     5
420
      255
176
     1
290
     0
176
     1
 90
       50
176
     1
 90
       50
176
     1
 90
       50
176
     1
290
     0
176
     1
 90
       50
176
     1
 62
   256
176
     0
 40
1.0
176
     0
 90
        2
176
     1
  1
strokes_ogs.tif
176
     1
290
     0
176
     1
 40
1.0
176
     1
 40
1.0
176
     1
1001
ACAD
1000
AcDbSavedByObjectVersion
1070
     0
  0
VISUALSTYLE
  5
724
102
{ACAD_REACTORS
330
723
102
}
330
723
100
AcDbVisualStyle
  2
Flat
 70
     0
177
     3
291
     1
 70
    58
 90
        2
176
     1
 90
        1
176
     1
 90
        1
176
     1
 90
        2
176
     1
 40
0.6
176
     1
 40
30.0
176
     1
 62
     7
420
 16777215
176
     1
 90
        0
176
     1
 90
        0
176
     1
 62
     7
176
     1
 62
   257
176
     1
 90
        1
176
     1
 90
        1
176
     1
 40
1.0
176
     1
 90
        8
176
     1
 62
     7
176
     1
 40
1.0
176
     1
 90
        1
176
     1
 90
        6
176
     1
 90
        2
176
     1
 62
     7
176
     1
 90
        5
176
     1
 90
        0
176
     1
 90
        0
176
     1
290
     0
176
     1
 90
       13
176
     1
 40
0.0
176
     1
 90
        0
176
     1
290
     0
176
     1
290
     1
176
     1
290
     1
176
     1
290
     0
176
     1
290
     0
176
     1
290
     0
176
     1
290
     0
176
     1
290
     0
176
     1
290
     0
176
     1
 90
       50
176
     1
 40
0.0
176
     1
 40
1.0
176
     1
 90
        0
176
     1
 62
    18
420
        0
176
     1
 90
       50
176
     1
 90
        3
176
     1
 62
     5
420
      255
176
     1
290
     0
176
     1
 90
       50
176
     1
 90
       50
176
     1
 90
       50
176
     1
290
     0
176
     1
 90
       50
176
     1
 62
   256
176
     0
 40
1.0
176
     0
 90
        2
176
     1
  1
strokes_ogs.tif
176
     1
290
     0
176
     1
 40
1.0
176
     1
 40
1.0
176
     1
1001
ACAD
1000
AcDbSavedByObjectVersion
1070
     0
  0
VISUALSTYLE
  5
725
102
{ACAD_REACTORS
330
723
102
}
330
723
100
AcDbVisualStyle
  2
FlatWithEdges
 70
     1
177
     3
291
     1
 70
    58
 90
        2
176
     1
 90
        1
176
     1
 90
        1
176
     1
 90
        2
176
     1
 40
0.6
176
     1
 40
30.0
176
     1
 62
     7
420
 16777215
176
     1
 90
        1
176
     1
 90
        0
176
     1
 62
     7
176
     1
 62
   257
176
     1
 90
        1
176
     1
 90
        1
176
     1
 40
1.0
176
     1
 90
        0
176
     1
 62
   257
176
     1
 40
1.0
176
     1
 90
        1
176
     1
 90
        6
176
     1
 90
        2
176
     1
 62
     7
176
     1
 90
        5
176
     1
 90
        0
176
     1
 90
        0
176
     1
290
     0
176
     1
 90
       13
176
     1
 40
0.0
176
     1
 90
        0
176
     1
290
     0
176
     1
290
     1
176
     1
290
     1
176
     1
290
     0
176
     1
290
     0
176
     1
290
     0
176
     1
290
     0
176
     1
290
     0
176
     1
290
     0
176
     1
 90
       50
176
     1
 40
0.0
176
     1
 40
1.0
176
     1
 90
        0
176
     1
 62
    18
420
        0
176
     1
 90
       50
176
     1
 90
        3
176
     1
 62
     5
420
      255
176
     1
290
     0
176
     1
 90
       50
176
     1
 90
       50
176
     1
 90
       50
176
     1
290
     0
176
     1
 90
       50
176
     1
 62
   256
176
     0
 40
1.0
176
     0
 90
        2
176
     1
  1
strokes_ogs.tif
176
     1
290
     0
176
     1
 40
1.0
176
     1
 40
1.0
176
     1
1001
ACAD
1000
AcDbSavedByObjectVersion
1070
     0
  0
VISUALSTYLE
  5
726
102
{ACAD_REACTORS
330
723
102
}
330
723
100
AcDbVisualStyle
  2
Gouraud
 70
     2
177
     3
291
     1
 70
    58
 90
        2
176
     1
 90
        2
176
     1
 90
        1
176
     1
 90
        2
176
     1
 40
0.6
176
     1
 40
30.0
176
     1
 62
     7
420
 16777215
176
     1
 90
        0
176
     1
 90
        0
176
     1
 62
     7
176
     1
 62
   257
176
     1
 90
        1
176
     1
 90
        1
176
     1
 40
1.0
176
     1
 90
        0
176
     1
 62
     7
176
     1
 40
1.0
176
     1
 90
        1
176
     1
 90
        6
176
     1
 90
        2
176
     1
 62
     7
176
     1
 90
        5
176
     1
 90
        0
176
     1
 90
        0
176
     1
290
     0
176
     1
 90
       13
176
     1
 40
0.0
176
     1
 90
        0
176
     1
290
     0
176
     1
290
     1
176
     1
290
     1
176
     1
290
     0
176
     1
290
     0
176
     1
290
     0
176
     1
290
     0
176
     1
290
     0
176
     1
290
     0
176
     1
 90
       50
176
     1
 40
0.0
176
     1
 40
1.0
176
     1
 90
        0
176
     1
 62
    18
420
        0
176
     1
 90
       50
176
     1
 90
        3
176
     1
 62
     5
420
      255
176
     1
290
     0
176
     1
 90
       50
176
     1
 90
       50
176
     1
 90
       50
176
     1
290
     0
176
     1
 90
       50
176
     1
 62
   256
176
     0
 40
1.0
176
     0
 90
        2
176
     1
  1
strokes_ogs.tif
176
     1
290
     0
176
     1
 40
1.0
176
     1
 40
1.0
176
     1
1001
ACAD
1000
AcDbSavedByObjectVersion
1070
     0
  0
VISUALSTYLE
  5
727
102
{ACAD_REACTORS
330
723
102
}
330
723
100
AcDbVisualStyle
  2
GouraudWithEdges
 70
     3
177
     3
291
     1
 70
    58
 90
        2
176
     1
 90
        2
176
     1
 90
        1
176
     1
 90
        2
176
     1
 40
0.6
176
     1
 40
30.0
176
     1
 62
     7
420
 16777215
176
     1
 90
        1
176
     1
 90
        0
176
     1
 62
     7
176
     1
 62
   257
176
     1
 90
        1
176
     1
 90
        1
176
     1
 40
1.0
176
     1
 90
        0
176
     1
 62
   257
176
     1
 40
1.0
176
     1
 90
        1
176
     1
 90
        6
176
     1
 90
        2
176
     1
 62
     7
176
     1
 90
        5
176
     1
 90
        0
176
     1
 90
        0
176
     1
290
     0
176
     1
 90
       13
176
     1
 40
0.0
176
     1
 90
        0
176
     1
290
     0
176
     1
290
     1
176
     1
290
     1
176
     1
290
     0
176
     1
290
     0
176
     1
290
     0
176
     1
290
     0
176
     1
290
     0
176
     1
290
     0
176
     1
 90
       50
176
     1
 40
0.0
176
     1
 40
1.0
176
     1
 90
        0
176
     1
 62
    18
420
        0
176
     1
 90
       50
176
     1
 90
        3
176
     1
 62
     5
420
      255
176
     1
290
     0
176
     1
 90
       50
176
     1
 90
       50
176
     1
 90
       50
176
     1
290
     0
176
     1
 90
       50
176
     1
 62
   256
176
     0
 40
1.0
176
     0
 90
        2
176
     1
  1
strokes_ogs.tif
176
     1
290
     0
176
     1
 40
1.0
176
     1
 40
1.0
176
     1
1001
ACAD
1000
AcDbSavedByObjectVersion
1070
     0
  0
VISUALSTYLE
  5
72B
102
{ACAD_REACTORS
330
723
102
}
330
723
100
AcDbVisualStyle
  2
Hidden
 70
     6
177
     3
291
     0
 70
    58
 90
        1
176
     1
 90
        2
176
     1
 90
        2
176
     1
 90
        0
176
     1
 40
0.6
176
     1
 40
30.0
176
     1
 62
     7
420
 16777215
176
     1
 90
        2
176
     1
 90
        2
176
     1
 62
     7
176
     1
 62
   257
176
     1
 90
        2
176
     1
 90
        1
176
     1
 40
40.0
176
     1
 90
        0
176
     1
 62
   257
176
     1
 40
1.0
176
     1
 90
        1
176
     1
 90
        6
176
     1
 90
        2
176
     1
 62
     7
176
     1
 90
        3
176
     1
 90
        0
176
     1
 90
        0
176
     1
290
     0
176
     1
 90
        1
176
     1
 40
0.0
176
     1
 90
        0
176
     1
290
     0
176
     1
290
     1
176
     1
290
     1
176
     1
290
     0
176
     1
290
     0
176
     1
290
     0
176
     1
290
     0
176
     1
290
     0
176
     1
290
     0
176
     1
 90
       50
176
     1
 40
0.0
176
     1
 40
1.0
176
     1
 90
        0
176
     1
 62
    18
420
        0
176
     1
 90
       50
176
     1
 90
        3
176
     1
 62
     5
420
      255
176
     1
290
     0
176
     1
 90
       50
176
     1
 90
       50
176
     1
 90
       50
176
     1
290
     0
176
     1
 90
       50
176
     1
 62
   256
176
     0
 40
1.0
176
     0
 90
        2
176
     1
  1
strokes_ogs.tif
176
     1
290
     0
176
     1
 40
1.0
176
     1
 40
1.0
176
     1
1001
ACAD
1000
AcDbSavedByObjectVersion
1070
     0
  0
VISUALSTYLE
  5
739
102
{ACAD_REACTORS
330
723
102
}
330
723
100
AcDbVisualStyle
  2
JitterOff
 70
    20
177
     3
291
     1
 70
    58
 90
        2
176
     0
 90
        2
176
     0
 90
        0
176
     0
 90
        0
176
     0
 40
0.6
176
     0
 40
30.0
176
     0
 62
     7
420
 16777215
176
     0
 90
        1
176
     0
 90
        4
176
     0
 62
     7
176
     0
 62
   257
176
     0
 90
        1
176
     0
 90
        1
176
     0
 40
1.0
176
     0
 90
       10
176
     2
 62
     7
176
     0
 40
1.0
176
     0
 90
        1
176
     0
 90
        6
176
     0
 90
        2
176
     0
 62
     7
176
     0
 90
        5
176
     0
 90
        0
176
     0
 90
        0
176
     0
290
     0
176
     0
 90
        1
176
     0
 40
0.0
176
     0
 90
        0
176
     0
290
     0
176
     1
290
     1
176
     1
290
     1
176
     1
290
     0
176
     1
290
     0
176
     1
290
     0
176
     1
290
     0
176
     1
290
     0
176
     1
290
     0
176
     1
 90
       50
176
     0
 40
0.0
176
     0
 40
1.0
176
     0
 90
        0
176
     0
 62
    18
420
        0
176
     0
 90
       50
176
     0
 90
        3
176
     0
 62
     5
420
      255
176
     0
290
     0
176
     1
 90
       50
176
     0
 90
       50
176
     0
 90
       50
176
     0
290
     0
176
     1
 90
       50
176
     0
 62
   256
176
     0
 40
1.0
176
     0
 90
        2
176
     0
  1
strokes_ogs.tif
176
     0
290
     0
176
     1
 40
1.0
176
     0
 40
1.0
176
     0
1001
ACAD
1000
AcDbSavedByObjectVersion
1070
     0
  0
VISUALSTYLE
  5
731
102
{ACAD_REACTORS
330
723
102
}
330
723
100
AcDbVisualStyle
  2
Linepattern
 70
    14
177
     3
291
     1
 70
    58
 90
        2
176
     1
 90
        2
176
     1
 90
        0
176
     1
 90
        0
176
     1
 40
0.6
176
     1
 40
30.0
176
     1
 62
     7
420
 16777215
176
     1
 90
        1
176
     1
 90
        4
176
     1
 62
     7
176
     1
 62
   257
176
     1
 90
        7
176
     1
 90
        7
176
     1
 40
1.0
176
     1
 90
        8
176
     1
 62
     7
176
     1
 40
1.0
176
     1
 90
        1
176
     1
 90
        6
176
     1
 90
        2
176
     1
 62
     7
176
     1
 90
        5
176
     1
 90
        0
176
     1
 90
        0
176
     1
290
     0
176
     1
 90
        1
176
     1
 40
0.0
176
     1
 90
        0
176
     1
290
     0
176
     1
290
     1
176
     1
290
     1
176
     1
290
     0
176
     1
290
     0
176
     1
290
     0
176
     1
290
     0
176
     1
290
     0
176
     1
290
     0
176
     1
 90
       50
176
     1
 40
0.0
176
     1
 40
1.0
176
     1
 90
        0
176
     1
 62
    18
420
        0
176
     1
 90
       50
176
     1
 90
        3
176
     1
 62
     5
420
      255
176
     1
290
     0
176
     1
 90
       50
176
     1
 90
       50
176
     1
 90
       50
176
     1
290
     0
176
     1
 90
       50
176
     1
 62
   256
176
     0
 40
1.0
176
     0
 90
        2
176
     1
  1
strokes_ogs.tif
176
     1
290
     0
176
     1
 40
1.0
176
     1
 40
1.0
176
     1
1001
ACAD
1000
AcDbSavedByObjectVersion
1070
     0
  0
VISUALSTYLE
  5
73A
102
{ACAD_REACTORS
330
723
102
}
330
723
100
AcDbVisualStyle
  2
OverhangOff
 70
    21
177
     3
291
     1
 70
    58
 90
        2
176
     0
 90
        2
176
     0
 90
        0
176
     0
 90
        0
176
     0
 40
0.6
176
     0
 40
30.0
176
     0
 62
     7
420
 16777215
176
     0
 90
        1
176
     0
 90
        4
176
     0
 62
     7
176
     0
 62
   257
176
     0
 90
        1
176
     0
 90
        1
176
     0
 40
1.0
176
     0
 90
        9
176
     2
 62
     7
176
     0
 40
1.0
176
     0
 90
        1
176
     0
 90
        6
176
     0
 90
        2
176
     0
 62
     7
176
     0
 90
        5
176
     0
 90
        0
176
     0
 90
        0
176
     0
290
     0
176
     0
 90
        1
176
     0
 40
0.0
176
     0
 90
        0
176
     0
290
     0
176
     1
290
     1
176
     1
290
     1
176
     1
290
     0
176
     1
290
     0
176
     1
290
     0
176
     1
290
     0
176
     1
290
     0
176
     1
290
     0
176
     1
 90
       50
176
     0
 40
0.0
176
     0
 40
1.0
176
     0
 90
        0
176
     0
 62
    18
420
        0
176
     0
 90
       50
176
     0
 90
        3
176
     0
 62
     5
420
      255
176
     0
290
     0
176
     1
 90
       50
176
     0
 90
       50
176
     0
 90
       50
176
     0
290
     0
176
     1
 90
       50
176
     0
 62
   256
176
     0
 40
1.0
176
     0
 90
        2
176
     0
  1
strokes_ogs.tif
176
     0
290
     0
176
     1
 40
1.0
176
     0
 40
1.0
176
     0
1001
ACAD
1000
AcDbSavedByObjectVersion
1070
     0
  0
VISUALSTYLE
  5
72D
102
{ACAD_REACTORS
330
723
102
}
330
723
100
AcDbVisualStyle
  2
Realistic
 70
     8
177
     3
291
     0
 70
    58
 90
        2
176
     1
 90
        3
176
     1
 90
        0
176
     1
 90
        2
176
     1
 40
0.6
176
     1
 40
30.0
176
     1
 62
     7
420
 16777215
176
     1
 90
        0
176
     1
 90
        0
176
     1
 62
     7
176
     1
 62
   257
176
     1
 90
        1
176
     1
 90
        1
176
     1
 40
1.0
176
     1
 90
        8
176
     1
 62
   257
176
     1
 40
1.0
176
     1
 90
        1
176
     1
 90
        6
176
     1
 90
        2
176
     1
 62
     7
176
     1
 90
        3
176
     1
 90
        0
176
     1
 90
        0
176
     1
290
     0
176
     1
 90
       13
176
     1
 40
0.0
176
     1
 90
        0
176
     1
290
     0
176
     1
290
     1
176
     1
290
     1
176
     1
290
     0
176
     1
290
     0
176
     1
290
     0
176
     1
290
     0
176
     1
290
     0
176
     1
290
     0
176
     1
 90
       50
176
     1
 40
0.0
176
     1
 40
1.0
176
     1
 90
        0
176
     1
 62
    18
420
        0
176
     1
 90
       50
176
     1
 90
        3
176
     1
 62
     5
420
      255
176
     1
290
     0
176
     1
 90
       50
176
     1
 90
       50
176
     1
 90
       50
176
     1
290
     0
176
     1
 90
       50
176
     1
 62
   256
176
     0
 40
1.0
176
     0
 90
        2
176
     1
  1
strokes_ogs.tif
176
     1
290
     0
176
     1
 40
1.0
176
     1
 40
1.0
176
     1
1001
ACAD
1000
AcDbSavedByObjectVersion
1070
     0
  0
VISUALSTYLE
  5
738
102
{ACAD_REACTORS
330
723
102
}
330
723
100
AcDbVisualStyle
  2
Shaded
 70
    27
177
     3
291
     0
 70
    58
 90
        2
176
     1
 90
        2
176
     1
 90
        1
176
     1
 90
        2
176
     1
 40
0.6
176
     1
 40
30.0
176
     1
 62
     7
420
 16777215
176
     1
 90
        0
176
     1
 90
        4
176
     1
 62
     7
176
     1
 62
   257
176
     1
 90
        1
176
     1
 90
        1
176
     1
 40
1.0
176
     1
 90
        8
176
     1
 62
   257
176
     1
 40
1.0
176
     1
 90
        1
176
     1
 90
        6
176
     1
 90
        2
176
     1
 62
     8
420
  7895160
176
     1
 90
        3
176
     1
 90
        0
176
     1
 90
        0
176
     1
290
     0
176
     1
 90
        5
176
     1
 40
0.0
176
     1
 90
        0
176
     1
290
     0
176
     1
290
     1
176
     1
290
     1
176
     1
290
     0
176
     1
290
     0
176
     1
290
     0
176
     1
290
     0
176
     1
290
     0
176
     1
290
     0
176
     1
 90
       50
176
     1
 40
0.0
176
     1
 40
1.0
176
     1
 90
        0
176
     1
 62
    18
420
        0
176
     1
 90
       50
176
     1
 90
        3
176
     1
 62
     5
420
      255
176
     1
290
     0
176
     1
 90
       50
176
     1
 90
       50
176
     1
 90
       50
176
     1
290
     0
176
     1
 90
       50
176
     1
 62
   256
176
     0
 40
1.0
176
     0
 90
        2
176
     1
  1
strokes_ogs.tif
176
     1
290
     0
176
     1
 40
1.0
176
     1
 40
1.0
176
     1
1001
ACAD
1000
AcDbSavedByObjectVersion
1070
     0
  0
VISUALSTYLE
  5
737
102
{ACAD_REACTORS
330
723
102
}
330
723
100
AcDbVisualStyle
  2
Shaded with edges
 70
    26
177
     3
291
     0
 70
    58
 90
        2
176
     1
 90
        2
176
     1
 90
        1
176
     1
 90
        2
176
     1
 40
0.6
176
     1
 40
30.0
176
     1
 62
     7
420
 16777215
176
     1
 90
        1
176
     1
 90
       10
176
     1
 62
     7
176
     1
 62
   257
176
     1
 90
        2
176
     1
 90
        1
176
     1
 40
1.0
176
     1
 90
        8
176
     1
 62
   257
176
     1
 40
1.0
176
     1
 90
        1
176
     1
 90
        6
176
     1
 90
        2
176
     1
 62
     7
176
     1
 90
        3
176
     1
 90
        0
176
     1
 90
        0
176
     1
290
     0
176
     1
 90
        5
176
     1
 40
0.0
176
     1
 90
        0
176
     1
290
     0
176
     1
290
     1
176
     1
290
     1
176
     1
290
     0
176
     1
290
     0
176
     1
290
     0
176
     1
290
     0
176
     1
290
     0
176
     1
290
     0
176
     1
 90
       50
176
     1
 40
0.0
176
     1
 40
1.0
176
     1
 90
        0
176
     1
 62
    18
420
        0
176
     1
 90
       50
176
     1
 90
        3
176
     1
 62
     5
420
      255
176
     1
290
     0
176
     1
 90
       50
176
     1
 90
       50
176
     1
 90
       50
176
     1
290
     0
176
     1
 90
       50
176
     1
 62
   256
176
     0
 40
1.0
176
     0
 90
        2
176
     1
  1
strokes_ogs.tif
176
     1
290
     0
176
     1
 40
1.0
176
     1
 40
1.0
176
     1
1001
ACAD
1000
AcDbSavedByObjectVersion
1070
     0
  0
VISUALSTYLE
  5
734
102
{ACAD_REACTORS
330
723
102
}
330
723
100
AcDbVisualStyle
  2
Shades of Gray
 70
    23
177
     3
291
     0
 70
    58
 90
        2
176
     1
 90
        2
176
     1
 90
        3
176
     1
 90
        0
176
     1
 40
0.6
176
     1
 40
30.0
176
     1
 62
     7
420
 16777215
176
     1
 90
        2
176
     1
 90
        2
176
     1
 62
     7
176
     1
 62
     7
176
     1
 90
        1
176
     1
 90
        1
176
     1
 40
40.0
176
     1
 90
        8
176
     1
 62
     7
176
     1
 40
1.0
176
     1
 90
        1
176
     1
 90
        6
176
     1
 90
        2
176
     1
 62
     7
176
     1
 90
        3
176
     1
 90
        0
176
     1
 90
        0
176
     1
290
     0
176
     1
 90
        1
176
     1
 40
0.0
176
     1
 90
        0
176
     1
290
     0
176
     1
290
     1
176
     1
290
     1
176
     1
290
     0
176
     1
290
     0
176
     1
290
     0
176
     1
290
     0
176
     1
290
     0
176
     1
290
     0
176
     1
 90
       50
176
     1
 40
0.0
176
     1
 40
1.0
176
     1
 90
        0
176
     1
 62
    18
420
        0
176
     1
 90
       50
176
     1
 90
        3
176
     1
 62
     5
420
      255
176
     1
290
     0
176
     1
 90
       50
176
     1
 90
       50
176
     1
 90
       50
176
     1
290
     0
176
     1
 90
       50
176
     1
 62
   256
176
     0
 40
1.0
176
     0
 90
        2
176
     1
  1
strokes_ogs.tif
176
     1
290
     0
176
     1
 40
1.0
176
     1
 40
1.0
176
     1
1001
ACAD
1000
AcDbSavedByObjectVersion
1070
     0
  0
VISUALSTYLE
  5
735
102
{ACAD_REACTORS
330
723
102
}
330
723
100
AcDbVisualStyle
  2
Sketchy
 70
    24
177
     3
291
     0
 70
    58
 90
        1
176
     1
 90
        2
176
     1
 90
        2
176
     1
 90
        0
176
     1
 40
0.6
176
     1
 40
30.0
176
     1
 62
     7
420
 16777215
176
     1
 90
        2
176
     1
 90
        2
176
     1
 62
     7
176
     1
 62
     7
176
     1
 90
        1
176
     1
 90
        1
176
     1
 40
40.0
176
     1
 90
       11
176
     1
 62
     7
176
     1
 40
1.0
176
     1
 90
        1
176
     1
 90
        6
176
     1
 90
        2
176
     1
 62
     7
176
     1
 90
        6
176
     1
 90
        0
176
     1
 90
        0
176
     1
290
     0
176
     1
 90
        1
176
     1
 40
0.0
176
     1
 90
        0
176
     1
290
     0
176
     1
290
     1
176
     1
290
     1
176
     1
290
     0
176
     1
290
     0
176
     1
290
     0
176
     1
290
     0
176
     1
290
     0
176
     1
290
     0
176
     1
 90
       50
176
     1
 40
0.0
176
     1
 40
1.0
176
     1
 90
        0
176
     1
 62
    18
420
        0
176
     1
 90
       50
176
     1
 90
        3
176
     1
 62
     5
420
      255
176
     1
290
     0
176
     1
 90
       50
176
     1
 90
       50
176
     1
 90
       50
176
     1
290
     0
176
     1
 90
       50
176
     1
 62
   256
176
     0
 40
1.0
176
     0
 90
        2
176
     1
  1
strokes_ogs.tif
176
     1
290
     0
176
     1
 40
1.0
176
     1
 40
1.0
176
     1
1001
ACAD
1000
AcDbSavedByObjectVersion
1070
     0
  0
VISUALSTYLE
  5
730
102
{ACAD_REACTORS
330
723
102
}
330
723
100
AcDbVisualStyle
  2
Thicken
 70
    13
177
     3
291
     1
 70
    58
 90
        2
176
     1
 90
        2
176
     1
 90
        0
176
     1
 90
        0
176
     1
 40
0.6
176
     1
 40
30.0
176
     1
 62
     7
420
 16777215
176
     1
 90
        1
176
     1
 90
        4
176
     1
 62
     7
176
     1
 62
   257
176
     1
 90
        1
176
     1
 90
        1
176
     1
 40
1.0
176
     1
 90
       12
176
     1
 62
     7
176
     1
 40
1.0
176
     1
 90
        1
176
     1
 90
        6
176
     1
 90
        2
176
     1
 62
     7
176
     1
 90
        5
176
     1
 90
        0
176
     1
 90
        0
176
     1
290
     0
176
     1
 90
        1
176
     1
 40
0.0
176
     1
 90
        0
176
     1
290
     0
176
     1
290
     1
176
     1
290
     1
176
     1
290
     0
176
     1
290
     0
176
     1
290
     0
176
     1
290
     0
176
     1
290
     0
176
     1
290
     0
176
     1
 90
       50
176
     1
 40
0.0
176
     1
 40
1.0
176
     1
 90
        0
176
     1
 62
    18
420
        0
176
     1
 90
       50
176
     1
 90
        3
176
     1
 62
     5
420
      255
176
     1
290
     0
176
     1
 90
       50
176
     1
 90
       50
176
     1
 90
       50
176
     1
290
     0
176
     1
 90
       50
176
     1
 62
   256
176
     0
 40
1.0
176
     0
 90
        2
176
     1
  1
strokes_ogs.tif
176
     1
290
     0
176
     1
 40
1.0
176
     1
 40
1.0
176
     1
1001
ACAD
1000
AcDbSavedByObjectVersion
1070
     0
  0
VISUALSTYLE
  5
72A
102
{ACAD_REACTORS
330
723
102
}
330
723
100
AcDbVisualStyle
  2
Wireframe
 70
     5
177
     3
291
     0
 70
    58
 90
        0
176
     1
 90
        2
176
     1
 90
        0
176
     1
 90
        0
176
     1
 40
0.6
176
     1
 40
30.0
176
     1
 62
     7
420
 16777215
176
     1
 90
        1
176
     1
 90
        4
176
     1
 62
     7
176
     1
 62
   257
176
     1
 90
        1
176
     1
 90
        1
176
     1
 40
1.0
176
     1
 90
        0
176
     1
 62
   257
176
     1
 40
1.0
176
     1
 90
        1
176
     1
 90
        6
176
     1
 90
        2
176
     1
 62
     7
176
     1
 90
        3
176
     1
 90
        0
176
     1
 90
        0
176
     1
290
     0
176
     1
 90
        1
176
     1
 40
0.0
176
     1
 90
        0
176
     1
290
     0
176
     1
290
     1
176
     1
290
     1
176
     1
290
     0
176
     1
290
     0
176
     1
290
     0
176
     1
290
     0
176
     1
290
     0
176
     1
290
     0
176
     1
 90
       50
176
     1
 40
0.0
176
     1
 40
1.0
176
     1
 90
        0
176
     1
 62
    18
420
        0
176
     1
 90
       50
176
     1
 90
        3
176
     1
 62
     5
420
      255
176
     1
290
     0
176
     1
 90
       50
176
     1
 90
       50
176
     1
 90
       50
176
     1
290
     0
176
     1
 90
       50
176
     1
 62
   256
176
     0
 40
1.0
176
     0
 90
        2
176
     1
  1
strokes_ogs.tif
176
     1
290
     0
176
     1
 40
1.0
176
     1
 40
1.0
176
     1
1001
ACAD
1000
AcDbSavedByObjectVersion
1070
     0
  0
VISUALSTYLE
  5
736
102
{ACAD_REACTORS
330
723
102
}
330
723
100
AcDbVisualStyle
  2
X-Ray
 70
    25
177
     3
291
     0
 70
    58
 90
        2
176
     1
 90
        2
176
     1
 90
        1
176
     1
 90
        1
176
     1
 40
0.5
176
     1
 40
30.0
176
     1
 62
     7
420
 16777215
176
     1
 90
        1
176
     1
 90
        0
176
     1
 62
     7
176
     1
 62
   257
176
     1
 90
        1
176
     1
 90
        1
176
     1
 40
1.0
176
     1
 90
        8
176
     1
 62
     7
176
     1
 40
1.0
176
     1
 90
        1
176
     1
 90
        6
176
     1
 90
        2
176
     1
 62
     7
176
     1
 90
        3
176
     1
 90
        0
176
     1
 90
        0
176
     1
290
     0
176
     1
 90
       13
176
     1
 40
0.0
176
     1
 90
        0
176
     1
290
     0
176
     1
290
     1
176
     1
290
     1
176
     1
290
     0
176
     1
290
     0
176
     1
290
     0
176
     1
290
     0
176
     1
290
     0
176
     1
290
     0
176
     1
 90
       50
176
     1
 40
0.0
176
     1
 40
1.0
176
     1
 90
        0
176
     1
 62
    18
420
        0
176
     1
 90
       50
176
     1
 90
        3
176
     1
 62
     5
420
      255
176
     1
290
     0
176
     1
 90
       50
176
     1
 90
       50
176
     1
 90
       50
176
     1
290
     0
176
     1
 90
       50
176
     1
 62
   256
176
     0
 40
1.0
176
     0
 90
        2
176
     1
  1
strokes_ogs.tif
176
     1
290
     0
176
     1
 40
1.0
176
     1
 40
1.0
176
     1
1001
ACAD
1000
AcDbSavedByObjectVersion
1070
     0
  0
DICTIONARYVAR
  5
7B3
102
{ACAD_REACTORS
330
5E
102
}
330
5E
100
DictionaryVariables
280
     0
  1
1:1
  0
DICTIONARYVAR
  5
7AF
102
{ACAD_REACTORS
330
5E
102
}
330
5E
100
DictionaryVariables
280
     0
  1
STANDARD
  0
DICTIONARYVAR
  5
7AE
102
{ACAD_REACTORS
330
5E
102
}
330
5E
100
DictionaryVariables
280
     0
  1
STANDARD
  0
DICTIONARYVAR
  5
7B0
102
{ACAD_REACTORS
330
5E
102
}
330
5E
100
DictionaryVariables
280
     0
  1
Metric50
  0
DICTIONARYVAR
  5
7B1
102
{ACAD_REACTORS
330
5E
102
}
330
5E
100
DictionaryVariables
280
     0
  1
Metric50
  0
DICTIONARYVAR
  5
5F
102
{ACAD_REACTORS
330
5E
102
}
330
5E
100
DictionaryVariables
280
     0
  1
2
  0
DICTIONARYVAR
  5
63
102
{ACAD_REACTORS
330
5E
102
}
330
5E
100
DictionaryVariables
280
     0
  1
1
  0
DICTIONARYVAR
  5
7B5
102
{ACAD_REACTORS
330
5E
102
}
330
5E
100
DictionaryVariables
280
     0
  1
1
  0
DICTIONARYVAR
  5
7B6
102
{ACAD_REACTORS
330
5E
102
}
330
5E
100
DictionaryVariables
280
     0
  1
15
  0
DICTIONARYVAR
  5
7B4
102
{ACAD_REACTORS
330
5E
102
}
330
5E
100
DictionaryVariables
280
     0
  1
0
  0
DICTIONARYVAR
  5
7B2
102
{ACAD_REACTORS
330
5E
102
}
330
5E
100
DictionaryVariables
280
     0
  1
0
  0
DICTIONARYVAR
  5
23B
102
{ACAD_REACTORS
330
5E
102
}
330
5E
100
DictionaryVariables
280
     0
  1

  0
DICTIONARY
  5
F8C
330
7F4
100
AcDbDictionary
280
     1
281
     1
  3
ACAD_XREC_ROUNDTRIP
360
F8D
  0
DICTIONARY
  5
F88
330
755
100
AcDbDictionary
280
     1
281
     1
  3
ACAD_XREC_ROUNDTRIP
360
F89
  0
DICTIONARY
  5
714
330
713
100
AcDbDictionary
280
     1
281
     1
  3
BUMPTILE
360
716
  3
DIFFUSETILE
360
715
  3
OPACITYTILE
360
719
  3
REFLECTIONTILE
360
718
  3
REFRACTIONTILE
360
71A
  3
SPECULARTILE
360
717
  0
DICTIONARY
  5
70C
330
70B
100
AcDbDictionary
280
     1
281
     1
  3
BUMPTILE
360
70E
  3
DIFFUSETILE
360
70D
  3
OPACITYTILE
360
711
  3
REFLECTIONTILE
360
710
  3
REFRACTIONTILE
360
712
  3
SPECULARTILE
360
70F
  0
DICTIONARY
  5
71C
330
71B
100
AcDbDictionary
280
     1
281
     1
  3
BUMPTILE
360
71E
  3
DIFFUSETILE
360
71D
  3
OPACITYTILE
360
721
  3
REFLECTIONTILE
360
720
  3
REFRACTIONTILE
360
722
  3
SPECULARTILE
360
71F
  0
DICTIONARY
  5
F8A
330
7F3
100
AcDbDictionary
280
     1
281
     1
  3
ACAD_XREC_ROUNDTRIP
360
F8B
  0
DICTIONARY
  5
F86
330
753
100
AcDbDictionary
280
     1
281
     1
  3
ACAD_XREC_ROUNDTRIP
360
F87
  0
DICTIONARY
  5
7B8
330
73D
100
AcDbDictionary
280
     1
281
     1
  3
ACAD_ROUNDTRIP_2008_TABLESTYLE_CELLSTYLEMAP
360
F84
  0
XRECORD
  5
F8D
102
{ACAD_REACTORS
330
F8C
102
}
330
F8C
100
AcDbXrecord
280
     1
102
DISPLAYNAME
  1
Imperial24
102
FLAGS
 90
        0
  0
XRECORD
  5
F89
102
{ACAD_REACTORS
330
F88
102
}
330
F88
100
AcDbXrecord
280
     1
102
DISPLAYNAME
  1
Metric50
102
FLAGS
 90
        0
  0
XRECORD
  5
716
102
{ACAD_REACTORS
330
714
102
}
330
714
100
AcDbXrecord
280
     1
270
     1
271
     1
  0
XRECORD
  5
715
102
{ACAD_REACTORS
330
714
102
}
330
714
100
AcDbXrecord
280
     1
270
     1
271
     1
  0
XRECORD
  5
719
102
{ACAD_REACTORS
330
714
102
}
330
714
100
AcDbXrecord
280
     1
270
     1
271
     1
  0
XRECORD
  5
718
102
{ACAD_REACTORS
330
714
102
}
330
714
100
AcDbXrecord
280
     1
270
     1
271
     1
  0
XRECORD
  5
71A
102
{ACAD_REACTORS
330
714
102
}
330
714
100
AcDbXrecord
280
     1
270
     1
271
     1
  0
XRECORD
  5
717
102
{ACAD_REACTORS
330
714
102
}
330
714
100
AcDbXrecord
280
     1
270
     1
271
     1
  0
XRECORD
  5
70E
102
{ACAD_REACTORS
330
70C
102
}
330
70C
100
AcDbXrecord
280
     1
270
     1
271
     1
  0
XRECORD
  5
70D
102
{ACAD_REACTORS
330
70C
102
}
330
70C
100
AcDbXrecord
280
     1
270
     1
271
     1
  0
XRECORD
  5
711
102
{ACAD_REACTORS
330
70C
102
}
330
70C
100
AcDbXrecord
280
     1
270
     1
271
     1
  0
XRECORD
  5
710
102
{ACAD_REACTORS
330
70C
102
}
330
70C
100
AcDbXrecord
280
     1
270
     1
271
     1
  0
XRECORD
  5
712
102
{ACAD_REACTORS
330
70C
102
}
330
70C
100
AcDbXrecord
280
     1
270
     1
271
     1
  0
XRECORD
  5
70F
102
{ACAD_REACTORS
330
70C
102
}
330
70C
100
AcDbXrecord
280
     1
270
     1
271
     1
  0
XRECORD
  5
71E
102
{ACAD_REACTORS
330
71C
102
}
330
71C
100
AcDbXrecord
280
     1
270
     1
271
     1
  0
XRECORD
  5
71D
102
{ACAD_REACTORS
330
71C
102
}
330
71C
100
AcDbXrecord
280
     1
270
     1
271
     1
  0
XRECORD
  5
721
102
{ACAD_REACTORS
330
71C
102
}
330
71C
100
AcDbXrecord
280
     1
270
     1
271
     1
  0
XRECORD
  5
720
102
{ACAD_REACTORS
330
71C
102
}
330
71C
100
AcDbXrecord
280
     1
270
     1
271
     1
  0
XRECORD
  5
722
102
{ACAD_REACTORS
330
71C
102
}
330
71C
100
AcDbXrecord
280
     1
270
     1
271
     1
  0
XRECORD
  5
71F
102
{ACAD_REACTORS
330
71C
102
}
330
71C
100
AcDbXrecord
280
     1
270
     1
271
     1
  0
XRECORD
  5
F8B
102
{ACAD_REACTORS
330
F8A
102
}
330
F8A
100
AcDbXrecord
280
     1
102
DISPLAYNAME
  1
Imperial24
102
FLAGS
 90
        0
  0
XRECORD
  5
F87
102
{ACAD_REACTORS
330
F86
102
}
330
F86
100
AcDbXrecord
280
     1
102
DISPLAYNAME
  1
Metric50
102
FLAGS
 90
        0
  0
CELLSTYLEMAP
  5
F84
102
{ACAD_REACTORS
330
7B8
102
}
330
7B8
100
AcDbCellStyleMap
 90
        3
300
CELLSTYLE
  1
TABLEFORMAT_BEGIN
 90
        5
170
     1
 91
        0
 92
    32768
 62
   257
 93
        1
300
CONTENTFORMAT
  1
CONTENTFORMAT_BEGIN
 90
        0
 91
        0
 92
      512
 93
        0
300

 40
0.0
140
1.0
 94
        5
 62
     0
340
11
144
6.0
309
CONTENTFORMAT_END
171
     1
301
MARGIN
  1
CELLMARGIN_BEGIN
 40
1.5
 40
1.5
 40
1.5
 40
1.5
 40
0.18
 40
0.18
309
CELLMARGIN_END
 94
        6
 95
        1
302
GRIDFORMAT
  1
GRIDFORMAT_BEGIN
 90
        0
 91
        1
 62
     0
 92
       -2
340
0
 93
        0
 40
1.125
309
GRIDFORMAT_END
 95
        2
302
GRIDFORMAT
  1
GRIDFORMAT_BEGIN
 90
        0
 91
        1
 62
     0
 92
       -2
340
0
 93
        0
 40
1.125
309
GRIDFORMAT_END
 95
        4
302
GRIDFORMAT
  1
GRIDFORMAT_BEGIN
 90
        0
 91
        1
 62
     0
 92
       -2
340
0
 93
        0
 40
1.125
309
GRIDFORMAT_END
 95
        8
302
GRIDFORMAT
  1
GRIDFORMAT_BEGIN
 90
        0
 91
        1
 62
     0
 92
       -2
340
0
 93
        0
 40
1.125
309
GRIDFORMAT_END
 95
       16
302
GRIDFORMAT
  1
GRIDFORMAT_BEGIN
 90
        0
 91
        1
 62
     0
 92
       -2
340
0
 93
        0
 40
1.125
309
GRIDFORMAT_END
 95
       32
302
GRIDFORMAT
  1
GRIDFORMAT_BEGIN
 90
        0
 91
        1
 62
     0
 92
       -2
340
0
 93
        0
 40
1.125
309
GRIDFORMAT_END
309
TABLEFORMAT_END
  1
CELLSTYLE_BEGIN
 90
        1
 91
        1
300
_TITLE
309
CELLSTYLE_END
300
CELLSTYLE
  1
TABLEFORMAT_BEGIN
 90
        5
170
     1
 91
        0
 92
        0
 62
   257
 93
        1
300
CONTENTFORMAT
  1
CONTENTFORMAT_BEGIN
 90
        0
 91
        0
 92
      512
 93
        0
300

 40
0.0
140
1.0
 94
        5
 62
     0
340
11
144
4.5
309
CONTENTFORMAT_END
171
     1
301
MARGIN
  1
CELLMARGIN_BEGIN
 40
1.5
 40
1.5
 40
1.5
 40
1.5
 40
0.18
 40
0.18
309
CELLMARGIN_END
 94
        6
 95
        1
302
GRIDFORMAT
  1
GRIDFORMAT_BEGIN
 90
        0
 91
        1
 62
     0
 92
       -2
340
0
 93
        0
 40
1.125
309
GRIDFORMAT_END
 95
        2
302
GRIDFORMAT
  1
GRIDFORMAT_BEGIN
 90
        0
 91
        1
 62
     0
 92
       -2
340
0
 93
        0
 40
1.125
309
GRIDFORMAT_END
 95
        4
302
GRIDFORMAT
  1
GRIDFORMAT_BEGIN
 90
        0
 91
        1
 62
     0
 92
       -2
340
0
 93
        0
 40
1.125
309
GRIDFORMAT_END
 95
        8
302
GRIDFORMAT
  1
GRIDFORMAT_BEGIN
 90
        0
 91
        1
 62
     0
 92
       -2
340
0
 93
        0
 40
1.125
309
GRIDFORMAT_END
 95
       16
302
GRIDFORMAT
  1
GRIDFORMAT_BEGIN
 90
        0
 91
        1
 62
     0
 92
       -2
340
0
 93
        0
 40
1.125
309
GRIDFORMAT_END
 95
       32
302
GRIDFORMAT
  1
GRIDFORMAT_BEGIN
 90
        0
 91
        1
 62
     0
 92
       -2
340
0
 93
        0
 40
1.125
309
GRIDFORMAT_END
309
TABLEFORMAT_END
  1
CELLSTYLE_BEGIN
 90
        2
 91
        1
300
_HEADER
309
CELLSTYLE_END
300
CELLSTYLE
  1
TABLEFORMAT_BEGIN
 90
        5
170
     1
 91
        0
 92
        0
 62
   257
 93
        1
300
CONTENTFORMAT
  1
CONTENTFORMAT_BEGIN
 90
        0
 91
        0
 92
      512
 93
        0
300

 40
0.0
140
1.0
 94
        2
 62
     0
340
11
144
4.5
309
CONTENTFORMAT_END
171
     1
301
MARGIN
  1
CELLMARGIN_BEGIN
 40
1.5
 40
1.5
 40
1.5
 40
1.5
 40
0.18
 40
0.18
309
CELLMARGIN_END
 94
        6
 95
        1
302
GRIDFORMAT
  1
GRIDFORMAT_BEGIN
 90
        0
 91
        1
 62
     0
 92
       -2
340
0
 93
        0
 40
1.125
309
GRIDFORMAT_END
 95
        2
302
GRIDFORMAT
  1
GRIDFORMAT_BEGIN
 90
        0
 91
        1
 62
     0
 92
       -2
340
0
 93
        0
 40
1.125
309
GRIDFORMAT_END
 95
        4
302
GRIDFORMAT
  1
GRIDFORMAT_BEGIN
 90
        0
 91
        1
 62
     0
 92
       -2
340
0
 93
        0
 40
1.125
309
GRIDFORMAT_END
 95
        8
302
GRIDFORMAT
  1
GRIDFORMAT_BEGIN
 90
        0
 91
        1
 62
     0
 92
       -2
340
0
 93
        0
 40
1.125
309
GRIDFORMAT_END
 95
       16
302
GRIDFORMAT
  1
GRIDFORMAT_BEGIN
 90
        0
 91
        1
 62
     0
 92
       -2
340
0
 93
        0
 40
1.125
309
GRIDFORMAT_END
 95
       32
302
GRIDFORMAT
  1
GRIDFORMAT_BEGIN
 90
        0
 91
        1
 62
     0
 92
       -2
340
0
 93
        0
 40
1.125
309
GRIDFORMAT_END
309
TABLEFORMAT_END
  1
CELLSTYLE_BEGIN
 90
        3
 91
        2
300
_DATA
309
CELLSTYLE_END
  0
ENDSEC
  0
EOF
