  0
SECTION
  2
HEADER
  9
$ACADVER
  1
AC1024
  9
$ACADMAINTVER
 70
   205
  9
$DWGCODEPAGE
  3
ANSI_1252
  9
$LASTSAVEDBY
  1
kaschu
  9
$INSBASE
 10
0.0
 20
0.0
 30
0.0
  9
$EXTMIN
 10
285.7023237558591
 20
161.6584051255577
 30
-0.0000000000000249
  9
$EXTMAX
 10
5746.868525721884
 20
4359.270060933616
 30
0.00000000000014
  9
$LIMMIN
 10
0.0
 20
0.0
  9
$LIMMAX
 10
420.0
 20
297.0
  9
$ORTHOMODE
 70
     0
  9
$REGENMODE
 70
     1
  9
$FILLMODE
 70
     1
  9
$QTEXTMODE
 70
     0
  9
$MIRRTEXT
 70
     0
  9
$LTSCALE
 40
1.0
  9
$ATTMODE
 70
     1
  9
$TEXTSIZE
 40
2.5
  9
$TRACEWID
 40
1.0
  9
$TEXTSTYLE
  7
STANDARD
  9
$CLAYER
  8
0
  9
$CELTYPE
  6
BYLAYER
  9
$CECOLOR
 62
   256
  9
$CELTSCALE
 40
1.0
  9
$DISPSILH
 70
     0
  9
$DIMSCALE
 40
1.0
  9
$DIMASZ
 40
2.5
  9
$DIMEXO
 40
0.625
  9
$DIMDLI
 40
3.75
  9
$DIMRND
 40
0.0
  9
$DIMDLE
 40
0.0
  9
$DIMEXE
 40
1.25
  9
$DIMTP
 40
0.0
  9
$DIMTM
 40
0.0
  9
$DIMTXT
 40
2.5
  9
$DIMCEN
 40
2.5
  9
$DIMTSZ
 40
0.0
  9
$DIMTOL
 70
     0
  9
$DIMLIM
 70
     0
  9
$DIMTIH
 70
     0
  9
$DIMTOH
 70
     0
  9
$DIMSE1
 70
     0
  9
$DIMSE2
 70
     0
  9
$DIMTAD
 70
     1
  9
$DIMZIN
 70
     8
  9
$DIMBLK
  1

  9
$DIMASO
 70
     1
  9
$DIMSHO
 70
     1
  9
$DIMPOST
  1

  9
$DIMAPOST
  1

  9
$DIMALT
 70
     0
  9
$DIMALTD
 70
     3
  9
$DIMALTF
 40
0.03937007874016
  9
$DIMLFAC
 40
1.0
  9
$DIMTOFL
 70
     1
  9
$DIMTVP
 40
0.0
  9
$DIMTIX
 70
     0
  9
$DIMSOXD
 70
     0
  9
$DIMSAH
 70
     0
  9
$DIMBLK1
  1

  9
$DIMBLK2
  1

  9
$DIMSTYLE
  2
ISO-25
  9
$DIMCLRD
 70
     0
  9
$DIMCLRE
 70
     0
  9
$DIMCLRT
 70
     0
  9
$DIMTFAC
 40
1.0
  9
$DIMGAP
 40
0.625
  9
$DIMJUST
 70
     0
  9
$DIMSD1
 70
     0
  9
$DIMSD2
 70
     0
  9
$DIMTOLJ
 70
     0
  9
$DIMTZIN
 70
     8
  9
$DIMALTZ
 70
     0
  9
$DIMALTTZ
 70
     0
  9
$DIMUPT
 70
     0
  9
$DIMDEC
 70
     2
  9
$DIMTDEC
 70
     2
  9
$DIMALTU
 70
     2
  9
$DIMALTTD
 70
     3
  9
$DIMTXSTY
  7
STANDARD
  9
$DIMAUNIT
 70
     0
  9
$DIMADEC
 70
     0
  9
$DIMALTRND
 40
0.0
  9
$DIMAZIN
 70
     0
  9
$DIMDSEP
 70
    44
  9
$DIMATFIT
 70
     3
  9
$DIMFRAC
 70
     0
  9
$DIMLDRBLK
  1

  9
$DIMLUNIT
 70
     2
  9
$DIMLWD
 70
    -2
  9
$DIMLWE
 70
    -2
  9
$DIMTMOVE
 70
     0
  9
$DIMFXL
 40
1.0
  9
$DIMFXLON
 70
     0
  9
$DIMJOGANG
 40
0.7853981633974483
  9
$DIMTFILL
 70
     0
  9
$DIMTFILLCLR
 70
     0
  9
$DIMARCSYM
 70
     0
  9
$DIMLTYPE
  6

  9
$DIMLTEX1
  6

  9
$DIMLTEX2
  6

  9
$DIMTXTDIRECTION
 70
     0
  9
$LUNITS
 70
     2
  9
$LUPREC
 70
     4
  9
$SKETCHINC
 40
1.0
  9
$FILLETRAD
 40
10.0
  9
$AUNITS
 70
     0
  9
$AUPREC
 70
     0
  9
$MENU
  1
.
  9
$ELEVATION
 40
0.0
  9
$PELEVATION
 40
0.0
  9
$THICKNESS
 40
0.0
  9
$LIMCHECK
 70
     0
  9
$CHAMFERA
 40
10.0
  9
$CHAMFERB
 40
10.0
  9
$CHAMFERC
 40
20.0
  9
$CHAMFERD
 40
0.0
  9
$SKPOLY
 70
     0
  9
$TDCREATE
 40
2453445.475203611
  9
$TDUCREATE
 40
2453445.433536945
  9
$TDUPDATE
 40
2458516.590872002
  9
$TDUUPDATE
 40
2458516.549205336
  9
$TDINDWG
 40
0.0054457986
  9
$TDUSRTIMER
 40
0.0054457176
  9
$USRTIMER
 70
     1
  9
$ANGBASE
 50
0.0
  9
$ANGDIR
 70
     0
  9
$PDMODE
 70
     0
  9
$PDSIZE
 40
0.0
  9
$PLINEWID
 40
0.0
  9
$SPLFRAME
 70
     0
  9
$SPLINETYPE
 70
     6
  9
$SPLINESEGS
 70
     8
  9
$HANDSEED
  5
C46
  9
$SURFTAB1
 70
     6
  9
$SURFTAB2
 70
     6
  9
$SURFTYPE
 70
     6
  9
$SURFU
 70
     6
  9
$SURFV
 70
     6
  9
$UCSBASE
  2

  9
$UCSNAME
  2

  9
$UCSORG
 10
0.0
 20
0.0
 30
0.0
  9
$UCSXDIR
 10
1.0
 20
0.0
 30
0.0
  9
$UCSYDIR
 10
0.0
 20
1.0
 30
0.0
  9
$UCSORTHOREF
  2

  9
$UCSORTHOVIEW
 70
     0
  9
$UCSORGTOP
 10
0.0
 20
0.0
 30
0.0
  9
$UCSORGBOTTOM
 10
0.0
 20
0.0
 30
0.0
  9
$UCSORGLEFT
 10
0.0
 20
0.0
 30
0.0
  9
$UCSORGRIGHT
 10
0.0
 20
0.0
 30
0.0
  9
$UCSORGFRONT
 10
0.0
 20
0.0
 30
0.0
  9
$UCSORGBACK
 10
0.0
 20
0.0
 30
0.0
  9
$PUCSBASE
  2

  9
$PUCSNAME
  2

  9
$PUCSORG
 10
0.0
 20
0.0
 30
0.0
  9
$PUCSXDIR
 10
1.0
 20
0.0
 30
0.0
  9
$PUCSYDIR
 10
0.0
 20
1.0
 30
0.0
  9
$PUCSORTHOREF
  2

  9
$PUCSORTHOVIEW
 70
     0
  9
$PUCSORGTOP
 10
0.0
 20
0.0
 30
0.0
  9
$PUCSORGBOTTOM
 10
0.0
 20
0.0
 30
0.0
  9
$PUCSORGLEFT
 10
0.0
 20
0.0
 30
0.0
  9
$PUCSORGRIGHT
 10
0.0
 20
0.0
 30
0.0
  9
$PUCSORGFRONT
 10
0.0
 20
0.0
 30
0.0
  9
$PUCSORGBACK
 10
0.0
 20
0.0
 30
0.0
  9
$USERI1
 70
     0
  9
$USERI2
 70
     0
  9
$USERI3
 70
     0
  9
$USERI4
 70
     0
  9
$USERI5
 70
     0
  9
$USERR1
 40
0.0
  9
$USERR2
 40
0.0
  9
$USERR3
 40
0.0
  9
$USERR4
 40
0.0
  9
$USERR5
 40
0.0
  9
$WORLDVIEW
 70
     1
  9
$SHADEDGE
 70
     3
  9
$SHADEDIF
 70
    70
  9
$TILEMODE
 70
     1
  9
$MAXACTVP
 70
    64
  9
$PINSBASE
 10
0.0
 20
0.0
 30
0.0
  9
$PLIMCHECK
 70
     0
  9
$PEXTMIN
 10
0.0
 20
0.0
 30
0.0
  9
$PEXTMAX
 10
0.0
 20
0.0
 30
0.0
  9
$PLIMMIN
 10
0.0
 20
0.0
  9
$PLIMMAX
 10
12.0
 20
9.0
  9
$UNITMODE
 70
     0
  9
$VISRETAIN
 70
     1
  9
$PLINEGEN
 70
     0
  9
$PSLTSCALE
 70
     1
  9
$TREEDEPTH
 70
  3020
  9
$CMLSTYLE
  2
STANDARD
  9
$CMLJUST
 70
     0
  9
$CMLSCALE
 40
20.0
  9
$PROXYGRAPHICS
 70
     1
  9
$MEASUREMENT
 70
     1
  9
$CELWEIGHT
370
    -1
  9
$ENDCAPS
280
     0
  9
$JOINSTYLE
280
     0
  9
$LWDISPLAY
290
     0
  9
$INSUNITS
 70
     4
  9
$HYPERLINKBASE
  1

  9
$STYLESHEET
  1

  9
$XEDIT
290
     1
  9
$CEPSNTYPE
380
     0
  9
$PSTYLEMODE
290
     1
  9
$FINGERPRINTGUID
  2
{FDEAD578-A652-11D2-9A35-0060089B3A3F}
  9
$VERSIONGUID
  2
{661814F6-22EF-49F3-BDF9-D169CF352200}
  9
$EXTNAMES
290
     1
  9
$PSVPSCALE
 40
0.0
  9
$OLESTARTUP
290
     0
  9
$SORTENTS
280
   127
  9
$INDEXCTL
280
     0
  9
$HIDETEXT
280
     1
  9
$XCLIPFRAME
280
     2
  9
$HALOGAP
280
     0
  9
$OBSCOLOR
 70
   257
  9
$OBSLTYPE
280
     0
  9
$INTERSECTIONDISPLAY
280
     0
  9
$INTERSECTIONCOLOR
 70
   257
  9
$DIMASSOC
280
     2
  9
$PROJECTNAME
  1

  9
$CAMERADISPLAY
290
     0
  9
$LENSLENGTH
 40
50.0
  9
$CAMERAHEIGHT
 40
0.0
  9
$STEPSPERSEC
 40
2.0
  9
$STEPSIZE
 40
6.0
  9
$3DDWFPREC
 40
2.0
  9
$PSOLWIDTH
 40
0.25
  9
$PSOLHEIGHT
 40
4.0
  9
$LOFTANG1
 40
1.570796326794896
  9
$LOFTANG2
 40
1.570796326794896
  9
$LOFTMAG1
 40
0.0
  9
$LOFTMAG2
 40
0.0
  9
$LOFTPARAM
 70
     7
  9
$LOFTNORMALS
280
     1
  9
$LATITUDE
 40
37.795
  9
$LONGITUDE
 40
-122.394
  9
$NORTHDIRECTION
 40
0.0
  9
$TIMEZONE
 70
 -8000
  9
$LIGHTGLYPHDISPLAY
280
     1
  9
$TILEMODELIGHTSYNCH
280
     1
  9
$CMATERIAL
347
70B
  9
$SOLIDHIST
280
     0
  9
$SHOWHIST
280
     1
  9
$DWFFRAME
280
     2
  9
$DGNFRAME
280
     0
  9
$REALWORLDSCALE
290
     1
  9
$INTERFERECOLOR
 62
     1
  9
$INTERFEREOBJVS
345
72D
  9
$INTERFEREVPVS
346
72A
  9
$CSHADOW
280
     0
  9
$SHADOWPLANELOCATION
 40
0.0
  0
ENDSEC
  0
SECTION
  2
CLASSES
  0
CLASS
  1
ACDBDICTIONARYWDFLT
  2
AcDbDictionaryWithDefault
  3
ObjectDBX Classes
 90
        0
 91
        1
280
     0
281
     0
  0
CLASS
  1
DICTIONARYVAR
  2
AcDbDictionaryVar
  3
ObjectDBX Classes
 90
        0
 91
       12
280
     0
281
     0
  0
CLASS
  1
MATERIAL
  2
AcDbMaterial
  3
ObjectDBX Classes
 90
     1153
 91
        3
280
     0
281
     0
  0
CLASS
  1
VISUALSTYLE
  2
AcDbVisualStyle
  3
ObjectDBX Classes
 90
     4095
 91
       24
280
     0
281
     0
  0
CLASS
  1
TABLESTYLE
  2
AcDbTableStyle
  3
ObjectDBX Classes
 90
     4095
 91
        1
280
     0
281
     0
  0
CLASS
  1
SCALE
  2
AcDbScale
  3
ObjectDBX Classes
 90
     1153
 91
       17
280
     0
281
     0
  0
CLASS
  1
MLEADERSTYLE
  2
AcDbMLeaderStyle
  3
ACDB_MLEADERSTYLE_CLASS
 90
     4095
 91
        1
280
     0
281
     0
  0
CLASS
  1
ACDBSECTIONVIEWSTYLE
  2
AcDbSectionViewStyle
  3
ObjectDBX Classes
 90
     1025
 91
        2
280
     0
281
     0
  0
CLASS
  1
ACDBDETAILVIEWSTYLE
  2
AcDbDetailViewStyle
  3
ObjectDBX Classes
 90
     1025
 91
        2
280
     0
281
     0
  0
CLASS
  1
DIMASSOC
  2
AcDbDimAssoc
  3
"AcDbDimAssoc|Product Desc:     AcDim ARX App For Dimension|Company:          Autodesk, Inc.|WEB Address:      www.autodesk.com"
 90
        0
 91
        4
280
     0
281
     0
  0
CLASS
  1
CELLSTYLEMAP
  2
AcDbCellStyleMap
  3
ObjectDBX Classes
 90
     1152
 91
        2
280
     0
281
     0
  0
CLASS
  1
SORTENTSTABLE
  2
AcDbSortentsTable
  3
ObjectDBX Classes
 90
        0
 91
        2
280
     0
281
     0
  0
ENDSEC
  0
SECTION
  2
TABLES
  0
TABLE
  2
VPORT
  5
8
330
0
100
AcDbSymbolTable
 70
     1
  0
VPORT
  5
6E1
330
8
100
AcDbSymbolTableRecord
100
AcDbViewportTableRecord
  2
*ACTIVE
 70
     0
 10
0.0
 20
0.0
 11
1.0
 21
1.0
 12
2782.930440933941
 22
1732.83908078648
 13
0.0
 23
0.0
 14
10.0
 24
10.0
 15
10.0
 25
10.0
 16
0.0
 26
0.0
 36
1.0
 17
0.0
 27
0.0
 37
0.0
 40
3623.470819966565
 41
2.260445682451253
 42
50.0
 43
0.0
 44
0.0
 50
0.0
 51
0.0
 71
     0
 72
  1000
 73
     1
 74
     3
 75
     0
 76
     0
 77
     0
 78
     0
281
     0
 65
     1
110
0.0
120
0.0
130
0.0
111
1.0
121
0.0
131
0.0
112
0.0
122
1.0
132
0.0
 79
     0
146
0.0
348
729
 60
     3
 61
     5
292
     1
282
     1
141
0.0
142
0.0
 63
   250
421
  3355443
1001
ACAD_NAV_VCDISPLAY
1070
     3
  0
ENDTAB
  0
TABLE
  2
LTYPE
  5
5
330
0
100
AcDbSymbolTable
 70
     3
  0
LTYPE
  5
14
330
5
100
AcDbSymbolTableRecord
100
AcDbLinetypeTableRecord
  2
BYBLOCK
 70
     0
  3

 72
    65
 73
     0
 40
0.0
  0
LTYPE
  5
15
330
5
100
AcDbSymbolTableRecord
100
AcDbLinetypeTableRecord
  2
BYLAYER
 70
     0
  3

 72
    65
 73
     0
 40
0.0
  0
LTYPE
  5
16
330
5
100
AcDbSymbolTableRecord
100
AcDbLinetypeTableRecord
  2
CONTINUOUS
 70
     0
  3
Solid line
 72
    65
 73
     0
 40
0.0
  0
LTYPE
  5
86
330
5
100
AcDbSymbolTableRecord
100
AcDbLinetypeTableRecord
  2
IMPORT
 70
     0
  3

 72
    65
 73
     0
 40
0.0
  0
LTYPE
  5
87
330
5
100
AcDbSymbolTableRecord
100
AcDbLinetypeTableRecord
  2
STANDARD
 70
     0
  3

 72
    65
 73
     0
 40
0.0
  0
ENDTAB
  0
TABLE
  2
LAYER
  5
2
330
0
100
AcDbSymbolTable
 70
     4
  0
LAYER
  5
10
102
{ACAD_XDICTIONARY
360
7A8
102
}
330
2
100
AcDbSymbolTableRecord
100
AcDbLayerTableRecord
  2
0
 70
     0
 62
     7
  6
CONTINUOUS
370
    -3
390
F
347
71B
  0
LAYER
  5
88
102
{ACAD_XDICTIONARY
360
7AA
102
}
330
2
100
AcDbSymbolTableRecord
100
AcDbLayerTableRecord
  2
STANDARD
 70
     0
 62
     7
  6
CONTINUOUS
370
    -3
390
F
347
71B
  0
LAYER
  5
6D4
330
2
100
AcDbSymbolTableRecord
100
AcDbLayerTableRecord
  2
DEFPOINTS
 70
     0
 62
     7
  6
CONTINUOUS
290
     0
370
    -3
390
F
347
71B
  0
LAYER
  5
7A5
102
{ACAD_XDICTIONARY
360
7AC
102
}
330
2
100
AcDbSymbolTableRecord
100
AcDbLayerTableRecord
  2
HEWI
 70
     0
 62
     7
  6
CONTINUOUS
370
    -3
390
F
347
71B
1001
AcAecLayerStandard
1000

1000

1001
AcCmTransparency
1071
        0
  0
ENDTAB
  0
TABLE
  2
STYLE
  5
3
330
0
100
AcDbSymbolTable
 70
     1
  0
STYLE
  5
11
330
3
100
AcDbSymbolTableRecord
100
AcDbTextStyleTableRecord
  2
STANDARD
 70
     0
 40
0.0
 41
1.0
 50
0.0
 71
     0
 42
2.5
  3
txt
  4

  0
ENDTAB
  0
TABLE
  2
VIEW
  5
6
330
0
100
AcDbSymbolTable
 70
     0
  0
ENDTAB
  0
TABLE
  2
UCS
  5
7
330
0
100
AcDbSymbolTable
 70
     0
  0
ENDTAB
  0
TABLE
  2
APPID
  5
9
330
0
100
AcDbSymbolTable
 70
     4
  0
APPID
  5
12
330
9
100
AcDbSymbolTableRecord
100
AcDbRegAppTableRecord
  2
ACAD
 70
     0
  0
APPID
  5
7A6
330
9
100
AcDbSymbolTableRecord
100
AcDbRegAppTableRecord
  2
AcAecLayerStandard
 70
     0
  0
APPID
  5
7A7
330
9
100
AcDbSymbolTableRecord
100
AcDbRegAppTableRecord
  2
AcCmTransparency
 70
     0
  0
APPID
  5
7B7
330
9
100
AcDbSymbolTableRecord
100
AcDbRegAppTableRecord
  2
ACAD_NAV_VCDISPLAY
 70
     0
  0
ENDTAB
  0
TABLE
  2
DIMSTYLE
  5
A
330
0
100
AcDbSymbolTable
 70
     2
100
AcDbDimStyleTable
 71
     1
340
27
  0
DIMSTYLE
105
27
330
A
100
AcDbSymbolTableRecord
100
AcDbDimStyleTableRecord
  2
ISO-25
 70
     0
 41
2.5
 42
0.625
 43
3.75
 44
1.25
 73
     0
 74
     0
 77
     1
 78
     8
140
2.5
141
2.5
143
0.03937007874016
147
0.625
171
     3
172
     1
271
     2
272
     2
274
     3
283
     0
284
     8
340
11
  0
DIMSTYLE
105
8A
330
A
100
AcDbSymbolTableRecord
100
AcDbDimStyleTableRecord
  2
STANDARD
 70
     0
340
11
  0
ENDTAB
  0
TABLE
  2
BLOCK_RECORD
  5
1
330
0
100
AcDbSymbolTable
 70
     9
  0
BLOCK_RECORD
  5
1F
102
{ACAD_XDICTIONARY
360
703
102
}
330
1
100
AcDbSymbolTableRecord
100
AcDbBlockTableRecord
  2
*MODEL_SPACE
340
756
 70
     0
280
     1
281
     0
  0
BLOCK_RECORD
  5
50
102
{ACAD_XDICTIONARY
360
705
102
}
330
1
100
AcDbSymbolTableRecord
100
AcDbBlockTableRecord
  2
*PAPER_SPACE
340
757
 70
     0
280
     1
281
     0
  0
BLOCK_RECORD
  5
75E
330
1
100
AcDbSymbolTableRecord
100
AcDbBlockTableRecord
  2
*D0
340
0
 70
     0
280
     1
281
     0
  0
BLOCK_RECORD
  5
776
330
1
100
AcDbSymbolTableRecord
100
AcDbBlockTableRecord
  2
*D1
340
0
 70
     0
280
     1
281
     0
  0
BLOCK_RECORD
  5
78E
330
1
100
AcDbSymbolTableRecord
100
AcDbBlockTableRecord
  2
*D2
340
0
 70
     0
280
     1
281
     0
  0
BLOCK_RECORD
  5
B8C
330
1
100
AcDbSymbolTableRecord
100
AcDbBlockTableRecord
  2
*D4
340
0
 70
     0
280
     1
281
     0
  0
BLOCK_RECORD
  5
BAF
330
1
100
AcDbSymbolTableRecord
100
AcDbBlockTableRecord
  2
*D5
340
0
 70
     0
280
     1
281
     0
  0
BLOCK_RECORD
  5
BC7
330
1
100
AcDbSymbolTableRecord
100
AcDbBlockTableRecord
  2
*D6
340
0
 70
     0
280
     1
281
     0
  0
BLOCK_RECORD
  5
BD4
330
1
100
AcDbSymbolTableRecord
100
AcDbBlockTableRecord
  2
*D7
340
0
 70
     0
280
     1
281
     0
  0
BLOCK_RECORD
  5
BEC
330
1
100
AcDbSymbolTableRecord
100
AcDbBlockTableRecord
  2
*D8
340
0
 70
     0
280
     1
281
     0
  0
ENDTAB
  0
ENDSEC
  0
SECTION
  2
BLOCKS
  0
BLOCK
  5
20
330
1F
100
AcDbEntity
  8
0
100
AcDbBlockBegin
  2
*MODEL_SPACE
 70
     0
 10
0.0
 20
0.0
 30
0.0
  3
*MODEL_SPACE
  1

  0
ENDBLK
  5
21
330
1F
100
AcDbEntity
  8
0
100
AcDbBlockEnd
  0
BLOCK
  5
52
330
50
100
AcDbEntity
 67
     1
  8
0
100
AcDbBlockBegin
  2
*PAPER_SPACE
 70
     0
 10
0.0
 20
0.0
 30
0.0
  3
*PAPER_SPACE
  1

  0
ENDBLK
  5
53
330
50
100
AcDbEntity
 67
     1
  8
0
100
AcDbBlockEnd
  0
BLOCK
  5
75F
330
75E
100
AcDbEntity
  8
0
100
AcDbBlockBegin
  2
*D0
 70
     1
 10
0.0
 20
0.0
 30
0.0
  3
*D0
  1

  0
LINE
  5
76B
330
75E
100
AcDbEntity
  8
0
 62
     0
440
 16777216
370
    -2
100
AcDbLine
 10
2139.479514919096
 20
2822.676336741618
 30
0.0
 11
2139.479514919096
 21
2940.250005295379
 31
0.0
  0
LINE
  5
76C
330
75E
100
AcDbEntity
  8
0
 62
     0
440
 16777216
370
    -2
100
AcDbLine
 10
2229.479503624367
 20
2822.676336741618
 30
0.0
 11
2229.479503624367
 21
2940.250005295379
 31
0.0
  0
LINE
  5
76D
330
75E
100
AcDbEntity
  8
0
 62
     0
440
 16777216
370
    -2
100
AcDbLine
 10
2141.979514919096
 20
2939.000005295379
 30
0.0
 11
2226.979503624367
 21
2939.000005295379
 31
0.0
  0
SOLID
  5
76E
330
75E
100
AcDbEntity
  8
0
 62
     0
440
 16777216
100
AcDbTrace
 10
2141.979514919096
 20
2939.416671962046
 30
0.0
 11
2141.979514919096
 21
2938.583338628713
 31
0.0
 12
2139.479514919096
 22
2939.000005295379
 32
0.0
 13
2139.479514919096
 23
2939.000005295379
 33
0.0
  0
SOLID
  5
76F
330
75E
100
AcDbEntity
  8
0
 62
     0
440
 16777216
100
AcDbTrace
 10
2226.979503624367
 20
2939.416671962046
 30
0.0
 11
2226.979503624367
 21
2938.583338628713
 31
0.0
 12
2229.479503624367
 22
2939.000005295379
 32
0.0
 13
2229.479503624367
 23
2939.000005295379
 33
0.0
  0
MTEXT
  5
770
330
75E
100
AcDbEntity
  8
0
 62
     0
440
 16777216
100
AcDbMText
 10
2184.479509271731
 20
2940.875005295379
 30
0.0
 40
2.5
 41
0.0
 46
0.0
 71
     5
 72
     1
  1
90
 73
     1
 44
1.0
  0
POINT
  5
771
330
75E
100
AcDbEntity
  8
DEFPOINTS
 62
     0
440
 16777216
100
AcDbPoint
 10
2139.479514919096
 20
2822.051336741618
 30
0.0
  0
POINT
  5
772
330
75E
100
AcDbEntity
  8
DEFPOINTS
 62
     0
440
 16777216
100
AcDbPoint
 10
2229.479503624367
 20
2822.051336741618
 30
0.0
  0
POINT
  5
773
330
75E
100
AcDbEntity
  8
DEFPOINTS
 62
     0
440
 16777216
100
AcDbPoint
 10
2229.479503624367
 20
2939.000005295379
 30
0.0
  0
ENDBLK
  5
760
330
75E
100
AcDbEntity
  8
0
100
AcDbBlockEnd
  0
BLOCK
  5
777
330
776
100
AcDbEntity
  8
0
100
AcDbBlockBegin
  2
*D1
 70
     1
 10
0.0
 20
0.0
 30
0.0
  3
*D1
  1

  0
LINE
  5
783
330
776
100
AcDbEntity
  8
0
 62
     0
440
 16777216
370
    -2
100
AcDbLine
 10
2140.904466314761
 20
2824.555723218725
 30
0.0
 11
2140.904466314761
 21
2937.073173658412
 31
0.0
  0
LINE
  5
784
330
776
100
AcDbEntity
  8
0
 62
     0
440
 16777216
370
    -2
100
AcDbLine
 10
2229.479503624367
 20
2824.555723218725
 30
0.0
 11
2229.479503624367
 21
2937.073173658412
 31
0.0
  0
LINE
  5
785
330
776
100
AcDbEntity
  8
0
 62
     0
440
 16777216
370
    -2
100
AcDbLine
 10
2143.404466314762
 20
2935.823173658412
 30
0.0
 11
2226.979503624367
 21
2935.823173658412
 31
0.0
  0
SOLID
  5
786
330
776
100
AcDbEntity
  8
0
 62
     0
440
 16777216
100
AcDbTrace
 10
2143.404466314762
 20
2936.239840325079
 30
0.0
 11
2143.404466314762
 21
2935.406506991746
 31
0.0
 12
2140.904466314761
 22
2935.823173658412
 32
0.0
 13
2140.904466314761
 23
2935.823173658412
 33
0.0
  0
SOLID
  5
787
330
776
100
AcDbEntity
  8
0
 62
     0
440
 16777216
100
AcDbTrace
 10
2226.979503624367
 20
2936.239840325079
 30
0.0
 11
2226.979503624367
 21
2935.406506991746
 31
0.0
 12
2229.479503624367
 22
2935.823173658412
 32
0.0
 13
2229.479503624367
 23
2935.823173658412
 33
0.0
  0
MTEXT
  5
788
330
776
100
AcDbEntity
  8
0
 62
     0
440
 16777216
100
AcDbMText
 10
2185.191984969564
 20
2937.906506991746
 30
0.0
 40
2.5
 41
0.0
 46
0.0
 71
     5
 72
     1
  1
88,58
 73
     1
 44
1.0
  0
POINT
  5
789
330
776
100
AcDbEntity
  8
DEFPOINTS
 62
     0
440
 16777216
100
AcDbPoint
 10
2140.904466314761
 20
2823.930723218726
 30
0.0
  0
POINT
  5
78A
330
776
100
AcDbEntity
  8
DEFPOINTS
 62
     0
440
 16777216
100
AcDbPoint
 10
2229.479503624367
 20
2823.930723218726
 30
0.0
  0
POINT
  5
78B
330
776
100
AcDbEntity
  8
DEFPOINTS
 62
     0
440
 16777216
100
AcDbPoint
 10
2229.479503624367
 20
2935.823173658412
 30
0.0
  0
ENDBLK
  5
778
330
776
100
AcDbEntity
  8
0
100
AcDbBlockEnd
  0
BLOCK
  5
78F
330
78E
100
AcDbEntity
  8
0
100
AcDbBlockBegin
  2
*D2
 70
     1
 10
0.0
 20
0.0
 30
0.0
  3
*D2
  1

  0
LINE
  5
79B
330
78E
100
AcDbEntity
  8
0
 62
     0
440
 16777216
370
    -2
100
AcDbLine
 10
2478.596134021531
 20
3921.428405333144
 30
0.0
 11
2478.596134021531
 21
3815.17991963962
 31
0.0
  0
LINE
  5
79C
330
78E
100
AcDbEntity
  8
0
 62
     0
440
 16777216
370
    -2
100
AcDbLine
 10
2566.596134021529
 20
3854.428397703748
 30
0.0
 11
2566.596134021529
 21
3815.17991963962
 31
0.0
  0
LINE
  5
79D
330
78E
100
AcDbEntity
  8
0
 62
     0
440
 16777216
370
    -2
100
AcDbLine
 10
2481.096134021532
 20
3816.429919639619
 30
0.0
 11
2564.096134021529
 21
3816.429919639619
 31
0.0
  0
SOLID
  5
79E
330
78E
100
AcDbEntity
  8
0
 62
     0
440
 16777216
100
AcDbTrace
 10
2481.096134021532
 20
3816.846586306287
 30
0.0
 11
2481.096134021532
 21
3816.013252972953
 31
0.0
 12
2478.596134021531
 22
3816.429919639619
 32
0.0
 13
2478.596134021531
 23
3816.429919639619
 33
0.0
  0
SOLID
  5
79F
330
78E
100
AcDbEntity
  8
0
 62
     0
440
 16777216
100
AcDbTrace
 10
2564.096134021529
 20
3816.846586306287
 30
0.0
 11
2564.096134021529
 21
3816.013252972953
 31
0.0
 12
2566.596134021529
 22
3816.429919639619
 32
0.0
 13
2566.596134021529
 23
3816.429919639619
 33
0.0
  0
MTEXT
  5
7A0
330
78E
100
AcDbEntity
  8
0
 62
     0
440
 16777216
100
AcDbMText
 10
2522.59613402153
 20
3818.304919639621
 30
0.0
 40
2.5
 41
0.0
 46
0.0
 71
     5
 72
     1
  1
88
 73
     1
 44
1.0
  0
POINT
  5
7A1
330
78E
100
AcDbEntity
  8
DEFPOINTS
 62
     0
440
 16777216
100
AcDbPoint
 10
2478.596134021531
 20
3922.053405333144
 30
0.0
  0
POINT
  5
7A2
330
78E
100
AcDbEntity
  8
DEFPOINTS
 62
     0
440
 16777216
100
AcDbPoint
 10
2566.596134021529
 20
3855.053397703747
 30
0.0
  0
POINT
  5
7A3
330
78E
100
AcDbEntity
  8
DEFPOINTS
 62
     0
440
 16777216
100
AcDbPoint
 10
2566.596134021529
 20
3816.429919639619
 30
0.0
  0
ENDBLK
  5
790
330
78E
100
AcDbEntity
  8
0
100
AcDbBlockEnd
  0
BLOCK
  5
B8D
330
B8C
100
AcDbEntity
  8
0
100
AcDbBlockBegin
  2
*D4
 70
     1
 10
0.0
 20
0.0
 30
0.0
  3
*D4
  1

  0
LINE
  5
B99
330
B8C
100
AcDbEntity
  8
0
 62
     0
440
 16777216
370
    -2
100
AcDbLine
 10
2478.596134021531
 20
2825.411607212171
 30
0.0
 11
2478.596134021531
 21
2960.554218189471
 31
0.0
  0
LINE
  5
B9A
330
B8C
100
AcDbEntity
  8
0
 62
     0
440
 16777216
370
    -2
100
AcDbLine
 10
3235.435437895672
 20
2825.41160721217
 30
0.0
 11
3235.435437895672
 21
2960.554218189471
 31
0.0
  0
LINE
  5
B9B
330
B8C
100
AcDbEntity
  8
0
 62
     0
440
 16777216
370
    -2
100
AcDbLine
 10
2481.096134021532
 20
2959.304218189471
 30
0.0
 11
3232.935437895672
 21
2959.304218189471
 31
0.0
  0
SOLID
  5
B9C
330
B8C
100
AcDbEntity
  8
0
 62
     0
440
 16777216
100
AcDbTrace
 10
2481.096134021532
 20
2959.720884856137
 30
0.0
 11
2481.096134021532
 21
2958.887551522805
 31
0.0
 12
2478.596134021531
 22
2959.304218189471
 32
0.0
 13
2478.596134021531
 23
2959.304218189471
 33
0.0
  0
SOLID
  5
B9D
330
B8C
100
AcDbEntity
  8
0
 62
     0
440
 16777216
100
AcDbTrace
 10
3232.935437895672
 20
2959.720884856137
 30
0.0
 11
3232.935437895672
 21
2958.887551522805
 31
0.0
 12
3235.435437895672
 22
2959.304218189471
 32
0.0
 13
3235.435437895672
 23
2959.304218189471
 33
0.0
  0
MTEXT
  5
B9E
330
B8C
100
AcDbEntity
  8
0
 62
     0
440
 16777216
100
AcDbMText
 10
2857.015785958602
 20
2961.387551522804
 30
0.0
 40
2.5
 41
0.0
 46
0.0
 71
     5
 72
     1
  1
756,84
 73
     1
 44
1.0
  0
POINT
  5
B9F
330
B8C
100
AcDbEntity
  8
DEFPOINTS
 62
     0
440
 16777216
100
AcDbPoint
 10
2478.596134021531
 20
2824.786607212171
 30
0.0
  0
POINT
  5
BA0
330
B8C
100
AcDbEntity
  8
DEFPOINTS
 62
     0
440
 16777216
100
AcDbPoint
 10
3235.435437895672
 20
2824.78660721217
 30
0.0
  0
POINT
  5
BA1
330
B8C
100
AcDbEntity
  8
DEFPOINTS
 62
     0
440
 16777216
100
AcDbPoint
 10
3235.435437895672
 20
2959.304218189471
 30
0.0
  0
ENDBLK
  5
B8E
330
B8C
100
AcDbEntity
  8
0
100
AcDbBlockEnd
  0
BLOCK
  5
BB0
330
BAF
100
AcDbEntity
  8
0
100
AcDbBlockBegin
  2
*D5
 70
     1
 10
0.0
 20
0.0
 30
0.0
  3
*D5
  1

  0
LINE
  5
BBC
330
BAF
100
AcDbEntity
  8
0
 62
     0
440
 16777216
370
    -2
100
AcDbLine
 10
4533.122221762889
 20
2616.269229450844
 30
0.0
 11
4533.122221762889
 21
2709.366660659864
 31
0.0
  0
LINE
  5
BBD
330
BAF
100
AcDbEntity
  8
0
 62
     0
440
 16777216
370
    -2
100
AcDbLine
 10
4722.12222176289
 20
2427.269229450844
 30
0.0
 11
4722.12222176289
 21
2709.366660659864
 31
0.0
  0
LINE
  5
BBE
330
BAF
100
AcDbEntity
  8
0
 62
     0
440
 16777216
370
    -2
100
AcDbLine
 10
4535.622221762888
 20
2708.116660659864
 30
0.0
 11
4719.62222176289
 21
2708.116660659864
 31
0.0
  0
SOLID
  5
BBF
330
BAF
100
AcDbEntity
  8
0
 62
     0
440
 16777216
100
AcDbTrace
 10
4535.622221762888
 20
2708.53332732653
 30
0.0
 11
4535.622221762888
 21
2707.699993993197
 31
0.0
 12
4533.122221762889
 22
2708.116660659864
 32
0.0
 13
4533.122221762889
 23
2708.116660659864
 33
0.0
  0
SOLID
  5
BC0
330
BAF
100
AcDbEntity
  8
0
 62
     0
440
 16777216
100
AcDbTrace
 10
4719.62222176289
 20
2708.53332732653
 30
0.0
 11
4719.62222176289
 21
2707.699993993197
 31
0.0
 12
4722.12222176289
 22
2708.116660659864
 32
0.0
 13
4722.12222176289
 23
2708.116660659864
 33
0.0
  0
MTEXT
  5
BC1
330
BAF
100
AcDbEntity
  8
0
 62
     0
440
 16777216
100
AcDbMText
 10
4627.622221762889
 20
2709.991660659864
 30
0.0
 40
2.5
 41
0.0
 46
0.0
 71
     5
 72
     1
  1
189
 73
     1
 44
1.0
  0
POINT
  5
BC2
330
BAF
100
AcDbEntity
  8
DEFPOINTS
 62
     0
440
 16777216
100
AcDbPoint
 10
4533.122221762889
 20
2615.644229450844
 30
0.0
  0
POINT
  5
BC3
330
BAF
100
AcDbEntity
  8
DEFPOINTS
 62
     0
440
 16777216
100
AcDbPoint
 10
4722.12222176289
 20
2426.644229450844
 30
0.0
  0
POINT
  5
BC4
330
BAF
100
AcDbEntity
  8
DEFPOINTS
 62
     0
440
 16777216
100
AcDbPoint
 10
4722.12222176289
 20
2708.116660659864
 30
0.0
  0
ENDBLK
  5
BB1
330
BAF
100
AcDbEntity
  8
0
100
AcDbBlockEnd
  0
BLOCK
  5
BC8
330
BC7
100
AcDbEntity
  8
0
100
AcDbBlockBegin
  2
*D6
 70
     1
 10
0.0
 20
0.0
 30
0.0
  3
*D6
  1

  0
LINE
  5
BCA
330
BC7
100
AcDbEntity
  8
0
 62
     0
440
 16777216
370
    -2
100
AcDbLine
 10
4533.747221762889
 20
2616.269229450844
 30
0.0
 11
4955.920357095042
 21
2616.269229450844
 31
0.0
  0
LINE
  5
BCB
330
BC7
100
AcDbEntity
  8
0
 62
     0
440
 16777216
370
    -2
100
AcDbLine
 10
4722.747221762889
 20
2426.644229450844
 30
0.0
 11
4955.920357095042
 21
2426.644229450844
 31
0.0
  0
LINE
  5
BCC
330
BC7
100
AcDbEntity
  8
0
 62
     0
440
 16777216
370
    -2
100
AcDbLine
 10
4954.670357095041
 20
2613.769229450844
 30
0.0
 11
4954.670357095041
 21
2429.144229450844
 31
0.0
  0
SOLID
  5
BCD
330
BC7
100
AcDbEntity
  8
0
 62
     0
440
 16777216
100
AcDbTrace
 10
4954.253690428374
 20
2613.769229450844
 30
0.0
 11
4955.087023761708
 21
2613.769229450844
 31
0.0
 12
4954.670357095041
 22
2616.269229450844
 32
0.0
 13
4954.670357095041
 23
2616.269229450844
 33
0.0
  0
SOLID
  5
BCE
330
BC7
100
AcDbEntity
  8
0
 62
     0
440
 16777216
100
AcDbTrace
 10
4954.253690428374
 20
2429.144229450844
 30
0.0
 11
4955.087023761708
 21
2429.144229450844
 31
0.0
 12
4954.670357095041
 22
2426.644229450844
 32
0.0
 13
4954.670357095041
 23
2426.644229450844
 33
0.0
  0
MTEXT
  5
BCF
330
BC7
100
AcDbEntity
  8
0
 62
     0
440
 16777216
100
AcDbMText
 10
4952.587023761708
 20
2521.456729450844
 30
0.0
 40
2.5
 41
0.0
 46
0.0
 71
     5
 72
     1
  1
189,63
 11
0.0000000000000001
 21
1.0
 31
0.0
 73
     1
 44
1.0
  0
POINT
  5
BD0
330
BC7
100
AcDbEntity
  8
DEFPOINTS
 62
     0
440
 16777216
100
AcDbPoint
 10
4533.122221762889
 20
2616.269229450844
 30
0.0
  0
POINT
  5
BD1
330
BC7
100
AcDbEntity
  8
DEFPOINTS
 62
     0
440
 16777216
100
AcDbPoint
 10
4722.12222176289
 20
2426.644229450844
 30
0.0
  0
POINT
  5
BD2
330
BC7
100
AcDbEntity
  8
DEFPOINTS
 62
     0
440
 16777216
100
AcDbPoint
 10
4954.670357095041
 20
2426.644229450844
 30
0.0
  0
ENDBLK
  5
BC9
330
BC7
100
AcDbEntity
  8
0
100
AcDbBlockEnd
  0
BLOCK
  5
BD5
330
BD4
100
AcDbEntity
  8
0
100
AcDbBlockBegin
  2
*D7
 70
     1
 10
0.0
 20
0.0
 30
0.0
  3
*D7
  1

  0
LINE
  5
BE1
330
BD4
100
AcDbEntity
  8
0
 62
     0
440
 16777216
370
    -2
100
AcDbLine
 10
4532.497221762889
 20
2616.269229450844
 30
0.0
 11
4432.979190954662
 21
2616.269229450844
 31
0.0
  0
LINE
  5
BE2
330
BD4
100
AcDbEntity
  8
0
 62
     0
440
 16777216
370
    -2
100
AcDbLine
 10
4532.497221762889
 20
2527.644229450844
 30
0.0
 11
4432.979190954662
 21
2527.644229450844
 31
0.0
  0
LINE
  5
BE3
330
BD4
100
AcDbEntity
  8
0
 62
     0
440
 16777216
370
    -2
100
AcDbLine
 10
4434.229190954662
 20
2613.769229450844
 30
0.0
 11
4434.229190954662
 21
2530.144229450844
 31
0.0
  0
SOLID
  5
BE4
330
BD4
100
AcDbEntity
  8
0
 62
     0
440
 16777216
100
AcDbTrace
 10
4433.812524287995
 20
2613.769229450844
 30
0.0
 11
4434.645857621329
 21
2613.769229450844
 31
0.0
 12
4434.229190954662
 22
2616.269229450844
 32
0.0
 13
4434.229190954662
 23
2616.269229450844
 33
0.0
  0
SOLID
  5
BE5
330
BD4
100
AcDbEntity
  8
0
 62
     0
440
 16777216
100
AcDbTrace
 10
4433.812524287995
 20
2530.144229450844
 30
0.0
 11
4434.645857621329
 21
2530.144229450844
 31
0.0
 12
4434.229190954662
 22
2527.644229450844
 32
0.0
 13
4434.229190954662
 23
2527.644229450844
 33
0.0
  0
MTEXT
  5
BE6
330
BD4
100
AcDbEntity
  8
0
 62
     0
440
 16777216
100
AcDbMText
 10
4432.145857621327
 20
2571.956729450844
 30
0.0
 40
2.5
 41
0.0
 46
0.0
 71
     5
 72
     1
  1
88,63
 11
0.0000000000000001
 21
1.0
 31
0.0
 73
     1
 44
1.0
  0
POINT
  5
BE7
330
BD4
100
AcDbEntity
  8
DEFPOINTS
 62
     0
440
 16777216
100
AcDbPoint
 10
4533.122221762889
 20
2616.269229450844
 30
0.0
  0
POINT
  5
BE8
330
BD4
100
AcDbEntity
  8
DEFPOINTS
 62
     0
440
 16777216
100
AcDbPoint
 10
4533.122221762889
 20
2527.644229450844
 30
0.0
  0
POINT
  5
BE9
330
BD4
100
AcDbEntity
  8
DEFPOINTS
 62
     0
440
 16777216
100
AcDbPoint
 10
4434.229190954662
 20
2527.644229450844
 30
0.0
  0
ENDBLK
  5
BD6
330
BD4
100
AcDbEntity
  8
0
100
AcDbBlockEnd
  0
BLOCK
  5
BED
330
BEC
100
AcDbEntity
  8
0
100
AcDbBlockBegin
  2
*D8
 70
     1
 10
0.0
 20
0.0
 30
0.0
  3
*D8
  1

  0
LINE
  5
C03
330
BEC
100
AcDbEntity
  8
0
 62
     0
440
 16777216
370
    -2
100
AcDbLine
 10
4263.169628236013
 20
2615.644229450844
 30
0.0
 11
4352.455887634099
 21
2615.644229450844
 31
0.0
  0
LINE
  5
C04
330
BEC
100
AcDbEntity
  8
0
 62
     0
440
 16777216
370
    -2
100
AcDbLine
 10
4263.072859320854
 20
2527.713680444999
 30
0.0
 11
4352.455887634099
 21
2527.713680444999
 31
0.0
  0
LINE
  5
C05
330
BEC
100
AcDbEntity
  8
0
 62
     0
440
 16777216
370
    -2
100
AcDbLine
 10
4351.2058876341
 20
2613.144229450844
 30
0.0
 11
4351.2058876341
 21
2530.213680445
 31
0.0
  0
SOLID
  5
C06
330
BEC
100
AcDbEntity
  8
0
 62
     0
440
 16777216
100
AcDbTrace
 10
4350.789220967433
 20
2613.144229450844
 30
0.0
 11
4351.622554300766
 21
2613.144229450844
 31
0.0
 12
4351.2058876341
 22
2615.644229450844
 32
0.0
 13
4351.2058876341
 23
2615.644229450844
 33
0.0
  0
SOLID
  5
C07
330
BEC
100
AcDbEntity
  8
0
 62
     0
440
 16777216
100
AcDbTrace
 10
4350.789220967433
 20
2530.213680445
 30
0.0
 11
4351.622554300766
 21
2530.213680445
 31
0.0
 12
4351.2058876341
 22
2527.713680444999
 32
0.0
 13
4351.2058876341
 23
2527.713680444999
 33
0.0
  0
MTEXT
  5
C08
330
BEC
100
AcDbEntity
  8
0
 62
     0
440
 16777216
100
AcDbMText
 10
4349.122554300765
 20
2571.678954947922
 30
0.0
 40
2.5
 41
0.0
 46
0.0
 71
     5
 72
     1
  1
87,93
 11
0.0000000000000001
 21
1.0
 31
0.0
 73
     1
 44
1.0
  0
POINT
  5
C09
330
BEC
100
AcDbEntity
  8
DEFPOINTS
 62
     0
440
 16777216
100
AcDbPoint
 10
4262.544628236013
 20
2615.644229450844
 30
-0.0000000000000105
  0
POINT
  5
C0A
330
BEC
100
AcDbEntity
  8
DEFPOINTS
 62
     0
440
 16777216
100
AcDbPoint
 10
4262.447859320854
 20
2527.713680444999
 30
-0.0000000000000105
  0
POINT
  5
C0B
330
BEC
100
AcDbEntity
  8
DEFPOINTS
 62
     0
440
 16777216
100
AcDbPoint
 10
4351.2058876341
 20
2527.713680444999
 30
0.0
  0
ENDBLK
  5
BEE
330
BEC
100
AcDbEntity
  8
0
100
AcDbBlockEnd
  0
ENDSEC
  0
SECTION
  2
ENTITIES
  0
ARC
  5
9C3
330
1F
100
AcDbEntity
  8
HEWI
100
AcDbCircle
 10
1011.202512862211
 20
1147.832292919271
 30
-0.0000000000000108
 40
16.5
100
AcDbArc
 50
90.0
 51
270.0
  0
ARC
  5
9C4
330
1F
100
AcDbEntity
  8
HEWI
100
AcDbCircle
 10
623.1249193353342
 20
2247.832292919271
 30
-0.0000000000000123
 40
16.5
100
AcDbArc
 50
0.0
 51
180.0
  0
LINE
  5
9C5
330
1F
100
AcDbEntity
  8
HEWI
100
AcDbLine
 10
564.7749193353356
 20
1900.332292919293
 30
-0.0000000000000195
 11
564.7749193353356
 21
1900.216798210506
 31
-0.0000000000000195
210
0.0
220
1.0
230
0.0
  0
LINE
  5
9C6
330
1F
100
AcDbEntity
  8
HEWI
100
AcDbLine
 10
564.7749193353356
 20
1900.216798210506
 30
-0.0000000000000195
 11
564.7749193353356
 21
1883.424052921334
 31
-0.0000000000000195
210
0.0
220
1.0
230
0.0
  0
LINE
  5
9C7
330
1F
100
AcDbEntity
  8
HEWI
100
AcDbLine
 10
564.7749193353356
 20
1883.424052921334
 30
-0.0000000000000195
 11
564.7749193353356
 21
1862.332292919292
 31
-0.0000000000000195
210
0.0
220
1.0
230
0.0
  0
LINE
  5
9C8
330
1F
100
AcDbEntity
  8
HEWI
100
AcDbLine
 10
590.2749193353356
 20
1895.474428543024
 30
-0.0000000000000163
 11
590.2749193353356
 21
1861.332292919293
 31
-0.0000000000000163
210
0.0
220
1.0
230
0.0
  0
LINE
  5
9C9
330
1F
100
AcDbEntity
  8
HEWI
100
AcDbLine
 10
590.2749193353356
 20
1901.332292919293
 30
-0.0000000000000163
 11
590.2749193353356
 21
1895.474428543024
 31
-0.0000000000000163
210
0.0
220
1.0
230
0.0
  0
ELLIPSE
  5
9CA
330
1F
100
AcDbEntity
  8
HEWI
100
AcDbEllipse
 10
623.1249193353342
 20
1816.500785836566
 30
-0.0000000000000123
 11
12.70449773839052
 21
0.0
 31
0.0000000000000016
210
-0.0000000000000001
220
0.0
230
1.0
 40
0.9961946980917455
 41
0.0
 42
6.283185307179584
  0
ELLIPSE
  5
9CB
330
1F
100
AcDbEntity
  8
HEWI
100
AcDbEllipse
 10
623.1249193353342
 20
1816.430163165273
 30
-0.0000000000000123
 11
-18.81828199961667
 21
0.0
 31
-0.0000000000000023
210
-0.0000000000000001
220
0.0
230
1.0
 40
0.9961946980917455
 41
-2.409769549797642
 42
-0.7318231037921505
  0
SPLINE
  5
9CC
330
1F
100
AcDbEntity
  8
HEWI
100
AcDbSpline
210
-0.0000000000000003
220
0.0
230
1.0
 70
     8
 71
     3
 72
    14
 73
    10
 74
     0
 42
0.000000001
 43
0.0000000001
 40
8.794524056531006
 40
8.794524056531006
 40
8.794524056531006
 40
8.794524056531006
 40
9.579456439527339
 40
9.579456439527339
 40
10.36438882252367
 40
10.36438882252367
 40
11.09774755945767
 40
11.09774755945767
 40
11.18149517898411
 40
11.18149517898411
 40
11.18149517898411
 40
11.18149517898411
 10
638.124919335336
 20
1831.190747128578
 30
-0.0000000000000105
 10
638.124919335336
 20
1830.981420219919
 30
-0.0000000000000105
 10
638.0942251035904
 20
1830.750629664836
 30
-0.0000000000000105
 10
637.9760297113662
 20
1830.282090986423
 30
-0.0000000000000105
 10
637.8892822897396
 20
1830.043769028918
 30
-0.0000000000000105
 10
637.7082630637833
 20
1829.616371943346
 30
-0.0000000000000105
 10
637.5988916489932
 20
1829.388259922689
 30
-0.0000000000000105
 10
637.4679034162454
 20
1829.131178307588
 30
-0.0000000000000106
 10
637.4543808682865
 20
1829.104794566274
 30
-0.0000000000000106
 10
637.4407882013529
 20
1829.078405270212
 30
-0.0000000000000106
  0
SPLINE
  5
9CD
330
1F
100
AcDbEntity
  8
HEWI
100
AcDbSpline
210
0.0
220
0.0
230
1.0
 70
     8
 71
     3
 72
    20
 73
    16
 74
     0
 42
0.000000001
 43
0.0000000001
 40
1.658125044755959
 40
1.658125044755959
 40
1.658125044755959
 40
1.658125044755959
 40
1.696828082632773
 40
1.696828082632773
 40
1.798652902623284
 40
1.798652902623284
 40
1.900477722613793
 40
1.900477722613793
 40
1.93829658602752
 40
1.93829658602752
 40
1.976115449441245
 40
1.976115449441245
 40
2.029036545889153
 40
2.029036545889153
 40
2.081957642337064
 40
2.081957642337064
 40
2.081957642337064
 40
2.081957642337064
 10
637.4407882013529
 20
1829.078405270212
 30
-0.0000000000000106
 10
637.4347387481793
 20
1829.066660642646
 30
-0.0000000000000106
 10
637.4284806088271
 20
1829.055083186829
 30
-0.0000000000000106
 10
637.4049464778981
 20
1829.013944242206
 30
-0.0000000000000106
 10
637.3865347316877
 20
1828.986011124218
 30
-0.0000000000000106
 10
637.3447321143994
 20
1828.936787189866
 30
-0.0000000000000106
 10
637.3219847932468
 20
1828.914961464479
 30
-0.0000000000000106
 10
637.2803192034353
 20
1828.896128516246
 30
-0.0000000000000106
 10
637.2672926433406
 20
1828.892239276662
 30
-0.0000000000000106
 10
637.2406896237553
 20
1828.889795687277
 30
-0.0000000000000106
 10
637.2271084221865
 20
1828.891282052294
 30
-0.0000000000000106
 10
637.1980149584596
 20
1828.899324246775
 30
-0.0000000000000106
 10
637.1812271999279
 20
1828.908203535375
 30
-0.0000000000000106
 10
637.1506048984647
 20
1828.930645939976
 30
-0.0000000000000106
 10
637.1367071048334
 20
1828.944123374995
 30
-0.0000000000000106
 10
637.1249193353341
 20
1828.957197115728
 30
-0.0000000000000106
  0
SPLINE
  5
9CE
330
1F
100
AcDbEntity
  8
HEWI
100
AcDbSpline
210
-0.0000000000000002
220
0.0000000000000004
230
1.0
 70
     8
 71
     3
 72
    20
 73
    16
 74
     0
 42
0.000000001
 43
0.0000000001
 40
-2.081957642337048
 40
-2.081957642337048
 40
-2.081957642337048
 40
-2.081957642337048
 40
-2.029036545889133
 40
-2.029036545889133
 40
-1.976115449441223
 40
-1.976115449441223
 40
-1.938296586027501
 40
-1.938296586027501
 40
-1.900477722613779
 40
-1.900477722613779
 40
-1.79865290262327
 40
-1.79865290262327
 40
-1.696828082632761
 40
-1.696828082632761
 40
-1.658125044755919
 40
-1.658125044755919
 40
-1.658125044755919
 40
-1.658125044755919
 10
609.1249193353323
 20
1828.957197115728
 30
-0.000000000000014
 10
609.1131315658367
 20
1828.944123374995
 30
-0.000000000000014
 10
609.0992337722036
 20
1828.930645939976
 30
-0.000000000000014
 10
609.0686114707387
 20
1828.908203535375
 30
-0.000000000000014
 10
609.0518237122068
 20
1828.899324246775
 30
-0.000000000000014
 10
609.0227302484818
 20
1828.891282052294
 30
-0.000000000000014
 10
609.0091490469112
 20
1828.889795687277
 30
-0.000000000000014
 10
608.9825460273277
 20
1828.892239276662
 30
-0.000000000000014
 10
608.9695194672331
 20
1828.896128516246
 30
-0.000000000000014
 10
608.9278538774215
 20
1828.914961464479
 30
-0.0000000000000141
 10
608.9051065562671
 20
1828.936787189866
 30
-0.0000000000000141
 10
608.8633039389805
 20
1828.986011124218
 30
-0.0000000000000141
 10
608.8448921927684
 20
1829.013944242206
 30
-0.0000000000000141
 10
608.821358061843
 20
1829.055083186829
 30
-0.0000000000000141
 10
608.8150999224853
 20
1829.066660642646
 30
-0.0000000000000141
 10
608.8090504693155
 20
1829.078405270212
 30
-0.0000000000000141
  0
SPLINE
  5
9CF
330
1F
100
AcDbEntity
  8
HEWI
100
AcDbSpline
210
0.0000000000000004
220
0.0000000000000002
230
1.0
 70
     8
 71
     3
 72
    14
 73
    10
 74
     0
 42
0.000000001
 43
0.0000000001
 40
0.649611117407552
 40
0.649611117407552
 40
0.649611117407552
 40
0.649611117407552
 40
0.7333587369340008
 40
0.7333587369340008
 40
1.466717473868001
 40
1.466717473868001
 40
2.251649856864295
 40
2.251649856864295
 40
3.036582239860591
 40
3.036582239860591
 40
3.036582239860591
 40
3.036582239860591
 10
608.8090504693155
 20
1829.078405270212
 30
-0.0000000000000141
 10
608.7954578023818
 20
1829.104794566274
 30
-0.0000000000000141
 10
608.7819352544211
 20
1829.131178307588
 30
-0.0000000000000141
 10
608.6509470216769
 20
1829.388259922689
 30
-0.0000000000000141
 10
608.5415756068851
 20
1829.616371943346
 30
-0.0000000000000141
 10
608.3605563809287
 20
1830.043769028918
 30
-0.0000000000000141
 10
608.2738089593004
 20
1830.282090986425
 30
-0.0000000000000141
 10
608.155613567078
 20
1830.750629664836
 30
-0.0000000000000141
 10
608.124919335336
 20
1830.981420219919
 30
-0.0000000000000142
 10
608.124919335336
 20
1831.190747128578
 30
-0.0000000000000142
  0
LINE
  5
9D0
330
1F
100
AcDbEntity
  8
HEWI
100
AcDbLine
 10
608.124919335336
 20
1861.895262472904
 30
-0.0000000000000142
 11
608.124919335336
 21
1831.190747128578
 31
-0.0000000000000142
210
0.0
220
1.0
230
0.0
  0
LINE
  5
9D1
330
1F
100
AcDbEntity
  8
HEWI
100
AcDbLine
 10
638.124919335336
 20
1861.895262472904
 30
-0.0000000000000105
 11
638.124919335336
 21
1831.190747128578
 31
-0.0000000000000105
210
0.0
220
1.0
230
0.0
  0
LINE
  5
9D2
330
1F
100
AcDbEntity
  8
HEWI
100
AcDbLine
 10
637.1249193353341
 20
1862.159543410308
 30
-0.0000000000000106
 11
609.1249193353323
 21
1862.159543410308
 31
-0.000000000000014
210
0.0
220
1.0
230
0.0
  0
SPLINE
  5
9D3
330
1F
100
AcDbEntity
  8
HEWI
100
AcDbSpline
210
-0.0000000000000001
220
-0.0000000000000003
230
1.0
 70
     8
 71
     3
 72
    14
 73
    10
 74
     0
 42
0.000000001
 43
0.0000000001
 40
0.0
 40
0.0
 40
0.0
 40
0.0
 40
0.3766543382939877
 40
0.3766543382939877
 40
0.7533086765879756
 40
0.7533086765879756
 40
1.135751222155823
 40
1.135751222155823
 40
1.51819376772367
 40
1.51819376772367
 40
1.51819376772367
 40
1.51819376772367
 10
609.1249193353323
 20
1862.159543410308
 30
-0.000000000000014
 10
608.9993678892369
 20
1862.159543410308
 30
-0.000000000000014
 10
608.8656452549621
 20
1862.152200539042
 30
-0.0000000000000141
 10
608.6200662467308
 20
1862.123113415077
 30
-0.0000000000000141
 10
608.508196776038
 20
1862.101446215549
 30
-0.0000000000000141
 10
608.3303091851576
 20
1862.052788453307
 30
-0.0000000000000141
 10
608.2528740642247
 20
1862.022431263452
 30
-0.0000000000000141
 10
608.1501787770503
 20
1861.958652747433
 30
-0.0000000000000141
 10
608.124919335336
 20
1861.925296795204
 30
-0.0000000000000142
 10
608.124919335336
 20
1861.895262472904
 30
-0.0000000000000142
  0
SPLINE
  5
9D4
330
1F
100
AcDbEntity
  8
HEWI
100
AcDbSpline
210
-0.0000000000000002
220
-0.0000000000000004
230
1.0
 70
     8
 71
     3
 72
    14
 73
    10
 74
     0
 42
0.000000001
 43
0.0000000001
 40
-1.51819376772367
 40
-1.51819376772367
 40
-1.51819376772367
 40
-1.51819376772367
 40
-1.135751222155821
 40
-1.135751222155821
 40
-0.7533086765879721
 40
-0.7533086765879721
 40
-0.376654338293986
 40
-0.376654338293986
 40
0.0
 40
0.0
 40
0.0
 40
0.0
 10
638.124919335336
 20
1861.895262472904
 30
-0.0000000000000105
 10
638.124919335336
 20
1861.925296795204
 30
-0.0000000000000105
 10
638.0996598936181
 20
1861.958652747433
 30
-0.0000000000000105
 10
637.9969646064437
 20
1862.022431263452
 30
-0.0000000000000105
 10
637.9195294855126
 20
1862.052788453307
 30
-0.0000000000000105
 10
637.7416418946304
 20
1862.101446215549
 30
-0.0000000000000105
 10
637.6297724239393
 20
1862.123113415077
 30
-0.0000000000000105
 10
637.3841934157062
 20
1862.152200539042
 30
-0.0000000000000106
 10
637.2504707814314
 20
1862.159543410308
 30
-0.0000000000000106
 10
637.1249193353341
 20
1862.159543410308
 30
-0.0000000000000106
  0
LINE
  5
9D5
330
1F
100
AcDbEntity
  8
HEWI
100
AcDbLine
 10
640.6249193353342
 20
1861.332270374965
 30
-0.0000000000000102
 11
640.6249193353342
 21
1901.332315463619
 31
-0.0000000000000102
210
0.0
220
1.0
230
0.0
  0
LINE
  5
9D6
330
1F
100
AcDbEntity
  8
HEWI
100
AcDbLine
 10
647.124919335336
 20
1881.332292919293
 30
-0.0000000000000094
 11
647.124919335336
 21
1861.332292919293
 31
-0.0000000000000094
210
0.0
220
1.0
230
0.0
  0
LINE
  5
9D7
330
1F
100
AcDbEntity
  8
HEWI
100
AcDbLine
 10
647.124919335336
 20
1901.332292919293
 30
-0.0000000000000094
 11
647.124919335336
 21
1881.332292919293
 31
-0.0000000000000094
210
0.0
220
1.0
230
0.0
  0
LINE
  5
9D8
330
1F
100
AcDbEntity
  8
HEWI
100
AcDbLine
 10
605.6249193353342
 20
1901.332315463619
 30
-0.0000000000000145
 11
605.6249193353342
 21
1861.332270374965
 31
-0.0000000000000145
210
0.0
220
1.0
230
0.0
  0
LINE
  5
9D9
330
1F
100
AcDbEntity
  8
HEWI
100
AcDbLine
 10
599.124919335336
 20
1881.332292919293
 30
-0.0000000000000153
 11
599.124919335336
 21
1861.332292919293
 31
-0.0000000000000153
210
0.0
220
1.0
230
0.0
  0
LINE
  5
9DA
330
1F
100
AcDbEntity
  8
HEWI
100
AcDbLine
 10
599.124919335336
 20
1901.332292919293
 30
-0.0000000000000153
 11
599.124919335336
 21
1881.332292919293
 31
-0.0000000000000153
210
0.0
220
1.0
230
0.0
  0
LINE
  5
9DB
330
1F
100
AcDbEntity
  8
HEWI
100
AcDbLine
 10
642.1249193353324
 20
1793.332292919293
 30
-0.00000000000001
 11
604.1249193353341
 21
1793.332292919293
 31
-0.0000000000000146
210
0.0
220
1.0
230
0.0
  0
LINE
  5
9DC
330
1F
100
AcDbEntity
  8
HEWI
100
AcDbLine
 10
655.8249193353349
 20
1881.33229291928
 30
-0.0000000000000083
 11
655.8249193353349
 21
1861.33229291928
 31
-0.0000000000000083
210
0.0
220
1.0
230
0.0
  0
LINE
  5
9DD
330
1F
100
AcDbEntity
  8
HEWI
100
AcDbLine
 10
655.8249193353349
 20
1901.332292919281
 30
-0.0000000000000083
 11
655.8249193353349
 21
1881.33229291928
 31
-0.0000000000000083
210
0.0
220
1.0
230
0.0
  0
LINE
  5
9DE
330
1F
100
AcDbEntity
  8
HEWI
100
AcDbLine
 10
647.3249193353349
 20
1861.33229291928
 30
-0.0000000000000094
 11
647.3249193353349
 21
1901.332292919281
 31
-0.0000000000000094
210
0.0
220
1.0
230
0.0
  0
LINE
  5
9DF
330
1F
100
AcDbEntity
  8
HEWI
100
AcDbLine
 10
598.9249193353335
 20
1899.332292919271
 30
-0.0000000000000153
 11
599.124919335336
 21
1899.332292919271
 31
-0.0000000000000153
210
0.0
220
1.0
230
0.0
  0
LINE
  5
9E0
330
1F
100
AcDbEntity
  8
HEWI
100
AcDbLine
 10
647.124919335336
 20
1899.332292919271
 30
-0.0000000000000094
 11
647.3249193353349
 21
1899.332292919271
 31
-0.0000000000000094
210
0.0
220
1.0
230
0.0
  0
LINE
  5
9E1
330
1F
100
AcDbEntity
  8
HEWI
100
AcDbLine
 10
647.3249193353331
 20
1896.632292919271
 30
-0.0000000000000094
 11
647.124919335336
 21
1896.632292919271
 31
-0.0000000000000094
210
0.0
220
1.0
230
0.0
  0
LINE
  5
9E2
330
1F
100
AcDbEntity
  8
HEWI
100
AcDbLine
 10
599.124919335336
 20
1896.632292919271
 30
-0.0000000000000153
 11
598.9249193353352
 21
1896.632292919271
 31
-0.0000000000000153
210
0.0
220
1.0
230
0.0
  0
LINE
  5
9E3
330
1F
100
AcDbEntity
  8
HEWI
100
AcDbLine
 10
598.9249193353352
 20
1866.032292919292
 30
-0.0000000000000153
 11
599.124919335336
 21
1866.032292919292
 31
-0.0000000000000153
210
0.0
220
1.0
230
0.0
  0
LINE
  5
9E4
330
1F
100
AcDbEntity
  8
HEWI
100
AcDbLine
 10
647.124919335336
 20
1866.032292919292
 30
-0.0000000000000094
 11
647.3249193353331
 21
1866.032292919292
 31
-0.0000000000000094
210
0.0
220
1.0
230
0.0
  0
LINE
  5
9E5
330
1F
100
AcDbEntity
  8
HEWI
100
AcDbLine
 10
647.3249193353349
 20
1863.332292919291
 30
-0.0000000000000094
 11
647.124919335336
 21
1863.332292919291
 31
-0.0000000000000094
210
0.0
220
1.0
230
0.0
  0
LINE
  5
9E6
330
1F
100
AcDbEntity
  8
HEWI
100
AcDbLine
 10
599.124919335336
 20
1863.332292919291
 30
-0.0000000000000153
 11
598.9249193353335
 21
1863.332292919291
 31
-0.0000000000000153
210
0.0
220
1.0
230
0.0
  0
LINE
  5
9E7
330
1F
100
AcDbEntity
  8
HEWI
100
AcDbLine
 10
590.4249193353335
 20
1881.33229291928
 30
-0.0000000000000163
 11
590.4249193353335
 21
1861.33229291928
 31
-0.0000000000000163
210
0.0
220
1.0
230
0.0
  0
LINE
  5
9E8
330
1F
100
AcDbEntity
  8
HEWI
100
AcDbLine
 10
590.4249193353335
 20
1901.332292919281
 30
-0.0000000000000163
 11
590.4249193353335
 21
1881.33229291928
 31
-0.0000000000000163
210
0.0
220
1.0
230
0.0
  0
LINE
  5
9E9
330
1F
100
AcDbEntity
  8
HEWI
100
AcDbLine
 10
598.9249193353335
 20
1861.33229291928
 30
-0.0000000000000153
 11
598.9249193353335
 21
1901.332292919281
 31
-0.0000000000000153
210
0.0
220
1.0
230
0.0
  0
LINE
  5
9EA
330
1F
100
AcDbEntity
  8
HEWI
100
AcDbLine
 10
657.9749193353345
 20
1899.332292919293
 30
-0.000000000000008
 11
657.9749193353345
 21
1863.332292919293
 31
-0.000000000000008
210
0.0
220
1.0
230
0.0
  0
LINE
  5
9EB
330
1F
100
AcDbEntity
  8
HEWI
100
AcDbLine
 10
655.9749193353345
 20
1901.332292919293
 30
-0.0000000000000083
 11
655.9749193353345
 21
1861.332292919293
 31
-0.0000000000000083
210
0.0
220
1.0
230
0.0
  0
LINE
  5
9EC
330
1F
100
AcDbEntity
  8
HEWI
100
AcDbLine
 10
598.9249193353335
 20
1875.675438669801
 30
-0.0000000000000153
 11
599.124919335336
 21
1875.675438669801
 31
-0.0000000000000153
210
0.0
220
1.0
230
0.0
  0
LINE
  5
9ED
330
1F
100
AcDbEntity
  8
HEWI
100
AcDbLine
 10
598.9249193353335
 20
1875.536737961558
 30
-0.0000000000000153
 11
599.124919335336
 21
1875.536737961558
 31
-0.0000000000000153
210
0.0
220
1.0
230
0.0
  0
LINE
  5
9EE
330
1F
100
AcDbEntity
  8
HEWI
100
AcDbLine
 10
599.124919335336
 20
1873.604886308981
 30
-0.0000000000000153
 11
598.9249193353335
 21
1873.604886308981
 31
-0.0000000000000153
210
0.0
220
1.0
230
0.0
  0
LINE
  5
9EF
330
1F
100
AcDbEntity
  8
HEWI
100
AcDbLine
 10
1082.702512862211
 20
1182.832292919271
 30
-0.0000000000000018
 11
1082.702512862211
 21
1112.832292919271
 31
-0.0000000000000018
210
0.0
220
1.0
230
0.0
  0
LINE
  5
9F0
330
1F
100
AcDbEntity
  8
HEWI
100
AcDbLine
 10
1070.70251286221
 20
1180.832292919271
 30
-0.0000000000000033
 11
1070.70251286221
 21
1114.832292919271
 31
-0.0000000000000033
210
0.0
220
1.0
230
0.0
  0
ARC
  5
9F1
330
1F
100
AcDbEntity
  8
HEWI
100
AcDbCircle
 10
897.7025128622107
 20
1147.832292919271
 30
-0.0000000000000249
 40
35.0
100
AcDbArc
 50
28.12706821856235
 51
151.8729317814377
  0
ARC
  5
9F2
330
1F
100
AcDbEntity
  8
HEWI
100
AcDbCircle
 10
897.7025128622107
 20
1147.832292919271
 30
-0.0000000000000249
 40
35.0
100
AcDbArc
 50
208.1270682185623
 51
331.8729317814376
  0
ARC
  5
9F3
330
1F
100
AcDbEntity
  8
HEWI
100
AcDbCircle
 10
897.7025128622107
 20
1147.832292919271
 30
-0.0000000000000249
 40
16.8
100
AcDbArc
 50
79.15593743629933
 51
100.8440625637006
  0
ARC
  5
9F4
330
1F
100
AcDbEntity
  8
HEWI
100
AcDbCircle
 10
897.7025128622107
 20
1147.832292919271
 30
-0.0000000000000249
 40
16.8
100
AcDbArc
 50
259.1559374362993
 51
280.8440625637007
  0
ARC
  5
9F5
330
1F
100
AcDbEntity
  8
HEWI
100
AcDbCircle
 10
623.1249193353342
 20
1262.832292919271
 30
-0.0000000000000123
 40
35.0
100
AcDbArc
 50
118.1270682186321
 51
180.0
  0
ARC
  5
9F6
330
1F
100
AcDbEntity
  8
HEWI
100
AcDbCircle
 10
623.1249193353342
 20
1262.832292919271
 30
-0.0000000000000123
 40
35.0
100
AcDbArc
 50
298.1270682186321
 51
61.87293178136793
  0
ARC
  5
9F7
330
1F
100
AcDbEntity
  8
HEWI
100
AcDbCircle
 10
623.1249193353342
 20
1262.832292919271
 30
-0.0000000000000123
 40
35.0
100
AcDbArc
 50
180.0
 51
241.8729317813679
  0
ARC
  5
9F8
330
1F
100
AcDbEntity
  8
HEWI
100
AcDbCircle
 10
623.1249193353342
 20
1262.832292919271
 30
-0.0000000000000123
 40
16.8
100
AcDbArc
 50
169.1559374362969
 51
180.0
  0
ARC
  5
9F9
330
1F
100
AcDbEntity
  8
HEWI
100
AcDbCircle
 10
623.1249193353342
 20
1262.832292919271
 30
-0.0000000000000123
 40
16.8
100
AcDbArc
 50
349.1559374362969
 51
10.84406256370311
  0
ARC
  5
9FA
330
1F
100
AcDbEntity
  8
HEWI
100
AcDbCircle
 10
623.1249193353342
 20
1262.832292919271
 30
-0.0000000000000123
 40
16.8
100
AcDbArc
 50
180.0
 51
190.8440625637031
  0
ARC
  5
9FB
330
1F
100
AcDbEntity
  8
HEWI
100
AcDbCircle
 10
623.1249193353342
 20
2247.832292919271
 30
-0.0000000000000123
 40
35.0
100
AcDbArc
 50
298.1270682186321
 51
180.0
  0
ARC
  5
9FC
330
1F
100
AcDbEntity
  8
HEWI
100
AcDbCircle
 10
623.1249193353342
 20
2247.832292919271
 30
-0.0000000000000123
 40
35.0
100
AcDbArc
 50
180.0
 51
241.8729317813679
  0
ARC
  5
9FD
330
1F
100
AcDbEntity
  8
HEWI
100
AcDbCircle
 10
623.1249193353342
 20
2247.832292919271
 30
-0.0000000000000123
 40
16.8
100
AcDbArc
 50
349.1559374362969
 51
180.0
  0
ARC
  5
9FE
330
1F
100
AcDbEntity
  8
HEWI
100
AcDbCircle
 10
623.1249193353342
 20
2247.832292919271
 30
-0.0000000000000123
 40
16.8
100
AcDbArc
 50
180.0
 51
190.8440625637031
  0
LINE
  5
9FF
330
1F
100
AcDbEntity
  8
HEWI
100
AcDbLine
 10
1072.70251286221
 20
1112.832292919271
 30
-0.000000000000003
 11
1082.702512862211
 21
1112.832292919271
 31
-0.0000000000000018
210
0.0
220
1.0
230
0.0
  0
LINE
  5
A00
330
1F
100
AcDbEntity
  8
HEWI
100
AcDbLine
 10
1072.70251286221
 20
1182.832292919271
 30
-0.000000000000003
 11
1082.702512862211
 21
1182.832292919271
 31
-0.0000000000000018
210
0.0
220
1.0
230
0.0
  0
LINE
  5
A01
330
1F
100
AcDbEntity
  8
HEWI
100
AcDbLine
 10
647.124919335336
 20
1873.332292919294
 30
-0.0000000000000094
 11
647.3249193353349
 21
1873.332292919294
 31
-0.0000000000000094
210
0.0
220
1.0
230
0.0
  0
LINE
  5
A02
330
1F
100
AcDbEntity
  8
HEWI
100
AcDbLine
 10
598.9249193353335
 20
1873.332292919294
 30
-0.0000000000000153
 11
599.124919335336
 21
1873.332292919294
 31
-0.0000000000000153
210
0.0
220
1.0
230
0.0
  0
LINE
  5
A03
330
1F
100
AcDbEntity
  8
HEWI
100
AcDbLine
 10
647.124919335336
 20
1889.332292919293
 30
-0.0000000000000094
 11
647.3249193353349
 21
1889.332292919293
 31
-0.0000000000000094
210
0.0
220
1.0
230
0.0
  0
LINE
  5
A04
330
1F
100
AcDbEntity
  8
HEWI
100
AcDbLine
 10
598.9249193353335
 20
1889.332292919293
 30
-0.0000000000000153
 11
599.124919335336
 21
1889.332292919293
 31
-0.0000000000000153
210
0.0
220
1.0
230
0.0
  0
LINE
  5
A05
330
1F
100
AcDbEntity
  8
HEWI
100
AcDbLine
 10
655.8249193353349
 20
1863.932292919292
 30
-0.0000000000000083
 11
655.9749193353345
 21
1863.932292919292
 31
-0.0000000000000083
210
0.0
220
1.0
230
0.0
  0
LINE
  5
A06
330
1F
100
AcDbEntity
  8
HEWI
100
AcDbLine
 10
655.8249193353349
 20
1898.732292919293
 30
-0.0000000000000083
 11
655.9749193353345
 21
1898.732292919293
 31
-0.0000000000000083
210
0.0
220
1.0
230
0.0
  0
LINE
  5
A07
330
1F
100
AcDbEntity
  8
HEWI
100
AcDbLine
 10
598.9249193353335
 20
1901.332292919281
 30
-0.0000000000000153
 11
590.4249193353335
 21
1901.332292919281
 31
-0.0000000000000163
210
0.0
220
1.0
230
0.0
  0
LINE
  5
A08
330
1F
100
AcDbEntity
  8
HEWI
100
AcDbLine
 10
598.9249193353335
 20
1861.33229291928
 30
-0.0000000000000153
 11
590.4249193353335
 21
1861.33229291928
 31
-0.0000000000000163
210
0.0
220
1.0
230
0.0
  0
LINE
  5
A09
330
1F
100
AcDbEntity
  8
HEWI
100
AcDbLine
 10
655.8249193353349
 20
1901.332292919281
 30
-0.0000000000000083
 11
647.3249193353349
 21
1901.332292919281
 31
-0.0000000000000094
210
0.0
220
1.0
230
0.0
  0
LINE
  5
A0A
330
1F
100
AcDbEntity
  8
HEWI
100
AcDbLine
 10
655.8249193353349
 20
1861.33229291928
 30
-0.0000000000000083
 11
647.3249193353349
 21
1861.33229291928
 31
-0.0000000000000094
210
0.0
220
1.0
230
0.0
  0
LINE
  5
A0B
330
1F
100
AcDbEntity
  8
HEWI
100
AcDbLine
 10
642.824919335333
 20
1794.032292919292
 30
-0.0000000000000099
 11
642.824919335333
 21
1805.245399302714
 31
-0.0000000000000099
210
0.0
220
1.0
230
0.0
  0
LINE
  5
A0C
330
1F
100
AcDbEntity
  8
HEWI
100
AcDbLine
 10
642.824919335333
 20
1826.917681085853
 30
-0.0000000000000099
 11
642.824919335333
 21
1861.332292919293
 31
-0.0000000000000099
210
0.0
220
1.0
230
0.0
  0
LINE
  5
A0D
330
1F
100
AcDbEntity
  8
HEWI
100
AcDbLine
 10
603.4249193353335
 20
1794.032292919292
 30
-0.0000000000000147
 11
603.4249193353335
 21
1805.245399302716
 31
-0.0000000000000147
210
0.0
220
1.0
230
0.0
  0
LINE
  5
A0E
330
1F
100
AcDbEntity
  8
HEWI
100
AcDbLine
 10
603.4249193353335
 20
1826.917681085851
 30
-0.0000000000000147
 11
603.4249193353335
 21
1861.332292919293
 31
-0.0000000000000147
210
0.0
220
1.0
230
0.0
  0
LINE
  5
A0F
330
1F
100
AcDbEntity
  8
HEWI
100
AcDbLine
 10
605.6249193353342
 20
1901.332292919293
 30
-0.0000000000000145
 11
599.124919335336
 21
1901.332292919293
 31
-0.0000000000000153
210
0.0
220
1.0
230
0.0
  0
LINE
  5
A10
330
1F
100
AcDbEntity
  8
HEWI
100
AcDbLine
 10
605.6249193353342
 20
1861.332292919293
 30
-0.0000000000000145
 11
599.124919335336
 21
1861.332292919293
 31
-0.0000000000000153
210
0.0
220
1.0
230
0.0
  0
LINE
  5
A11
330
1F
100
AcDbEntity
  8
HEWI
100
AcDbLine
 10
647.124919335336
 20
1901.332292919293
 30
-0.0000000000000094
 11
640.6249193353342
 21
1901.332292919293
 31
-0.0000000000000102
210
0.0
220
1.0
230
0.0
  0
LINE
  5
A12
330
1F
100
AcDbEntity
  8
HEWI
100
AcDbLine
 10
647.124919335336
 20
1861.332292919293
 30
-0.0000000000000094
 11
640.6249193353342
 21
1861.332292919293
 31
-0.0000000000000102
210
0.0
220
1.0
230
0.0
  0
LINE
  5
A13
330
1F
100
AcDbEntity
  8
HEWI
100
AcDbLine
 10
640.6249193353342
 20
1901.332315463619
 30
-0.0000000000000102
 11
605.6249193353342
 21
1901.332315463619
 31
-0.0000000000000145
210
0.0
220
1.0
230
0.0
  0
LINE
  5
A14
330
1F
100
AcDbEntity
  8
HEWI
100
AcDbLine
 10
608.124919335336
 20
1861.332270374965
 30
-0.0000000000000142
 11
605.6249193353342
 21
1861.332270374965
 31
-0.0000000000000145
210
0.0
220
1.0
230
0.0
  0
LINE
  5
A15
330
1F
100
AcDbEntity
  8
HEWI
100
AcDbLine
 10
640.6249193353342
 20
1861.332270374965
 30
-0.0000000000000102
 11
638.124919335336
 21
1861.332270374965
 31
-0.0000000000000105
210
0.0
220
1.0
230
0.0
  0
LINE
  5
A16
330
1F
100
AcDbEntity
  8
HEWI
100
AcDbLine
 10
565.7749193353356
 20
1861.332292919293
 30
-0.0000000000000193
 11
590.2749193353356
 21
1861.332292919293
 31
-0.0000000000000163
210
0.0
220
1.0
230
0.0
  0
LINE
  5
A17
330
1F
100
AcDbEntity
  8
HEWI
100
AcDbLine
 10
565.7749193353356
 20
1901.332292919293
 30
-0.0000000000000193
 11
590.2749193353356
 21
1901.332292919293
 31
-0.0000000000000163
210
0.0
220
1.0
230
0.0
  0
LINE
  5
A18
330
1F
100
AcDbEntity
  8
HEWI
100
AcDbLine
 10
569.0967332728196
 20
1887.800491454813
 30
-0.0000000000000189
 11
568.4441581508781
 21
1887.800491454813
 31
-0.000000000000019
210
0.0
220
1.0
230
0.0
  0
LINE
  5
A19
330
1F
100
AcDbEntity
  8
HEWI
100
AcDbLine
 10
590.2749193353356
 20
1863.932292919292
 30
-0.0000000000000163
 11
590.4249193353335
 21
1863.932292919292
 31
-0.0000000000000163
210
0.0
220
1.0
230
0.0
  0
LINE
  5
A1A
330
1F
100
AcDbEntity
  8
HEWI
100
AcDbLine
 10
590.2749193353356
 20
1898.732292919293
 30
-0.0000000000000163
 11
590.4249193353335
 21
1898.732292919293
 31
-0.0000000000000163
210
0.0
220
1.0
230
0.0
  0
LINE
  5
A1B
330
1F
100
AcDbEntity
  8
HEWI
100
AcDbLine
 10
964.7025128622098
 20
1164.332292919271
 30
-0.0000000000000167
 11
653.1247607465611
 21
1164.332292919271
 31
-0.0000000000000058
210
0.0
220
1.0
230
0.0
  0
LINE
  5
A1C
330
1F
100
AcDbEntity
  8
HEWI
100
AcDbLine
 10
964.7025128622098
 20
1131.332292919271
 30
-0.0000000000000167
 11
653.1247607465611
 21
1131.332292919271
 31
-0.0000000000000058
210
0.0
220
1.0
230
0.0
  0
LINE
  5
A1D
330
1F
100
AcDbEntity
  8
HEWI
100
AcDbLine
 10
1070.70251286221
 20
1164.332292919271
 30
-0.0000000000000035
 11
1059.702512862211
 21
1164.332292919271
 31
-0.0000000000000049
210
0.0
220
1.0
230
0.0
  0
LINE
  5
A1E
330
1F
100
AcDbEntity
  8
HEWI
100
AcDbLine
 10
1070.70251286221
 20
1131.332292919271
 30
-0.0000000000000035
 11
1059.702512862211
 21
1131.332292919271
 31
-0.0000000000000049
210
0.0
220
1.0
230
0.0
  0
LINE
  5
A1F
330
1F
100
AcDbEntity
  8
HEWI
100
AcDbLine
 10
606.6249193353359
 20
2199.332292919271
 30
-0.0000000000000143
 11
606.6249193353359
 21
1901.332315463619
 31
-0.0000000000000143
210
0.0
220
1.0
230
0.0
  0
LINE
  5
A20
330
1F
100
AcDbEntity
  8
HEWI
100
AcDbLine
 10
606.6249193353359
 20
1793.332292919293
 30
-0.0000000000000143
 11
606.6249193353359
 21
1193.830554455832
 31
-0.0000000000000143
210
0.0
220
1.0
230
0.0
  0
LINE
  5
A21
330
1F
100
AcDbEntity
  8
HEWI
100
AcDbLine
 10
639.624919335336
 20
2199.332292919271
 30
-0.0000000000000103
 11
639.624919335336
 21
1901.332315463619
 31
-0.0000000000000103
210
0.0
220
1.0
230
0.0
  0
LINE
  5
A22
330
1F
100
AcDbEntity
  8
HEWI
100
AcDbLine
 10
639.624919335336
 20
1793.332292919293
 30
-0.0000000000000103
 11
639.624919335336
 21
1169.830539197041
 31
-0.0000000000000103
210
0.0
220
1.0
230
0.0
  0
ARC
  5
A23
330
1F
100
AcDbEntity
  8
HEWI
100
AcDbCircle
 10
1072.70251286221
 20
1180.832292919271
 30
-0.000000000000003
 40
2.0
100
AcDbArc
 50
90.0
 51
180.0
  0
ARC
  5
A24
330
1F
100
AcDbEntity
  8
HEWI
100
AcDbCircle
 10
1072.70251286221
 20
1114.832292919271
 30
-0.000000000000003
 40
2.0
100
AcDbArc
 50
180.0
 51
270.0
  0
ARC
  5
A25
330
1F
100
AcDbEntity
  8
HEWI
100
AcDbCircle
 10
655.9749193353345
 20
1899.332292919293
 30
-0.0000000000000083
 40
1.999999999999999
100
AcDbArc
 50
0.0
 51
90.0
  0
ARC
  5
A26
330
1F
100
AcDbEntity
  8
HEWI
100
AcDbCircle
 10
655.9749193353345
 20
1863.332292919293
 30
-0.0000000000000083
 40
1.999999999999999
100
AcDbArc
 50
270.0
 51
0.0
  0
ARC
  5
A27
330
1F
100
AcDbEntity
  8
HEWI
100
AcDbCircle
 10
604.1249193353341
 20
1794.032292919292
 30
-0.0000000000000146
 40
0.6999999999999319
100
AcDbArc
 50
180.0
 51
270.0
  0
ARC
  5
A28
330
1F
100
AcDbEntity
  8
HEWI
100
AcDbCircle
 10
642.1249193353324
 20
1794.032292919292
 30
-0.00000000000001
 40
0.6999999999999319
100
AcDbArc
 50
270.0
 51
0.0
  0
SPLINE
  5
A29
330
1F
100
AcDbEntity
  8
HEWI
100
AcDbSpline
210
-0.0000000000000001
220
0.0
230
1.0
 70
     8
 71
     3
 72
    35
 73
    31
 74
     0
 42
0.000000001
 43
0.0000000001
 40
132.3072857087884
 40
132.3072857087884
 40
132.3072857087884
 40
132.3072857087884
 40
136.7855331455956
 40
136.7855331455956
 40
141.755570234172
 40
141.755570234172
 40
141.755570234172
 40
150.5350853175938
 40
150.5350853175938
 40
159.315806993731
 40
159.315806993731
 40
168.1015031155489
 40
168.1015031155489
 40
176.8930034281765
 40
176.8930034281765
 40
185.6877688664799
 40
185.6877688664799
 40
194.4814480186248
 40
194.4814480186248
 40
203.2703476028044
 40
203.2703476028044
 40
212.0534605094474
 40
212.0534605094474
 40
220.833091053498
 40
220.833091053498
 40
229.6136189378001
 40
229.6136189378001
 40
238.3989428851335
 40
238.3989428851335
 40
241.1243396664098
 40
241.1243396664098
 40
241.1243396664098
 40
241.1243396664098
 10
608.1249193444764
 20
1832.799586281938
 30
-0.0000000000000142
 10
607.0126201904932
 20
1831.807828981655
 30
-0.0000000000000143
 10
606.001681746382
 20
1830.707882855196
 30
-0.0000000000000144
 10
604.1146466654899
 20
1828.192861083414
 30
-0.0000000000000146
 10
603.2716234207782
 20
1826.764538122263
 30
-0.0000000000000147
 10
602.5936096481346
 20
1825.25684323238
 30
-0.0000000000000148
 10
601.3959058810232
 20
1822.59351702555
 30
-0.000000000000015
 10
600.7310718519129
 20
1819.722447950511
 30
-0.0000000000000151
 10
600.5421679557275
 20
1813.887146939944
 30
-0.0000000000000151
 10
601.0200680245889
 20
1810.978887999973
 30
-0.000000000000015
 10
603.0672012808554
 20
1805.507043082418
 30
-0.0000000000000148
 10
604.6174058266333
 20
1802.996151350875
 30
-0.0000000000000146
 10
608.5968264291459
 20
1798.706848456793
 30
-0.0000000000000141
 10
610.9885066434071
 20
1796.969996853134
 30
-0.0000000000000138
 10
616.3056656481075
 20
1794.5079946832
 30
-0.0000000000000132
 10
619.1805564977458
 20
1793.806731687119
 30
-0.0000000000000128
 10
625.0375029064471
 20
1793.542892666067
 30
-0.0000000000000121
 10
627.9637157567467
 20
1793.9826908984
 30
-0.0000000000000117
 10
633.4807175518581
 20
1795.955807005884
 30
-0.000000000000011
 10
636.0190975857149
 20
1797.469724235942
 30
-0.0000000000000107
 10
640.3696057102806
 20
1801.381597227889
 30
-0.0000000000000102
 10
642.1406570230465
 20
1803.741614123871
 30
-0.00000000000001
 10
644.6755617676135
 20
1809.004998247988
 30
-0.0000000000000097
 10
645.4155354461436
 20
1811.857752229668
 30
-0.0000000000000096
 10
645.7575310762113
 20
1817.686076051302
 30
-0.0000000000000095
 10
645.3561543944324
 20
1820.605743862986
 30
-0.0000000000000096
 10
643.4534378785975
 20
1826.128981092408
 30
-0.0000000000000098
 10
641.9697594089684
 20
1828.679382629016
 30
-0.00000000000001
 10
639.4384221226537
 20
1831.555400178183
 30
-0.0000000000000103
 10
638.7994909544286
 20
1832.198116283787
 30
-0.0000000000000104
 10
638.124915711085
 20
1832.799582223987
 30
-0.0000000000000105
  0
SPLINE
  5
A2A
330
1F
100
AcDbEntity
  8
HEWI
100
AcDbSpline
210
-0.0000000000000055
220
-0.0000000000000074
230
1.0
 70
     8
 71
     3
 72
    24
 73
    20
 74
     0
 42
0.000000001
 43
0.0000000001
 40
0.0
 40
0.0
 40
0.0
 40
0.0
 40
0.0069048122861337
 40
0.0069048122861337
 40
0.0247659201958065
 40
0.0247659201958065
 40
0.0545551747126454
 40
0.0545551747126454
 40
0.064355803429052
 40
0.064355803429052
 40
0.0859948263386695
 40
0.0859948263386695
 40
0.1473005414935413
 40
0.1473005414935413
 40
0.1844537936440395
 40
0.1844537936440395
 40
0.205942164416787
 40
0.205942164416787
 40
0.2061964735894092
 40
0.2061964735894092
 40
0.2061964735894092
 40
0.2061964735894092
 10
569.7431559710585
 20
1887.598882509355
 30
-0.0000000000000189
 10
569.7450442940008
 20
1887.597920591219
 30
-0.0000000000000189
 10
569.746928029217
 20
1887.596951962601
 30
-0.0000000000000189
 10
569.7536680474277
 20
1887.593453813906
 30
-0.0000000000000189
 10
569.7584982179687
 20
1887.59088632582
 30
-0.0000000000000189
 10
569.7713023189499
 20
1887.583919522972
 30
-0.0000000000000188
 10
569.7792211149026
 20
1887.579442158538
 30
-0.0000000000000188
 10
569.789632451233
 20
1887.573333488671
 30
-0.0000000000000188
 10
569.7922005537694
 20
1887.571808424401
 30
-0.0000000000000188
 10
569.800409307003
 20
1887.566875257013
 30
-0.0000000000000188
 10
569.8060138564687
 20
1887.563418039288
 30
-0.0000000000000188
 10
569.8273263589635
 20
1887.549932783542
 30
-0.0000000000000188
 10
569.8427087076288
 20
1887.53948544276
 30
-0.0000000000000188
 10
569.8668682020852
 20
1887.521965926617
 30
-0.0000000000000188
 10
569.8758534251919
 20
1887.5151904242
 30
-0.0000000000000188
 10
569.8898415478197
 20
1887.504243088649
 30
-0.0000000000000188
 10
569.8949249026282
 20
1887.500178975058
 30
-0.0000000000000188
 10
569.9000273245383
 20
1887.496014365428
 30
-0.0000000000000188
 10
569.9000869982174
 20
1887.495965647724
 30
-0.0000000000000188
 10
569.9001466660611
 20
1887.495916922894
 30
-0.0000000000000188
  0
SPLINE
  5
A2B
330
1F
100
AcDbEntity
  8
HEWI
100
AcDbSpline
210
0.0
220
0.0
230
1.0
 70
     8
 71
     3
 72
    18
 73
    14
 74
     0
 42
0.000000001
 43
0.0000000001
 40
0.2039001700724437
 40
0.2039001700724437
 40
0.2039001700724437
 40
0.2039001700724437
 40
0.4140914887339405
 40
0.4140914887339405
 40
0.5531594004309192
 40
0.5531594004309192
 40
0.9342624836310184
 40
0.9342624836310184
 40
1.05871585154823
 40
1.05871585154823
 40
1.209079350124788
 40
1.209079350124788
 40
1.267392488841178
 40
1.267392488841178
 40
1.267392488841178
 40
1.267392488841178
 10
569.0966929434125
 20
1887.800587074216
 30
-0.0000000000000189
 10
569.1450715012633
 20
1887.800594305257
 30
-0.0000000000000189
 10
569.1910083610364
 20
1887.795037164119
 30
-0.0000000000000189
 10
569.2582702954641
 20
1887.783234804606
 30
-0.0000000000000189
 10
569.285211264516
 20
1887.77734972207
 30
-0.0000000000000189
 10
569.3864138658645
 20
1887.751610670889
 30
-0.0000000000000189
 10
569.4618884408409
 20
1887.725279990942
 30
-0.0000000000000189
 10
569.5639681729844
 20
1887.683182362662
 30
-0.0000000000000189
 10
569.5892261592198
 20
1887.672241825039
 30
-0.0000000000000189
 10
569.6452573224869
 20
1887.646924552362
 30
-0.0000000000000189
 10
569.6760880340717
 20
1887.632304923209
 30
-0.0000000000000189
 10
569.7190704061613
 20
1887.611062137086
 30
-0.0000000000000189
 10
569.7311034193444
 20
1887.605022120242
 30
-0.0000000000000189
 10
569.7431559710767
 20
1887.598882509346
 30
-0.0000000000000189
  0
SPLINE
  5
A2C
330
1F
100
AcDbEntity
  8
HEWI
100
AcDbSpline
210
-0.0000000000000001
220
0.0
230
1.0
 70
     8
 71
     3
 72
    20
 73
    16
 74
     0
 42
0.000000001
 43
0.0000000001
 40
1.736023434719417
 40
1.736023434719417
 40
1.736023434719417
 40
1.736023434719417
 40
4.481724718735246
 40
4.481724718735246
 40
8.494256553305275
 40
8.494256553305275
 40
12.23020985304464
 40
12.23020985304464
 40
16.01900340660798
 40
16.01900340660798
 40
20.63191901927132
 40
20.63191901927132
 40
24.5572638423871
 40
24.5572638423871
 40
27.0936601993847
 40
27.0936601993847
 40
27.0936601993847
 40
27.0936601993847
 10
569.9000704964801
 20
1887.495767584425
 30
-0.0000000000000188
 10
570.595243579728
 20
1886.928009700333
 30
-0.0000000000000187
 10
571.354093819873
 20
1886.42298390397
 30
-0.0000000000000187
 10
573.3459635286453
 20
1885.407371541083
 30
-0.0000000000000184
 10
574.6251494672924
 20
1885.009327110203
 30
-0.0000000000000183
 10
577.2002759843871
 20
1884.785163040115
 30
-0.0000000000000179
 10
578.4292592333131
 20
1884.926475181657
 30
-0.0000000000000178
 10
580.8223385866567
 20
1885.660123717692
 30
-0.0000000000000175
 10
581.9492591524758
 20
1886.247205345715
 30
-0.0000000000000174
 10
584.1937720551832
 20
1887.849698889881
 30
-0.0000000000000171
 10
585.2638924484508
 20
1888.934717559346
 30
-0.000000000000017
 10
586.8157606091718
 20
1891.076097155557
 30
-0.0000000000000168
 10
587.3582209905053
 20
1892.107732688228
 30
-0.0000000000000167
 10
587.9055288130348
 20
1893.766548130015
 30
-0.0000000000000166
 10
588.0285736589885
 20
1894.395008143616
 30
-0.0000000000000166
 10
588.0578057946604
 20
1894.987940968945
 30
-0.0000000000000166
  0
SPLINE
  5
A2D
330
1F
100
AcDbEntity
  8
HEWI
100
AcDbSpline
210
0.0000000000000004
220
-0.0000000000000002
230
1.0
 70
     8
 71
     3
 72
    24
 73
    20
 74
     0
 42
0.000000001
 43
0.0000000001
 40
0.0
 40
0.0
 40
0.0
 40
0.0
 40
0.0756974007296981
 40
0.0756974007296981
 40
0.2789853411733985
 40
0.2789853411733985
 40
0.3497529015357024
 40
0.3497529015357024
 40
0.5919349001439281
 40
0.5919349001439281
 40
1.276514795577083
 40
1.276514795577083
 40
1.476316936617529
 40
1.476316936617529
 40
1.827563147590284
 40
1.827563147590284
 40
1.910592365072264
 40
1.910592365072264
 40
1.954297335527741
 40
1.954297335527741
 40
1.954297335527741
 40
1.954297335527741
 10
564.7749193353356
 20
1883.424052921334
 30
-0.0000000000000195
 10
564.7749193353356
 20
1883.445142438083
 30
-0.0000000000000195
 10
564.7756818690159
 20
1883.466313820198
 30
-0.0000000000000195
 10
564.7808771956224
 20
1883.544342816312
 30
-0.0000000000000195
 10
564.7893153539862
 20
1883.601922933876
 30
-0.0000000000000195
 10
564.805213212996
 20
1883.680267893774
 30
-0.0000000000000195
 10
564.8097308663855
 20
1883.700560085692
 30
-0.0000000000000195
 10
564.831367939827
 20
1883.790532199449
 30
-0.0000000000000195
 10
564.8524946402139
 20
1883.860915487698
 30
-0.0000000000000195
 10
564.9462685766994
 20
1884.13152097958
 30
-0.0000000000000194
 10
565.0433741174111
 20
1884.337379623088
 30
-0.0000000000000194
 10
565.1899582279821
 20
1884.592703612648
 30
-0.0000000000000194
 10
565.22468667059
 20
1884.650002201776
 30
-0.0000000000000194
 10
565.3243891681995
 20
1884.805852011246
 30
-0.0000000000000194
 10
565.3927869512808
 20
1884.903481086101
 30
-0.0000000000000194
 10
565.4821386982839
 20
1885.018661073184
 30
-0.0000000000000194
 10
565.4994619215176
 20
1885.040461116318
 30
-0.0000000000000194
 10
565.5262495660881
 20
1885.073327724623
 30
-0.0000000000000194
 10
565.5355522745231
 20
1885.084590290673
 30
-0.0000000000000194
 10
565.5449178818853
 20
1885.095773938576
 30
-0.0000000000000194
  0
SPLINE
  5
A2E
330
1F
100
AcDbEntity
  8
HEWI
100
AcDbSpline
210
-0.0000000000000003
220
0.0000000000000004
230
1.0
 70
     8
 71
     3
 72
    18
 73
    14
 74
     0
 42
0.000000001
 43
0.0000000001
 40
1.654074785728808
 40
1.654074785728808
 40
1.654074785728808
 40
1.654074785728808
 40
1.715582394945186
 40
1.715582394945186
 40
1.90297020920732
 40
1.90297020920732
 40
2.03173417515012
 40
2.03173417515012
 40
2.255265240814857
 40
2.255265240814857
 40
2.814065232784983
 40
2.814065232784983
 40
3.138692671708189
 40
3.138692671708189
 40
3.138692671708189
 40
3.138692671708189
 10
567.3967812622977
 20
1887.205020959136
 30
-0.0000000000000191
 10
567.4104528607204
 20
1887.219887761233
 30
-0.0000000000000191
 10
567.4242585785178
 20
1887.234535788573
 30
-0.0000000000000191
 10
567.4805861343302
 20
1887.292887083471
 30
-0.0000000000000191
 10
567.5241232669669
 20
1887.334776328533
 30
-0.0000000000000191
 10
567.5987178822997
 20
1887.401612509236
 30
-0.0000000000000191
 10
567.6294562958664
 20
1887.427793078226
 30
-0.0000000000000191
 10
567.714216100363
 20
1887.496380991464
 30
-0.0000000000000191
 10
567.7688253423239
 20
1887.536642430008
 30
-0.0000000000000191
 10
567.9613201453776
 20
1887.664792076638
 30
-0.0000000000000191
 10
568.0913209000882
 20
1887.727300200072
 30
-0.0000000000000191
 10
568.28021997637
 20
1887.784268812616
 30
-0.000000000000019
 10
568.3601158408055
 20
1887.800533043052
 30
-0.000000000000019
 10
568.44417108175
 20
1887.800502836923
 30
-0.000000000000019
  0
SPLINE
  5
A2F
330
1F
100
AcDbEntity
  8
HEWI
100
AcDbSpline
210
-0.0000000000000001
220
-0.0000000000000001
230
1.0
 70
     8
 71
     3
 72
    10
 73
     6
 74
     0
 42
0.000000001
 43
0.0000000001
 40
0.5238557413347951
 40
0.5238557413347951
 40
0.5238557413347951
 40
0.5238557413347951
 40
3.344927373449298
 40
3.344927373449298
 40
3.375545046730853
 40
3.375545046730853
 40
3.375545046730853
 40
3.375545046730853
 10
565.5449176639431
 20
1885.09577419608
 30
-0.0000000000000194
 10
566.142978513888
 20
1885.809931269083
 30
-0.0000000000000193
 10
566.7550269460662
 20
1886.506491065864
 30
-0.0000000000000192
 10
567.383286881939
 20
1887.190342928098
 30
-0.0000000000000191
 10
567.3900335437429
 20
1887.197682996526
 30
-0.0000000000000191
 10
567.3967814370189
 20
1887.205020832697
 30
-0.0000000000000191
  0
ARC
  5
A30
330
1F
100
AcDbEntity
  8
HEWI
100
AcDbCircle
 10
565.7749193353356
 20
1862.332292919292
 30
-0.0000000000000193
 40
0.9999999999999998
100
AcDbArc
 50
180.0
 51
270.0
  0
ARC
  5
A31
330
1F
100
AcDbEntity
  8
HEWI
100
AcDbCircle
 10
565.7749193353356
 20
1900.332292919293
 30
-0.0000000000000193
 40
0.9999999999999998
100
AcDbArc
 50
90.0
 51
180.0
  0
LINE
  5
A32
330
1F
100
AcDbEntity
  8
HEWI
100
AcDbLine
 10
639.624919335336
 20
2199.332292919271
 30
-0.0000000000000103
 11
639.624919335336
 21
2247.832292919271
 31
-0.0000000000000103
210
0.0
220
1.0
230
0.0
  0
LINE
  5
A33
330
1F
100
AcDbEntity
  8
HEWI
100
AcDbLine
 10
606.6249193353359
 20
2247.832292919271
 30
-0.0000000000000143
 11
606.6249193353359
 21
2199.332292919271
 31
-0.0000000000000143
210
0.0
220
1.0
230
0.0
  0
LINE
  5
A34
330
1F
100
AcDbEntity
  8
HEWI
100
AcDbLine
 10
1013.202512862211
 20
1164.332292919271
 30
-0.0000000000000108
 11
964.7025128622098
 21
1164.332292919271
 31
-0.0000000000000167
210
0.0
220
1.0
230
0.0
  0
LINE
  5
A35
330
1F
100
AcDbEntity
  8
HEWI
100
AcDbLine
 10
964.7025128622098
 20
1131.332292919271
 30
-0.0000000000000167
 11
1013.202512862211
 21
1131.332292919271
 31
-0.0000000000000108
210
0.0
220
1.0
230
0.0
  0
LINE
  5
A36
330
1F
100
AcDbEntity
  8
HEWI
100
AcDbLine
 10
1011.202512862211
 20
1131.332292919271
 30
-0.0000000000000108
 11
1059.702512862211
 21
1131.332292919271
 31
-0.0000000000000049
210
0.0
220
1.0
230
0.0
  0
LINE
  5
A37
330
1F
100
AcDbEntity
  8
HEWI
100
AcDbLine
 10
1059.702512862211
 20
1164.332292919271
 30
-0.0000000000000049
 11
1011.202512862211
 21
1164.332292919271
 31
-0.0000000000000108
210
0.0
220
1.0
230
0.0
  0
LINE
  5
A38
330
1F
100
AcDbEntity
  8
HEWI
100
AcDbLine
 10
1365.448816821205
 20
1246.394792919271
 30
0.0000000000000087
 11
1381.948816821205
 21
1262.894792919271
 31
0.0000000000000117
210
0.0
220
1.0
230
0.0
  0
LINE
  5
A39
330
1F
100
AcDbEntity
  8
HEWI
100
AcDbLine
 10
1381.948816821205
 20
1262.894792919271
 30
0.0000000000000117
 11
1365.448816821205
 21
1279.394792919269
 31
0.0000000000000087
210
0.0
220
1.0
230
0.0
  0
ARC
  5
A3A
330
1F
100
AcDbEntity
  8
HEWI
100
AcDbCircle
 10
2072.448816821205
 20
1147.894792919271
 30
0.0000000000001382
 40
16.5
100
AcDbArc
 50
270.0
 51
90.0
  0
ARC
  5
A3B
330
1F
100
AcDbEntity
  8
HEWI
100
AcDbCircle
 10
1381.948816821205
 20
1147.894792919271
 30
0.0000000000000117
 40
16.5
100
AcDbArc
 50
270.0
 51
0.0
  0
ARC
  5
A3C
330
1F
100
AcDbEntity
  8
HEWI
100
AcDbCircle
 10
1429.417015356724
 20
1899.590913516171
 30
0.0000000000000204
 40
1.000000000000051
100
AcDbArc
 50
315.0000000000092
 51
73.27371363135839
  0
LINE
  5
A3D
330
1F
100
AcDbEntity
  8
HEWI
100
AcDbLine
 10
1406.459803005513
 20
1875.219487602585
 30
0.0000000000000162
 11
1430.12412213791
 21
1898.883806734985
 31
0.0000000000000206
210
0.0
220
1.0
230
0.0
  0
ARC
  5
A3E
330
1F
100
AcDbEntity
  8
HEWI
100
AcDbCircle
 10
1405.752696224326
 20
1875.926594383773
 30
0.0000000000000161
 40
1.000000000000051
100
AcDbArc
 50
196.7262863686378
 51
315.0000000000092
  0
LINE
  5
A3F
330
1F
100
AcDbEntity
  8
HEWI
100
AcDbLine
 10
1441.437830636896
 20
1887.570098235999
 30
0.0000000000000226
 11
1417.773511504499
 21
1863.9057791036
 31
0.0000000000000183
210
0.0
220
1.0
230
0.0
  0
ARC
  5
A40
330
1F
100
AcDbEntity
  8
HEWI
100
AcDbCircle
 10
1418.480618285683
 20
1863.198672322414
 30
0.0000000000000184
 40
1.000000000000051
100
AcDbArc
 50
135.0000000000092
 51
253.2737136313584
  0
ARC
  5
A41
330
1F
100
AcDbEntity
  8
HEWI
100
AcDbCircle
 10
1442.144937418084
 20
1886.862991454813
 30
0.0000000000000228
 40
1.000000000000051
100
AcDbArc
 50
16.72628636863785
 51
135.0000000000092
  0
ARC
  5
A42
330
1F
100
AcDbEntity
  8
HEWI
100
AcDbCircle
 10
1423.948816821203
 20
1881.394792919293
 30
0.0000000000000194
 40
20.0
100
AcDbArc
 50
253.2737136313584
 51
259.5567007107973
  0
ARC
  5
A43
330
1F
100
AcDbEntity
  8
HEWI
100
AcDbCircle
 10
1423.948816821203
 20
1881.394792919293
 30
0.0000000000000194
 40
20.0
100
AcDbArc
 50
259.5567007107973
 51
10.44329928920034
  0
ARC
  5
A44
330
1F
100
AcDbEntity
  8
HEWI
100
AcDbCircle
 10
1423.948816821203
 20
1881.394792919293
 30
0.0000000000000194
 40
20.0
100
AcDbArc
 50
10.44329928920034
 51
16.72628636863785
  0
ARC
  5
A45
330
1F
100
AcDbEntity
  8
HEWI
100
AcDbCircle
 10
1423.948816821203
 20
1881.394792919293
 30
0.0000000000000194
 40
20.0
100
AcDbArc
 50
73.27371363135839
 51
79.5567007107973
  0
ARC
  5
A46
330
1F
100
AcDbEntity
  8
HEWI
100
AcDbCircle
 10
1423.948816821203
 20
1881.394792919293
 30
0.0000000000000194
 40
20.0
100
AcDbArc
 50
79.5567007107973
 51
190.4432992892003
  0
ARC
  5
A47
330
1F
100
AcDbEntity
  8
HEWI
100
AcDbCircle
 10
1423.948816821203
 20
1881.394792919293
 30
0.0000000000000194
 40
20.0
100
AcDbArc
 50
190.4432992892003
 51
196.7262863686378
  0
SPLINE
  5
A48
330
1F
100
AcDbEntity
  8
HEWI
100
AcDbSpline
210
-0.0000000000000002
220
0.0
230
1.0
 70
     8
 71
     3
 72
    38
 73
    34
 74
     0
 42
0.000000001
 43
0.0000000001
 40
7.989195374219391
 40
7.989195374219391
 40
7.989195374219391
 40
7.989195374219391
 40
8.254479951649056
 40
8.254479951649056
 40
9.559037833637082
 40
9.559037833637082
 40
10.8635957156251
 40
10.8635957156251
 40
12.16815359761313
 40
12.16815359761313
 40
13.47206133512371
 40
13.47206133512371
 40
14.77596907263428
 40
14.77596907263428
 40
16.07987681014485
 40
16.07987681014485
 40
17.38378454765543
 40
17.38378454765543
 40
18.68769228516605
 40
18.68769228516605
 40
19.99160002267667
 40
19.99160002267667
 40
21.29550776018728
 40
21.29550776018728
 40
22.59941549769791
 40
22.59941549769791
 40
23.90397337968593
 40
23.90397337968593
 40
25.20853126167392
 40
25.20853126167392
 40
26.51308914366193
 40
26.51308914366193
 40
26.77837372109186
 40
26.77837372109186
 40
26.77837372109186
 40
26.77837372109186
 10
1429.704842107057
 20
1900.548595495215
 30
0.0000000000000205
 10
1429.76891248968
 20
1900.529341524656
 30
0.0000000000000205
 10
1429.834175853207
 20
1900.5093785991
 30
0.0000000000000205
 10
1430.227074599948
 20
1900.386908174494
 30
0.0000000000000206
 10
1430.580877126317
 20
1900.267313468233
 30
0.0000000000000206
 10
1431.321421980995
 20
1899.990516861068
 30
0.0000000000000208
 10
1431.708349849612
 20
1899.833137937328
 30
0.0000000000000208
 10
1432.489487694689
 20
1899.484565191322
 30
0.000000000000021
 10
1432.883668662235
 20
1899.293294778271
 30
0.0000000000000211
 10
1433.650670188261
 20
1898.889414955126
 30
0.0000000000000212
 10
1434.056589348567
 20
1898.659524987301
 30
0.0000000000000213
 10
1434.886398212156
 20
1898.146131736276
 30
0.0000000000000214
 10
1435.310246070101
 20
1897.86254332561
 30
0.0000000000000215
 10
1436.148318192936
 20
1897.251685562668
 30
0.0000000000000217
 10
1436.562943080233
 20
1896.924047186343
 30
0.0000000000000217
 10
1437.357881786509
 20
1896.243055313448
 30
0.0000000000000219
 10
1437.738189082006
 20
1895.889691905953
 30
0.0000000000000219
 10
1438.443715807865
 20
1895.184165180094
 30
0.0000000000000221
 10
1438.79707921536
 20
1894.803857884596
 30
0.0000000000000221
 10
1439.478071088253
 20
1894.008919178323
 30
0.0000000000000223
 10
1439.805709464579
 20
1893.594294291025
 30
0.0000000000000223
 10
1440.416567227521
 20
1892.756222168187
 30
0.0000000000000224
 10
1440.700155638184
 20
1892.332374310245
 30
0.0000000000000225
 10
1441.213548889214
 20
1891.502565446656
 30
0.0000000000000226
 10
1441.443438857036
 20
1891.096646286349
 30
0.0000000000000226
 10
1441.847318680183
 20
1890.329644760325
 30
0.0000000000000227
 10
1442.038589093233
 20
1889.935463792778
 30
0.0000000000000227
 10
1442.387161839239
 20
1889.154325947701
 30
0.0000000000000228
 10
1442.544540762979
 20
1888.767398079083
 30
0.0000000000000228
 10
1442.821337370145
 20
1888.026853224406
 30
0.0000000000000229
 10
1442.940932076404
 20
1887.673050698038
 30
0.0000000000000229
 10
1443.063402501011
 20
1887.280151951296
 30
0.0000000000000229
 10
1443.083365426569
 20
1887.21488858777
 30
0.0000000000000229
 10
1443.102619397129
 20
1887.150818205146
 30
0.0000000000000229
  0
SPLINE
  5
A49
330
1F
100
AcDbEntity
  8
HEWI
100
AcDbSpline
210
-0.0000000000000002
220
0.0
230
1.0
 70
     8
 71
     3
 72
    46
 73
    42
 74
     0
 42
0.000000001
 43
0.0000000001
 40
-26.25009051702367
 40
-26.25009051702367
 40
-26.25009051702367
 40
-26.25009051702367
 40
-25.19226716828404
 40
-25.19226716828404
 40
-24.06297385938894
 40
-24.06297385938894
 40
-22.97039393615168
 40
-22.97039393615168
 40
-21.87781401291442
 40
-21.87781401291442
 40
-20.78523408967716
 40
-20.78523408967716
 40
-19.69265416643989
 40
-19.69265416643989
 40
-18.59462246291696
 40
-18.59462246291696
 40
-17.49659075939401
 40
-17.49659075939401
 40
-16.39855905587109
 40
-16.39855905587109
 40
-15.30052735234815
 40
-15.30052735234815
 40
-14.20249564882519
 40
-14.20249564882519
 40
-13.10446394530224
 40
-13.10446394530224
 40
-12.00643224177928
 40
-12.00643224177928
 40
-10.90840053825633
 40
-10.90840053825633
 40
-9.815820615019132
 40
-9.815820615019132
 40
-8.723240691781931
 40
-8.723240691781931
 40
-7.630660768544732
 40
-7.630660768544732
 40
-6.538080845307532
 40
-6.538080845307532
 40
-5.408787536412319
 40
-5.408787536412319
 40
-4.350964187672476
 40
-4.350964187672476
 40
-4.350964187672476
 40
-4.350964187672476
 10
1418.19281226562
 20
1862.240984174846
 30
0.0000000000000184
 10
1418.021543171833
 20
1862.292458435981
 30
0.0000000000000183
 10
1417.829811378087
 20
1862.352618610868
 30
0.0000000000000183
 10
1417.406248351935
 20
1862.49378919902
 30
0.0000000000000182
 10
1417.172644528124
 20
1862.5759876954
 30
0.0000000000000182
 10
1416.706722525988
 20
1862.750439314291
 30
0.0000000000000181
 10
1416.454230495404
 20
1862.849796110983
 30
0.000000000000018
 10
1415.914564484585
 20
1863.077136950074
 30
0.0000000000000179
 10
1415.627423409303
 20
1863.205174254136
 30
0.0000000000000179
 10
1415.034807967272
 20
1863.488138802695
 30
0.0000000000000178
 10
1414.729202672056
 20
1863.643191101319
 30
0.0000000000000177
 10
1414.118346508401
 20
1863.974043635976
 30
0.0000000000000176
 10
1413.813115725189
 20
1864.14988000912
 30
0.0000000000000176
 10
1413.221843656388
 20
1864.511289141012
 30
0.0000000000000174
 10
1412.909428503744
 20
1864.713011562936
 30
0.0000000000000174
 10
1412.272024581172
 20
1865.152796532516
 30
0.0000000000000173
 10
1411.94705995381
 20
1865.390905172836
 30
0.0000000000000172
 10
1411.30411717571
 20
1865.893884501381
 30
0.0000000000000171
 10
1410.985911816771
 20
1866.158971376419
 30
0.000000000000017
 10
1410.37407459099
 20
1866.701476832601
 30
0.0000000000000169
 10
1410.080443130703
 20
1866.978895362329
 30
0.0000000000000169
 10
1409.532919264239
 20
1867.526419228793
 30
0.0000000000000168
 10
1409.255500734512
 20
1867.820050689078
 30
0.0000000000000167
 10
1408.712995278329
 20
1868.43188791486
 30
0.0000000000000166
 10
1408.447908403292
 20
1868.750093273801
 30
0.0000000000000166
 10
1407.944929074746
 20
1869.393036051899
 30
0.0000000000000165
 10
1407.706820434428
 20
1869.718000679259
 30
0.0000000000000164
 10
1407.267035464846
 20
1870.355404601833
 30
0.0000000000000164
 10
1407.065313042923
 20
1870.667819754476
 30
0.0000000000000163
 10
1406.703903911031
 20
1871.259091823278
 30
0.0000000000000162
 10
1406.528067537887
 20
1871.56432260649
 30
0.0000000000000162
 10
1406.197215003229
 20
1872.175178770145
 30
0.0000000000000162
 10
1406.042162704606
 20
1872.480784065359
 30
0.0000000000000161
 10
1405.759198156046
 20
1873.073399507393
 30
0.0000000000000161
 10
1405.631160851985
 20
1873.360540582675
 30
0.0000000000000161
 10
1405.403820012894
 20
1873.900206593492
 30
0.000000000000016
 10
1405.304463216203
 20
1874.152698624076
 30
0.000000000000016
 10
1405.130011597313
 20
1874.618620626212
 30
0.000000000000016
 10
1405.047813100931
 20
1874.852224450024
 30
0.0000000000000159
 10
1404.906642512781
 20
1875.275787476175
 30
0.0000000000000159
 10
1404.846482337892
 20
1875.467519269923
 30
0.0000000000000159
 10
1404.795008076757
 20
1875.63878836371
 30
0.0000000000000159
  0
LINE
  5
A4A
330
1F
100
AcDbEntity
  8
HEWI
100
AcDbLine
 10
1423.758248415555
 20
1828.380947840903
 30
0.0000000000000194
 11
1425.972788288806
 21
1803.068641263098
 31
0.0000000000000198
210
0.0
220
1.0
230
0.0
  0
LINE
  5
A4B
330
1F
100
AcDbEntity
  8
HEWI
100
AcDbLine
 10
1433.342247653546
 20
1829.219439125469
 30
0.0000000000000211
 11
1435.556787526796
 21
1803.907132547663
 31
0.0000000000000215
210
0.0
220
1.0
230
0.0
  0
LINE
  5
A4C
330
1F
100
AcDbEntity
  8
HEWI
100
AcDbLine
 10
1429.641494402035
 20
1862.222043410308
 30
0.0000000000000205
 11
1432.546323305275
 21
1829.019697115729
 31
0.000000000000021
210
0.0
220
1.0
230
0.0
  0
SPLINE
  5
A4D
330
1F
100
AcDbEntity
  8
HEWI
100
AcDbSpline
210
0.0
220
0.0
230
1.0
 70
     8
 71
     3
 72
    20
 73
    16
 74
     0
 42
0.000000001
 43
0.0000000001
 40
-2.081957642337048
 40
-2.081957642337048
 40
-2.081957642337048
 40
-2.081957642337048
 40
-2.029036545889133
 40
-2.029036545889133
 40
-1.976115449441223
 40
-1.976115449441223
 40
-1.938296586027501
 40
-1.938296586027501
 40
-1.900477722613779
 40
-1.900477722613779
 40
-1.79865290262327
 40
-1.79865290262327
 40
-1.696828082632761
 40
-1.696828082632761
 40
-1.658125044755919
 40
-1.658125044755919
 40
-1.658125044755919
 40
-1.658125044755919
 10
1432.546323305275
 20
1829.019697115729
 30
0.000000000000021
 10
1432.547467109378
 20
1829.006623374995
 30
0.000000000000021
 10
1432.54843293608
 20
1828.993145939976
 30
0.000000000000021
 10
1432.549135124041
 20
1828.970703535375
 30
0.000000000000021
 10
1432.548847308792
 20
1828.961824246775
 30
0.000000000000021
 10
1432.546909910648
 20
1828.953782052294
 30
0.000000000000021
 10
1432.545561410484
 20
1828.952295687277
 30
0.000000000000021
 10
1432.541871733399
 20
1828.954739276662
 30
0.000000000000021
 10
1432.539537900464
 20
1828.958628516246
 30
0.000000000000021
 10
1432.530819806301
 20
1828.977461464479
 30
0.000000000000021
 10
1432.523796218515
 20
1828.999287189867
 30
0.000000000000021
 10
1432.509082630386
 20
1829.048511124218
 30
0.000000000000021
 10
1432.501365682722
 20
1829.076444242206
 30
0.000000000000021
 10
1432.490414903162
 20
1829.117583186828
 30
0.000000000000021
 10
1432.48737541371
 20
1829.129160642646
 30
0.000000000000021
 10
1432.484326257018
 20
1829.140905270212
 30
0.000000000000021
  0
SPLINE
  5
A4E
330
1F
100
AcDbEntity
  8
HEWI
100
AcDbSpline
210
0.0000000000000001
220
0.0000000000000001
230
1.0
 70
     8
 71
     3
 72
    14
 73
    10
 74
     0
 42
0.000000001
 43
0.0000000001
 40
0.649611117407552
 40
0.649611117407552
 40
0.649611117407552
 40
0.649611117407552
 40
0.7333587369340008
 40
0.7333587369340008
 40
1.466717473868001
 40
1.466717473868001
 40
2.251649856864295
 40
2.251649856864295
 40
3.036582239860591
 40
3.036582239860591
 40
3.036582239860591
 40
3.036582239860591
 10
1432.484326257018
 20
1829.140905270212
 30
0.000000000000021
 10
1432.477475030938
 20
1829.167294566274
 30
0.000000000000021
 10
1432.470321748009
 20
1829.193678307588
 30
0.000000000000021
 10
1432.397672371175
 20
1829.450759922688
 30
0.000000000000021
 10
1432.308704794762
 20
1829.678871943346
 30
0.000000000000021
 10
1432.106967378919
 20
1830.106269028918
 30
0.0000000000000209
 10
1431.97270261941
 20
1830.344590986425
 30
0.0000000000000209
 10
1431.670952604379
 20
1830.813129664836
 30
0.0000000000000208
 10
1431.504064162228
 20
1831.043920219919
 30
0.0000000000000208
 10
1431.347093162188
 20
1831.253247128578
 30
0.0000000000000208
  0
SPLINE
  5
A4F
330
1F
100
AcDbEntity
  8
HEWI
100
AcDbSpline
210
-0.0000000000000002
220
0.0
230
1.0
 70
     8
 71
     3
 72
    30
 73
    26
 74
     0
 42
0.000000001
 43
0.0000000001
 40
50.21703549202495
 40
50.21703549202495
 40
50.21703549202495
 40
50.21703549202495
 40
50.53039260880385
 40
50.53039260880385
 40
51.29598074329932
 40
51.29598074329932
 40
51.92914302530023
 40
51.92914302530023
 40
52.56230530730113
 40
52.56230530730113
 40
53.12551373138332
 40
53.12551373138332
 40
53.68872215546555
 40
53.68872215546555
 40
54.25193057954776
 40
54.25193057954776
 40
54.81513900362998
 40
54.81513900362998
 40
55.44830128563085
 40
55.44830128563085
 40
56.08146356763175
 40
56.08146356763175
 40
56.84705170212724
 40
56.84705170212724
 40
57.16040881890615
 40
57.16040881890615
 40
57.16040881890615
 40
57.16040881890615
 10
1431.347093162188
 20
1831.253247128578
 30
0.0000000000000208
 10
1431.27952009952
 20
1831.343358425016
 30
0.0000000000000208
 10
1431.208028151797
 20
1831.432509847195
 30
0.0000000000000207
 10
1430.951347120869
 20
1831.730119648887
 30
0.0000000000000207
 10
1430.749930533699
 20
1831.924261702433
 30
0.0000000000000207
 10
1430.386110827886
 20
1832.215851163185
 30
0.0000000000000206
 10
1430.194937307529
 20
1832.346763499934
 30
0.0000000000000206
 10
1429.790656464965
 20
1832.567537738818
 30
0.0000000000000205
 10
1429.577423296058
 20
1832.657169112892
 30
0.0000000000000205
 10
1429.196733845544
 20
1832.77595124154
 30
0.0000000000000204
 10
1428.995632636565
 20
1832.820442436586
 30
0.0000000000000203
 10
1428.588717548179
 20
1832.866060012429
 30
0.0000000000000203
 10
1428.38289347924
 20
1832.867095455309
 30
0.0000000000000202
 10
1428.008849981913
 20
1832.834370889628
 30
0.0000000000000202
 10
1427.806332645834
 20
1832.79761020296
 30
0.0000000000000201
 10
1427.413520920888
 20
1832.682025597033
 30
0.0000000000000201
 10
1427.223200706089
 20
1832.603289464745
 30
0.00000000000002
 10
1426.868921083911
 20
1832.420205874194
 30
0.00000000000002
 10
1426.67449173074
 20
1832.294908650894
 30
0.0000000000000199
 10
1426.314689866849
 20
1832.0072858372
 30
0.0000000000000199
 10
1426.149153390543
 20
1831.845165419576
 30
0.0000000000000198
 10
1425.841494902043
 20
1831.494829229017
 30
0.0000000000000198
 10
1425.676850699219
 20
1831.268661006187
 30
0.0000000000000197
 10
1425.475748629631
 20
1830.931000372844
 30
0.0000000000000197
 10
1425.420823787233
 20
1830.83078891465
 30
0.0000000000000197
 10
1425.369924973638
 20
1830.730312672091
 30
0.0000000000000197
  0
SPLINE
  5
A50
330
1F
100
AcDbEntity
  8
HEWI
100
AcDbSpline
210
0.0000000000000001
220
-0.0000000000000001
230
1.0
 70
     8
 71
     3
 72
    14
 73
    10
 74
     0
 42
0.000000001
 43
0.0000000001
 40
8.778950683888792
 40
8.778950683888792
 40
8.778950683888792
 40
8.778950683888792
 40
9.563883066885145
 40
9.563883066885145
 40
10.34881544988148
 40
10.34881544988148
 40
11.08217418681549
 40
11.08217418681549
 40
11.16592180634193
 40
11.16592180634193
 40
11.16592180634193
 40
11.16592180634193
 10
1425.369924973638
 20
1830.730312672091
 30
0.0000000000000197
 10
1425.251687952025
 20
1830.496908181428
 30
0.0000000000000197
 10
1425.127411279619
 20
1830.240643979607
 30
0.0000000000000196
 10
1424.911606413017
 20
1829.726825116298
 30
0.0000000000000196
 10
1424.820765610518
 20
1829.468808974021
 30
0.0000000000000196
 10
1424.696309764371
 20
1829.012873675906
 30
0.0000000000000196
 10
1424.648305042044
 20
1828.772778131891
 30
0.0000000000000195
 10
1424.621401126459
 20
1828.506986732286
 30
0.0000000000000195
 10
1424.618938006573
 20
1828.479761664742
 30
0.0000000000000195
 10
1424.616773319181
 20
1828.45258357846
 30
0.0000000000000195
  0
SPLINE
  5
A51
330
1F
100
AcDbEntity
  8
HEWI
100
AcDbSpline
210
0.0
220
0.0
230
1.0
 70
     8
 71
     3
 72
    20
 73
    16
 74
     0
 42
0.000000001
 43
0.0000000001
 40
1.658125044756507
 40
1.658125044756507
 40
1.658125044756507
 40
1.658125044756507
 40
1.696828082632723
 40
1.696828082632723
 40
1.798652902623234
 40
1.798652902623234
 40
1.900477722613745
 40
1.900477722613745
 40
1.938296586027634
 40
1.938296586027634
 40
1.97611544944152
 40
1.97611544944152
 40
2.029036545890053
 40
2.029036545890053
 40
2.081957642338585
 40
2.081957642338585
 40
2.081957642338585
 40
2.081957642338585
 10
1424.616773319181
 20
1828.45258357846
 30
0.0000000000000195
 10
1424.615809919204
 20
1828.440487897674
 30
0.0000000000000195
 10
1424.614827010532
 20
1828.428558527621
 30
0.0000000000000195
 10
1424.611186300682
 20
1828.386142993094
 30
0.0000000000000195
 10
1424.608437125831
 20
1828.357294208033
 30
0.0000000000000195
 10
1424.602494716666
 20
1828.306263108085
 30
0.0000000000000195
 10
1424.599367830396
 20
1828.28354933129
 30
0.0000000000000195
 10
1424.594052490816
 20
1828.263488616692
 30
0.0000000000000195
 10
1424.592429473412
 20
1828.25925319756
 30
0.0000000000000195
 10
1424.58922017566
 20
1828.256206026088
 30
0.0000000000000195
 10
1424.587634057661
 20
1828.25743564528
 30
0.0000000000000195
 10
1424.584329580535
 20
1828.2650192351
 30
0.0000000000000195
 10
1424.582504265559
 20
1828.273713648762
 30
0.0000000000000195
 10
1424.579298703052
 20
1828.295937036469
 30
0.0000000000000195
 10
1424.577909524643
 20
1828.309377433013
 30
0.0000000000000195
 10
1424.576765720539
 20
1828.322451173747
 30
0.0000000000000195
  0
LINE
  5
A52
330
1F
100
AcDbEntity
  8
HEWI
100
AcDbLine
 10
1421.671936817302
 20
1861.524797468327
 30
0.000000000000019
 11
1424.576765720539
 21
1828.322451173747
 31
0.0000000000000195
210
0.0
220
1.0
230
0.0
  0
ARC
  5
A53
330
1F
100
AcDbEntity
  8
HEWI
100
AcDbCircle
 10
1423.948816821204
 20
1881.394792919293
 30
0.0000000000000194
 40
20.00002254432668
100
AcDbArc
 50
244.1579338865224
 51
115.8420661135941
  0
LINE
  5
A54
330
1F
100
AcDbEntity
  8
HEWI
100
AcDbLine
 10
1400.948816821204
 20
1793.394792919293
 30
0.0000000000000152
 11
1362.948816821204
 21
1793.394792919293
 31
0.0000000000000082
210
0.0
220
1.0
230
0.0
  0
LINE
  5
A55
330
1F
100
AcDbEntity
  8
HEWI
100
AcDbLine
 10
1357.248816821205
 20
1863.394792919291
 30
0.0000000000000072
 11
1381.948816821205
 21
1863.394792919291
 31
0.0000000000000117
210
0.0
220
1.0
230
0.0
  0
LINE
  5
A56
330
1F
100
AcDbEntity
  8
HEWI
100
AcDbLine
 10
1357.248816821205
 20
1899.394792919271
 30
0.0000000000000072
 11
1381.948816821205
 21
1899.394792919271
 31
0.0000000000000117
210
0.0
220
1.0
230
0.0
  0
LINE
  5
A57
330
1F
100
AcDbEntity
  8
HEWI
100
AcDbLine
 10
1381.948816821205
 20
1899.394792919272
 30
0.0000000000000117
 11
1415.231018934107
 21
1899.394792919272
 31
0.0000000000000178
210
0.0
220
1.0
230
0.0
  0
LINE
  5
A58
330
1F
100
AcDbEntity
  8
HEWI
100
AcDbLine
 10
1381.948816821205
 20
1863.394792919294
 30
0.0000000000000117
 11
1415.231018934097
 21
1863.394792919294
 31
0.0000000000000178
210
0.0
220
1.0
230
0.0
  0
ARC
  5
A59
330
1F
100
AcDbEntity
  8
HEWI
100
AcDbCircle
 10
1499.448816821205
 20
1147.832292919271
 30
-0.0000000000000018
 40
35.0
100
AcDbArc
 50
28.12706821856235
 51
151.8729317814377
  0
ARC
  5
A5A
330
1F
100
AcDbEntity
  8
HEWI
100
AcDbCircle
 10
1499.448816821205
 20
1147.832292919271
 30
-0.0000000000000018
 40
35.0
100
AcDbArc
 50
208.1270682185623
 51
331.8729317814376
  0
ARC
  5
A5B
330
1F
100
AcDbEntity
  8
HEWI
100
AcDbCircle
 10
1499.448816821205
 20
1147.832292919271
 30
-0.0000000000000018
 40
16.8
100
AcDbArc
 50
79.15593743629933
 51
100.8440625637006
  0
ARC
  5
A5C
330
1F
100
AcDbEntity
  8
HEWI
100
AcDbCircle
 10
1499.448816821205
 20
1147.832292919271
 30
-0.0000000000000018
 40
16.8
100
AcDbArc
 50
259.1559374362993
 51
280.8440625637007
  0
ARC
  5
A5D
330
1F
100
AcDbEntity
  8
HEWI
100
AcDbCircle
 10
2072.448816821205
 20
1147.894792919271
 30
0.0000000000001382
 40
35.0
100
AcDbArc
 50
208.1270682185623
 51
151.8729317814377
  0
ARC
  5
A5E
330
1F
100
AcDbEntity
  8
HEWI
100
AcDbCircle
 10
2072.448816821205
 20
1147.894792919271
 30
0.0000000000001382
 40
16.8
100
AcDbArc
 50
259.1559374362993
 51
100.8440625637006
  0
LINE
  5
A5F
330
1F
100
AcDbEntity
  8
HEWI
100
AcDbLine
 10
1310.448816821204
 20
1147.894792919271
 30
-0.0000000000000018
 11
1310.448816821204
 21
1182.894792919271
 31
-0.0000000000000018
210
0.0
220
1.0
230
0.0
  0
LINE
  5
A60
330
1F
100
AcDbEntity
  8
HEWI
100
AcDbLine
 10
1310.448816821204
 20
1112.894792919271
 30
-0.0000000000000018
 11
1310.448816821204
 21
1147.894792919271
 31
-0.0000000000000018
210
0.0
220
1.0
230
0.0
  0
LINE
  5
A61
330
1F
100
AcDbEntity
  8
HEWI
100
AcDbLine
 10
1322.448816821205
 20
1147.894792919271
 30
0.0000000000000004
 11
1322.448816821205
 21
1180.894792919271
 31
0.0000000000000004
210
0.0
220
1.0
230
0.0
  0
LINE
  5
A62
330
1F
100
AcDbEntity
  8
HEWI
100
AcDbLine
 10
1322.448816821205
 20
1114.894792919271
 30
0.0000000000000004
 11
1322.448816821205
 21
1147.894792919271
 31
0.0000000000000004
210
0.0
220
1.0
230
0.0
  0
LINE
  5
A63
330
1F
100
AcDbEntity
  8
HEWI
100
AcDbLine
 10
1310.448816821204
 20
1262.894792919271
 30
-0.0000000000000018
 11
1310.448816821204
 21
1297.894792919271
 31
-0.0000000000000018
210
0.0
220
1.0
230
0.0
  0
LINE
  5
A64
330
1F
100
AcDbEntity
  8
HEWI
100
AcDbLine
 10
1310.448816821204
 20
1227.894792919271
 30
-0.0000000000000018
 11
1310.448816821204
 21
1262.894792919271
 31
-0.0000000000000018
210
0.0
220
1.0
230
0.0
  0
LINE
  5
A65
330
1F
100
AcDbEntity
  8
HEWI
100
AcDbLine
 10
1322.448816821205
 20
1262.894792919271
 30
0.0000000000000004
 11
1322.448816821205
 21
1295.894792919271
 31
0.0000000000000004
210
0.0
220
1.0
230
0.0
  0
LINE
  5
A66
330
1F
100
AcDbEntity
  8
HEWI
100
AcDbLine
 10
1322.448816821205
 20
1229.894792919271
 30
0.0000000000000004
 11
1322.448816821205
 21
1262.894792919271
 31
0.0000000000000004
210
0.0
220
1.0
230
0.0
  0
LINE
  5
A67
330
1F
100
AcDbEntity
  8
HEWI
100
AcDbLine
 10
1310.448816821204
 20
2247.894792919271
 30
-0.0000000000000018
 11
1310.448816821204
 21
2282.894792919271
 31
-0.0000000000000018
210
0.0
220
1.0
230
0.0
  0
LINE
  5
A68
330
1F
100
AcDbEntity
  8
HEWI
100
AcDbLine
 10
1310.448816821204
 20
2212.894792919271
 30
-0.0000000000000018
 11
1310.448816821204
 21
2247.894792919271
 31
-0.0000000000000018
210
0.0
220
1.0
230
0.0
  0
LINE
  5
A69
330
1F
100
AcDbEntity
  8
HEWI
100
AcDbLine
 10
1322.448816821205
 20
2247.894792919271
 30
0.0000000000000004
 11
1322.448816821205
 21
2280.894792919271
 31
0.0000000000000004
210
0.0
220
1.0
230
0.0
  0
LINE
  5
A6A
330
1F
100
AcDbEntity
  8
HEWI
100
AcDbLine
 10
1322.448816821205
 20
2214.894792919271
 30
0.0000000000000004
 11
1322.448816821205
 21
2247.894792919271
 31
0.0000000000000004
210
0.0
220
1.0
230
0.0
  0
LINE
  5
A6B
330
1F
100
AcDbEntity
  8
HEWI
100
AcDbLine
 10
1320.448816821204
 20
2282.894792919271
 30
0.0
 11
1310.448816821204
 21
2282.894792919271
 31
-0.0000000000000018
210
0.0
220
1.0
230
0.0
  0
LINE
  5
A6C
330
1F
100
AcDbEntity
  8
HEWI
100
AcDbLine
 10
1320.448816821204
 20
2212.894792919271
 30
0.0
 11
1310.448816821204
 21
2212.894792919271
 31
-0.0000000000000018
210
0.0
220
1.0
230
0.0
  0
LINE
  5
A6D
330
1F
100
AcDbEntity
  8
HEWI
100
AcDbLine
 10
1320.448816821204
 20
1297.894792919271
 30
0.0
 11
1310.448816821204
 21
1297.894792919271
 31
-0.0000000000000018
210
0.0
220
1.0
230
0.0
  0
LINE
  5
A6E
330
1F
100
AcDbEntity
  8
HEWI
100
AcDbLine
 10
1320.448816821204
 20
1227.894792919271
 30
0.0
 11
1310.448816821204
 21
1227.894792919271
 31
-0.0000000000000018
210
0.0
220
1.0
230
0.0
  0
LINE
  5
A6F
330
1F
100
AcDbEntity
  8
HEWI
100
AcDbLine
 10
1320.448816821204
 20
1182.894792919271
 30
0.0
 11
1310.448816821204
 21
1182.894792919271
 31
-0.0000000000000018
210
0.0
220
1.0
230
0.0
  0
LINE
  5
A70
330
1F
100
AcDbEntity
  8
HEWI
100
AcDbLine
 10
1320.448816821204
 20
1112.894792919271
 30
0.0
 11
1310.448816821204
 21
1112.894792919271
 31
-0.0000000000000018
210
0.0
220
1.0
230
0.0
  0
LINE
  5
A71
330
1F
100
AcDbEntity
  8
HEWI
100
AcDbLine
 10
1355.248816821205
 20
1865.394792919291
 30
0.0000000000000068
 11
1355.248816821205
 21
1897.394792919271
 31
0.0000000000000068
210
0.0
220
1.0
230
0.0
  0
LINE
  5
A72
330
1F
100
AcDbEntity
  8
HEWI
100
AcDbLine
 10
1401.648816821203
 20
1794.094792919291
 30
0.0000000000000153
 11
1401.648816821203
 21
1863.394792919293
 31
0.0000000000000153
210
0.0
220
1.0
230
0.0
  0
LINE
  5
A73
330
1F
100
AcDbEntity
  8
HEWI
100
AcDbLine
 10
1362.248816821205
 20
1794.094792919291
 30
0.0000000000000081
 11
1362.248816821205
 21
1863.394792919293
 31
0.0000000000000081
210
0.0
220
1.0
230
0.0
  0
ARC
  5
A74
330
1F
100
AcDbEntity
  8
HEWI
100
AcDbCircle
 10
1315.578000372565
 20
1806.163375663898
 30
-0.0000000000000005
 40
119.9999999999995
100
AcDbArc
 50
11.07734021684645
 51
14.02230851986205
  0
ARC
  5
A75
330
1F
100
AcDbEntity
  8
HEWI
100
AcDbCircle
 10
1315.578000372565
 20
1806.163375663898
 30
-0.0000000000000005
 40
119.9999999999995
100
AcDbArc
 50
355.8231250330063
 51
358.9226597831563
  0
ARC
  5
A76
330
1F
100
AcDbEntity
  8
HEWI
100
AcDbCircle
 10
1543.737035569789
 20
1826.124704724668
 30
0.0000000000000414
 40
120.0000000000005
100
AcDbArc
 50
191.0773402168464
 51
194.1768749669484
  0
ARC
  5
A77
330
1F
100
AcDbEntity
  8
HEWI
100
AcDbCircle
 10
1543.737035569789
 20
1826.124704724668
 30
0.0000000000000414
 40
120.0000000000005
100
AcDbArc
 50
175.977691480145
 51
178.9226597831564
  0
LINE
  5
A78
330
1F
100
AcDbEntity
  8
HEWI
100
AcDbLine
 10
1322.448816821205
 20
2231.394792919271
 30
0.0000000000000008
 11
1333.448816821205
 21
2231.394792919271
 31
0.0000000000000028
210
0.0
220
1.0
230
0.0
  0
LINE
  5
A79
330
1F
100
AcDbEntity
  8
HEWI
100
AcDbLine
 10
1322.448816821205
 20
2264.394792919271
 30
0.0000000000000008
 11
1333.448816821205
 21
2264.394792919271
 31
0.0000000000000028
210
0.0
220
1.0
230
0.0
  0
LINE
  5
A7A
330
1F
100
AcDbEntity
  8
HEWI
100
AcDbLine
 10
1322.448816821205
 20
1131.394792919271
 30
0.0000000000000008
 11
1381.948816821205
 21
1131.394792919271
 31
0.0000000000000117
210
0.0
220
1.0
230
0.0
  0
LINE
  5
A7B
330
1F
100
AcDbEntity
  8
HEWI
100
AcDbLine
 10
1322.448816821205
 20
1164.394792919271
 30
0.0000000000000008
 11
1380.940836369519
 21
1164.264084229297
 31
0.0000000000000117
210
0.0
220
1.0
230
0.0
  0
LINE
  5
A7C
330
1F
100
AcDbEntity
  8
HEWI
100
AcDbLine
 10
2021.948816821205
 20
1164.394792919271
 30
0.0000000000001293
 11
1430.448816821204
 21
1164.394792919271
 31
0.0000000000000206
210
0.0
220
1.0
230
0.0
  0
LINE
  5
A7D
330
1F
100
AcDbEntity
  8
HEWI
100
AcDbLine
 10
2021.948816821205
 20
1131.394792919271
 30
0.0000000000001293
 11
1430.448816821204
 21
1131.394792919271
 31
0.0000000000000206
210
0.0
220
1.0
230
0.0
  0
LINE
  5
A7E
330
1F
100
AcDbEntity
  8
HEWI
100
AcDbLine
 10
1365.448816821205
 20
1246.394792919271
 30
0.0000000000000087
 11
1365.448816821205
 21
1196.394792919271
 31
0.0000000000000087
210
0.0
220
1.0
230
0.0
  0
LINE
  5
A7F
330
1F
100
AcDbEntity
  8
HEWI
100
AcDbLine
 10
1365.448816821205
 20
2199.394792919271
 30
0.0000000000000087
 11
1365.448816821205
 21
1899.394792919271
 31
0.0000000000000087
210
0.0
220
1.0
230
0.0
  0
LINE
  5
A80
330
1F
100
AcDbEntity
  8
HEWI
100
AcDbLine
 10
1365.448816821205
 20
1793.394792919293
 30
0.0000000000000087
 11
1365.448816821205
 21
1279.394792919269
 31
0.0000000000000087
210
0.0
220
1.0
230
0.0
  0
LINE
  5
A81
330
1F
100
AcDbEntity
  8
HEWI
100
AcDbLine
 10
1398.448816821205
 20
2199.394792919271
 30
0.0000000000000147
 11
1398.448816821205
 21
1899.394792919271
 31
0.0000000000000147
210
0.0
220
1.0
230
0.0
  0
LINE
  5
A82
330
1F
100
AcDbEntity
  8
HEWI
100
AcDbLine
 10
1398.448816821205
 20
1793.394792919293
 30
0.0000000000000147
 11
1398.448816821205
 21
1162.28931949553
 31
0.0000000000000147
210
0.0
220
1.0
230
0.0
  0
LINE
  5
A83
330
1F
100
AcDbEntity
  8
HEWI
100
AcDbLine
 10
1322.448816821205
 20
1246.394792919271
 30
0.0000000000000008
 11
1365.448816821205
 21
1246.394792919271
 31
0.0000000000000087
210
0.0
220
1.0
230
0.0
  0
LINE
  5
A84
330
1F
100
AcDbEntity
  8
HEWI
100
AcDbLine
 10
1322.448816821205
 20
1279.394792919271
 30
0.0000000000000008
 11
1365.448816821205
 21
1279.394792919269
 31
0.0000000000000087
210
0.0
220
1.0
230
0.0
  0
ARC
  5
A85
330
1F
100
AcDbEntity
  8
HEWI
100
AcDbCircle
 10
1320.448816821204
 20
2214.894792919271
 30
0.0
 40
2.0
100
AcDbArc
 50
270.0
 51
0.0
  0
ARC
  5
A86
330
1F
100
AcDbEntity
  8
HEWI
100
AcDbCircle
 10
1320.448816821204
 20
2280.894792919271
 30
0.0
 40
2.0
100
AcDbArc
 50
0.0
 51
90.0
  0
ARC
  5
A87
330
1F
100
AcDbEntity
  8
HEWI
100
AcDbCircle
 10
1320.448816821204
 20
1229.894792919271
 30
0.0
 40
2.0
100
AcDbArc
 50
270.0
 51
0.0
  0
ARC
  5
A88
330
1F
100
AcDbEntity
  8
HEWI
100
AcDbCircle
 10
1320.448816821204
 20
1295.894792919271
 30
0.0
 40
2.0
100
AcDbArc
 50
0.0
 51
90.0
  0
ARC
  5
A89
330
1F
100
AcDbEntity
  8
HEWI
100
AcDbCircle
 10
1320.448816821204
 20
1114.894792919271
 30
0.0
 40
2.0
100
AcDbArc
 50
270.0
 51
0.0
  0
ARC
  5
A8A
330
1F
100
AcDbEntity
  8
HEWI
100
AcDbCircle
 10
1320.448816821204
 20
1180.894792919271
 30
0.0
 40
2.0
100
AcDbArc
 50
0.0
 51
90.0
  0
ARC
  5
A8B
330
1F
100
AcDbEntity
  8
HEWI
100
AcDbCircle
 10
1357.248816821205
 20
1865.394792919291
 30
0.0000000000000072
 40
1.999999999999999
100
AcDbArc
 50
180.0
 51
270.0
  0
ARC
  5
A8C
330
1F
100
AcDbEntity
  8
HEWI
100
AcDbCircle
 10
1357.248816821205
 20
1897.394792919271
 30
0.0000000000000072
 40
1.999999999999995
100
AcDbArc
 50
90.0
 51
180.0
  0
ARC
  5
A8D
330
1F
100
AcDbEntity
  8
HEWI
100
AcDbCircle
 10
1362.948816821204
 20
1794.094792919291
 30
0.0000000000000082
 40
0.6999999999999319
100
AcDbArc
 50
180.0
 51
270.0
  0
ARC
  5
A8E
330
1F
100
AcDbEntity
  8
HEWI
100
AcDbCircle
 10
1400.948816821204
 20
1794.094792919291
 30
0.0000000000000152
 40
0.6999999999999319
100
AcDbArc
 50
270.0
 51
0.0
  0
ARC
  5
A8F
330
1F
100
AcDbEntity
  8
HEWI
100
AcDbCircle
 10
1431.269899212006
 20
1797.714438279587
 30
0.0000000000000208
 40
4.000000000000073
100
AcDbArc
 50
194.1768749669484
 51
355.8231250330063
  0
ARC
  5
A90
330
1F
100
AcDbEntity
  8
HEWI
100
AcDbCircle
 10
1333.448816821205
 20
2199.394792919271
 30
0.0000000000000028
 40
32.0
100
AcDbArc
 50
0.0
 51
90.0
  0
ARC
  5
A91
330
1F
100
AcDbEntity
  8
HEWI
100
AcDbCircle
 10
1333.448816821205
 20
2199.394792919271
 30
0.0000000000000028
 40
65.0
100
AcDbArc
 50
0.0
 51
90.0
  0
LINE
  5
A92
330
1F
100
AcDbEntity
  8
HEWI
100
AcDbLine
 10
1365.448816821205
 20
1196.394792919271
 30
0.0000000000000087
 11
1365.485473495924
 21
1164.298621423428
 31
0.0000000000000088
210
0.0
220
1.0
230
0.0
  0
LINE
  5
A93
330
1F
100
AcDbEntity
  8
HEWI
100
AcDbLine
 10
1430.448816821204
 20
1164.394792919271
 30
0.0000000000000206
 11
1396.362780097069
 21
1164.394792919271
 31
0.0000000000000143
210
0.0
220
1.0
230
0.0
  0
LINE
  5
A94
330
1F
100
AcDbEntity
  8
HEWI
100
AcDbLine
 10
1381.948816821205
 20
1131.394792919271
 30
0.0000000000000117
 11
1430.448816821204
 21
1131.394792919271
 31
0.0000000000000206
210
0.0
220
1.0
230
0.0
  0
LINE
  5
A95
330
1F
100
AcDbEntity
  8
HEWI
100
AcDbLine
 10
2023.948816821205
 20
1131.394792919271
 30
0.0000000000001293
 11
2072.448816821205
 21
1131.394792919271
 31
0.0000000000001382
210
0.0
220
1.0
230
0.0
  0
LINE
  5
A96
330
1F
100
AcDbEntity
  8
HEWI
100
AcDbLine
 10
2072.448816821205
 20
1164.394792919271
 30
0.0000000000001382
 11
2023.948816821205
 21
1164.394792919271
 31
0.0000000000001293
210
0.0
220
1.0
230
0.0
  0
LINE
  5
A97
330
1F
100
AcDbEntity
  8
HEWI
100
AcDbLine
 10
910.2025128622107
 20
903.6584051255577
 30
-0.0000000000000018
 11
893.7025128622108
 21
887.1584051255577
 31
-0.0000000000000018
  0
LINE
  5
A98
330
1F
100
AcDbEntity
  8
HEWI
100
AcDbLine
 10
893.7025128622108
 20
887.1584051255577
 30
-0.0000000000000018
 11
877.2025128622098
 21
903.6584051255577
 31
-0.0000000000000018
  0
LINE
  5
A99
330
1F
100
AcDbEntity
  8
HEWI
100
AcDbLine
 10
1027.702512862211
 20
753.1584051255577
 30
-0.0000000000000018
 11
1011.20251286221
 21
769.6584051255577
 31
-0.0000000000000018
  0
LINE
  5
A9A
330
1F
100
AcDbEntity
  8
HEWI
100
AcDbLine
 10
1011.202512862211
 20
769.6584051255577
 30
-0.0000000000000018
 11
1027.702512862211
 21
786.1584051255577
 31
-0.0000000000000018
  0
ARC
  5
A9B
330
1F
100
AcDbEntity
  8
HEWI
100
AcDbCircle
 10
623.1249193353342
 20
887.1584051255577
 30
-0.0000000000000123
 40
16.5
100
AcDbArc
 50
180.0
 51
0.0
  0
ARC
  5
A9C
330
1F
100
AcDbEntity
  8
HEWI
100
AcDbCircle
 10
623.1249193353342
 20
887.1584051255586
 30
-0.0000000000000123
 40
17.00000000000011
100
AcDbArc
 50
166.0694454376371
 51
174.9095327646302
  0
ARC
  5
A9D
330
1F
100
AcDbEntity
  8
HEWI
100
AcDbCircle
 10
601.4249193353334
 20
887.1584051255577
 30
-0.0000000000000123
 40
5.000000000000047
100
AcDbArc
 50
342.4416349365559
 51
17.55836506344413
  0
ARC
  5
A9E
330
1F
100
AcDbEntity
  8
HEWI
100
AcDbCircle
 10
623.124919335336
 20
887.1584051255577
 30
-0.0000000000000123
 40
17.0000000000003
100
AcDbArc
 50
185.0904672353697
 51
234.9095327646663
  0
ARC
  5
A9F
330
1F
100
AcDbEntity
  8
HEWI
100
AcDbCircle
 10
612.2749193353357
 20
868.3656538634368
 30
-0.0000000000000123
 40
4.999999999999737
100
AcDbArc
 50
42.44163493654567
 51
77.55836506345731
  0
ARC
  5
AA0
330
1F
100
AcDbEntity
  8
HEWI
100
AcDbCircle
 10
623.1249193353342
 20
887.1584051255595
 30
-0.0000000000000123
 40
17.00000000000053
100
AcDbArc
 50
245.0904672353368
 51
294.9095327646633
  0
ARC
  5
AA1
330
1F
100
AcDbEntity
  8
HEWI
100
AcDbCircle
 10
633.9749193353346
 20
868.365653863435
 30
-0.0000000000000123
 40
5.000000000001613
100
AcDbArc
 50
102.4416349365427
 51
137.5583650634543
  0
ARC
  5
AA2
330
1F
100
AcDbEntity
  8
HEWI
100
AcDbCircle
 10
623.1249193353342
 20
887.1584051255595
 30
-0.0000000000000123
 40
17.00000000000041
100
AcDbArc
 50
305.0904672353337
 51
354.9095327646302
  0
ARC
  5
AA3
330
1F
100
AcDbEntity
  8
HEWI
100
AcDbCircle
 10
644.8249193353349
 20
887.1584051255586
 30
-0.0000000000000123
 40
5.000000000000047
100
AcDbArc
 50
162.4416349365558
 51
197.5583650634441
  0
ARC
  5
AA4
330
1F
100
AcDbEntity
  8
HEWI
100
AcDbCircle
 10
623.1249193353342
 20
887.1584051255586
 30
-0.0000000000000123
 40
17.00000000000025
100
AcDbArc
 50
5.09046723536977
 51
13.93055456236284
  0
LINE
  5
AA5
330
1F
100
AcDbEntity
  8
HEWI
100
AcDbLine
 10
1082.702512862211
 20
804.6584051255576
 30
-0.0000000000000018
 11
1082.702512862211
 21
734.6584051255576
 31
-0.0000000000000018
  0
LINE
  5
AA6
330
1F
100
AcDbEntity
  8
HEWI
100
AcDbLine
 10
1070.70251286221
 20
802.6584051255577
 30
-0.0000000000000018
 11
1070.70251286221
 21
736.6584051255586
 31
-0.0000000000000018
  0
LINE
  5
AA7
330
1F
100
AcDbEntity
  8
HEWI
100
AcDbLine
 10
1082.702512862211
 20
231.6584051255586
 30
-0.0000000000000018
 11
1082.702512862211
 21
161.6584051255586
 31
-0.0000000000000018
  0
LINE
  5
AA8
330
1F
100
AcDbEntity
  8
HEWI
100
AcDbLine
 10
1070.70251286221
 20
229.6584051255586
 30
-0.0000000000000018
 11
1070.70251286221
 21
163.6584051255577
 31
-0.0000000000000018
  0
LINE
  5
AA9
330
1F
100
AcDbEntity
  8
HEWI
100
AcDbLine
 10
858.7025128622109
 20
958.6584051255577
 30
-0.0000000000000018
 11
928.7025128622099
 21
958.6584051255577
 31
-0.0000000000000018
  0
LINE
  5
AAA
330
1F
100
AcDbEntity
  8
HEWI
100
AcDbLine
 10
860.7025128622099
 20
946.6584051255576
 30
-0.0000000000000018
 11
926.7025128622099
 21
946.6584051255576
 31
-0.0000000000000018
  0
LINE
  5
AAB
330
1F
100
AcDbEntity
  8
HEWI
100
AcDbLine
 10
588.1249193353341
 20
958.6584051255577
 30
-0.0000000000000123
 11
658.1249193353341
 21
958.6584051255577
 31
-0.0000000000000123
  0
LINE
  5
AAC
330
1F
100
AcDbEntity
  8
HEWI
100
AcDbLine
 10
590.1249193353359
 20
946.6584051255576
 30
-0.0000000000000123
 11
656.1249193353342
 21
946.6584051255576
 31
-0.0000000000000123
  0
LINE
  5
AAD
330
1F
100
AcDbEntity
  8
HEWI
100
AcDbLine
 10
658.1249193353341
 20
948.6584051255576
 30
-0.0000000000000123
 11
658.1249193353341
 21
958.6584051255577
 31
-0.0000000000000123
  0
LINE
  5
AAE
330
1F
100
AcDbEntity
  8
HEWI
100
AcDbLine
 10
588.1249193353341
 20
948.6584051255576
 30
-0.0000000000000123
 11
588.1249193353341
 21
958.6584051255577
 31
-0.0000000000000123
  0
LINE
  5
AAF
330
1F
100
AcDbEntity
  8
HEWI
100
AcDbLine
 10
928.7025128622099
 20
948.6584051255576
 30
-0.0000000000000018
 11
928.7025128622099
 21
958.6584051255577
 31
-0.0000000000000018
  0
LINE
  5
AB0
330
1F
100
AcDbEntity
  8
HEWI
100
AcDbLine
 10
858.7025128622109
 20
948.6584051255576
 30
-0.0000000000000018
 11
858.7025128622109
 21
958.6584051255577
 31
-0.0000000000000018
  0
LINE
  5
AB1
330
1F
100
AcDbEntity
  8
HEWI
100
AcDbLine
 10
1072.70251286221
 20
161.6584051255586
 30
-0.0000000000000018
 11
1082.702512862211
 21
161.6584051255586
 31
-0.0000000000000018
  0
LINE
  5
AB2
330
1F
100
AcDbEntity
  8
HEWI
100
AcDbLine
 10
1072.70251286221
 20
231.6584051255586
 30
-0.0000000000000018
 11
1082.702512862211
 21
231.6584051255586
 31
-0.0000000000000018
  0
LINE
  5
AB3
330
1F
100
AcDbEntity
  8
HEWI
100
AcDbLine
 10
1072.70251286221
 20
734.6584051255576
 30
-0.0000000000000018
 11
1082.702512862211
 21
734.6584051255576
 31
-0.0000000000000018
  0
LINE
  5
AB4
330
1F
100
AcDbEntity
  8
HEWI
100
AcDbLine
 10
1072.70251286221
 20
804.6584051255576
 30
-0.0000000000000018
 11
1082.702512862211
 21
804.6584051255576
 31
-0.0000000000000018
  0
LINE
  5
AB5
330
1F
100
AcDbEntity
  8
HEWI
100
AcDbLine
 10
606.6249193353359
 20
946.6584051255576
 30
-0.0000000000000123
 11
606.6249193353359
 21
933.6584051255586
 31
-0.0000000000000123
  0
LINE
  5
AB6
330
1F
100
AcDbEntity
  8
HEWI
100
AcDbLine
 10
639.624919335336
 20
946.6584051255576
 30
-0.0000000000000123
 11
639.624919335336
 21
933.6584051255586
 31
-0.0000000000000123
  0
LINE
  5
AB7
330
1F
100
AcDbEntity
  8
HEWI
100
AcDbLine
 10
1070.70251286221
 20
786.1584051255577
 30
-0.0000000000000018
 11
1027.702512862211
 21
786.1584051255577
 31
-0.0000000000000018
  0
LINE
  5
AB8
330
1F
100
AcDbEntity
  8
HEWI
100
AcDbLine
 10
1070.70251286221
 20
753.1584051255577
 30
-0.0000000000000018
 11
1027.702512862211
 21
753.1584051255577
 31
-0.0000000000000018
  0
LINE
  5
AB9
330
1F
100
AcDbEntity
  8
HEWI
100
AcDbLine
 10
877.2025128622098
 20
946.6584051255576
 30
-0.0000000000000018
 11
877.2025128622098
 21
903.6584051255577
 31
-0.0000000000000018
  0
LINE
  5
ABA
330
1F
100
AcDbEntity
  8
HEWI
100
AcDbLine
 10
910.2025128622107
 20
946.6584051255576
 30
-0.0000000000000018
 11
910.2025128622107
 21
903.6584051255577
 31
-0.0000000000000018
  0
LINE
  5
ABB
330
1F
100
AcDbEntity
  8
HEWI
100
AcDbLine
 10
877.2025128622098
 20
903.6584051255577
 30
-0.0000000000000018
 11
653.1269510793554
 21
903.6584051255577
 31
-0.0000000000000018
  0
LINE
  5
ABC
330
1F
100
AcDbEntity
  8
HEWI
100
AcDbLine
 10
968.9252987021673
 20
903.2660192900994
 30
-0.0000000000000018
 11
910.2025128622107
 21
903.6584051255577
 31
-0.0000000000000018
  0
LINE
  5
ABD
330
1F
100
AcDbEntity
  8
HEWI
100
AcDbLine
 10
960.7025128622108
 20
870.6584051255576
 30
-0.0000000000000018
 11
653.1269510793554
 21
870.6584051255576
 31
-0.0000000000000018
  0
LINE
  5
ABE
330
1F
100
AcDbEntity
  8
HEWI
100
AcDbLine
 10
1027.702512862211
 20
786.1584051255577
 30
-0.0000000000000018
 11
1027.289420737476
 21
839.1124797702058
 31
-0.0000000000000018
  0
LINE
  5
ABF
330
1F
100
AcDbEntity
  8
HEWI
100
AcDbLine
 10
1027.702512862211
 20
245.1584051255586
 30
-0.0000000000000018
 11
1027.702512862211
 21
755.1584051255576
 31
-0.0000000000000018
  0
LINE
  5
AC0
330
1F
100
AcDbEntity
  8
HEWI
100
AcDbLine
 10
994.7262396036622
 20
243.402297660049
 30
-0.0000000000000018
 11
994.7025128622108
 21
838.6584051255576
 31
-0.0000000000000018
  0
LINE
  5
AC1
330
1F
100
AcDbEntity
  8
HEWI
100
AcDbLine
 10
1070.70251286221
 20
213.1584051255586
 30
-0.0000000000000018
 11
1059.702512862211
 21
213.1584051255586
 31
-0.0000000000000018
  0
LINE
  5
AC2
330
1F
100
AcDbEntity
  8
HEWI
100
AcDbLine
 10
1070.70251286221
 20
180.1584051255586
 30
-0.0000000000000018
 11
1059.702512862211
 21
180.1584051255586
 31
-0.0000000000000018
  0
ARC
  5
AC3
330
1F
100
AcDbEntity
  8
HEWI
100
AcDbCircle
 10
590.1249193353359
 20
948.6584051255576
 30
-0.0000000000000123
 40
2.0
100
AcDbArc
 50
180.0
 51
270.0
  0
ARC
  5
AC4
330
1F
100
AcDbEntity
  8
HEWI
100
AcDbCircle
 10
656.1249193353342
 20
948.6584051255576
 30
-0.0000000000000123
 40
2.0
100
AcDbArc
 50
270.0
 51
0.0
  0
ARC
  5
AC5
330
1F
100
AcDbEntity
  8
HEWI
100
AcDbCircle
 10
860.7025128622099
 20
948.6584051255576
 30
-0.0000000000000018
 40
2.0
100
AcDbArc
 50
180.0
 51
270.0
  0
ARC
  5
AC6
330
1F
100
AcDbEntity
  8
HEWI
100
AcDbCircle
 10
926.7025128622099
 20
948.6584051255576
 30
-0.0000000000000018
 40
2.0
100
AcDbArc
 50
270.0
 51
0.0
  0
ARC
  5
AC7
330
1F
100
AcDbEntity
  8
HEWI
100
AcDbCircle
 10
1072.70251286221
 20
229.6584051255586
 30
-0.0000000000000018
 40
2.0
100
AcDbArc
 50
90.0
 51
180.0
  0
ARC
  5
AC8
330
1F
100
AcDbEntity
  8
HEWI
100
AcDbCircle
 10
1072.70251286221
 20
163.6584051255577
 30
-0.0000000000000018
 40
2.0
100
AcDbArc
 50
180.0
 51
270.0
  0
ARC
  5
AC9
330
1F
100
AcDbEntity
  8
HEWI
100
AcDbCircle
 10
1072.70251286221
 20
802.6584051255577
 30
-0.0000000000000018
 40
2.0
100
AcDbArc
 50
90.0
 51
180.0
  0
ARC
  5
ACA
330
1F
100
AcDbEntity
  8
HEWI
100
AcDbCircle
 10
1072.70251286221
 20
736.6584051255586
 30
-0.0000000000000018
 40
2.0
100
AcDbArc
 50
180.0
 51
270.0
  0
LINE
  5
ACB
330
1F
100
AcDbEntity
  8
HEWI
100
AcDbLine
 10
639.624919335336
 20
887.1584051255577
 30
-0.0000000000000123
 11
639.624919335336
 21
935.6584051255586
 31
-0.0000000000000123
  0
LINE
  5
ACC
330
1F
100
AcDbEntity
  8
HEWI
100
AcDbLine
 10
606.6249193353359
 20
935.6584051255586
 30
-0.0000000000000123
 11
606.6249193353359
 21
887.1584051255577
 31
-0.0000000000000123
  0
LINE
  5
ACD
330
1F
100
AcDbEntity
  8
HEWI
100
AcDbLine
 10
623.1249193353342
 20
870.6584051255576
 30
-0.0000000000000123
 11
627.2175957212693
 21
870.6584051255576
 31
-0.0000000000000123
  0
LINE
  5
ACE
330
1F
100
AcDbEntity
  8
HEWI
100
AcDbLine
 10
653.1269510793554
 20
870.6584051255576
 30
-0.0000000000000123
 11
671.6249193353323
 21
870.6584051255576
 31
-0.0000000000000123
  0
LINE
  5
ACF
330
1F
100
AcDbEntity
  8
HEWI
100
AcDbLine
 10
671.6249193353323
 20
903.6584051255577
 30
-0.0000000000000123
 11
653.1269510793554
 21
903.6584051255577
 31
-0.0000000000000123
  0
ARC
  5
AD0
330
1F
100
AcDbEntity
  8
HEWI
100
AcDbCircle
 10
962.2913984292381
 20
838.6054334037289
 30
-0.0000000000000018
 40
65.0
100
AcDbArc
 50
0.0
 51
84.14219293619893
  0
ARC
  5
AD1
330
1F
100
AcDbEntity
  8
HEWI
100
AcDbCircle
 10
962.2477075510332
 20
838.2386043878495
 30
-0.0000000000000018
 40
32.4566034344174
100
AcDbArc
 50
0.3416082038380733
 51
92.72877019531486
  0
ARC
  5
AD2
330
1F
100
AcDbEntity
  8
HEWI
100
AcDbCircle
 10
1059.702512862211
 20
245.1584051255586
 30
-0.0000000000000018
 40
32.0
100
AcDbArc
 50
180.0
 51
270.0
  0
ARC
  5
AD3
330
1F
100
AcDbEntity
  8
HEWI
100
AcDbCircle
 10
1059.702512862211
 20
245.1584051255586
 30
-0.0000000000000018
 40
65.0
100
AcDbArc
 50
180.0
 51
270.0
  0
LINE
  5
AD4
330
1F
100
AcDbEntity
  8
HEWI
100
AcDbLine
 10
355.7025128622108
 20
958.6584051255577
 30
-0.0000000000000018
 11
285.7025128622108
 21
958.6584051255577
 31
-0.0000000000000018
  0
LINE
  5
AD5
330
1F
100
AcDbEntity
  8
HEWI
100
AcDbLine
 10
353.7025128622127
 20
946.6584051255576
 30
-0.0000000000000018
 11
287.702512862209
 21
946.6584051255576
 31
-0.0000000000000018
  0
LINE
  5
AD6
330
1F
100
AcDbEntity
  8
HEWI
100
AcDbLine
 10
285.7025128622108
 20
948.6584051255576
 30
-0.0000000000000018
 11
285.7025128622108
 21
958.6584051255577
 31
-0.0000000000000018
  0
LINE
  5
AD7
330
1F
100
AcDbEntity
  8
HEWI
100
AcDbLine
 10
355.7025128622108
 20
948.6584051255576
 30
-0.0000000000000018
 11
355.7025128622108
 21
958.6584051255577
 31
-0.0000000000000018
  0
LINE
  5
AD8
330
1F
100
AcDbEntity
  8
HEWI
100
AcDbLine
 10
337.2025128622126
 20
946.6584051255576
 30
-0.0000000000000018
 11
337.2025128622126
 21
935.6584051255586
 31
-0.0000000000000018
  0
LINE
  5
AD9
330
1F
100
AcDbEntity
  8
HEWI
100
AcDbLine
 10
304.2025128622108
 20
946.6584051255576
 30
-0.0000000000000018
 11
304.2025128622108
 21
935.6584051255586
 31
-0.0000000000000018
  0
ARC
  5
ADA
330
1F
100
AcDbEntity
  8
HEWI
100
AcDbCircle
 10
353.7025128622127
 20
948.6584051255576
 30
-0.0000000000000018
 40
2.0
100
AcDbArc
 50
270.0
 51
0.0
  0
ARC
  5
ADB
330
1F
100
AcDbEntity
  8
HEWI
100
AcDbCircle
 10
287.702512862209
 20
948.6584051255576
 30
-0.0000000000000018
 40
2.0
100
AcDbArc
 50
180.0
 51
270.0
  0
ARC
  5
ADC
330
1F
100
AcDbEntity
  8
HEWI
100
AcDbCircle
 10
369.2025128622126
 20
935.6584051255586
 30
-0.0000000000000018
 40
32.0
100
AcDbArc
 50
180.0
 51
270.0
  0
ARC
  5
ADD
330
1F
100
AcDbEntity
  8
HEWI
100
AcDbCircle
 10
369.2025128622126
 20
935.6584051255586
 30
-0.0000000000000018
 40
65.0
100
AcDbArc
 50
180.0
 51
270.0
  0
LINE
  5
ADE
330
1F
100
AcDbEntity
  8
HEWI
  6
Continuous
100
AcDbLine
 10
369.2025128622126
 20
903.6584051255585
 30
-0.0000000000000018
 11
593.1269510793518
 21
903.6584051255577
 31
-0.0000000000000018
  0
LINE
  5
ADF
330
1F
100
AcDbEntity
  8
HEWI
  6
Continuous
100
AcDbLine
 10
350.7045446062311
 20
903.6584051255577
 30
-0.0000000000000018
 11
470.0480312645031
 21
903.6584051255577
 31
-0.0000000000000018
  0
LINE
  5
AE0
330
1F
100
AcDbEntity
  8
HEWI
  6
Continuous
100
AcDbLine
 10
369.2025128622126
 20
870.6584051255585
 30
-0.0000000000000018
 11
593.1269510793518
 21
870.6584051255585
 31
-0.0000000000000018
  0
LINE
  5
AE1
330
1F
100
AcDbEntity
  8
HEWI
  6
STANDARD
 62
     7
100
AcDbLine
 10
1371.562689244276
 20
1164.396797547168
 30
0.0000000000000117
 11
1381.948870121961
 21
1164.396797547168
 31
0.0000000000000117
  0
LINE
  5
AE2
330
1F
100
AcDbEntity
  8
HEWI
  6
STANDARD
 62
     7
100
AcDbLine
 10
1385.225542485243
 20
1131.846138367482
 30
0.0000000000000117
 11
1385.714167057997
 21
1131.903435120411
 31
0.0000000000000117
  0
LINE
  5
AE3
330
1F
100
AcDbEntity
  8
HEWI
  6
STANDARD
 62
     7
100
AcDbLine
 10
1371.389749943738
 20
1164.264084229297
 30
0.0000000000000117
 11
1372.062967717175
 21
1164.780670533008
 31
0.0000000000000117
  0
LINE
  5
AE4
330
1F
100
AcDbEntity
  8
HEWI
  6
STANDARD
 62
     7
100
AcDbLine
 10
1367.318190037733
 20
1164.264084229297
 30
0.0000000000000117
 11
1370.812967717176
 21
1166.945740113086
 31
0.0000000000000117
  0
LINE
  5
AE5
330
1F
100
AcDbEntity
  8
HEWI
  6
STANDARD
 62
     7
100
AcDbLine
 10
1380.940836369519
 20
1164.264084229297
 30
0.0000000000000117
 11
1381.948870121961
 21
1164.396797547168
 31
0.0000000000000117
  0
LINE
  5
AE6
330
1F
100
AcDbEntity
  8
HEWI
  6
STANDARD
 62
     7
100
AcDbLine
 10
1367.481687962537
 20
1131.39676702959
 30
0.0000000000000117
 11
1370.812967717176
 21
1128.84061468584
 31
0.0000000000000117
  0
LINE
  5
AE7
330
1F
100
AcDbEntity
  8
HEWI
  6
STANDARD
 62
     7
100
AcDbLine
 10
1371.55326694203
 20
1131.39676702959
 30
0.0000000000000117
 11
1372.062967717175
 21
1131.005684265919
 31
0.0000000000000117
  0
ARC
  5
AE8
330
1F
100
AcDbEntity
  8
HEWI
  6
STANDARD
 62
     7
100
AcDbCircle
 10
1381.945587305801
 20
1147.89348671541
 30
0.0000000000000117
 40
16.50331115826626
100
AcDbArc
 50
1.771820875063179
 51
89.98860280157714
  0
ARC
  5
AE9
330
1F
100
AcDbEntity
  8
HEWI
  6
STANDARD
 62
     7
100
AcDbCircle
 10
1381.948866215451
 20
1147.894797487644
 30
0.0000000000000117
 40
16.49999333257691
100
AcDbArc
 50
270.8837843776346
 51
1.767623473632601
  0
ARC
  5
AEA
330
1F
100
AcDbEntity
  8
HEWI
  6
STANDARD
 62
     7
100
AcDbCircle
 10
1381.812971531873
 20
1147.89316855194
 30
0.0000000000000117
 40
19.50000762941452
100
AcDbArc
 50
0.0000820387157152
 51
119.9999999999682
  0
ARC
  5
AEB
330
1F
100
AcDbEntity
  8
HEWI
  6
STANDARD
 62
     7
100
AcDbCircle
 10
1381.812971531873
 20
1147.893174622568
 30
0.0000000000000117
 40
22.00000762940538
100
AcDbArc
 50
0.0000569061187751
 51
119.9999999999682
  0
ARC
  5
AEC
330
1F
100
AcDbEntity
  8
HEWI
  6
STANDARD
 62
     7
100
AcDbCircle
 10
1381.812971531873
 20
1147.893180176354
 30
0.0000000000000117
 40
22.00000762940057
100
AcDbArc
 50
239.9999999999962
 51
0.0000424420968088
  0
ARC
  5
AED
330
1F
100
AcDbEntity
  8
HEWI
  6
STANDARD
 62
     7
100
AcDbCircle
 10
1381.812971531873
 20
1147.893186246968
 30
0.0000000000000117
 40
19.50000762939721
100
AcDbArc
 50
239.9999999999962
 51
0.0000300464332145
  0
LINE
  5
AEE
330
1F
100
AcDbEntity
  8
HEWI
  6
STANDARD
 62
     7
100
AcDbLine
 10
606.5099009084551
 20
903.9112972818228
 30
-0.0000000000000123
 11
606.6269358205645
 21
904.0010952554558
 31
-0.0000000000000123
  0
LINE
  5
AEF
330
1F
100
AcDbEntity
  8
HEWI
  6
STANDARD
 62
     7
100
AcDbLine
 10
560.1269205617755
 20
823.7942623697117
 30
-0.0000000000000123
 11
653.1269510793554
 21
823.7942623697117
 31
-0.0000000000000123
  0
LINE
  5
AF0
330
1F
100
AcDbEntity
  8
HEWI
  6
STANDARD
 62
     7
100
AcDbLine
 10
646.6269358205627
 20
863.7942623697126
 30
-0.0000000000000123
 11
653.1269510793554
 21
863.7942623697126
 31
-0.0000000000000123
  0
LINE
  5
AF1
330
1F
100
AcDbEntity
  8
HEWI
  6
STANDARD
 62
     7
100
AcDbLine
 10
560.1269205617755
 20
863.7942623697126
 30
-0.0000000000000123
 11
599.6269663381426
 21
863.7942623697126
 31
-0.0000000000000123
  0
LINE
  5
AF2
330
1F
100
AcDbEntity
  8
HEWI
  6
STANDARD
 62
     7
100
AcDbLine
 10
601.072126250252
 20
843.2395290933454
 30
-0.0000000000000123
 11
645.1816996145098
 21
843.2395290933454
 31
-0.0000000000000123
  0
LINE
  5
AF3
330
1F
100
AcDbEntity
  8
HEWI
  6
STANDARD
 62
     7
100
AcDbLine
 10
619.722028594002
 20
821.4084744058455
 30
-0.0000000000000123
 11
626.7458017873614
 21
821.4189266763542
 31
-0.0000000000000123
  0
LINE
  5
AF4
330
1F
100
AcDbEntity
  8
HEWI
  6
STANDARD
 62
     7
100
AcDbLine
 10
632.6182993459552
 20
820.7324337564323
 30
-0.0000000000000123
 11
633.0042704152893
 21
820.7662319742048
 31
-0.0000000000000123
  0
LINE
  5
AF5
330
1F
100
AcDbEntity
  8
HEWI
  6
STANDARD
 62
     7
100
AcDbLine
 10
613.2495554494708
 20
820.7662319742048
 30
-0.0000000000000123
 11
613.6356028127538
 21
820.7324337564323
 31
-0.0000000000000123
  0
LINE
  5
AF6
330
1F
100
AcDbEntity
  8
HEWI
  6
STANDARD
 62
     7
100
AcDbLine
 10
639.6269663381408
 20
909.2942928872917
 30
-0.0000000000000123
 11
653.1269510793554
 21
909.2942928872917
 31
-0.0000000000000123
  0
LINE
  5
AF7
330
1F
100
AcDbEntity
  8
HEWI
  6
STANDARD
 62
     7
100
AcDbLine
 10
593.1269510793518
 20
909.2942928872917
 30
-0.0000000000000123
 11
606.6269358205645
 21
909.2942928872917
 31
-0.0000000000000123
  0
LINE
  5
AF8
330
1F
100
AcDbEntity
  8
HEWI
  6
STANDARD
 62
     7
100
AcDbLine
 10
646.6269358205627
 20
865.2942776285017
 30
-0.0000000000000123
 11
653.1269510793554
 21
865.2942776285017
 31
-0.0000000000000123
  0
LINE
  5
AF9
330
1F
100
AcDbEntity
  8
HEWI
  6
STANDARD
 62
     7
100
AcDbLine
 10
593.1269510793518
 20
865.2942776285017
 30
-0.0000000000000123
 11
599.6269663381426
 21
865.2942776285017
 31
-0.0000000000000123
  0
LINE
  5
AFA
330
1F
100
AcDbEntity
  8
HEWI
  6
STANDARD
 62
     7
100
AcDbLine
 10
618.0138071584551
 20
871.4706539712761
 30
-0.0000000000000123
 11
618.5706003713457
 21
871.3881802163932
 31
-0.0000000000000123
  0
LINE
  5
AFB
330
1F
100
AcDbEntity
  8
HEWI
  6
STANDARD
 62
     7
100
AcDbLine
 10
623.0281504201739
 20
870.7278561197135
 30
-0.0000000000000123
 11
623.4725626516192
 21
870.6620144449098
 31
-0.0000000000000123
  0
LINE
  5
AFC
330
1F
100
AcDbEntity
  8
HEWI
  6
STANDARD
 62
     7
100
AcDbLine
 10
606.5099009084551
 20
903.9112972818228
 30
-0.0000000000000123
 11
606.6269358205645
 21
904.0010952554558
 31
-0.0000000000000123
  0
LINE
  5
AFD
330
1F
100
AcDbEntity
  8
HEWI
  6
STANDARD
 62
     7
100
AcDbLine
 10
628.5705240773986
 20
871.6369747720573
 30
-0.0000000000000123
 11
628.8926371145098
 21
871.6985439859245
 31
-0.0000000000000123
  0
LINE
  5
AFE
330
1F
100
AcDbEntity
  8
HEWI
  6
STANDARD
 62
     7
100
AcDbLine
 10
588.1269510793518
 20
823.7942623697117
 30
-0.0000000000000123
 11
588.1269510793518
 21
863.7942623697126
 31
-0.0000000000000123
  0
LINE
  5
AFF
330
1F
100
AcDbEntity
  8
HEWI
  6
STANDARD
 62
     7
100
AcDbLine
 10
639.419294219002
 20
884.5491909585799
 30
-0.0000000000000123
 11
639.4271524953692
 21
884.8405575357292
 31
-0.0000000000000123
  0
LINE
  5
B00
330
1F
100
AcDbEntity
  8
HEWI
  6
STANDARD
 62
     7
100
AcDbLine
 10
593.1269510793518
 20
865.2942776285017
 30
-0.0000000000000123
 11
593.1269510793518
 21
909.2942928872917
 31
-0.0000000000000123
  0
LINE
  5
B01
330
1F
100
AcDbEntity
  8
HEWI
  6
STANDARD
 62
     7
100
AcDbLine
 10
593.1269510793518
 20
823.7942623697117
 30
-0.0000000000000123
 11
593.1269510793518
 21
863.7942623697126
 31
-0.0000000000000123
  0
LINE
  5
B02
330
1F
100
AcDbEntity
  8
HEWI
  6
STANDARD
 62
     7
100
AcDbLine
 10
566.5478952932208
 20
852.1572994790876
 30
-0.0000000000000123
 11
566.6416605520116
 21
852.2795986734235
 31
-0.0000000000000123
  0
LINE
  5
B03
330
1F
100
AcDbEntity
  8
HEWI
  6
STANDARD
 62
     7
100
AcDbLine
 10
566.5478952932208
 20
835.3090023599488
 30
-0.0000000000000123
 11
566.6416605520116
 21
835.4312252603385
 31
-0.0000000000000123
  0
LINE
  5
B04
330
1F
100
AcDbEntity
  8
HEWI
  6
STANDARD
 62
     7
100
AcDbLine
 10
560.1269205617755
 20
858.2449459634627
 30
-0.0000000000000123
 11
560.1269205617755
 21
863.7942623697126
 31
-0.0000000000000123
  0
LINE
  5
B05
330
1F
100
AcDbEntity
  8
HEWI
  6
STANDARD
 62
     7
100
AcDbLine
 10
560.1269205617755
 20
823.7942623697117
 30
-0.0000000000000123
 11
560.1269205617755
 21
829.3435787759626
 31
-0.0000000000000123
  0
LINE
  5
B06
330
1F
100
AcDbEntity
  8
HEWI
  6
STANDARD
 62
     7
100
AcDbLine
 10
653.1269510793554
 20
865.2942776285017
 30
-0.0000000000000123
 11
653.1269510793554
 21
909.2942928872917
 31
-0.0000000000000123
  0
LINE
  5
B07
330
1F
100
AcDbEntity
  8
HEWI
  6
STANDARD
 62
     7
100
AcDbLine
 10
653.1269510793554
 20
823.7942623697117
 30
-0.0000000000000123
 11
653.1269510793554
 21
863.7942623697126
 31
-0.0000000000000123
  0
LINE
  5
B08
330
1F
100
AcDbEntity
  8
HEWI
  6
STANDARD
 62
     7
100
AcDbLine
 10
648.1269510793536
 20
823.7942623697117
 30
-0.0000000000000123
 11
648.1269510793536
 21
863.7942623697126
 31
-0.0000000000000123
  0
LINE
  5
B09
330
1F
100
AcDbEntity
  8
HEWI
  6
STANDARD
 62
     7
100
AcDbLine
 10
646.6269358205627
 20
852.1538662515485
 30
-0.0000000000000123
 11
646.6269358205627
 21
887.2942471109237
 31
-0.0000000000000123
  0
LINE
  5
B0A
330
1F
100
AcDbEntity
  8
HEWI
  6
STANDARD
 62
     7
100
AcDbLine
 10
601.072126250252
 20
843.2395290933454
 30
-0.0000000000000123
 11
601.1269053029882
 21
887.195980509362
 31
-0.0000000000000123
  0
LINE
  5
B0B
330
1F
100
AcDbEntity
  8
HEWI
  6
STANDARD
 62
     7
100
AcDbLine
 10
645.1395853566955
 20
843.2395290933454
 30
-0.0000000000000123
 11
645.1269205617754
 21
887.195980509362
 31
-0.0000000000000123
  0
LINE
  5
B0C
330
1F
100
AcDbEntity
  8
HEWI
  6
STANDARD
 62
     7
100
AcDbLine
 10
639.0647562551349
 20
883.0237698160017
 30
-0.0000000000000123
 11
639.144636015877
 21
883.6309933267449
 31
-0.0000000000000123
  0
LINE
  5
B0D
330
1F
100
AcDbEntity
  8
HEWI
  6
STANDARD
 62
     7
100
AcDbLine
 10
599.6269663381426
 20
852.1538662515485
 30
-0.0000000000000123
 11
599.6269663381426
 21
887.2942471109237
 31
-0.0000000000000123
  0
LINE
  5
B0E
330
1F
100
AcDbEntity
  8
HEWI
  6
STANDARD
 62
     7
100
AcDbLine
 10
635.9602793264221
 20
823.2267880044792
 30
-0.0000000000000123
 11
636.0231455373614
 21
823.7942623697117
 31
-0.0000000000000123
  0
LINE
  5
B0F
330
1F
100
AcDbEntity
  8
HEWI
  6
STANDARD
 62
     7
100
AcDbLine
 10
638.175626616463
 20
880.3918575845573
 30
-0.0000000000000123
 11
638.2116373586486
 21
880.5120205484236
 31
-0.0000000000000123
  0
LINE
  5
B10
330
1F
100
AcDbEntity
  8
HEWI
  6
STANDARD
 62
     7
100
AcDbLine
 10
606.7628153371661
 20
885.045101603112
 30
-0.0000000000000123
 11
606.7660196828692
 21
885.9685635171736
 31
-0.0000000000000123
  0
LINE
  5
B11
330
1F
100
AcDbEntity
  8
HEWI
  6
STANDARD
 62
     7
100
AcDbLine
 10
560.1269205617755
 20
829.3435787759626
 30
-0.0000000000000123
 11
566.5478952932208
 21
835.4312252603385
 31
-0.0000000000000123
  0
LINE
  5
B12
330
1F
100
AcDbEntity
  8
HEWI
  6
STANDARD
 62
     7
100
AcDbLine
 10
632.7238138723205
 20
873.7363552652205
 30
-0.0000000000000123
 11
635.3421457815038
 21
876.1883663736208
 31
-0.0000000000000123
  0
LINE
  5
B13
330
1F
100
AcDbEntity
  8
HEWI
  6
STANDARD
 62
     7
100
AcDbLine
 10
639.4942148732988
 20
901.7727017007665
 30
-0.0000000000000123
 11
642.168317656502
 21
898.2878231607292
 31
-0.0000000000000123
  0
LINE
  5
B14
330
1F
100
AcDbEntity
  8
HEWI
  6
STANDARD
 62
     7
100
AcDbLine
 10
602.998090605719
 20
823.7942623697117
 30
-0.0000000000000123
 11
603.413205962166
 21
823.2467007242048
 31
-0.0000000000000123
  0
LINE
  5
B15
330
1F
100
AcDbEntity
  8
HEWI
  6
STANDARD
 62
     7
100
AcDbLine
 10
634.5090158986895
 20
875.4081844888542
 30
-0.0000000000000123
 11
634.7942026662677
 21
875.6269955240096
 31
-0.0000000000000123
  0
LINE
  5
B16
330
1F
100
AcDbEntity
  8
HEWI
  6
STANDARD
 62
     7
100
AcDbLine
 10
610.1293619680254
 20
823.6305355630729
 30
-0.0000000000000123
 11
610.5176218557208
 21
823.0378841958845
 31
-0.0000000000000123
  0
LINE
  5
B17
330
1F
100
AcDbEntity
  8
HEWI
  6
STANDARD
 62
     7
100
AcDbLine
 10
642.2085245656817
 20
822.8492092691267
 30
-0.0000000000000123
 11
642.8406961965411
 21
823.2467007242048
 31
-0.0000000000000123
  0
LINE
  5
B18
330
1F
100
AcDbEntity
  8
HEWI
  6
STANDARD
 62
     7
100
AcDbLine
 10
609.5927103566973
 20
877.888119181237
 30
-0.0000000000000123
 11
610.0510843801366
 21
877.0949673257682
 31
-0.0000000000000123
  0
LINE
  5
B19
330
1F
100
AcDbEntity
  8
HEWI
  6
STANDARD
 62
     7
100
AcDbLine
 10
607.8796824025958
 20
880.8519100747917
 30
-0.0000000000000123
 11
608.5011728811096
 21
879.7766995035017
 31
-0.0000000000000123
  0
LINE
  5
B1A
330
1F
100
AcDbEntity
  8
HEWI
  6
STANDARD
 62
     7
100
AcDbLine
 10
634.8754557180273
 20
822.6207089029166
 30
-0.0000000000000123
 11
635.9602793264221
 21
823.2267880044792
 31
-0.0000000000000123
  0
LINE
  5
B1B
330
1F
100
AcDbEntity
  8
HEWI
  6
STANDARD
 62
     7
100
AcDbLine
 10
632.5339945363849
 20
873.6354183755738
 30
-0.0000000000000123
 11
632.7238138723205
 21
873.7363552652205
 31
-0.0000000000000123
  0
LINE
  5
B1C
330
1F
100
AcDbEntity
  8
HEWI
  6
STANDARD
 62
     7
100
AcDbLine
 10
628.8926371145098
 20
871.6985439859245
 30
-0.0000000000000123
 11
631.1455210256426
 21
872.8968929849479
 31
-0.0000000000000123
  0
LINE
  5
B1D
330
1F
100
AcDbEntity
  8
HEWI
  6
STANDARD
 62
     7
100
AcDbLine
 10
642.168317656502
 20
898.2878231607292
 30
-0.0000000000000123
 11
644.3648203420471
 21
892.9849361978376
 31
-0.0000000000000123
  0
LINE
  5
B1E
330
1F
100
AcDbEntity
  8
HEWI
  6
STANDARD
 62
     7
100
AcDbLine
 10
640.2350290822814
 20
822.021877726158
 30
-0.0000000000000123
 11
642.2085245656817
 21
822.8492092691267
 31
-0.0000000000000123
  0
LINE
  5
B1F
330
1F
100
AcDbEntity
  8
HEWI
  6
STANDARD
 62
     7
100
AcDbLine
 10
599.6269663381426
 20
852.1538662515485
 30
-0.0000000000000123
 11
600.6158121633362
 21
848.9706539712761
 31
-0.0000000000000123
  0
LINE
  5
B20
330
1F
100
AcDbEntity
  8
HEWI
  6
STANDARD
 62
     7
100
AcDbLine
 10
607.6430948781817
 20
881.7403530679548
 30
-0.0000000000000123
 11
607.8796824025958
 21
880.8519100747917
 31
-0.0000000000000123
  0
LINE
  5
B21
330
1F
100
AcDbEntity
  8
HEWI
  6
STANDARD
 62
     7
100
AcDbLine
 10
606.7628153371661
 20
885.045101603112
 30
-0.0000000000000123
 11
607.0808847951739
 21
883.8510250650269
 31
-0.0000000000000123
  0
LINE
  5
B22
330
1F
100
AcDbEntity
  8
HEWI
  6
STANDARD
 62
     7
100
AcDbLine
 10
632.8618296193909
 20
822.0910000406119
 30
-0.0000000000000123
 11
634.8754557180273
 21
822.6207089029166
 31
-0.0000000000000123
  0
LINE
  5
B23
330
1F
100
AcDbEntity
  8
HEWI
  6
STANDARD
 62
     7
100
AcDbLine
 10
637.0956095266192
 20
821.3114285074089
 30
-0.0000000000000123
 11
640.2350290822814
 21
822.021877726158
 31
-0.0000000000000123
  0
LINE
  5
B24
330
1F
100
AcDbEntity
  8
HEWI
  6
STANDARD
 62
     7
100
AcDbLine
 10
630.0786264943909
 20
821.6795467935408
 30
-0.0000000000000123
 11
632.8618296193909
 21
822.0910000406119
 31
-0.0000000000000123
  0
LINE
  5
B25
330
1F
100
AcDbEntity
  8
HEWI
  6
STANDARD
 62
     7
100
AcDbLine
 10
639.5129068898986
 20
888.0244564615095
 30
-0.0000000000000123
 11
639.6269663381408
 21
887.2942471109237
 31
-0.0000000000000123
  0
LINE
  5
B26
330
1F
100
AcDbEntity
  8
HEWI
  6
STANDARD
 62
     7
100
AcDbLine
 10
607.0796640920507
 20
883.8556789956902
 30
-0.0000000000000123
 11
607.1891459035705
 21
883.0237698160017
 31
-0.0000000000000123
  0
LINE
  5
B27
330
1F
100
AcDbEntity
  8
HEWI
  6
STANDARD
 62
     7
100
AcDbLine
 10
644.3648203420471
 20
892.9849361978376
 30
-0.0000000000000123
 11
645.1269205617754
 21
887.195980509362
 31
-0.0000000000000123
  0
LINE
  5
B28
330
1F
100
AcDbEntity
  8
HEWI
  6
STANDARD
 62
     7
100
AcDbLine
 10
633.0042704152893
 20
820.7662319742048
 30
-0.0000000000000123
 11
637.0956095266192
 21
821.3114285074089
 31
-0.0000000000000123
  0
LINE
  5
B29
330
1F
100
AcDbEntity
  8
HEWI
  6
STANDARD
 62
     7
100
AcDbLine
 10
600.6158121633362
 20
848.9706539712761
 30
-0.0000000000000123
 11
601.1269053029882
 21
843.7942623697127
 31
-0.0000000000000123
  0
LINE
  5
B2A
330
1F
100
AcDbEntity
  8
HEWI
  6
STANDARD
 62
     7
100
AcDbLine
 10
626.7458017873614
 20
821.4189266763542
 30
-0.0000000000000123
 11
630.0786264943909
 21
821.6795467935408
 31
-0.0000000000000123
  0
LINE
  5
B2B
330
1F
100
AcDbEntity
  8
HEWI
  6
STANDARD
 62
     7
100
AcDbLine
 10
628.0400522756409
 20
820.4030727945182
 30
-0.0000000000000123
 11
632.6182993459552
 21
820.7324337564323
 31
-0.0000000000000123
  0
LINE
  5
B2C
330
1F
100
AcDbEntity
  8
HEWI
  6
STANDARD
 62
     7
100
AcDbLine
 10
626.7458017873614
 20
821.4189266763542
 30
-0.0000000000000123
 11
630.0786264943909
 21
821.6795467935408
 31
-0.0000000000000123
  0
LINE
  5
B2D
330
1F
100
AcDbEntity
  8
HEWI
  6
STANDARD
 62
     7
100
AcDbLine
 10
623.1269510793536
 20
820.2907681070165
 30
-0.0000000000000123
 11
628.0400522756409
 21
820.4030727945182
 31
-0.0000000000000123
  0
LINE
  5
B2E
330
1F
100
AcDbEntity
  8
HEWI
  6
STANDARD
 62
     7
100
AcDbLine
 10
618.2138498830645
 20
820.4030727945182
 30
-0.0000000000000123
 11
623.1269510793536
 21
820.2907681070165
 31
-0.0000000000000123
  0
LINE
  5
B2F
330
1F
100
AcDbEntity
  8
HEWI
  6
STANDARD
 62
     7
100
AcDbLine
 10
616.5549143361877
 20
821.6394161783073
 30
-0.0000000000000123
 11
619.722028594002
 21
821.4084744058455
 31
-0.0000000000000123
  0
LINE
  5
B30
330
1F
100
AcDbEntity
  8
HEWI
  6
STANDARD
 62
     7
100
AcDbLine
 10
613.6356028127538
 20
820.7324337564323
 30
-0.0000000000000123
 11
618.2138498830645
 21
820.4030727945182
 31
-0.0000000000000123
  0
LINE
  5
B31
330
1F
100
AcDbEntity
  8
HEWI
  6
STANDARD
 62
     7
100
AcDbLine
 10
645.1269205617754
 20
843.7942623697127
 30
-0.0000000000000123
 11
645.6380137014239
 21
848.9706539712761
 31
-0.0000000000000123
  0
LINE
  5
B32
330
1F
100
AcDbEntity
  8
HEWI
  6
STANDARD
 62
     7
100
AcDbLine
 10
601.1269053029882
 20
887.195980509362
 30
-0.0000000000000123
 11
601.8890818166583
 21
892.9849361978376
 31
-0.0000000000000123
  0
LINE
  5
B33
330
1F
100
AcDbEntity
  8
HEWI
  6
STANDARD
 62
     7
100
AcDbLine
 10
639.4942148732988
 20
886.2862515054548
 30
-0.0000000000000123
 11
639.6269663381408
 21
887.2942471109237
 31
-0.0000000000000123
  0
LINE
  5
B34
330
1F
100
AcDbEntity
  8
HEWI
  6
STANDARD
 62
     7
100
AcDbLine
 10
613.8465555715411
 20
822.006313761315
 30
-0.0000000000000123
 11
616.5549143361877
 21
821.6394161783073
 31
-0.0000000000000123
  0
LINE
  5
B35
330
1F
100
AcDbEntity
  8
HEWI
  6
STANDARD
 62
     7
100
AcDbLine
 10
609.1582163381408
 20
821.3114285074089
 30
-0.0000000000000123
 11
613.2495554494708
 21
820.7662319742048
 31
-0.0000000000000123
  0
LINE
  5
B36
330
1F
100
AcDbEntity
  8
HEWI
  6
STANDARD
 62
     7
100
AcDbLine
 10
611.7861612844317
 20
822.4835323892447
 30
-0.0000000000000123
 11
613.8465555715411
 21
822.006313761315
 31
-0.0000000000000123
  0
LINE
  5
B37
330
1F
100
AcDbEntity
  8
HEWI
  6
STANDARD
 62
     7
100
AcDbLine
 10
606.0188730764257
 20
822.021877726158
 30
-0.0000000000000123
 11
609.1582163381408
 21
821.3114285074089
 31
-0.0000000000000123
  0
LINE
  5
B38
330
1F
100
AcDbEntity
  8
HEWI
  6
STANDARD
 62
     7
100
AcDbLine
 10
638.5657938527911
 20
881.6959499917839
 30
-0.0000000000000123
 11
639.419294219002
 21
884.5491909585799
 31
-0.0000000000000123
  0
LINE
  5
B39
330
1F
100
AcDbEntity
  8
HEWI
  6
STANDARD
 62
     7
100
AcDbLine
 10
645.6380137014239
 20
848.9706539712761
 30
-0.0000000000000123
 11
646.6269358205627
 21
852.1538662515485
 31
-0.0000000000000123
  0
LINE
  5
B3A
330
1F
100
AcDbEntity
  8
HEWI
  6
STANDARD
 62
     7
100
AcDbLine
 10
638.6985453176349
 20
882.1397518716658
 30
-0.0000000000000123
 11
639.0647562551349
 21
883.0237698160017
 31
-0.0000000000000123
  0
LINE
  5
B3B
330
1F
100
AcDbEntity
  8
HEWI
  6
STANDARD
 62
     7
100
AcDbLine
 10
637.4163492727129
 20
879.0442776285017
 30
-0.0000000000000123
 11
637.568174223883
 21
879.4107937417839
 31
-0.0000000000000123
  0
LINE
  5
B3C
330
1F
100
AcDbEntity
  8
HEWI
  6
STANDARD
 62
     7
100
AcDbLine
 10
601.8890818166583
 20
892.9849361978376
 30
-0.0000000000000123
 11
604.0855845022051
 21
898.2878231607292
 31
-0.0000000000000123
  0
LINE
  5
B3D
330
1F
100
AcDbEntity
  8
HEWI
  6
STANDARD
 62
     7
100
AcDbLine
 10
604.0453775930254
 20
822.8492092691267
 30
-0.0000000000000123
 11
606.0188730764257
 21
822.021877726158
 31
-0.0000000000000123
  0
LINE
  5
B3E
330
1F
100
AcDbEntity
  8
HEWI
  6
STANDARD
 62
     7
100
AcDbLine
 10
610.5176218557208
 20
823.0378841958845
 30
-0.0000000000000123
 11
611.7861612844317
 21
822.4835323892447
 31
-0.0000000000000123
  0
LINE
  5
B3F
330
1F
100
AcDbEntity
  8
HEWI
  6
STANDARD
 62
     7
100
AcDbLine
 10
617.0904978322832
 20
871.9548916421736
 30
-0.0000000000000123
 11
618.0138071584551
 21
871.4706539712761
 31
-0.0000000000000123
  0
LINE
  5
B40
330
1F
100
AcDbEntity
  8
HEWI
  6
STANDARD
 62
     7
100
AcDbLine
 10
613.1269510793535
 20
874.0339779458846
 30
-0.0000000000000123
 11
613.9682444143145
 21
873.5926937661979
 31
-0.0000000000000123
  0
LINE
  5
B41
330
1F
100
AcDbEntity
  8
HEWI
  6
STANDARD
 62
     7
100
AcDbLine
 10
635.8911570119707
 20
876.7025112710799
 30
-0.0000000000000123
 11
638.175626616463
 21
880.3918575845573
 31
-0.0000000000000123
  0
LINE
  5
B42
330
1F
100
AcDbEntity
  8
HEWI
  6
STANDARD
 62
     7
100
AcDbLine
 10
603.413205962166
 20
823.2467007242048
 30
-0.0000000000000123
 11
604.0453775930254
 21
822.8492092691267
 31
-0.0000000000000123
  0
LINE
  5
B43
330
1F
100
AcDbEntity
  8
HEWI
  6
STANDARD
 62
     7
100
AcDbLine
 10
637.0270212697833
 20
878.5369228921735
 30
-0.0000000000000123
 11
637.4163492727129
 21
879.0442776285017
 31
-0.0000000000000123
  0
LINE
  5
B44
330
1F
100
AcDbEntity
  8
HEWI
  6
STANDARD
 62
     7
100
AcDbLine
 10
634.7942026662677
 20
875.6269955240096
 30
-0.0000000000000123
 11
634.9257334279846
 21
875.7984280191267
 31
-0.0000000000000123
  0
LINE
  5
B45
330
1F
100
AcDbEntity
  8
HEWI
  6
STANDARD
 62
     7
100
AcDbLine
 10
604.0855845022051
 20
898.2878231607292
 30
-0.0000000000000123
 11
606.6269358205645
 21
901.5997433267449
 31
-0.0000000000000123
  0
LINE
  5
B46
330
1F
100
AcDbEntity
  8
HEWI
  6
STANDARD
 62
     7
100
AcDbLine
 10
642.8406961965411
 20
823.2467007242048
 30
-0.0000000000000123
 11
643.2558115529864
 21
823.7942623697117
 31
-0.0000000000000123
  0
LINE
  5
B47
330
1F
100
AcDbEntity
  8
HEWI
  6
STANDARD
 62
     7
100
AcDbLine
 10
639.4942148732988
 20
904.1028713785017
 30
-0.0000000000000123
 11
639.7439249563067
 21
903.9112972818228
 31
-0.0000000000000123
  0
LINE
  5
B48
330
1F
100
AcDbEntity
  8
HEWI
  6
STANDARD
 62
     7
100
AcDbLine
 10
610.1293619680254
 20
823.6305355630729
 30
-0.0000000000000123
 11
610.273557524666
 21
823.7942623697117
 31
-0.0000000000000123
  0
LINE
  5
B49
330
1F
100
AcDbEntity
  8
HEWI
  6
STANDARD
 62
     7
100
AcDbLine
 10
560.1269205617755
 20
858.2449459634627
 30
-0.0000000000000123
 11
566.5478952932208
 21
852.1572994790876
 31
-0.0000000000000123
  0
LINE
  5
B4A
330
1F
100
AcDbEntity
  8
HEWI
  6
STANDARD
 62
     7
100
AcDbLine
 10
612.4793680715411
 20
874.6783566079939
 30
-0.0000000000000123
 11
613.1269510793535
 21
874.0339779458846
 31
-0.0000000000000123
  0
LINE
  5
B4B
330
1F
100
AcDbEntity
  8
HEWI
  6
STANDARD
 62
     7
100
AcDbLine
 10
610.0510843801366
 20
877.0949673257682
 30
-0.0000000000000123
 11
610.9367044973241
 21
876.2136959634627
 31
-0.0000000000000123
  0
ARC
  5
B4C
330
1F
100
AcDbEntity
  8
HEWI
  6
STANDARD
 62
     7
100
AcDbCircle
 10
623.1249193353342
 20
887.1584051255595
 30
-0.0000000000000123
 40
16.50004745378571
100
AcDbArc
 50
271.7677807602394
 51
352.7821762495863
  0
ARC
  5
B4D
330
1F
100
AcDbEntity
  8
HEWI
  6
STANDARD
 62
     7
100
AcDbCircle
 10
623.1249662786212
 20
887.1583524273473
 30
-0.0000000000000123
 40
16.49999333257691
100
AcDbArc
 50
180.8837843776867
 51
271.7676234736851
  0
ARC
  5
B4E
330
1F
100
AcDbEntity
  8
HEWI
  6
STANDARD
 62
     7
100
AcDbCircle
 10
575.1269791288214
 20
843.7943005166863
 30
-0.0000000000000123
 40
12.00003817321934
100
AcDbArc
 50
224.9999310582794
 51
135.0000689417205
  0
ARC
  5
B4F
330
1F
100
AcDbEntity
  8
HEWI
  6
STANDARD
 62
     7
100
AcDbCircle
 10
623.1275729914905
 20
887.294531626776
 30
-0.0000000000000123
 40
23.49936283079745
100
AcDbArc
 50
359.9993062979172
 51
45.00071322542271
  0
ARC
  5
B50
330
1F
100
AcDbEntity
  8
HEWI
  6
STANDARD
 62
     7
100
AcDbCircle
 10
623.1267443439646
 20
887.294435947675
 30
-0.0000000000000123
 40
23.49977800657983
100
AcDbArc
 50
134.999969142307
 51
180.0004604106747
  0
LINE
  5
B51
330
1F
100
AcDbEntity
  8
HEWI
  6
STANDARD
 62
     7
100
AcDbLine
 10
316.300315699219
 20
1131.950900525168
 30
-0.0000000000000018
 11
316.4318464609378
 21
1131.896350354269
 31
-0.0000000000000018
  0
LINE
  5
B52
330
1F
100
AcDbEntity
  8
HEWI
  6
STANDARD
 62
     7
100
AcDbLine
 10
606.6247836347447
 20
1193.830554455832
 30
-0.0000000000000123
 11
639.6247760053502
 21
1193.830554455832
 31
-0.0000000000000123
  0
LINE
  5
B53
330
1F
100
AcDbEntity
  8
HEWI
  6
STANDARD
 62
     7
100
AcDbLine
 10
639.6247760053502
 20
1169.830539197041
 30
-0.0000000000000123
 11
653.1247607465611
 21
1169.830539197041
 31
-0.0000000000000123
  0
LINE
  5
B54
330
1F
100
AcDbEntity
  8
HEWI
  6
STANDARD
 62
     7
100
AcDbLine
 10
593.1247607465611
 20
1169.830539197041
 30
-0.0000000000000123
 11
606.6247836347447
 21
1169.830539197041
 31
-0.0000000000000123
  0
LINE
  5
B55
330
1F
100
AcDbEntity
  8
HEWI
  6
STANDARD
 62
     7
100
AcDbLine
 10
593.1247607465611
 20
1125.830523938254
 30
-0.0000000000000123
 11
653.1247607465611
 21
1125.830523938254
 31
-0.0000000000000123
  0
LINE
  5
B56
330
1F
100
AcDbEntity
  8
HEWI
  6
STANDARD
 62
     7
100
AcDbLine
 10
639.6247760053502
 20
1169.830539197041
 30
-0.0000000000000123
 11
639.6247760053502
 21
1193.830554455832
 31
-0.0000000000000123
  0
LINE
  5
B57
330
1F
100
AcDbEntity
  8
HEWI
  6
STANDARD
 62
     7
100
AcDbLine
 10
606.6247836347447
 20
1169.830539197041
 30
-0.0000000000000123
 11
606.6247836347447
 21
1193.830554455832
 31
-0.0000000000000123
  0
LINE
  5
B58
330
1F
100
AcDbEntity
  8
HEWI
  6
STANDARD
 62
     7
100
AcDbLine
 10
593.1247607465611
 20
1125.830523938254
 30
-0.0000000000000123
 11
593.1247607465611
 21
1169.830539197041
 31
-0.0000000000000123
  0
LINE
  5
B59
330
1F
100
AcDbEntity
  8
HEWI
  6
STANDARD
 62
     7
100
AcDbLine
 10
653.1247607465611
 20
1125.830523938254
 30
-0.0000000000000123
 11
653.1247607465611
 21
1169.830539197041
 31
-0.0000000000000123
  0
LINE
  5
B5A
330
1F
100
AcDbEntity
  8
HEWI
  6
STANDARD
 62
     7
100
AcDbLine
 10
304.2023847910159
 20
1147.834155530051
 30
-0.0000000000000018
 11
304.2358778330081
 21
1148.088748425558
 31
-0.0000000000000018
  0
LINE
  5
B5B
330
1F
100
AcDbEntity
  8
HEWI
  6
STANDARD
 62
     7
100
AcDbLine
 10
304.734153589844
 20
1143.563678235127
 30
-0.0000000000000018
 11
304.7645948740237
 21
1143.794848889424
 31
-0.0000000000000018
  0
LINE
  5
B5C
330
1F
100
AcDbEntity
  8
HEWI
  6
STANDARD
 62
     7
100
AcDbLine
 10
306.3326643320315
 20
1139.584186047627
 30
-0.0000000000000018
 11
306.4129255625003
 21
1139.778048962668
 31
-0.0000000000000018
  0
LINE
  5
B5D
330
1F
100
AcDbEntity
  8
HEWI
  6
STANDARD
 62
     7
100
AcDbLine
 10
387.7023695322268
 20
1131.33414027126
 30
-0.0000000000000018
 11
387.7023695322268
 21
1164.218318432881
 31
-0.0000000000000018
  0
LINE
  5
B5E
330
1F
100
AcDbEntity
  8
HEWI
  6
STANDARD
 62
     7
100
AcDbLine
 10
610.9455004926549
 20
1166.883113354756
 30
-0.0000000000000123
 11
611.4575091596452
 21
1166.371066540793
 31
-0.0000000000000123
  0
LINE
  5
B5F
330
1F
100
AcDbEntity
  8
HEWI
  6
STANDARD
 62
     7
100
AcDbLine
 10
639.0625659223405
 20
1169.268329114035
 30
-0.0000000000000123
 11
639.6247760053502
 21
1169.830539197041
 31
-0.0000000000000123
  0
LINE
  5
B60
330
1F
100
AcDbEntity
  8
HEWI
  6
STANDARD
 62
     7
100
AcDbLine
 10
308.9213178964846
 20
1136.315143078877
 30
-0.0000000000000018
 11
309.0350721689438
 21
1136.166903943137
 31
-0.0000000000000018
  0
LINE
  5
B61
330
1F
100
AcDbEntity
  8
HEWI
  6
STANDARD
 62
     7
100
AcDbLine
 10
306.4129255625003
 20
1139.584186047627
 30
-0.0000000000000018
 11
307.6429365488284
 21
1137.981250256613
 31
-0.0000000000000018
  0
LINE
  5
B62
330
1F
100
AcDbEntity
  8
HEWI
  6
STANDARD
 62
     7
100
AcDbLine
 10
311.229514917969
 20
1161.185290783957
 30
-0.0000000000000018
 11
312.4523542734378
 21
1162.123591870383
 31
-0.0000000000000018
  0
LINE
  5
B63
330
1F
100
AcDbEntity
  8
HEWI
  6
STANDARD
 62
     7
100
AcDbLine
 10
309.0350721689438
 20
1159.501407116965
 30
-0.0000000000000018
 11
309.6935652109378
 21
1160.006663769795
 31
-0.0000000000000018
  0
LINE
  5
B64
330
1F
100
AcDbEntity
  8
HEWI
  6
STANDARD
 62
     7
100
AcDbLine
 10
631.3747683759556
 20
1164.35904261501
 30
-0.0000000000000123
 11
634.7920123334733
 21
1166.371066540793
 31
-0.0000000000000123
  0
LINE
  5
B65
330
1F
100
AcDbEntity
  8
HEWI
  6
STANDARD
 62
     7
100
AcDbLine
 10
635.3040210004674
 20
1166.883113354756
 30
-0.0000000000000123
 11
637.4141970868931
 21
1168.022181958273
 31
-0.0000000000000123
  0
LINE
  5
B66
330
1F
100
AcDbEntity
  8
HEWI
  6
STANDARD
 62
     7
100
AcDbLine
 10
627.3952761884556
 20
1162.889811963156
 30
-0.0000000000000123
 11
628.3161441083775
 21
1163.386867016866
 31
-0.0000000000000123
  0
LINE
  5
B67
330
1F
100
AcDbEntity
  8
HEWI
  6
STANDARD
 62
     7
100
AcDbLine
 10
351.0132215830081
 20
1165.334155530049
 30
-0.0000000000000018
 11
351.5414045664065
 21
1164.201457470967
 31
-0.0000000000000018
  0
LINE
  5
B68
330
1F
100
AcDbEntity
  8
HEWI
  6
STANDARD
 62
     7
100
AcDbLine
 10
304.7645948740237
 20
1143.563678235127
 30
-0.0000000000000018
 11
305.533714136719
 21
1141.706683606221
 31
-0.0000000000000018
  0
LINE
  5
B69
330
1F
100
AcDbEntity
  8
HEWI
  6
STANDARD
 62
     7
100
AcDbLine
 10
315.2026747080081
 20
1163.262813061789
 30
-0.0000000000000018
 11
316.4318464609378
 21
1163.771922558859
 31
-0.0000000000000018
  0
LINE
  5
B6A
330
1F
100
AcDbEntity
  8
HEWI
  6
STANDARD
 62
     7
100
AcDbLine
 10
312.4523542734378
 20
1162.123591870383
 30
-0.0000000000000018
 11
313.3980940195315
 21
1162.515323132589
 31
-0.0000000000000018
  0
LINE
  5
B6B
330
1F
100
AcDbEntity
  8
HEWI
  6
STANDARD
 62
     7
100
AcDbLine
 10
628.3161441083775
 20
1163.386867016866
 30
-0.0000000000000123
 11
631.3747683759556
 21
1164.35904261501
 31
-0.0000000000000123
  0
LINE
  5
B6C
330
1F
100
AcDbEntity
  8
HEWI
  6
STANDARD
 62
     7
100
AcDbLine
 10
638.4728900190203
 20
1169.080913037375
 30
-0.0000000000000123
 11
639.0625659223405
 21
1169.268329114035
 31
-0.0000000000000123
  0
LINE
  5
B6D
330
1F
100
AcDbEntity
  8
HEWI
  6
STANDARD
 62
     7
100
AcDbLine
 10
623.1247607465593
 20
1162.157084912375
 30
-0.0000000000000123
 11
627.3952761884556
 21
1162.889811963156
 31
-0.0000000000000123
  0
LINE
  5
B6E
330
1F
100
AcDbEntity
  8
HEWI
  6
STANDARD
 62
     7
100
AcDbLine
 10
304.2023847910159
 20
1147.834155530051
 30
-0.0000000000000018
 11
304.4633100839846
 21
1145.852038830832
 31
-0.0000000000000018
  0
LINE
  5
B6F
330
1F
100
AcDbEntity
  8
HEWI
  6
STANDARD
 62
     7
100
AcDbLine
 10
319.6943281503909
 20
1164.201457470967
 30
-0.0000000000000018
 11
320.7023237558578
 21
1164.33417078884
 31
-0.0000000000000018
  0
LINE
  5
B70
330
1F
100
AcDbEntity
  8
HEWI
  6
STANDARD
 62
     7
100
AcDbLine
 10
316.4318464609378
 20
1163.771922558859
 30
-0.0000000000000018
 11
317.6438520761721
 21
1163.93149134548
 31
-0.0000000000000018
  0
LINE
  5
B71
330
1F
100
AcDbEntity
  8
HEWI
  6
STANDARD
 62
     7
100
AcDbLine
 10
304.4523237558597
 20
1149.732806653096
 30
-0.0000000000000018
 11
304.7645948740237
 21
1152.104632824971
 31
-0.0000000000000018
  0
LINE
  5
B72
330
1F
100
AcDbEntity
  8
HEWI
  6
STANDARD
 62
     7
100
AcDbLine
 10
316.4318464609378
 20
1131.896350354269
 30
-0.0000000000000018
 11
318.4814070078128
 21
1131.626574963644
 31
-0.0000000000000018
  0
LINE
  5
B73
330
1F
100
AcDbEntity
  8
HEWI
  6
STANDARD
 62
     7
100
AcDbLine
 10
320.7023237558578
 20
1164.33417078884
 30
-0.0000000000000018
 11
321.7103956552737
 21
1164.201457470967
 31
-0.0000000000000018
  0
LINE
  5
B74
330
1F
100
AcDbEntity
  8
HEWI
  6
STANDARD
 62
     7
100
AcDbLine
 10
618.8542453046665
 20
1162.889811963156
 30
-0.0000000000000123
 11
623.1247607465593
 21
1162.157084912375
 31
-0.0000000000000123
  0
LINE
  5
B75
330
1F
100
AcDbEntity
  8
HEWI
  6
STANDARD
 62
     7
100
AcDbLine
 10
614.8747531171665
 20
1164.35904261501
 30
-0.0000000000000123
 11
617.9334155317174
 21
1163.386867016866
 31
-0.0000000000000123
  0
LINE
  5
B76
330
1F
100
AcDbEntity
  8
HEWI
  6
STANDARD
 62
     7
100
AcDbLine
 10
607.1869937177525
 20
1169.268329114035
 30
-0.0000000000000123
 11
607.7766314741002
 21
1169.080913037375
 31
-0.0000000000000123
  0
LINE
  5
B77
330
1F
100
AcDbEntity
  8
HEWI
  6
STANDARD
 62
     7
100
AcDbLine
 10
305.6342695566409
 20
1154.204242199971
 30
-0.0000000000000018
 11
306.4129255625003
 21
1156.084125012472
 31
-0.0000000000000018
  0
LINE
  5
B78
330
1F
100
AcDbEntity
  8
HEWI
  6
STANDARD
 62
     7
100
AcDbLine
 10
304.7645948740237
 20
1152.104632824971
 30
-0.0000000000000018
 11
304.9376295419925
 21
1152.522494763449
 31
-0.0000000000000018
  0
LINE
  5
B79
330
1F
100
AcDbEntity
  8
HEWI
  6
STANDARD
 62
     7
100
AcDbLine
 10
312.4523542734378
 20
1133.544757336691
 30
-0.0000000000000018
 11
314.343528589844
 21
1132.761371106221
 31
-0.0000000000000018
  0
LINE
  5
B7A
330
1F
100
AcDbEntity
  8
HEWI
  6
STANDARD
 62
     7
100
AcDbLine
 10
351.0132215830081
 20
1130.334155530051
 30
-0.0000000000000018
 11
351.4795301767581
 21
1131.33414027126
 31
-0.0000000000000018
  0
LINE
  5
B7B
330
1F
100
AcDbEntity
  8
HEWI
  6
STANDARD
 62
     7
100
AcDbLine
 10
608.8353625532017
 20
1168.022181958273
 30
-0.0000000000000123
 11
610.9455004926549
 21
1166.883113354756
 31
-0.0000000000000123
  0
LINE
  5
B7C
330
1F
100
AcDbEntity
  8
HEWI
  6
STANDARD
 62
     7
100
AcDbLine
 10
617.9334155317174
 20
1163.386867016866
 30
-0.0000000000000123
 11
618.8542453046665
 21
1162.889811963156
 31
-0.0000000000000123
  0
LINE
  5
B7D
330
1F
100
AcDbEntity
  8
HEWI
  6
STANDARD
 62
     7
100
AcDbLine
 10
611.4575091596452
 20
1166.371066540793
 30
-0.0000000000000123
 11
614.8747531171665
 21
1164.35904261501
 31
-0.0000000000000123
  0
LINE
  5
B7E
330
1F
100
AcDbEntity
  8
HEWI
  6
STANDARD
 62
     7
100
AcDbLine
 10
307.9576490732425
 20
1158.097255200459
 30
-0.0000000000000018
 11
309.0350721689438
 21
1159.501407116965
 31
-0.0000000000000018
  0
LINE
  5
B7F
330
1F
100
AcDbEntity
  8
HEWI
  6
STANDARD
 62
     7
100
AcDbLine
 10
306.4129255625003
 20
1156.084125012472
 30
-0.0000000000000018
 11
306.8024824472659
 21
1156.591784924581
 31
-0.0000000000000018
  0
LINE
  5
B80
330
1F
100
AcDbEntity
  8
HEWI
  6
STANDARD
 62
     7
100
AcDbLine
 10
312.3219679208987
 20
1133.644778698996
 30
-0.0000000000000018
 11
312.4523542734378
 21
1133.544757336691
 31
-0.0000000000000018
  0
LINE
  5
B81
330
1F
100
AcDbEntity
  8
HEWI
  6
STANDARD
 62
     7
100
AcDbLine
 10
309.0350721689438
 20
1136.166903943137
 30
-0.0000000000000018
 11
310.6473158212893
 21
1134.929797619894
 31
-0.0000000000000018
  0
LINE
  5
B82
330
1F
100
AcDbEntity
  8
HEWI
  6
STANDARD
 62
     7
100
AcDbLine
 10
637.4141970868931
 20
1168.022181958273
 30
-0.0000000000000123
 11
638.4728900190203
 21
1169.080913037375
 31
-0.0000000000000123
  0
LINE
  5
B83
330
1F
100
AcDbEntity
  8
HEWI
  6
STANDARD
 62
     7
100
AcDbLine
 10
634.7920123334733
 20
1166.371066540793
 30
-0.0000000000000123
 11
635.3040210004674
 21
1166.883113354756
 31
-0.0000000000000123
  0
LINE
  5
B84
330
1F
100
AcDbEntity
  8
HEWI
  6
STANDARD
 62
     7
100
AcDbLine
 10
607.7766314741002
 20
1169.080913037375
 30
-0.0000000000000123
 11
608.8353625532017
 21
1168.022181958273
 31
-0.0000000000000123
  0
LINE
  5
B85
330
1F
100
AcDbEntity
  8
HEWI
  6
STANDARD
 62
     7
100
AcDbLine
 10
606.6247836347447
 20
1169.830539197041
 30
-0.0000000000000123
 11
607.1869937177525
 21
1169.268329114035
 31
-0.0000000000000123
  0
ARC
  5
B86
330
1F
100
AcDbEntity
  8
HEWI
  6
STANDARD
 62
     7
100
AcDbCircle
 10
320.7023277910803
 20
1147.834155530051
 30
-0.0000000000000018
 40
35.00000403522119
100
AcDbArc
 50
29.99999618619853
 51
330.0000038138015
  0
ARC
  5
B87
330
1F
100
AcDbEntity
  8
HEWI
  6
STANDARD
 62
     7
100
AcDbCircle
 10
320.7025128622108
 20
1147.832292919271
 30
-0.0000000000000018
 40
16.50011748247523
100
AcDbArc
 50
178.2328143305848
 51
269.1157778181433
  0
ARC
  5
B88
330
1F
100
AcDbEntity
  8
HEWI
  6
STANDARD
 62
     7
100
AcDbCircle
 10
320.7023668604334
 20
1147.832227451421
 30
-0.0000000000000018
 40
16.4999735692057
100
AcDbArc
 50
97.21760870572895
 51
178.2325714684111
  0
LINE
  5
B89
330
1F
100
AcDbEntity
  8
HEWI
  6
Continuous
100
AcDbLine
 10
318.6293409677737
 20
1164.201457470967
 30
-0.0000000000000018
 11
593.1247607465611
 21
1164.213172411403
 31
-0.0000000000000018
  0
LINE
  5
B8A
330
1F
100
AcDbEntity
  8
HEWI
  6
Continuous
100
AcDbLine
 10
320.4478834482425
 20
1131.33414027126
 30
-0.0000000000000018
 11
593.1247607465611
 21
1131.33414027126
 31
-0.0000000000000018
  0
LINE
  5
BA6
330
1F
100
AcDbEntity
  8
HEWI
  6
Continuous
100
AcDbLine
 10
653.1247607465611
 20
1164.215733096847
 30
-0.0000000000000018
 11
713.7023542734377
 21
1164.218318432881
 31
-0.0000000000000018
  0
LINE
  5
BA7
330
1F
100
AcDbEntity
  8
HEWI
100
AcDbLine
 10
593.1247607465611
 20
1164.332292919271
 30
-0.0000000000000037
 11
350.7023542734369
 21
1164.332292919271
 31
0.0000000000000047
210
0.0
220
1.0
230
0.0
  0
LINE
  5
BA8
330
1F
100
AcDbEntity
  8
HEWI
  6
Continuous
100
AcDbLine
 10
653.1247607465602
 20
1131.33414027126
 30
-0.0000000000000018
 11
713.7023542734377
 21
1131.33414027126
 31
-0.0000000000000018
  0
LINE
  5
BA9
330
1F
100
AcDbEntity
  8
HEWI
100
AcDbLine
 10
593.1247607465611
 20
1131.332292919271
 30
-0.0000000000000037
 11
350.7023542734369
 21
1131.332292919271
 31
0.0000000000000047
210
0.0
220
1.0
230
0.0
  0
LINE
  5
BAA
330
1F
100
AcDbEntity
  8
HEWI
  6
Continuous
100
AcDbLine
 10
653.1269510793545
 20
903.6584051255577
 30
-0.0000000000000018
 11
713.7045446062284
 21
903.6584051255577
 31
-0.0000000000000018
  0
LINE
  5
BAB
330
1F
100
AcDbEntity
  8
HEWI
100
AcDbLine
 10
593.1269510793518
 20
903.6584051255577
 30
-0.0000000000000018
 11
369.2025128622081
 21
903.6584051255577
 31
-0.0000000000000018
  0
LINE
  5
BAC
330
1F
100
AcDbEntity
  8
HEWI
  6
Continuous
100
AcDbLine
 10
653.1269510793545
 20
870.6584051255585
 30
-0.0000000000000018
 11
713.7045446062284
 21
870.6584051255585
 31
-0.0000000000000018
  0
LINE
  5
BAD
330
1F
100
AcDbEntity
  8
HEWI
100
AcDbLine
 10
593.1269510793518
 20
870.6584051255576
 30
-0.0000000000000018
 11
369.2025128622081
 21
870.6584051255576
 31
-0.0000000000000018
  0
ENDSEC
  0
SECTION
  2
OBJECTS
  0
DICTIONARY
  5
C
330
0
100
AcDbDictionary
281
     1
  3
ACAD_CIP_PREVIOUS_PRODUCT_INFO
350
75A
  3
ACAD_COLOR
350
6B
  3
ACAD_DETAILVIEWSTYLE
350
754
  3
ACAD_GROUP
350
D
  3
ACAD_LAYOUT
350
1A
  3
ACAD_MATERIAL
350
6A
  3
ACAD_MLEADERSTYLE
350
750
  3
ACAD_MLINESTYLE
350
17
  3
ACAD_PLOTSETTINGS
350
19
  3
ACAD_PLOTSTYLENAME
350
E
  3
ACAD_SCALELIST
350
73E
  3
ACAD_SECTIONVIEWSTYLE
350
752
  3
ACAD_TABLESTYLE
350
73C
  3
ACAD_VISUALSTYLE
350
723
  3
ACDB_RECOMPOSE_DATA
350
C0D
  3
ACDBVARIABLEDICTIONARY
350
5E
  0
DICTIONARY
  5
7A8
330
10
100
AcDbDictionary
280
     1
281
     1
  3
ADSK_XREC_LAYER_RECONCILED
360
7A9
  0
DICTIONARY
  5
7AA
330
88
100
AcDbDictionary
280
     1
281
     1
  3
ADSK_XREC_LAYER_RECONCILED
360
7AB
  0
DICTIONARY
  5
7AC
330
7A5
100
AcDbDictionary
280
     1
281
     1
  3
ADSK_XREC_LAYER_RECONCILED
360
7AD
  0
DICTIONARY
  5
703
330
1F
100
AcDbDictionary
280
     1
281
     1
  3
ACAD_LAYOUTSELFREF
360
704
  3
ACAD_SORTENTS
360
BA5
  0
DICTIONARY
  5
705
330
50
100
AcDbDictionary
280
     1
281
     1
  3
ACAD_LAYOUTSELFREF
360
706
  0
XRECORD
  5
75A
102
{ACAD_REACTORS
330
C
102
}
330
C
100
AcDbXrecord
280
     1
300
ACDLT
300
2016
300
ACDLT_F_S
  0
DICTIONARY
  5
6B
102
{ACAD_REACTORS
330
C
102
}
330
C
100
AcDbDictionary
281
     1
  0
DICTIONARY
  5
754
102
{ACAD_REACTORS
330
C
102
}
330
C
100
AcDbDictionary
281
     1
  3
Imperial24
350
7F4
  3
Metric50
350
755
  0
DICTIONARY
  5
D
102
{ACAD_REACTORS
330
C
102
}
330
C
100
AcDbDictionary
281
     1
  0
DICTIONARY
  5
1A
102
{ACAD_REACTORS
330
C
102
}
330
C
100
AcDbDictionary
281
     1
  3
Layout1
350
757
  3
Model
350
756
  0
DICTIONARY
  5
6A
102
{ACAD_REACTORS
330
C
102
}
330
C
100
AcDbDictionary
281
     1
  3
ByBlock
350
713
  3
ByLayer
350
70B
  3
Global
350
71B
  0
DICTIONARY
  5
750
102
{ACAD_REACTORS
330
C
102
}
330
C
100
AcDbDictionary
281
     1
  3
Standard
350
751
  0
DICTIONARY
  5
17
102
{ACAD_REACTORS
330
C
102
}
330
C
100
AcDbDictionary
281
     1
  3
STANDARD
350
18
  0
DICTIONARY
  5
19
102
{ACAD_REACTORS
330
C
102
}
330
C
100
AcDbDictionary
281
     1
  0
ACDBDICTIONARYWDFLT
  5
E
102
{ACAD_REACTORS
330
C
102
}
330
C
100
AcDbDictionary
281
     1
  3
Normal
350
F
100
AcDbDictionaryWithDefault
340
F
  0
DICTIONARY
  5
73E
102
{ACAD_REACTORS
330
C
102
}
330
C
100
AcDbDictionary
281
     1
  3
A0
350
73F
  3
A1
350
740
  3
A2
350
741
  3
A3
350
742
  3
A4
350
743
  3
A5
350
744
  3
A6
350
745
  3
A7
350
746
  3
A8
350
747
  3
A9
350
748
  3
B0
350
749
  3
B1
350
74A
  3
B2
350
74B
  3
B3
350
74C
  3
B4
350
74D
  3
B5
350
74E
  3
B6
350
74F
  0
DICTIONARY
  5
752
102
{ACAD_REACTORS
330
C
102
}
330
C
100
AcDbDictionary
281
     1
  3
Imperial24
350
7F3
  3
Metric50
350
753
  0
DICTIONARY
  5
73C
102
{ACAD_REACTORS
330
C
102
}
330
C
100
AcDbDictionary
281
     1
  3
Standard
350
73D
  0
DICTIONARY
  5
723
102
{ACAD_REACTORS
330
C
102
}
330
C
100
AcDbDictionary
281
     1
  3
2dWireframe
350
729
  3
Basic
350
728
  3
Brighten
350
72F
  3
ColorChange
350
733
  3
Conceptual
350
72C
  3
Dim
350
72E
  3
EdgeColorOff
350
73B
  3
Facepattern
350
732
  3
Flat
350
724
  3
FlatWithEdges
350
725
  3
Gouraud
350
726
  3
GouraudWithEdges
350
727
  3
Hidden
350
72B
  3
JitterOff
350
739
  3
Linepattern
350
731
  3
OverhangOff
350
73A
  3
Realistic
350
72D
  3
Shaded
350
738
  3
Shaded with edges
350
737
  3
Shades of Gray
350
734
  3
Sketchy
350
735
  3
Thicken
350
730
  3
Wireframe
350
72A
  3
X-Ray
350
736
  0
XRECORD
  5
C0D
102
{ACAD_REACTORS
330
C
102
}
330
C
100
AcDbXrecord
280
     1
 90
        1
330
73D
  0
DICTIONARY
  5
5E
102
{ACAD_REACTORS
330
C
102
}
330
C
100
AcDbDictionary
281
     1
  3
CANNOSCALE
350
7B3
  3
CMLEADERSTYLE
350
7AF
  3
CTABLESTYLE
350
7AE
  3
CVIEWDETAILSTYLE
350
7B0
  3
CVIEWSECTIONSTYLE
350
7B1
  3
DIMASSOC
350
5F
  3
HIDETEXT
350
63
  3
LAYEREVAL
350
7B5
  3
LAYERNOTIFY
350
7B6
  3
LIGHTINGUNITS
350
7B4
  3
MSLTSCALE
350
7B2
  3
PROJECTNAME
350
23B
  0
XRECORD
  5
7A9
102
{ACAD_REACTORS
330
7A8
102
}
330
7A8
100
AcDbXrecord
280
     1
290
     1
  0
XRECORD
  5
7AB
102
{ACAD_REACTORS
330
7AA
102
}
330
7AA
100
AcDbXrecord
280
     1
290
     1
  0
XRECORD
  5
7AD
102
{ACAD_REACTORS
330
7AC
102
}
330
7AC
100
AcDbXrecord
280
     1
290
     1
  0
XRECORD
  5
704
102
{ACAD_REACTORS
330
703
102
}
330
703
100
AcDbXrecord
280
     1
340
1F
  0
SORTENTSTABLE
  5
BA5
102
{ACAD_REACTORS
330
703
102
}
330
703
100
AcDbSortentsTable
330
1F
331
B18
  5
B1E
331
9C8
  5
9C8
331
BA9
  5
A1E
331
9D9
  5
9D9
331
B22
  5
B28
331
B33
  5
B39
331
9EA
  5
9EA
331
9FB
  5
9FB
331
B44
  5
B4A
331
A0C
  5
A0C
331
B55
  5
B5B
331
A1D
  5
A1F
331
B66
  5
B6C
331
A2E
  5
A30
331
B77
  5
B7D
331
B88
  5
BA7
331
A38
  5
A3A
331
AB2
  5
AB4
331
A49
  5
A4B
331
AC3
  5
AC7
331
A5A
  5
A5C
331
AD4
  5
AD8
331
A6B
  5
A6D
331
AE5
  5
AEB
331
A7C
  5
A7E
331
AF6
  5
AFC
331
A8D
  5
A8F
331
B07
  5
B0D
331
A9E
  5
AA0
331
B08
  5
B0E
331
B19
  5
B1F
331
9C9
  5
9C9
331
BAA
  5
AE3
331
9DA
  5
9DA
331
B23
  5
B29
331
B34
  5
B3A
331
9EB
  5
9EB
331
9FC
  5
9FC
331
B45
  5
B4B
331
A0D
  5
A0D
331
B56
  5
B5C
331
A1E
  5
A20
331
B67
  5
B6D
331
A2F
  5
A31
331
B78
  5
B7E
331
B89
  5
BA8
331
A39
  5
A3B
331
AB3
  5
AB5
331
A4A
  5
A4C
331
AC4
  5
AC8
331
A5B
  5
A5D
331
AD5
  5
AD9
331
A6C
  5
A6E
331
AE6
  5
AEC
331
A7D
  5
A7F
331
AF7
  5
AFD
331
A8E
  5
A90
331
A9F
  5
AA1
331
AF8
  5
AFE
331
B09
  5
B0F
331
AA0
  5
AA2
331
B1A
  5
B20
331
9CA
  5
9CA
331
BAB
  5
ABE
331
9DB
  5
9DB
331
B24
  5
B2A
331
B35
  5
B3B
331
9EC
  5
9EC
331
9FD
  5
9FD
331
B46
  5
B4C
331
A0E
  5
A0E
331
B57
  5
B5D
331
A1F
  5
A21
331
B68
  5
B6E
331
B79
  5
B7F
331
B8A
  5
BAA
331
A3A
  5
A3C
331
AB4
  5
AB6
331
A4B
  5
A4D
331
AC5
  5
AC9
331
A5C
  5
A5E
331
AD6
  5
ADA
331
A6D
  5
A6F
331
AE7
  5
AED
331
A7E
  5
A80
331
A8F
  5
A91
331
AE8
  5
AEE
331
AF9
  5
AFF
331
A90
  5
A92
331
B0A
  5
B10
331
AA1
  5
AA3
331
B1B
  5
B21
331
9CB
  5
9CB
331
BAC
  5
AE6
331
9DC
  5
9DC
331
B25
  5
B2B
331
B36
  5
B3C
331
9ED
  5
9ED
331
9FE
  5
9FE
331
B47
  5
B4D
331
A0F
  5
A0F
331
B58
  5
B5E
331
A20
  5
A22
331
B69
  5
B6F
331
B7A
  5
B80
331
A3B
  5
A3D
331
AB5
  5
AB7
331
A4C
  5
A4E
331
AC6
  5
ACA
331
A5D
  5
A5F
331
AD7
  5
ADB
331
A6E
  5
A70
331
A7F
  5
A81
331
AD8
  5
ADC
331
AE9
  5
AEF
331
A80
  5
A82
331
AFA
  5
B00
331
A91
  5
A93
331
B0B
  5
B11
331
AA2
  5
AA4
331
B1C
  5
B22
331
9CC
  5
9CC
331
BAD
  5
AC1
331
9DD
  5
9DD
331
B26
  5
B2C
331
B37
  5
B3D
331
9EE
  5
9EE
331
9FF
  5
9FF
331
B48
  5
B4E
331
A10
  5
A10
331
B59
  5
B5F
331
A21
  5
A23
331
B6A
  5
B70
331
B7B
  5
B81
331
A3C
  5
A3E
331
AB6
  5
AB8
331
A4D
  5
A4F
331
AC7
  5
ACB
331
A5E
  5
A60
331
A6F
  5
A71
331
AC8
  5
ACC
331
AD9
  5
ADD
331
A70
  5
A72
331
AEA
  5
AF0
331
A81
  5
A83
331
AFB
  5
B01
331
A92
  5
A94
331
B0C
  5
B12
331
AA3
  5
AA5
331
B1D
  5
B23
331
9CD
  5
9CD
331
9DE
  5
9DE
331
B27
  5
B2D
331
B38
  5
B3E
331
9EF
  5
9EF
331
A00
  5
A00
331
B49
  5
B4F
331
A11
  5
A11
331
B5A
  5
B60
331
A22
  5
A24
331
B6B
  5
B71
331
B7C
  5
B82
331
A3D
  5
A3F
331
AB7
  5
AB9
331
A4E
  5
A50
331
A5F
  5
A61
331
AB8
  5
ABA
331
AC9
  5
ACD
331
A60
  5
A62
331
ADA
  5
ADE
331
A71
  5
A73
331
AEB
  5
AF1
331
A82
  5
A84
331
AFC
  5
B02
331
A93
  5
A95
331
B0D
  5
B13
331
AA4
  5
AA6
331
B1E
  5
B24
331
9CE
  5
9CE
331
9DF
  5
9DF
331
B28
  5
B2E
331
B39
  5
B3F
331
9F0
  5
9F0
331
A01
  5
A01
331
B4A
  5
B50
331
A12
  5
A12
331
B5B
  5
B61
331
A23
  5
A25
331
B6C
  5
B72
331
B7D
  5
B83
331
A3E
  5
A40
331
A4F
  5
A51
331
AA8
  5
AAA
331
AB9
  5
ABB
331
A50
  5
A52
331
ACA
  5
ACE
331
A61
  5
A63
331
ADB
  5
ADF
331
A72
  5
A74
331
AEC
  5
AF2
331
A83
  5
A85
331
AFD
  5
B03
331
A94
  5
A96
331
B0E
  5
B14
331
AA5
  5
AA7
331
B1F
  5
B25
331
9CF
  5
9CF
331
9E0
  5
9E0
331
B29
  5
B2F
331
B3A
  5
B40
331
9F1
  5
9F1
331
A02
  5
A02
331
B4B
  5
B51
331
A13
  5
A13
331
B5C
  5
B62
331
A24
  5
A26
331
B6D
  5
B73
331
B7E
  5
B84
331
A3F
  5
A41
331
AA9
  5
AAB
331
A40
  5
A42
331
ABA
  5
ABC
331
A51
  5
A53
331
ACB
  5
ACF
331
A62
  5
A64
331
ADC
  5
AE0
331
A73
  5
A75
331
AED
  5
AF3
331
A84
  5
A86
331
AFE
  5
B04
331
A95
  5
A97
331
B0F
  5
B15
331
AA6
  5
AA8
331
9D0
  5
9D0
331
9E1
  5
9E1
331
B2A
  5
B30
331
B3B
  5
B41
331
9F2
  5
9F2
331
A03
  5
A03
331
B4C
  5
B52
331
A14
  5
A14
331
B5D
  5
B63
331
A25
  5
A27
331
B6E
  5
B74
331
B7F
  5
B85
331
B80
  5
B86
331
A30
  5
A32
331
AAA
  5
AAC
331
A41
  5
A43
331
ABB
  5
ABD
331
A52
  5
A54
331
ACC
  5
AD0
331
A63
  5
A65
331
ADD
  5
AE1
331
A74
  5
A76
331
AEE
  5
AF4
331
A85
  5
A87
331
AFF
  5
B05
331
A96
  5
A98
331
B10
  5
B16
331
AA7
  5
AA9
331
9D1
  5
9D1
331
9E2
  5
9E2
331
B2B
  5
B31
331
B3C
  5
B42
331
9F3
  5
9F3
331
A04
  5
A04
331
B4D
  5
B53
331
A15
  5
A15
331
B5E
  5
B64
331
A26
  5
A28
331
B6F
  5
B75
331
B70
  5
B76
331
B81
  5
B87
331
A31
  5
A33
331
AAB
  5
AAD
331
A42
  5
A44
331
ABC
  5
ABF
331
A53
  5
A55
331
ACD
  5
AD1
331
A64
  5
A66
331
ADE
  5
AE2
331
A75
  5
A77
331
AEF
  5
AF5
331
A86
  5
A88
331
B00
  5
B06
331
A97
  5
A99
331
B11
  5
B17
331
9D2
  5
9D2
331
9E3
  5
9E3
331
B2C
  5
B32
331
9F4
  5
9F4
331
B3D
  5
B43
331
A05
  5
A05
331
B4E
  5
B54
331
A16
  5
A16
331
B5F
  5
B65
331
A27
  5
A29
331
B60
  5
B66
331
A28
  5
A2A
331
B71
  5
B77
331
B82
  5
B88
331
A32
  5
A34
331
AAC
  5
AAE
331
A43
  5
A45
331
ABD
  5
AC0
331
A54
  5
A56
331
ACE
  5
AD2
331
A65
  5
A67
331
ADF
  5
AE4
331
A76
  5
A78
331
AF0
  5
AF6
331
A87
  5
A89
331
B01
  5
B07
331
A98
  5
A9A
331
B12
  5
B18
331
9D3
  5
9D3
331
9E4
  5
9E4
331
B2D
  5
B33
331
9F5
  5
9F5
331
B3E
  5
B44
331
A06
  5
A06
331
B4F
  5
B55
331
A17
  5
A17
331
B50
  5
B56
331
A18
  5
A18
331
B61
  5
B67
331
A29
  5
A2B
331
B72
  5
B78
331
B83
  5
B89
331
A33
  5
A35
331
AAD
  5
AAF
331
A44
  5
A46
331
ABE
  5
AC2
331
A55
  5
A57
331
ACF
  5
AD3
331
A66
  5
A68
331
AE0
  5
AE5
331
A77
  5
A79
331
AF1
  5
AF7
331
A88
  5
A8A
331
B02
  5
B08
331
A99
  5
A9B
331
B13
  5
B19
331
9C3
  5
9C3
331
9D4
  5
9D4
331
9E5
  5
9E5
331
B2E
  5
B34
331
9F6
  5
9F6
331
B3F
  5
B45
331
A07
  5
A07
331
B40
  5
B46
331
A08
  5
A08
331
B51
  5
B57
331
A19
  5
A19
331
B62
  5
B68
331
A2A
  5
A2C
331
B73
  5
B79
331
B84
  5
B8A
331
A34
  5
A36
331
AAE
  5
AB0
331
A45
  5
A47
331
ABF
  5
AC3
331
A56
  5
A58
331
AD0
  5
AD4
331
A67
  5
A69
331
AE1
  5
AE7
331
A78
  5
A7A
331
AF2
  5
AF8
331
A89
  5
A8B
331
B03
  5
B09
331
A9A
  5
A9C
331
B14
  5
B1A
331
9C4
  5
9C4
331
9D5
  5
9D5
331
9E6
  5
9E6
331
B2F
  5
B35
331
9F7
  5
9F7
331
B30
  5
B36
331
9F8
  5
9F8
331
B41
  5
B47
331
A09
  5
A09
331
B52
  5
B58
331
A1A
  5
A1A
331
B63
  5
B69
331
A2B
  5
A2D
331
B74
  5
B7A
331
B85
  5
BA3
331
A35
  5
A37
331
AAF
  5
AB1
331
A46
  5
A48
331
AC0
  5
AC4
331
A57
  5
A59
331
AD1
  5
AD5
331
A68
  5
A6A
331
AE2
  5
AE8
331
A79
  5
A7B
331
AF3
  5
AF9
331
A8A
  5
A8C
331
B04
  5
B0A
331
A9B
  5
A9D
331
B15
  5
B1B
331
9C5
  5
9C5
331
BA6
  5
BA9
331
9D6
  5
9D6
331
9E7
  5
9E7
331
B20
  5
B26
331
9E8
  5
9E8
331
B31
  5
B37
331
9F9
  5
9F9
331
B42
  5
B48
331
A0A
  5
A0A
331
B53
  5
B59
331
A1B
  5
A1B
331
B64
  5
B6A
331
A2C
  5
A2E
331
B75
  5
B7B
331
B86
  5
BA4
331
A36
  5
A38
331
AB0
  5
AB2
331
A47
  5
A49
331
AC1
  5
AC5
331
A58
  5
A5A
331
AD2
  5
AD6
331
A69
  5
A6B
331
AE3
  5
AE9
331
A7A
  5
A7C
331
AF4
  5
AFA
331
A8B
  5
A8D
331
B05
  5
B0B
331
A9C
  5
A9E
331
B16
  5
B1C
331
9C6
  5
9C6
331
BA7
  5
A1C
331
9D7
  5
9D7
331
BA8
  5
BAB
331
9D8
  5
9D8
331
B21
  5
B27
331
B32
  5
B38
331
9E9
  5
9E9
331
9FA
  5
9FA
331
B43
  5
B49
331
A0B
  5
A0B
331
B54
  5
B5A
331
A1C
  5
A1D
331
B65
  5
B6B
331
A2D
  5
A2F
331
B76
  5
B7C
331
B87
  5
BA6
331
A37
  5
A39
331
AB1
  5
AB3
331
A48
  5
A4A
331
AC2
  5
AC6
331
A59
  5
A5B
331
AD3
  5
AD7
331
A6A
  5
A6C
331
AE4
  5
AEA
331
A7B
  5
A7D
331
AF5
  5
AFB
331
A8C
  5
A8E
331
B06
  5
B0C
331
A9D
  5
A9F
331
B17
  5
B1D
331
9C7
  5
9C7
  0
XRECORD
  5
706
102
{ACAD_REACTORS
330
705
102
}
330
705
100
AcDbXrecord
280
     1
340
50
  0
ACDBDETAILVIEWSTYLE
  5
7F4
102
{ACAD_XDICTIONARY
360
C44
102
}
102
{ACAD_REACTORS
330
754
102
}
330
754
100
AcDbModelDocViewStyle
 70
     0
  3
Imperial24
290
     0
100
AcDbDetailViewStyle
 70
     0
 71
     0
 90
        3
 71
     1
340
11
 62
   256
 40
0.24
340
0
 62
   256
 40
0.24
300

 40
0.36
280
     3
 71
     2
340
16
 90
       25
 62
   256
 71
     3
340
11
 62
   256
 40
0.24
 90
        1
 40
0.75
 90
        1
300
%<\AcVar ViewType \f "%tc1">% %<\AcVar ViewDetailId>%\PVARIA %<\AcVar ViewScale \f "%sn">%
 71
     4
340
16
 90
       25
 62
   256
340
16
 90
       25
 62
   256
280
     0
  0
ACDBDETAILVIEWSTYLE
  5
755
102
{ACAD_XDICTIONARY
360
C40
102
}
102
{ACAD_REACTORS
330
754
102
}
330
754
100
AcDbModelDocViewStyle
 70
     0
  3
Metric50
290
     0
100
AcDbDetailViewStyle
 70
     0
 71
     0
 90
        3
 71
     1
340
11
 62
   256
 40
5.0
340
0
 62
   256
 40
5.0
300

 40
0.0
280
     1
 71
     2
340
16
 90
       25
 62
   256
 71
     3
340
11
 62
   256
 40
5.0
 90
        0
 40
15.0
 90
        1
300
%<\AcVar ViewDetailId>% (%<\AcVar ViewScale \f "%sn">%)
 71
     4
340
16
 90
       25
 62
   256
340
16
 90
       25
 62
   256
280
     0
  0
LAYOUT
  5
757
102
{ACAD_REACTORS
330
1A
102
}
330
1A
100
AcDbPlotSettings
  1

  2
\\srvadruck01\MFSA15
  4

  6

 40
0.0
 41
0.0
 42
0.0
 43
0.0
 44
0.0
 45
0.0
 46
0.0
 47
0.0
 48
0.0
 49
0.0
140
0.0
141
0.0
142
1.0
143
1.0
 70
   688
 72
     0
 73
     0
 74
     5
  7

 75
    16
147
1.0
 76
     0
 77
     2
 78
   300
148
0.0
149
0.0
100
AcDbLayout
  1
Layout1
 70
     1
 71
     1
 10
0.0
 20
0.0
 11
12.0
 21
9.0
 12
0.0
 22
0.0
 32
0.0
 14
0.0
 24
0.0
 34
0.0
 15
0.0
 25
0.0
 35
0.0
146
0.0
 13
0.0
 23
0.0
 33
0.0
 16
1.0
 26
0.0
 36
0.0
 17
0.0
 27
1.0
 37
0.0
 76
     0
330
50
  0
LAYOUT
  5
756
102
{ACAD_REACTORS
330
1A
102
}
330
1A
100
AcDbPlotSettings
  1

  2
\\srvadruck01\MFSA15
  4

  6

 40
0.0
 41
0.0
 42
0.0
 43
0.0
 44
0.0
 45
0.0
 46
0.0
 47
0.0
 48
0.0
 49
0.0
140
0.0
141
0.0
142
1.0
143
1.0
 70
  1712
 72
     0
 73
     0
 74
     0
  7

 75
     0
147
1.0
 76
     0
 77
     2
 78
   300
148
0.0
149
0.0
100
AcDbLayout
  1
Model
 70
     1
 71
     0
 10
0.0
 20
0.0
 11
12.0
 21
9.0
 12
0.0
 22
0.0
 32
0.0
 14
0.0
 24
0.0
 34
0.0
 15
0.0
 25
0.0
 35
0.0
146
0.0
 13
0.0
 23
0.0
 33
0.0
 16
1.0
 26
0.0
 36
0.0
 17
0.0
 27
1.0
 37
0.0
 76
     0
330
1F
331
6E1
  0
MATERIAL
  5
713
102
{ACAD_XDICTIONARY
360
714
102
}
102
{ACAD_REACTORS
330
6A
102
}
330
6A
100
AcDbMaterial
  1
ByBlock
 72
     0
 43
0.0008202099737533
 43
0.0
 43
0.0
 43
0.0
 43
0.0
 43
0.0008202099737533
 43
0.0
 43
0.0
 43
0.0
 43
0.0
 43
1.0
 43
0.0
 43
0.0
 43
0.0
 43
0.0
 43
1.0
 77
     0
 47
0.0008202099737533
 47
0.0
 47
0.0
 47
0.0
 47
0.0
 47
0.0008202099737533
 47
0.0
 47
0.0
 47
0.0
 47
0.0
 47
1.0
 47
0.0
 47
0.0
 47
0.0
 47
0.0
 47
1.0
171
     0
 49
0.0008202099737533
 49
0.0
 49
0.0
 49
0.0
 49
0.0
 49
0.0008202099737533
 49
0.0
 49
0.0
 49
0.0
 49
0.0
 49
1.0
 49
0.0
 49
0.0
 49
0.0
 49
0.0
 49
1.0
175
     0
142
0.0008202099737533
142
0.0
142
0.0
142
0.0
142
0.0
142
0.0008202099737533
142
0.0
142
0.0
142
0.0
142
0.0
142
1.0
142
0.0
142
0.0
142
0.0
142
0.0
142
1.0
179
     0
144
0.0008202099737533
144
0.0
144
0.0
144
0.0
144
0.0
144
0.0008202099737533
144
0.0
144
0.0
144
0.0
144
0.0
144
1.0
144
0.0
144
0.0
144
0.0
144
0.0
144
1.0
147
0.0008202099737533
147
0.0
147
0.0
147
0.0
147
0.0
147
0.0008202099737533
147
0.0
147
0.0
147
0.0
147
0.0
147
1.0
147
0.0
147
0.0
147
0.0
147
0.0
147
1.0
  0
MATERIAL
  5
70B
102
{ACAD_XDICTIONARY
360
70C
102
}
102
{ACAD_REACTORS
330
6A
102
}
330
6A
100
AcDbMaterial
  1
ByLayer
 72
     0
 43
0.0008202099737533
 43
0.0
 43
0.0
 43
0.0
 43
0.0
 43
0.0008202099737533
 43
0.0
 43
0.0
 43
0.0
 43
0.0
 43
1.0
 43
0.0
 43
0.0
 43
0.0
 43
0.0
 43
1.0
 77
     0
 47
0.0008202099737533
 47
0.0
 47
0.0
 47
0.0
 47
0.0
 47
0.0008202099737533
 47
0.0
 47
0.0
 47
0.0
 47
0.0
 47
1.0
 47
0.0
 47
0.0
 47
0.0
 47
0.0
 47
1.0
171
     0
 49
0.0008202099737533
 49
0.0
 49
0.0
 49
0.0
 49
0.0
 49
0.0008202099737533
 49
0.0
 49
0.0
 49
0.0
 49
0.0
 49
1.0
 49
0.0
 49
0.0
 49
0.0
 49
0.0
 49
1.0
175
     0
142
0.0008202099737533
142
0.0
142
0.0
142
0.0
142
0.0
142
0.0008202099737533
142
0.0
142
0.0
142
0.0
142
0.0
142
1.0
142
0.0
142
0.0
142
0.0
142
0.0
142
1.0
179
     0
144
0.0008202099737533
144
0.0
144
0.0
144
0.0
144
0.0
144
0.0008202099737533
144
0.0
144
0.0
144
0.0
144
0.0
144
1.0
144
0.0
144
0.0
144
0.0
144
0.0
144
1.0
147
0.0008202099737533
147
0.0
147
0.0
147
0.0
147
0.0
147
0.0008202099737533
147
0.0
147
0.0
147
0.0
147
0.0
147
1.0
147
0.0
147
0.0
147
0.0
147
0.0
147
1.0
  0
MATERIAL
  5
71B
102
{ACAD_XDICTIONARY
360
71C
102
}
102
{ACAD_REACTORS
330
6A
102
}
330
6A
100
AcDbMaterial
  1
Global
 72
     0
 43
0.0008202099737533
 43
0.0
 43
0.0
 43
0.0
 43
0.0
 43
0.0008202099737533
 43
0.0
 43
0.0
 43
0.0
 43
0.0
 43
1.0
 43
0.0
 43
0.0
 43
0.0
 43
0.0
 43
1.0
 77
     0
 47
0.0008202099737533
 47
0.0
 47
0.0
 47
0.0
 47
0.0
 47
0.0008202099737533
 47
0.0
 47
0.0
 47
0.0
 47
0.0
 47
1.0
 47
0.0
 47
0.0
 47
0.0
 47
0.0
 47
1.0
171
     0
 49
0.0008202099737533
 49
0.0
 49
0.0
 49
0.0
 49
0.0
 49
0.0008202099737533
 49
0.0
 49
0.0
 49
0.0
 49
0.0
 49
1.0
 49
0.0
 49
0.0
 49
0.0
 49
0.0
 49
1.0
175
     0
142
0.0008202099737533
142
0.0
142
0.0
142
0.0
142
0.0
142
0.0008202099737533
142
0.0
142
0.0
142
0.0
142
0.0
142
1.0
142
0.0
142
0.0
142
0.0
142
0.0
142
1.0
179
     0
144
0.0008202099737533
144
0.0
144
0.0
144
0.0
144
0.0
144
0.0008202099737533
144
0.0
144
0.0
144
0.0
144
0.0
144
1.0
144
0.0
144
0.0
144
0.0
144
0.0
144
1.0
147
0.0008202099737533
147
0.0
147
0.0
147
0.0
147
0.0
147
0.0008202099737533
147
0.0
147
0.0
147
0.0
147
0.0
147
1.0
147
0.0
147
0.0
147
0.0
147
0.0
147
1.0
  0
MLEADERSTYLE
  5
751
102
{ACAD_REACTORS
330
750
102
}
330
750
100
AcDbMLeaderStyle
179
     2
170
     2
171
     1
172
     0
 90
        2
 40
0.0
 41
0.0
173
     1
 91
-1056964608
340
14
 92
       -2
290
     1
 42
2.0
291
     1
 43
0.36
  3
Standard
 44
4.0
300

342
11
174
     1
178
     6
175
     1
176
     0
 93
-1056964608
 45
4.0
292
     0
297
     0
 46
4.0
 94
-1056964608
 47
1.0
 49
1.0
140
1.0
293
     1
141
0.0
294
     1
177
     0
142
1.0
295
     0
296
     0
143
0.125
271
     0
272
     9
273
     9
  0
MLINESTYLE
  5
18
102
{ACAD_REACTORS
330
17
102
}
330
17
100
AcDbMlineStyle
  2
STANDARD
 70
     0
  3

 62
   256
 51
90.0
 52
90.0
 71
     2
 49
0.5
 62
   256
  6
BYLAYER
 49
-0.5
 62
   256
  6
BYLAYER
  0
ACDBPLACEHOLDER
  5
F
102
{ACAD_REACTORS
330
E
102
}
330
E
  0
SCALE
  5
73F
102
{ACAD_REACTORS
330
73E
102
}
330
73E
100
AcDbScale
 70
     0
300
1:1
140
1.0
141
1.0
290
     1
  0
SCALE
  5
740
102
{ACAD_REACTORS
330
73E
102
}
330
73E
100
AcDbScale
 70
     0
300
1:2
140
1.0
141
2.0
290
     0
  0
SCALE
  5
741
102
{ACAD_REACTORS
330
73E
102
}
330
73E
100
AcDbScale
 70
     0
300
1:4
140
1.0
141
4.0
290
     0
  0
SCALE
  5
742
102
{ACAD_REACTORS
330
73E
102
}
330
73E
100
AcDbScale
 70
     0
300
1:5
140
1.0
141
5.0
290
     0
  0
SCALE
  5
743
102
{ACAD_REACTORS
330
73E
102
}
330
73E
100
AcDbScale
 70
     0
300
1:8
140
1.0
141
8.0
290
     0
  0
SCALE
  5
744
102
{ACAD_REACTORS
330
73E
102
}
330
73E
100
AcDbScale
 70
     0
300
1:10
140
1.0
141
10.0
290
     0
  0
SCALE
  5
745
102
{ACAD_REACTORS
330
73E
102
}
330
73E
100
AcDbScale
 70
     0
300
1:16
140
1.0
141
16.0
290
     0
  0
SCALE
  5
746
102
{ACAD_REACTORS
330
73E
102
}
330
73E
100
AcDbScale
 70
     0
300
1:20
140
1.0
141
20.0
290
     0
  0
SCALE
  5
747
102
{ACAD_REACTORS
330
73E
102
}
330
73E
100
AcDbScale
 70
     0
300
1:30
140
1.0
141
30.0
290
     0
  0
SCALE
  5
748
102
{ACAD_REACTORS
330
73E
102
}
330
73E
100
AcDbScale
 70
     0
300
1:40
140
1.0
141
40.0
290
     0
  0
SCALE
  5
749
102
{ACAD_REACTORS
330
73E
102
}
330
73E
100
AcDbScale
 70
     0
300
1:50
140
1.0
141
50.0
290
     0
  0
SCALE
  5
74A
102
{ACAD_REACTORS
330
73E
102
}
330
73E
100
AcDbScale
 70
     0
300
1:100
140
1.0
141
100.0
290
     0
  0
SCALE
  5
74B
102
{ACAD_REACTORS
330
73E
102
}
330
73E
100
AcDbScale
 70
     0
300
2:1
140
2.0
141
1.0
290
     0
  0
SCALE
  5
74C
102
{ACAD_REACTORS
330
73E
102
}
330
73E
100
AcDbScale
 70
     0
300
4:1
140
4.0
141
1.0
290
     0
  0
SCALE
  5
74D
102
{ACAD_REACTORS
330
73E
102
}
330
73E
100
AcDbScale
 70
     0
300
8:1
140
8.0
141
1.0
290
     0
  0
SCALE
  5
74E
102
{ACAD_REACTORS
330
73E
102
}
330
73E
100
AcDbScale
 70
     0
300
10:1
140
10.0
141
1.0
290
     0
  0
SCALE
  5
74F
102
{ACAD_REACTORS
330
73E
102
}
330
73E
100
AcDbScale
 70
     0
300
100:1
140
100.0
141
1.0
290
     0
  0
ACDBSECTIONVIEWSTYLE
  5
7F3
102
{ACAD_XDICTIONARY
360
C42
102
}
102
{ACAD_REACTORS
330
752
102
}
330
752
100
AcDbModelDocViewStyle
 70
     0
  3
Imperial24
290
     0
100
AcDbSectionViewStyle
 70
     0
 71
     0
 90
       78
 71
     1
340
11
 62
   256
 40
0.24
340
0
340
0
 62
   256
 40
0.24
300
I, O, Q, S, X, Z
 40
0.48
 90
        3
 40
0.18
 90
        1
 71
     2
340
16
 90
       25
 62
   256
340
16
 90
       50
 62
   256
 40
0.24
 40
0.0
 40
0.24
 71
     3
340
11
 62
   256
 40
0.24
 90
        1
 40
0.75
 90
        1
300
%<\AcVar ViewType \f "%tc1">% %<\AcVar ViewSectionStartId>%-%<\AcVar ViewSectionEndId>%\PVARIA %<\AcVar ViewScale \f "%sn">%
 71
     4
 62
   256
 62
   257
300
ANSI31
 40
1.0
 90
        0
290
     0
290
     0
 90
        6
 40
0.0
 40
1.570796326794896
 40
0.2617993877991494
 40
1.308996938995747
 40
-0.2617993877991494
 40
1.832595714594046
  0
ACDBSECTIONVIEWSTYLE
  5
753
102
{ACAD_XDICTIONARY
360
C3E
102
}
102
{ACAD_REACTORS
330
752
102
}
330
752
100
AcDbModelDocViewStyle
 70
     0
  3
Metric50
290
     0
100
AcDbSectionViewStyle
 70
     0
 71
     0
 90
      102
 71
     1
340
11
 62
   256
 40
5.0
340
0
340
0
 62
   256
 40
5.0
300
I, O, Q, S, X, Z
 40
10.0
 90
        0
 40
2.5
 90
        0
 71
     2
340
16
 90
       25
 62
   256
340
16
 90
       50
 62
   256
 40
5.0
 40
2.5
 40
5.0
 71
     3
340
11
 62
   256
 40
5.0
 90
        0
 40
15.0
 90
        1
300
%<\AcVar ViewSectionStartId>%-%<\AcVar ViewSectionEndId>% (%<\AcVar ViewScale \f "%sn">%)
 71
     4
 62
   256
 62
   257
300
ANSI31
 40
1.0
 90
        0
290
     0
290
     0
 90
        6
 40
0.0
 40
1.570796326794896
 40
0.2617993877991494
 40
1.308996938995747
 40
-0.2617993877991494
 40
1.832595714594045
  0
TABLESTYLE
  5
73D
102
{ACAD_XDICTIONARY
360
7B8
102
}
102
{ACAD_REACTORS
330
73C
102
}
330
73C
100
AcDbTableStyle
280
     0
  3
Standard
 70
     0
 71
     0
 40
1.5
 41
1.5
280
     0
281
     0
  7
STANDARD
140
4.5
170
     2
 62
     0
 63
     7
283
     0
 90
      512
 91
        0
  1

274
    -2
284
     1
 64
     0
275
    -2
285
     1
 65
     0
276
    -2
286
     1
 66
     0
277
    -2
287
     1
 67
     0
278
    -2
288
     1
 68
     0
279
    -2
289
     1
 69
     0
  7
STANDARD
140
6.0
170
     5
 62
     0
 63
     7
283
     0
 90
      512
 91
        0
  1

274
    -2
284
     1
 64
     0
275
    -2
285
     1
 65
     0
276
    -2
286
     1
 66
     0
277
    -2
287
     1
 67
     0
278
    -2
288
     1
 68
     0
279
    -2
289
     1
 69
     0
  7
STANDARD
140
4.5
170
     5
 62
     0
 63
     7
283
     0
 90
      512
 91
        0
  1

274
    -2
284
     1
 64
     0
275
    -2
285
     1
 65
     0
276
    -2
286
     1
 66
     0
277
    -2
287
     1
 67
     0
278
    -2
288
     1
 68
     0
279
    -2
289
     1
 69
     0
  0
VISUALSTYLE
  5
729
102
{ACAD_XDICTIONARY
360
C18
102
}
102
{ACAD_REACTORS
330
723
102
}
330
723
100
AcDbVisualStyle
  2
2dWireframe
 70
     4
177
     2
291
     0
 71
     0
176
     1
 72
     2
176
     1
 73
     0
176
     1
 90
        0
176
     1
 40
0.6
176
     1
 41
30.0
176
     1
 63
     7
421
 16777215
176
     1
 74
     1
176
     1
 91
        4
176
     1
 64
     7
176
     1
 65
   257
176
     1
 75
     1
176
     1
175
     1
176
     1
 42
1.0
176
     1
 92
        0
176
     1
 66
   257
176
     1
 43
1.0
176
     1
 76
     1
176
     1
 77
     6
176
     1
 78
     2
176
     1
 67
     7
176
     1
 79
     5
176
     1
170
     0
176
     1
171
     0
176
     1
290
     0
176
     1
 93
        1
176
     1
 44
0.0
176
     1
173
     0
176
     1
1001
ACAD
1000
AcDbSavedByObjectVersion
1070
     0
  0
VISUALSTYLE
  5
728
102
{ACAD_XDICTIONARY
360
C16
102
}
102
{ACAD_REACTORS
330
723
102
}
330
723
100
AcDbVisualStyle
  2
Basic
 70
     7
177
     2
291
     1
 71
     1
176
     1
 72
     0
176
     1
 73
     1
176
     1
 90
        0
176
     1
 40
0.6
176
     1
 41
30.0
176
     1
 63
     7
421
 16777215
176
     1
 74
     0
176
     1
 91
        4
176
     1
 64
     7
176
     1
 65
   257
176
     1
 75
     1
176
     1
175
     1
176
     1
 42
1.0
176
     1
 92
        8
176
     1
 66
     7
176
     1
 43
1.0
176
     1
 76
     1
176
     1
 77
     6
176
     1
 78
     2
176
     1
 67
     7
176
     1
 79
     5
176
     1
170
     0
176
     1
171
     0
176
     1
290
     0
176
     1
 93
        1
176
     1
 44
0.0
176
     1
173
     0
176
     1
1001
ACAD
1000
AcDbSavedByObjectVersion
1070
     0
  0
VISUALSTYLE
  5
72F
102
{ACAD_XDICTIONARY
360
C24
102
}
102
{ACAD_REACTORS
330
723
102
}
330
723
100
AcDbVisualStyle
  2
Brighten
 70
    12
177
     2
291
     1
 71
     2
176
     1
 72
     2
176
     1
 73
     0
176
     1
 90
        0
176
     1
 40
0.6
176
     1
 41
30.0
176
     1
 63
     7
421
 16777215
176
     1
 74
     1
176
     1
 91
        4
176
     1
 64
     7
176
     1
 65
   257
176
     1
 75
     1
176
     1
175
     1
176
     1
 42
1.0
176
     1
 92
        8
176
     1
 66
     7
176
     1
 43
1.0
176
     1
 76
     1
176
     1
 77
     6
176
     1
 78
     2
176
     1
 67
     7
176
     1
 79
     5
176
     1
170
     0
176
     1
171
     0
176
     1
290
     0
176
     1
 93
        1
176
     1
 44
50.0
176
     1
173
     0
176
     1
1001
ACAD
1000
AcDbSavedByObjectVersion
1070
     0
  0
VISUALSTYLE
  5
733
102
{ACAD_XDICTIONARY
360
C2C
102
}
102
{ACAD_REACTORS
330
723
102
}
330
723
100
AcDbVisualStyle
  2
ColorChange
 70
    16
177
     2
291
     1
 71
     2
176
     1
 72
     2
176
     1
 73
     3
176
     1
 90
        0
176
     1
 40
0.6
176
     1
 41
30.0
176
     1
 63
     8
421
  8421504
176
     1
 74
     1
176
     1
 91
        4
176
     1
 64
     7
176
     1
 65
   257
176
     1
 75
     1
176
     1
175
     1
176
     1
 42
1.0
176
     1
 92
        8
176
     1
 66
     8
424
  8421504
176
     1
 43
1.0
176
     1
 76
     1
176
     1
 77
     6
176
     1
 78
     2
176
     1
 67
     7
176
     1
 79
     5
176
     1
170
     0
176
     1
171
     0
176
     1
290
     0
176
     1
 93
        1
176
     1
 44
0.0
176
     1
173
     0
176
     1
1001
ACAD
1000
AcDbSavedByObjectVersion
1070
     0
  0
VISUALSTYLE
  5
72C
102
{ACAD_XDICTIONARY
360
C1E
102
}
102
{ACAD_REACTORS
330
723
102
}
330
723
100
AcDbVisualStyle
  2
Conceptual
 70
     9
177
     2
291
     0
 71
     3
176
     1
 72
     2
176
     1
 73
     0
176
     1
 90
        0
176
     1
 40
0.6
176
     1
 41
30.0
176
     1
 63
     7
421
 16777215
176
     1
 74
     2
176
     1
 91
        2
176
     1
 64
     7
176
     1
 65
   257
176
     1
 75
     1
176
     1
175
     1
176
     1
 42
179.0
176
     1
 92
        8
176
     1
 66
     7
176
     1
 43
1.0
176
     1
 76
     1
176
     1
 77
     6
176
     1
 78
     2
176
     1
 67
     7
176
     1
 79
     3
176
     1
170
     0
176
     1
171
     0
176
     1
290
     0
176
     1
 93
        1
176
     1
 44
0.0
176
     1
173
     0
176
     1
1001
ACAD
1000
AcDbSavedByObjectVersion
1070
     0
  0
VISUALSTYLE
  5
72E
102
{ACAD_XDICTIONARY
360
C22
102
}
102
{ACAD_REACTORS
330
723
102
}
330
723
100
AcDbVisualStyle
  2
Dim
 70
    11
177
     2
291
     1
 71
     2
176
     1
 72
     2
176
     1
 73
     0
176
     1
 90
        0
176
     1
 40
0.6
176
     1
 41
30.0
176
     1
 63
     7
421
 16777215
176
     1
 74
     1
176
     1
 91
        4
176
     1
 64
     7
176
     1
 65
   257
176
     1
 75
     1
176
     1
175
     1
176
     1
 42
1.0
176
     1
 92
        8
176
     1
 66
     7
176
     1
 43
1.0
176
     1
 76
     1
176
     1
 77
     6
176
     1
 78
     2
176
     1
 67
     7
176
     1
 79
     5
176
     1
170
     0
176
     1
171
     0
176
     1
290
     0
176
     1
 93
        1
176
     1
 44
-50.0
176
     1
173
     0
176
     1
1001
ACAD
1000
AcDbSavedByObjectVersion
1070
     0
  0
VISUALSTYLE
  5
73B
102
{ACAD_XDICTIONARY
360
C3C
102
}
102
{ACAD_REACTORS
330
723
102
}
330
723
100
AcDbVisualStyle
  2
EdgeColorOff
 70
    22
177
     2
291
     1
 71
     2
176
     0
 72
     2
176
     0
 73
     0
176
     0
 90
        0
176
     0
 40
0.6
176
     0
 41
30.0
176
     0
 63
     7
421
 16777215
176
     0
 74
     1
176
     0
 91
        4
176
     0
 64
     7
176
     0
 65
   257
176
     0
 75
     1
176
     0
175
     1
176
     0
 42
1.0
176
     0
 92
        8
176
     2
 66
     7
176
     0
 43
1.0
176
     0
 76
     1
176
     0
 77
     6
176
     0
 78
     2
176
     0
 67
     7
176
     0
 79
     5
176
     0
170
     0
176
     0
171
     0
176
     0
290
     0
176
     0
 93
        1
176
     0
 44
0.0
176
     0
173
     0
176
     0
1001
ACAD
1000
AcDbSavedByObjectVersion
1070
     0
  0
VISUALSTYLE
  5
732
102
{ACAD_XDICTIONARY
360
C2A
102
}
102
{ACAD_REACTORS
330
723
102
}
330
723
100
AcDbVisualStyle
  2
Facepattern
 70
    15
177
     2
291
     1
 71
     2
176
     1
 72
     2
176
     1
 73
     0
176
     1
 90
        0
176
     1
 40
0.6
176
     1
 41
30.0
176
     1
 63
     7
421
 16777215
176
     1
 74
     1
176
     1
 91
        4
176
     1
 64
     7
176
     1
 65
   257
176
     1
 75
     1
176
     1
175
     1
176
     1
 42
1.0
176
     1
 92
        8
176
     1
 66
     7
176
     1
 43
1.0
176
     1
 76
     1
176
     1
 77
     6
176
     1
 78
     2
176
     1
 67
     7
176
     1
 79
     5
176
     1
170
     0
176
     1
171
     0
176
     1
290
     0
176
     1
 93
        1
176
     1
 44
0.0
176
     1
173
     0
176
     1
1001
ACAD
1000
AcDbSavedByObjectVersion
1070
     0
  0
VISUALSTYLE
  5
724
102
{ACAD_XDICTIONARY
360
C0E
102
}
102
{ACAD_REACTORS
330
723
102
}
330
723
100
AcDbVisualStyle
  2
Flat
 70
     0
177
     2
291
     1
 71
     2
176
     1
 72
     1
176
     1
 73
     1
176
     1
 90
        2
176
     1
 40
0.6
176
     1
 41
30.0
176
     1
 63
     7
421
 16777215
176
     1
 74
     0
176
     1
 91
        0
176
     1
 64
     7
176
     1
 65
   257
176
     1
 75
     1
176
     1
175
     1
176
     1
 42
1.0
176
     1
 92
        8
176
     1
 66
     7
176
     1
 43
1.0
176
     1
 76
     1
176
     1
 77
     6
176
     1
 78
     2
176
     1
 67
     7
176
     1
 79
     5
176
     1
170
     0
176
     1
171
     0
176
     1
290
     0
176
     1
 93
       13
176
     1
 44
0.0
176
     1
173
     0
176
     1
1001
ACAD
1000
AcDbSavedByObjectVersion
1070
     0
  0
VISUALSTYLE
  5
725
102
{ACAD_XDICTIONARY
360
C10
102
}
102
{ACAD_REACTORS
330
723
102
}
330
723
100
AcDbVisualStyle
  2
FlatWithEdges
 70
     1
177
     2
291
     1
 71
     2
176
     1
 72
     1
176
     1
 73
     1
176
     1
 90
        2
176
     1
 40
0.6
176
     1
 41
30.0
176
     1
 63
     7
421
 16777215
176
     1
 74
     1
176
     1
 91
        0
176
     1
 64
     7
176
     1
 65
   257
176
     1
 75
     1
176
     1
175
     1
176
     1
 42
1.0
176
     1
 92
        0
176
     1
 66
   257
176
     1
 43
1.0
176
     1
 76
     1
176
     1
 77
     6
176
     1
 78
     2
176
     1
 67
     7
176
     1
 79
     5
176
     1
170
     0
176
     1
171
     0
176
     1
290
     0
176
     1
 93
       13
176
     1
 44
0.0
176
     1
173
     0
176
     1
1001
ACAD
1000
AcDbSavedByObjectVersion
1070
     0
  0
VISUALSTYLE
  5
726
102
{ACAD_XDICTIONARY
360
C12
102
}
102
{ACAD_REACTORS
330
723
102
}
330
723
100
AcDbVisualStyle
  2
Gouraud
 70
     2
177
     2
291
     1
 71
     2
176
     1
 72
     2
176
     1
 73
     1
176
     1
 90
        2
176
     1
 40
0.6
176
     1
 41
30.0
176
     1
 63
     7
421
 16777215
176
     1
 74
     0
176
     1
 91
        0
176
     1
 64
     7
176
     1
 65
   257
176
     1
 75
     1
176
     1
175
     1
176
     1
 42
1.0
176
     1
 92
        0
176
     1
 66
     7
176
     1
 43
1.0
176
     1
 76
     1
176
     1
 77
     6
176
     1
 78
     2
176
     1
 67
     7
176
     1
 79
     5
176
     1
170
     0
176
     1
171
     0
176
     1
290
     0
176
     1
 93
       13
176
     1
 44
0.0
176
     1
173
     0
176
     1
1001
ACAD
1000
AcDbSavedByObjectVersion
1070
     0
  0
VISUALSTYLE
  5
727
102
{ACAD_XDICTIONARY
360
C14
102
}
102
{ACAD_REACTORS
330
723
102
}
330
723
100
AcDbVisualStyle
  2
GouraudWithEdges
 70
     3
177
     2
291
     1
 71
     2
176
     1
 72
     2
176
     1
 73
     1
176
     1
 90
        2
176
     1
 40
0.6
176
     1
 41
30.0
176
     1
 63
     7
421
 16777215
176
     1
 74
     1
176
     1
 91
        0
176
     1
 64
     7
176
     1
 65
   257
176
     1
 75
     1
176
     1
175
     1
176
     1
 42
1.0
176
     1
 92
        0
176
     1
 66
   257
176
     1
 43
1.0
176
     1
 76
     1
176
     1
 77
     6
176
     1
 78
     2
176
     1
 67
     7
176
     1
 79
     5
176
     1
170
     0
176
     1
171
     0
176
     1
290
     0
176
     1
 93
       13
176
     1
 44
0.0
176
     1
173
     0
176
     1
1001
ACAD
1000
AcDbSavedByObjectVersion
1070
     0
  0
VISUALSTYLE
  5
72B
102
{ACAD_XDICTIONARY
360
C1C
102
}
102
{ACAD_REACTORS
330
723
102
}
330
723
100
AcDbVisualStyle
  2
Hidden
 70
     6
177
     2
291
     0
 71
     1
176
     1
 72
     2
176
     1
 73
     2
176
     1
 90
        0
176
     1
 40
0.6
176
     1
 41
30.0
176
     1
 63
     7
421
 16777215
176
     1
 74
     2
176
     1
 91
        2
176
     1
 64
     7
176
     1
 65
   257
176
     1
 75
     2
176
     1
175
     1
176
     1
 42
40.0
176
     1
 92
        0
176
     1
 66
   257
176
     1
 43
1.0
176
     1
 76
     1
176
     1
 77
     6
176
     1
 78
     2
176
     1
 67
     7
176
     1
 79
     3
176
     1
170
     0
176
     1
171
     0
176
     1
290
     0
176
     1
 93
        1
176
     1
 44
0.0
176
     1
173
     0
176
     1
1001
ACAD
1000
AcDbSavedByObjectVersion
1070
     0
  0
VISUALSTYLE
  5
739
102
{ACAD_XDICTIONARY
360
C38
102
}
102
{ACAD_REACTORS
330
723
102
}
330
723
100
AcDbVisualStyle
  2
JitterOff
 70
    20
177
     2
291
     1
 71
     2
176
     0
 72
     2
176
     0
 73
     0
176
     0
 90
        0
176
     0
 40
0.6
176
     0
 41
30.0
176
     0
 63
     7
421
 16777215
176
     0
 74
     1
176
     0
 91
        4
176
     0
 64
     7
176
     0
 65
   257
176
     0
 75
     1
176
     0
175
     1
176
     0
 42
1.0
176
     0
 92
       10
176
     2
 66
     7
176
     0
 43
1.0
176
     0
 76
     1
176
     0
 77
     6
176
     0
 78
     2
176
     0
 67
     7
176
     0
 79
     5
176
     0
170
     0
176
     0
171
     0
176
     0
290
     0
176
     0
 93
        1
176
     0
 44
0.0
176
     0
173
     0
176
     0
1001
ACAD
1000
AcDbSavedByObjectVersion
1070
     0
  0
VISUALSTYLE
  5
731
102
{ACAD_XDICTIONARY
360
C28
102
}
102
{ACAD_REACTORS
330
723
102
}
330
723
100
AcDbVisualStyle
  2
Linepattern
 70
    14
177
     2
291
     1
 71
     2
176
     1
 72
     2
176
     1
 73
     0
176
     1
 90
        0
176
     1
 40
0.6
176
     1
 41
30.0
176
     1
 63
     7
421
 16777215
176
     1
 74
     1
176
     1
 91
        4
176
     1
 64
     7
176
     1
 65
   257
176
     1
 75
     7
176
     1
175
     7
176
     1
 42
1.0
176
     1
 92
        8
176
     1
 66
     7
176
     1
 43
1.0
176
     1
 76
     1
176
     1
 77
     6
176
     1
 78
     2
176
     1
 67
     7
176
     1
 79
     5
176
     1
170
     0
176
     1
171
     0
176
     1
290
     0
176
     1
 93
        1
176
     1
 44
0.0
176
     1
173
     0
176
     1
1001
ACAD
1000
AcDbSavedByObjectVersion
1070
     0
  0
VISUALSTYLE
  5
73A
102
{ACAD_XDICTIONARY
360
C3A
102
}
102
{ACAD_REACTORS
330
723
102
}
330
723
100
AcDbVisualStyle
  2
OverhangOff
 70
    21
177
     2
291
     1
 71
     2
176
     0
 72
     2
176
     0
 73
     0
176
     0
 90
        0
176
     0
 40
0.6
176
     0
 41
30.0
176
     0
 63
     7
421
 16777215
176
     0
 74
     1
176
     0
 91
        4
176
     0
 64
     7
176
     0
 65
   257
176
     0
 75
     1
176
     0
175
     1
176
     0
 42
1.0
176
     0
 92
        9
176
     2
 66
     7
176
     0
 43
1.0
176
     0
 76
     1
176
     0
 77
     6
176
     0
 78
     2
176
     0
 67
     7
176
     0
 79
     5
176
     0
170
     0
176
     0
171
     0
176
     0
290
     0
176
     0
 93
        1
176
     0
 44
0.0
176
     0
173
     0
176
     0
1001
ACAD
1000
AcDbSavedByObjectVersion
1070
     0
  0
VISUALSTYLE
  5
72D
102
{ACAD_XDICTIONARY
360
C20
102
}
102
{ACAD_REACTORS
330
723
102
}
330
723
100
AcDbVisualStyle
  2
Realistic
 70
     8
177
     2
291
     0
 71
     2
176
     1
 72
     3
176
     1
 73
     0
176
     1
 90
        2
176
     1
 40
0.6
176
     1
 41
30.0
176
     1
 63
     7
421
 16777215
176
     1
 74
     0
176
     1
 91
        0
176
     1
 64
     7
176
     1
 65
   257
176
     1
 75
     1
176
     1
175
     1
176
     1
 42
1.0
176
     1
 92
        8
176
     1
 66
   257
176
     1
 43
1.0
176
     1
 76
     1
176
     1
 77
     6
176
     1
 78
     2
176
     1
 67
     7
176
     1
 79
     3
176
     1
170
     0
176
     1
171
     0
176
     1
290
     0
176
     1
 93
       13
176
     1
 44
0.0
176
     1
173
     0
176
     1
1001
ACAD
1000
AcDbSavedByObjectVersion
1070
     0
  0
VISUALSTYLE
  5
738
102
{ACAD_XDICTIONARY
360
C36
102
}
102
{ACAD_REACTORS
330
723
102
}
330
723
100
AcDbVisualStyle
  2
Shaded
 70
    27
177
     2
291
     0
 71
     2
176
     1
 72
     2
176
     1
 73
     1
176
     1
 90
        2
176
     1
 40
0.6
176
     1
 41
30.0
176
     1
 63
     7
421
 16777215
176
     1
 74
     0
176
     1
 91
        4
176
     1
 64
     7
176
     1
 65
   257
176
     1
 75
     1
176
     1
175
     1
176
     1
 42
1.0
176
     1
 92
        8
176
     1
 66
   257
176
     1
 43
1.0
176
     1
 76
     1
176
     1
 77
     6
176
     1
 78
     2
176
     1
 67
     8
425
  7895160
176
     1
 79
     3
176
     1
170
     0
176
     1
171
     0
176
     1
290
     0
176
     1
 93
        5
176
     1
 44
0.0
176
     1
173
     0
176
     1
1001
ACAD
1000
AcDbSavedByObjectVersion
1070
     0
  0
VISUALSTYLE
  5
737
102
{ACAD_XDICTIONARY
360
C34
102
}
102
{ACAD_REACTORS
330
723
102
}
330
723
100
AcDbVisualStyle
  2
Shaded with edges
 70
    26
177
     2
291
     0
 71
     2
176
     1
 72
     2
176
     1
 73
     1
176
     1
 90
        2
176
     1
 40
0.6
176
     1
 41
30.0
176
     1
 63
     7
421
 16777215
176
     1
 74
     1
176
     1
 91
       10
176
     1
 64
     7
176
     1
 65
   257
176
     1
 75
     2
176
     1
175
     1
176
     1
 42
1.0
176
     1
 92
        8
176
     1
 66
   257
176
     1
 43
1.0
176
     1
 76
     1
176
     1
 77
     6
176
     1
 78
     2
176
     1
 67
     7
176
     1
 79
     3
176
     1
170
     0
176
     1
171
     0
176
     1
290
     0
176
     1
 93
        5
176
     1
 44
0.0
176
     1
173
     0
176
     1
1001
ACAD
1000
AcDbSavedByObjectVersion
1070
     0
  0
VISUALSTYLE
  5
734
102
{ACAD_XDICTIONARY
360
C2E
102
}
102
{ACAD_REACTORS
330
723
102
}
330
723
100
AcDbVisualStyle
  2
Shades of Gray
 70
    23
177
     2
291
     0
 71
     2
176
     1
 72
     2
176
     1
 73
     3
176
     1
 90
        0
176
     1
 40
0.6
176
     1
 41
30.0
176
     1
 63
     7
421
 16777215
176
     1
 74
     2
176
     1
 91
        2
176
     1
 64
     7
176
     1
 65
     7
176
     1
 75
     1
176
     1
175
     1
176
     1
 42
40.0
176
     1
 92
        8
176
     1
 66
     7
176
     1
 43
1.0
176
     1
 76
     1
176
     1
 77
     6
176
     1
 78
     2
176
     1
 67
     7
176
     1
 79
     3
176
     1
170
     0
176
     1
171
     0
176
     1
290
     0
176
     1
 93
        1
176
     1
 44
0.0
176
     1
173
     0
176
     1
1001
ACAD
1000
AcDbSavedByObjectVersion
1070
     0
  0
VISUALSTYLE
  5
735
102
{ACAD_XDICTIONARY
360
C30
102
}
102
{ACAD_REACTORS
330
723
102
}
330
723
100
AcDbVisualStyle
  2
Sketchy
 70
    24
177
     2
291
     0
 71
     1
176
     1
 72
     2
176
     1
 73
     2
176
     1
 90
        0
176
     1
 40
0.6
176
     1
 41
30.0
176
     1
 63
     7
421
 16777215
176
     1
 74
     2
176
     1
 91
        2
176
     1
 64
     7
176
     1
 65
     7
176
     1
 75
     1
176
     1
175
     1
176
     1
 42
40.0
176
     1
 92
       11
176
     1
 66
     7
176
     1
 43
1.0
176
     1
 76
     1
176
     1
 77
     6
176
     1
 78
     2
176
     1
 67
     7
176
     1
 79
     6
176
     1
170
     0
176
     1
171
     0
176
     1
290
     0
176
     1
 93
        1
176
     1
 44
0.0
176
     1
173
     0
176
     1
1001
ACAD
1000
AcDbSavedByObjectVersion
1070
     0
  0
VISUALSTYLE
  5
730
102
{ACAD_XDICTIONARY
360
C26
102
}
102
{ACAD_REACTORS
330
723
102
}
330
723
100
AcDbVisualStyle
  2
Thicken
 70
    13
177
     2
291
     1
 71
     2
176
     1
 72
     2
176
     1
 73
     0
176
     1
 90
        0
176
     1
 40
0.6
176
     1
 41
30.0
176
     1
 63
     7
421
 16777215
176
     1
 74
     1
176
     1
 91
        4
176
     1
 64
     7
176
     1
 65
   257
176
     1
 75
     1
176
     1
175
     1
176
     1
 42
1.0
176
     1
 92
       12
176
     1
 66
     7
176
     1
 43
1.0
176
     1
 76
     1
176
     1
 77
     6
176
     1
 78
     2
176
     1
 67
     7
176
     1
 79
     5
176
     1
170
     0
176
     1
171
     0
176
     1
290
     0
176
     1
 93
        1
176
     1
 44
0.0
176
     1
173
     0
176
     1
1001
ACAD
1000
AcDbSavedByObjectVersion
1070
     0
  0
VISUALSTYLE
  5
72A
102
{ACAD_XDICTIONARY
360
C1A
102
}
102
{ACAD_REACTORS
330
723
102
}
330
723
100
AcDbVisualStyle
  2
Wireframe
 70
     5
177
     2
291
     0
 71
     0
176
     1
 72
     2
176
     1
 73
     0
176
     1
 90
        0
176
     1
 40
0.6
176
     1
 41
30.0
176
     1
 63
     7
421
 16777215
176
     1
 74
     1
176
     1
 91
        4
176
     1
 64
     7
176
     1
 65
   257
176
     1
 75
     1
176
     1
175
     1
176
     1
 42
1.0
176
     1
 92
        0
176
     1
 66
   257
176
     1
 43
1.0
176
     1
 76
     1
176
     1
 77
     6
176
     1
 78
     2
176
     1
 67
     7
176
     1
 79
     3
176
     1
170
     0
176
     1
171
     0
176
     1
290
     0
176
     1
 93
        1
176
     1
 44
0.0
176
     1
173
     0
176
     1
1001
ACAD
1000
AcDbSavedByObjectVersion
1070
     0
  0
VISUALSTYLE
  5
736
102
{ACAD_XDICTIONARY
360
C32
102
}
102
{ACAD_REACTORS
330
723
102
}
330
723
100
AcDbVisualStyle
  2
X-Ray
 70
    25
177
     2
291
     0
 71
     2
176
     1
 72
     2
176
     1
 73
     1
176
     1
 90
        1
176
     1
 40
0.5
176
     1
 41
30.0
176
     1
 63
     7
421
 16777215
176
     1
 74
     1
176
     1
 91
        0
176
     1
 64
     7
176
     1
 65
   257
176
     1
 75
     1
176
     1
175
     1
176
     1
 42
1.0
176
     1
 92
        8
176
     1
 66
     7
176
     1
 43
1.0
176
     1
 76
     1
176
     1
 77
     6
176
     1
 78
     2
176
     1
 67
     7
176
     1
 79
     3
176
     1
170
     0
176
     1
171
     0
176
     1
290
     0
176
     1
 93
       13
176
     1
 44
0.0
176
     1
173
     0
176
     1
1001
ACAD
1000
AcDbSavedByObjectVersion
1070
     0
  0
DICTIONARYVAR
  5
7B3
102
{ACAD_REACTORS
330
5E
102
}
330
5E
100
DictionaryVariables
280
     0
  1
1:1
  0
DICTIONARYVAR
  5
7AF
102
{ACAD_REACTORS
330
5E
102
}
330
5E
100
DictionaryVariables
280
     0
  1
STANDARD
  0
DICTIONARYVAR
  5
7AE
102
{ACAD_REACTORS
330
5E
102
}
330
5E
100
DictionaryVariables
280
     0
  1
STANDARD
  0
DICTIONARYVAR
  5
7B0
102
{ACAD_REACTORS
330
5E
102
}
330
5E
100
DictionaryVariables
280
     0
  1
Metric50
  0
DICTIONARYVAR
  5
7B1
102
{ACAD_REACTORS
330
5E
102
}
330
5E
100
DictionaryVariables
280
     0
  1
Metric50
  0
DICTIONARYVAR
  5
5F
102
{ACAD_REACTORS
330
5E
102
}
330
5E
100
DictionaryVariables
280
     0
  1
2
  0
DICTIONARYVAR
  5
63
102
{ACAD_REACTORS
330
5E
102
}
330
5E
100
DictionaryVariables
280
     0
  1
1
  0
DICTIONARYVAR
  5
7B5
102
{ACAD_REACTORS
330
5E
102
}
330
5E
100
DictionaryVariables
280
     0
  1
1
  0
DICTIONARYVAR
  5
7B6
102
{ACAD_REACTORS
330
5E
102
}
330
5E
100
DictionaryVariables
280
     0
  1
15
  0
DICTIONARYVAR
  5
7B4
102
{ACAD_REACTORS
330
5E
102
}
330
5E
100
DictionaryVariables
280
     0
  1
0
  0
DICTIONARYVAR
  5
7B2
102
{ACAD_REACTORS
330
5E
102
}
330
5E
100
DictionaryVariables
280
     0
  1
0
  0
DICTIONARYVAR
  5
23B
102
{ACAD_REACTORS
330
5E
102
}
330
5E
100
DictionaryVariables
280
     0
  1

  0
DICTIONARY
  5
C44
330
7F4
100
AcDbDictionary
280
     1
281
     1
  3
ACAD_XREC_ROUNDTRIP
360
C45
  0
DICTIONARY
  5
C40
330
755
100
AcDbDictionary
280
     1
281
     1
  3
ACAD_XREC_ROUNDTRIP
360
C41
  0
DICTIONARY
  5
714
330
713
100
AcDbDictionary
280
     1
281
     1
  3
BUMPTILE
360
716
  3
DIFFUSETILE
360
715
  3
OPACITYTILE
360
719
  3
REFLECTIONTILE
360
718
  3
REFRACTIONTILE
360
71A
  3
SPECULARTILE
360
717
  0
DICTIONARY
  5
70C
330
70B
100
AcDbDictionary
280
     1
281
     1
  3
BUMPTILE
360
70E
  3
DIFFUSETILE
360
70D
  3
OPACITYTILE
360
711
  3
REFLECTIONTILE
360
710
  3
REFRACTIONTILE
360
712
  3
SPECULARTILE
360
70F
  0
DICTIONARY
  5
71C
330
71B
100
AcDbDictionary
280
     1
281
     1
  3
BUMPTILE
360
71E
  3
DIFFUSETILE
360
71D
  3
OPACITYTILE
360
721
  3
REFLECTIONTILE
360
720
  3
REFRACTIONTILE
360
722
  3
SPECULARTILE
360
71F
  0
DICTIONARY
  5
C42
330
7F3
100
AcDbDictionary
280
     1
281
     1
  3
ACAD_XREC_ROUNDTRIP
360
C43
  0
DICTIONARY
  5
C3E
330
753
100
AcDbDictionary
280
     1
281
     1
  3
ACAD_XREC_ROUNDTRIP
360
C3F
  0
DICTIONARY
  5
7B8
330
73D
100
AcDbDictionary
280
     1
281
     1
  3
ACAD_ROUNDTRIP_2008_TABLESTYLE_CELLSTYLEMAP
360
C0C
  0
DICTIONARY
  5
C18
330
729
100
AcDbDictionary
280
     1
281
     1
  3
ACAD_XREC_ROUNDTRIP
360
C19
  0
DICTIONARY
  5
C16
330
728
100
AcDbDictionary
280
     1
281
     1
  3
ACAD_XREC_ROUNDTRIP
360
C17
  0
DICTIONARY
  5
C24
330
72F
100
AcDbDictionary
280
     1
281
     1
  3
ACAD_XREC_ROUNDTRIP
360
C25
  0
DICTIONARY
  5
C2C
330
733
100
AcDbDictionary
280
     1
281
     1
  3
ACAD_XREC_ROUNDTRIP
360
C2D
  0
DICTIONARY
  5
C1E
330
72C
100
AcDbDictionary
280
     1
281
     1
  3
ACAD_XREC_ROUNDTRIP
360
C1F
  0
DICTIONARY
  5
C22
330
72E
100
AcDbDictionary
280
     1
281
     1
  3
ACAD_XREC_ROUNDTRIP
360
C23
  0
DICTIONARY
  5
C3C
330
73B
100
AcDbDictionary
280
     1
281
     1
  3
ACAD_XREC_ROUNDTRIP
360
C3D
  0
DICTIONARY
  5
C2A
330
732
100
AcDbDictionary
280
     1
281
     1
  3
ACAD_XREC_ROUNDTRIP
360
C2B
  0
DICTIONARY
  5
C0E
330
724
100
AcDbDictionary
280
     1
281
     1
  3
ACAD_XREC_ROUNDTRIP
360
C0F
  0
DICTIONARY
  5
C10
330
725
100
AcDbDictionary
280
     1
281
     1
  3
ACAD_XREC_ROUNDTRIP
360
C11
  0
DICTIONARY
  5
C12
330
726
100
AcDbDictionary
280
     1
281
     1
  3
ACAD_XREC_ROUNDTRIP
360
C13
  0
DICTIONARY
  5
C14
330
727
100
AcDbDictionary
280
     1
281
     1
  3
ACAD_XREC_ROUNDTRIP
360
C15
  0
DICTIONARY
  5
C1C
330
72B
100
AcDbDictionary
280
     1
281
     1
  3
ACAD_XREC_ROUNDTRIP
360
C1D
  0
DICTIONARY
  5
C38
330
739
100
AcDbDictionary
280
     1
281
     1
  3
ACAD_XREC_ROUNDTRIP
360
C39
  0
DICTIONARY
  5
C28
330
731
100
AcDbDictionary
280
     1
281
     1
  3
ACAD_XREC_ROUNDTRIP
360
C29
  0
DICTIONARY
  5
C3A
330
73A
100
AcDbDictionary
280
     1
281
     1
  3
ACAD_XREC_ROUNDTRIP
360
C3B
  0
DICTIONARY
  5
C20
330
72D
100
AcDbDictionary
280
     1
281
     1
  3
ACAD_XREC_ROUNDTRIP
360
C21
  0
DICTIONARY
  5
C36
330
738
100
AcDbDictionary
280
     1
281
     1
  3
ACAD_XREC_ROUNDTRIP
360
C37
  0
DICTIONARY
  5
C34
330
737
100
AcDbDictionary
280
     1
281
     1
  3
ACAD_XREC_ROUNDTRIP
360
C35
  0
DICTIONARY
  5
C2E
330
734
100
AcDbDictionary
280
     1
281
     1
  3
ACAD_XREC_ROUNDTRIP
360
C2F
  0
DICTIONARY
  5
C30
330
735
100
AcDbDictionary
280
     1
281
     1
  3
ACAD_XREC_ROUNDTRIP
360
C31
  0
DICTIONARY
  5
C26
330
730
100
AcDbDictionary
280
     1
281
     1
  3
ACAD_XREC_ROUNDTRIP
360
C27
  0
DICTIONARY
  5
C1A
330
72A
100
AcDbDictionary
280
     1
281
     1
  3
ACAD_XREC_ROUNDTRIP
360
C1B
  0
DICTIONARY
  5
C32
330
736
100
AcDbDictionary
280
     1
281
     1
  3
ACAD_XREC_ROUNDTRIP
360
C33
  0
XRECORD
  5
C45
102
{ACAD_REACTORS
330
C44
102
}
330
C44
100
AcDbXrecord
280
     1
102
DISPLAYNAME
  1
Imperial24
102
FLAGS
 90
        0
  0
XRECORD
  5
C41
102
{ACAD_REACTORS
330
C40
102
}
330
C40
100
AcDbXrecord
280
     1
102
DISPLAYNAME
  1
Metric50
102
FLAGS
 90
        0
  0
XRECORD
  5
716
102
{ACAD_REACTORS
330
714
102
}
330
714
100
AcDbXrecord
280
     1
270
     1
271
     1
  0
XRECORD
  5
715
102
{ACAD_REACTORS
330
714
102
}
330
714
100
AcDbXrecord
280
     1
270
     1
271
     1
  0
XRECORD
  5
719
102
{ACAD_REACTORS
330
714
102
}
330
714
100
AcDbXrecord
280
     1
270
     1
271
     1
  0
XRECORD
  5
718
102
{ACAD_REACTORS
330
714
102
}
330
714
100
AcDbXrecord
280
     1
270
     1
271
     1
  0
XRECORD
  5
71A
102
{ACAD_REACTORS
330
714
102
}
330
714
100
AcDbXrecord
280
     1
270
     1
271
     1
  0
XRECORD
  5
717
102
{ACAD_REACTORS
330
714
102
}
330
714
100
AcDbXrecord
280
     1
270
     1
271
     1
  0
XRECORD
  5
70E
102
{ACAD_REACTORS
330
70C
102
}
330
70C
100
AcDbXrecord
280
     1
270
     1
271
     1
  0
XRECORD
  5
70D
102
{ACAD_REACTORS
330
70C
102
}
330
70C
100
AcDbXrecord
280
     1
270
     1
271
     1
  0
XRECORD
  5
711
102
{ACAD_REACTORS
330
70C
102
}
330
70C
100
AcDbXrecord
280
     1
270
     1
271
     1
  0
XRECORD
  5
710
102
{ACAD_REACTORS
330
70C
102
}
330
70C
100
AcDbXrecord
280
     1
270
     1
271
     1
  0
XRECORD
  5
712
102
{ACAD_REACTORS
330
70C
102
}
330
70C
100
AcDbXrecord
280
     1
270
     1
271
     1
  0
XRECORD
  5
70F
102
{ACAD_REACTORS
330
70C
102
}
330
70C
100
AcDbXrecord
280
     1
270
     1
271
     1
  0
XRECORD
  5
71E
102
{ACAD_REACTORS
330
71C
102
}
330
71C
100
AcDbXrecord
280
     1
270
     1
271
     1
  0
XRECORD
  5
71D
102
{ACAD_REACTORS
330
71C
102
}
330
71C
100
AcDbXrecord
280
     1
270
     1
271
     1
  0
XRECORD
  5
721
102
{ACAD_REACTORS
330
71C
102
}
330
71C
100
AcDbXrecord
280
     1
270
     1
271
     1
  0
XRECORD
  5
720
102
{ACAD_REACTORS
330
71C
102
}
330
71C
100
AcDbXrecord
280
     1
270
     1
271
     1
  0
XRECORD
  5
722
102
{ACAD_REACTORS
330
71C
102
}
330
71C
100
AcDbXrecord
280
     1
270
     1
271
     1
  0
XRECORD
  5
71F
102
{ACAD_REACTORS
330
71C
102
}
330
71C
100
AcDbXrecord
280
     1
270
     1
271
     1
  0
XRECORD
  5
C43
102
{ACAD_REACTORS
330
C42
102
}
330
C42
100
AcDbXrecord
280
     1
102
DISPLAYNAME
  1
Imperial24
102
FLAGS
 90
        0
  0
XRECORD
  5
C3F
102
{ACAD_REACTORS
330
C3E
102
}
330
C3E
100
AcDbXrecord
280
     1
102
DISPLAYNAME
  1
Metric50
102
FLAGS
 90
        0
  0
CELLSTYLEMAP
  5
C0C
102
{ACAD_REACTORS
330
7B8
102
}
330
7B8
100
AcDbCellStyleMap
 90
        3
300
CELLSTYLE
  1
TABLEFORMAT_BEGIN
 90
        5
170
     1
 91
        0
 92
    32768
 62
   257
 93
        1
300
CONTENTFORMAT
  1
CONTENTFORMAT_BEGIN
 90
        0
 91
        0
 92
      512
 93
        0
300

 40
0.0
140
1.0
 94
        5
 62
     0
340
11
144
6.0
309
CONTENTFORMAT_END
171
     1
301
MARGIN
  1
CELLMARGIN_BEGIN
 40
1.5
 40
1.5
 40
1.5
 40
1.5
 40
0.18
 40
0.18
309
CELLMARGIN_END
 94
        6
 95
        1
302
GRIDFORMAT
  1
GRIDFORMAT_BEGIN
 90
        0
 91
        1
 62
     0
 92
       -2
340
0
 93
        0
 40
1.125
309
GRIDFORMAT_END
 95
        2
302
GRIDFORMAT
  1
GRIDFORMAT_BEGIN
 90
        0
 91
        1
 62
     0
 92
       -2
340
0
 93
        0
 40
1.125
309
GRIDFORMAT_END
 95
        4
302
GRIDFORMAT
  1
GRIDFORMAT_BEGIN
 90
        0
 91
        1
 62
     0
 92
       -2
340
0
 93
        0
 40
1.125
309
GRIDFORMAT_END
 95
        8
302
GRIDFORMAT
  1
GRIDFORMAT_BEGIN
 90
        0
 91
        1
 62
     0
 92
       -2
340
0
 93
        0
 40
1.125
309
GRIDFORMAT_END
 95
       16
302
GRIDFORMAT
  1
GRIDFORMAT_BEGIN
 90
        0
 91
        1
 62
     0
 92
       -2
340
0
 93
        0
 40
1.125
309
GRIDFORMAT_END
 95
       32
302
GRIDFORMAT
  1
GRIDFORMAT_BEGIN
 90
        0
 91
        1
 62
     0
 92
       -2
340
0
 93
        0
 40
1.125
309
GRIDFORMAT_END
309
TABLEFORMAT_END
  1
CELLSTYLE_BEGIN
 90
        1
 91
        1
300
_TITLE
309
CELLSTYLE_END
300
CELLSTYLE
  1
TABLEFORMAT_BEGIN
 90
        5
170
     1
 91
        0
 92
        0
 62
   257
 93
        1
300
CONTENTFORMAT
  1
CONTENTFORMAT_BEGIN
 90
        0
 91
        0
 92
      512
 93
        0
300

 40
0.0
140
1.0
 94
        5
 62
     0
340
11
144
4.5
309
CONTENTFORMAT_END
171
     1
301
MARGIN
  1
CELLMARGIN_BEGIN
 40
1.5
 40
1.5
 40
1.5
 40
1.5
 40
0.18
 40
0.18
309
CELLMARGIN_END
 94
        6
 95
        1
302
GRIDFORMAT
  1
GRIDFORMAT_BEGIN
 90
        0
 91
        1
 62
     0
 92
       -2
340
0
 93
        0
 40
1.125
309
GRIDFORMAT_END
 95
        2
302
GRIDFORMAT
  1
GRIDFORMAT_BEGIN
 90
        0
 91
        1
 62
     0
 92
       -2
340
0
 93
        0
 40
1.125
309
GRIDFORMAT_END
 95
        4
302
GRIDFORMAT
  1
GRIDFORMAT_BEGIN
 90
        0
 91
        1
 62
     0
 92
       -2
340
0
 93
        0
 40
1.125
309
GRIDFORMAT_END
 95
        8
302
GRIDFORMAT
  1
GRIDFORMAT_BEGIN
 90
        0
 91
        1
 62
     0
 92
       -2
340
0
 93
        0
 40
1.125
309
GRIDFORMAT_END
 95
       16
302
GRIDFORMAT
  1
GRIDFORMAT_BEGIN
 90
        0
 91
        1
 62
     0
 92
       -2
340
0
 93
        0
 40
1.125
309
GRIDFORMAT_END
 95
       32
302
GRIDFORMAT
  1
GRIDFORMAT_BEGIN
 90
        0
 91
        1
 62
     0
 92
       -2
340
0
 93
        0
 40
1.125
309
GRIDFORMAT_END
309
TABLEFORMAT_END
  1
CELLSTYLE_BEGIN
 90
        2
 91
        1
300
_HEADER
309
CELLSTYLE_END
300
CELLSTYLE
  1
TABLEFORMAT_BEGIN
 90
        5
170
     1
 91
        0
 92
        0
 62
   257
 93
        1
300
CONTENTFORMAT
  1
CONTENTFORMAT_BEGIN
 90
        0
 91
        0
 92
      512
 93
        0
300

 40
0.0
140
1.0
 94
        2
 62
     0
340
11
144
4.5
309
CONTENTFORMAT_END
171
     1
301
MARGIN
  1
CELLMARGIN_BEGIN
 40
1.5
 40
1.5
 40
1.5
 40
1.5
 40
0.18
 40
0.18
309
CELLMARGIN_END
 94
        6
 95
        1
302
GRIDFORMAT
  1
GRIDFORMAT_BEGIN
 90
        0
 91
        1
 62
     0
 92
       -2
340
0
 93
        0
 40
1.125
309
GRIDFORMAT_END
 95
        2
302
GRIDFORMAT
  1
GRIDFORMAT_BEGIN
 90
        0
 91
        1
 62
     0
 92
       -2
340
0
 93
        0
 40
1.125
309
GRIDFORMAT_END
 95
        4
302
GRIDFORMAT
  1
GRIDFORMAT_BEGIN
 90
        0
 91
        1
 62
     0
 92
       -2
340
0
 93
        0
 40
1.125
309
GRIDFORMAT_END
 95
        8
302
GRIDFORMAT
  1
GRIDFORMAT_BEGIN
 90
        0
 91
        1
 62
     0
 92
       -2
340
0
 93
        0
 40
1.125
309
GRIDFORMAT_END
 95
       16
302
GRIDFORMAT
  1
GRIDFORMAT_BEGIN
 90
        0
 91
        1
 62
     0
 92
       -2
340
0
 93
        0
 40
1.125
309
GRIDFORMAT_END
 95
       32
302
GRIDFORMAT
  1
GRIDFORMAT_BEGIN
 90
        0
 91
        1
 62
     0
 92
       -2
340
0
 93
        0
 40
1.125
309
GRIDFORMAT_END
309
TABLEFORMAT_END
  1
CELLSTYLE_BEGIN
 90
        3
 91
        2
300
_DATA
309
CELLSTYLE_END
  0
XRECORD
  5
C19
102
{ACAD_REACTORS
330
C18
102
}
330
C18
100
AcDbXrecord
280
     1
102
RTVSPost2010Prop28
280
     1
102
RTVSPost2010PropOp28
 70
     1
102
RTVSPost2010Prop29
280
     1
102
RTVSPost2010PropOp29
 70
     1
102
RTVSPost2010Prop30
280
     0
102
RTVSPost2010PropOp30
 70
     1
102
RTVSPost2010Prop31
280
     0
102
RTVSPost2010PropOp31
 70
     1
102
RTVSPost2010Prop32
280
     0
102
RTVSPost2010PropOp32
 70
     1
102
RTVSPost2010Prop33
280
     0
102
RTVSPost2010PropOp33
 70
     1
102
RTVSPost2010Prop34
280
     0
102
RTVSPost2010PropOp34
 70
     1
102
RTVSPost2010Prop35
280
     0
102
RTVSPost2010PropOp35
 70
     1
102
RTVSPost2010Prop36
280
     0
102
RTVSPost2010PropOp36
 70
     1
102
RTVSPost2010Prop37
 90
       50
102
RTVSPost2010PropOp37
 70
     1
102
RTVSPost2010Prop38
140
0.0
102
RTVSPost2010PropOp38
 70
     1
102
RTVSPost2010Prop39
140
1.0
102
RTVSPost2010PropOp39
 70
     1
102
RTVSPost2010Prop40
 90
        0
102
RTVSPost2010PropOp40
 70
     1
102
RTVSPost2010Prop41ColorIndex
 90
       18
102
RTVSPost2010Prop41ColorRGB
 90
        0
102
RTVSPost2010PropOp41
 70
     1
102
RTVSPost2010Prop42
 90
       50
102
RTVSPost2010PropOp42
 70
     1
102
RTVSPost2010Prop43
 90
        3
102
RTVSPost2010PropOp43
 70
     1
102
RTVSPost2010Prop44ColorIndex
 90
        5
102
RTVSPost2010Prop44ColorRGB
 90
      255
102
RTVSPost2010PropOp44
 70
     1
102
RTVSPost2010Prop45
280
     0
102
RTVSPost2010PropOp45
 70
     1
102
RTVSPost2010Prop46
 90
       50
102
RTVSPost2010PropOp46
 70
     1
102
RTVSPost2010Prop47
 90
       50
102
RTVSPost2010PropOp47
 70
     1
102
RTVSPost2010Prop48
 90
       50
102
RTVSPost2010PropOp48
 70
     1
102
RTVSPost2010Prop49
280
     0
102
RTVSPost2010PropOp49
 70
     1
102
RTVSPost2010Prop50
 90
       50
102
RTVSPost2010PropOp50
 70
     1
102
RTVSPost2010Prop51ColorIndex
 90
      256
102
RTVSPost2010Prop51ColorRGB
 90
-16777216
102
RTVSPost2010PropOp51
 70
     0
102
RTVSPost2010Prop52
140
1.0
102
RTVSPost2010PropOp52
 70
     0
102
RTVSPost2010Prop53
 90
        2
102
RTVSPost2010PropOp53
 70
     1
102
RTVSPost2010Prop54
  1
strokes_ogs.tif
102
RTVSPost2010PropOp54
 70
     1
102
RTVSPost2010Prop55
280
     0
102
RTVSPost2010PropOp55
 70
     1
102
RTVSPost2010Prop56
140
1.0
102
RTVSPost2010PropOp56
 70
     1
102
RTVSPost2010Prop57
140
1.0
102
RTVSPost2010PropOp57
 70
     1
  0
XRECORD
  5
C17
102
{ACAD_REACTORS
330
C16
102
}
330
C16
100
AcDbXrecord
280
     1
102
RTVSPost2010Prop28
280
     0
102
RTVSPost2010PropOp28
 70
     1
102
RTVSPost2010Prop29
280
     1
102
RTVSPost2010PropOp29
 70
     1
102
RTVSPost2010Prop30
280
     1
102
RTVSPost2010PropOp30
 70
     1
102
RTVSPost2010Prop31
280
     0
102
RTVSPost2010PropOp31
 70
     1
102
RTVSPost2010Prop32
280
     0
102
RTVSPost2010PropOp32
 70
     1
102
RTVSPost2010Prop33
280
     0
102
RTVSPost2010PropOp33
 70
     1
102
RTVSPost2010Prop34
280
     0
102
RTVSPost2010PropOp34
 70
     1
102
RTVSPost2010Prop35
280
     0
102
RTVSPost2010PropOp35
 70
     1
102
RTVSPost2010Prop36
280
     0
102
RTVSPost2010PropOp36
 70
     1
102
RTVSPost2010Prop37
 90
       50
102
RTVSPost2010PropOp37
 70
     1
102
RTVSPost2010Prop38
140
0.0
102
RTVSPost2010PropOp38
 70
     1
102
RTVSPost2010Prop39
140
1.0
102
RTVSPost2010PropOp39
 70
     1
102
RTVSPost2010Prop40
 90
        0
102
RTVSPost2010PropOp40
 70
     1
102
RTVSPost2010Prop41ColorIndex
 90
       18
102
RTVSPost2010Prop41ColorRGB
 90
        0
102
RTVSPost2010PropOp41
 70
     1
102
RTVSPost2010Prop42
 90
       50
102
RTVSPost2010PropOp42
 70
     1
102
RTVSPost2010Prop43
 90
        3
102
RTVSPost2010PropOp43
 70
     1
102
RTVSPost2010Prop44ColorIndex
 90
        5
102
RTVSPost2010Prop44ColorRGB
 90
      255
102
RTVSPost2010PropOp44
 70
     1
102
RTVSPost2010Prop45
280
     0
102
RTVSPost2010PropOp45
 70
     1
102
RTVSPost2010Prop46
 90
       50
102
RTVSPost2010PropOp46
 70
     1
102
RTVSPost2010Prop47
 90
       50
102
RTVSPost2010PropOp47
 70
     1
102
RTVSPost2010Prop48
 90
       50
102
RTVSPost2010PropOp48
 70
     1
102
RTVSPost2010Prop49
280
     0
102
RTVSPost2010PropOp49
 70
     1
102
RTVSPost2010Prop50
 90
       50
102
RTVSPost2010PropOp50
 70
     1
102
RTVSPost2010Prop51ColorIndex
 90
      256
102
RTVSPost2010Prop51ColorRGB
 90
-16777216
102
RTVSPost2010PropOp51
 70
     0
102
RTVSPost2010Prop52
140
1.0
102
RTVSPost2010PropOp52
 70
     0
102
RTVSPost2010Prop53
 90
        2
102
RTVSPost2010PropOp53
 70
     1
102
RTVSPost2010Prop54
  1
strokes_ogs.tif
102
RTVSPost2010PropOp54
 70
     1
102
RTVSPost2010Prop55
280
     0
102
RTVSPost2010PropOp55
 70
     1
102
RTVSPost2010Prop56
140
1.0
102
RTVSPost2010PropOp56
 70
     1
102
RTVSPost2010Prop57
140
1.0
102
RTVSPost2010PropOp57
 70
     1
  0
XRECORD
  5
C25
102
{ACAD_REACTORS
330
C24
102
}
330
C24
100
AcDbXrecord
280
     1
102
RTVSPost2010Prop28
280
     0
102
RTVSPost2010PropOp28
 70
     1
102
RTVSPost2010Prop29
280
     1
102
RTVSPost2010PropOp29
 70
     1
102
RTVSPost2010Prop30
280
     1
102
RTVSPost2010PropOp30
 70
     1
102
RTVSPost2010Prop31
280
     0
102
RTVSPost2010PropOp31
 70
     1
102
RTVSPost2010Prop32
280
     0
102
RTVSPost2010PropOp32
 70
     1
102
RTVSPost2010Prop33
280
     0
102
RTVSPost2010PropOp33
 70
     1
102
RTVSPost2010Prop34
280
     0
102
RTVSPost2010PropOp34
 70
     1
102
RTVSPost2010Prop35
280
     0
102
RTVSPost2010PropOp35
 70
     1
102
RTVSPost2010Prop36
280
     0
102
RTVSPost2010PropOp36
 70
     1
102
RTVSPost2010Prop37
 90
       50
102
RTVSPost2010PropOp37
 70
     1
102
RTVSPost2010Prop38
140
0.0
102
RTVSPost2010PropOp38
 70
     1
102
RTVSPost2010Prop39
140
1.0
102
RTVSPost2010PropOp39
 70
     1
102
RTVSPost2010Prop40
 90
        0
102
RTVSPost2010PropOp40
 70
     1
102
RTVSPost2010Prop41ColorIndex
 90
       18
102
RTVSPost2010Prop41ColorRGB
 90
        0
102
RTVSPost2010PropOp41
 70
     1
102
RTVSPost2010Prop42
 90
       50
102
RTVSPost2010PropOp42
 70
     1
102
RTVSPost2010Prop43
 90
        3
102
RTVSPost2010PropOp43
 70
     1
102
RTVSPost2010Prop44ColorIndex
 90
        5
102
RTVSPost2010Prop44ColorRGB
 90
      255
102
RTVSPost2010PropOp44
 70
     1
102
RTVSPost2010Prop45
280
     0
102
RTVSPost2010PropOp45
 70
     1
102
RTVSPost2010Prop46
 90
       50
102
RTVSPost2010PropOp46
 70
     1
102
RTVSPost2010Prop47
 90
       50
102
RTVSPost2010PropOp47
 70
     1
102
RTVSPost2010Prop48
 90
       50
102
RTVSPost2010PropOp48
 70
     1
102
RTVSPost2010Prop49
280
     0
102
RTVSPost2010PropOp49
 70
     1
102
RTVSPost2010Prop50
 90
       50
102
RTVSPost2010PropOp50
 70
     1
102
RTVSPost2010Prop51ColorIndex
 90
      256
102
RTVSPost2010Prop51ColorRGB
 90
-16777216
102
RTVSPost2010PropOp51
 70
     0
102
RTVSPost2010Prop52
140
1.0
102
RTVSPost2010PropOp52
 70
     0
102
RTVSPost2010Prop53
 90
        2
102
RTVSPost2010PropOp53
 70
     1
102
RTVSPost2010Prop54
  1
strokes_ogs.tif
102
RTVSPost2010PropOp54
 70
     1
102
RTVSPost2010Prop55
280
     0
102
RTVSPost2010PropOp55
 70
     1
102
RTVSPost2010Prop56
140
1.0
102
RTVSPost2010PropOp56
 70
     1
102
RTVSPost2010Prop57
140
1.0
102
RTVSPost2010PropOp57
 70
     1
  0
XRECORD
  5
C2D
102
{ACAD_REACTORS
330
C2C
102
}
330
C2C
100
AcDbXrecord
280
     1
102
RTVSPost2010Prop28
280
     0
102
RTVSPost2010PropOp28
 70
     1
102
RTVSPost2010Prop29
280
     1
102
RTVSPost2010PropOp29
 70
     1
102
RTVSPost2010Prop30
280
     1
102
RTVSPost2010PropOp30
 70
     1
102
RTVSPost2010Prop31
280
     0
102
RTVSPost2010PropOp31
 70
     1
102
RTVSPost2010Prop32
280
     0
102
RTVSPost2010PropOp32
 70
     1
102
RTVSPost2010Prop33
280
     0
102
RTVSPost2010PropOp33
 70
     1
102
RTVSPost2010Prop34
280
     0
102
RTVSPost2010PropOp34
 70
     1
102
RTVSPost2010Prop35
280
     0
102
RTVSPost2010PropOp35
 70
     1
102
RTVSPost2010Prop36
280
     0
102
RTVSPost2010PropOp36
 70
     1
102
RTVSPost2010Prop37
 90
       50
102
RTVSPost2010PropOp37
 70
     1
102
RTVSPost2010Prop38
140
0.0
102
RTVSPost2010PropOp38
 70
     1
102
RTVSPost2010Prop39
140
1.0
102
RTVSPost2010PropOp39
 70
     1
102
RTVSPost2010Prop40
 90
        0
102
RTVSPost2010PropOp40
 70
     1
102
RTVSPost2010Prop41ColorIndex
 90
       18
102
RTVSPost2010Prop41ColorRGB
 90
        0
102
RTVSPost2010PropOp41
 70
     1
102
RTVSPost2010Prop42
 90
       50
102
RTVSPost2010PropOp42
 70
     1
102
RTVSPost2010Prop43
 90
        3
102
RTVSPost2010PropOp43
 70
     1
102
RTVSPost2010Prop44ColorIndex
 90
        5
102
RTVSPost2010Prop44ColorRGB
 90
      255
102
RTVSPost2010PropOp44
 70
     1
102
RTVSPost2010Prop45
280
     0
102
RTVSPost2010PropOp45
 70
     1
102
RTVSPost2010Prop46
 90
       50
102
RTVSPost2010PropOp46
 70
     1
102
RTVSPost2010Prop47
 90
       50
102
RTVSPost2010PropOp47
 70
     1
102
RTVSPost2010Prop48
 90
       50
102
RTVSPost2010PropOp48
 70
     1
102
RTVSPost2010Prop49
280
     0
102
RTVSPost2010PropOp49
 70
     1
102
RTVSPost2010Prop50
 90
       50
102
RTVSPost2010PropOp50
 70
     1
102
RTVSPost2010Prop51ColorIndex
 90
      256
102
RTVSPost2010Prop51ColorRGB
 90
-16777216
102
RTVSPost2010PropOp51
 70
     0
102
RTVSPost2010Prop52
140
1.0
102
RTVSPost2010PropOp52
 70
     0
102
RTVSPost2010Prop53
 90
        2
102
RTVSPost2010PropOp53
 70
     1
102
RTVSPost2010Prop54
  1
strokes_ogs.tif
102
RTVSPost2010PropOp54
 70
     1
102
RTVSPost2010Prop55
280
     0
102
RTVSPost2010PropOp55
 70
     1
102
RTVSPost2010Prop56
140
1.0
102
RTVSPost2010PropOp56
 70
     1
102
RTVSPost2010Prop57
140
1.0
102
RTVSPost2010PropOp57
 70
     1
  0
XRECORD
  5
C1F
102
{ACAD_REACTORS
330
C1E
102
}
330
C1E
100
AcDbXrecord
280
     1
102
RTVSPost2010Prop28
280
     0
102
RTVSPost2010PropOp28
 70
     1
102
RTVSPost2010Prop29
280
     1
102
RTVSPost2010PropOp29
 70
     1
102
RTVSPost2010Prop30
280
     1
102
RTVSPost2010PropOp30
 70
     1
102
RTVSPost2010Prop31
280
     0
102
RTVSPost2010PropOp31
 70
     1
102
RTVSPost2010Prop32
280
     0
102
RTVSPost2010PropOp32
 70
     1
102
RTVSPost2010Prop33
280
     0
102
RTVSPost2010PropOp33
 70
     1
102
RTVSPost2010Prop34
280
     0
102
RTVSPost2010PropOp34
 70
     1
102
RTVSPost2010Prop35
280
     0
102
RTVSPost2010PropOp35
 70
     1
102
RTVSPost2010Prop36
280
     0
102
RTVSPost2010PropOp36
 70
     1
102
RTVSPost2010Prop37
 90
       50
102
RTVSPost2010PropOp37
 70
     1
102
RTVSPost2010Prop38
140
0.0
102
RTVSPost2010PropOp38
 70
     1
102
RTVSPost2010Prop39
140
1.0
102
RTVSPost2010PropOp39
 70
     1
102
RTVSPost2010Prop40
 90
        0
102
RTVSPost2010PropOp40
 70
     1
102
RTVSPost2010Prop41ColorIndex
 90
       18
102
RTVSPost2010Prop41ColorRGB
 90
        0
102
RTVSPost2010PropOp41
 70
     1
102
RTVSPost2010Prop42
 90
       50
102
RTVSPost2010PropOp42
 70
     1
102
RTVSPost2010Prop43
 90
        3
102
RTVSPost2010PropOp43
 70
     1
102
RTVSPost2010Prop44ColorIndex
 90
        5
102
RTVSPost2010Prop44ColorRGB
 90
      255
102
RTVSPost2010PropOp44
 70
     1
102
RTVSPost2010Prop45
280
     0
102
RTVSPost2010PropOp45
 70
     1
102
RTVSPost2010Prop46
 90
       50
102
RTVSPost2010PropOp46
 70
     1
102
RTVSPost2010Prop47
 90
       50
102
RTVSPost2010PropOp47
 70
     1
102
RTVSPost2010Prop48
 90
       50
102
RTVSPost2010PropOp48
 70
     1
102
RTVSPost2010Prop49
280
     0
102
RTVSPost2010PropOp49
 70
     1
102
RTVSPost2010Prop50
 90
       50
102
RTVSPost2010PropOp50
 70
     1
102
RTVSPost2010Prop51ColorIndex
 90
      256
102
RTVSPost2010Prop51ColorRGB
 90
-16777216
102
RTVSPost2010PropOp51
 70
     0
102
RTVSPost2010Prop52
140
1.0
102
RTVSPost2010PropOp52
 70
     0
102
RTVSPost2010Prop53
 90
        2
102
RTVSPost2010PropOp53
 70
     1
102
RTVSPost2010Prop54
  1
strokes_ogs.tif
102
RTVSPost2010PropOp54
 70
     1
102
RTVSPost2010Prop55
280
     0
102
RTVSPost2010PropOp55
 70
     1
102
RTVSPost2010Prop56
140
1.0
102
RTVSPost2010PropOp56
 70
     1
102
RTVSPost2010Prop57
140
1.0
102
RTVSPost2010PropOp57
 70
     1
  0
XRECORD
  5
C23
102
{ACAD_REACTORS
330
C22
102
}
330
C22
100
AcDbXrecord
280
     1
102
RTVSPost2010Prop28
280
     0
102
RTVSPost2010PropOp28
 70
     1
102
RTVSPost2010Prop29
280
     1
102
RTVSPost2010PropOp29
 70
     1
102
RTVSPost2010Prop30
280
     1
102
RTVSPost2010PropOp30
 70
     1
102
RTVSPost2010Prop31
280
     0
102
RTVSPost2010PropOp31
 70
     1
102
RTVSPost2010Prop32
280
     0
102
RTVSPost2010PropOp32
 70
     1
102
RTVSPost2010Prop33
280
     0
102
RTVSPost2010PropOp33
 70
     1
102
RTVSPost2010Prop34
280
     0
102
RTVSPost2010PropOp34
 70
     1
102
RTVSPost2010Prop35
280
     0
102
RTVSPost2010PropOp35
 70
     1
102
RTVSPost2010Prop36
280
     0
102
RTVSPost2010PropOp36
 70
     1
102
RTVSPost2010Prop37
 90
       50
102
RTVSPost2010PropOp37
 70
     1
102
RTVSPost2010Prop38
140
0.0
102
RTVSPost2010PropOp38
 70
     1
102
RTVSPost2010Prop39
140
1.0
102
RTVSPost2010PropOp39
 70
     1
102
RTVSPost2010Prop40
 90
        0
102
RTVSPost2010PropOp40
 70
     1
102
RTVSPost2010Prop41ColorIndex
 90
       18
102
RTVSPost2010Prop41ColorRGB
 90
        0
102
RTVSPost2010PropOp41
 70
     1
102
RTVSPost2010Prop42
 90
       50
102
RTVSPost2010PropOp42
 70
     1
102
RTVSPost2010Prop43
 90
        3
102
RTVSPost2010PropOp43
 70
     1
102
RTVSPost2010Prop44ColorIndex
 90
        5
102
RTVSPost2010Prop44ColorRGB
 90
      255
102
RTVSPost2010PropOp44
 70
     1
102
RTVSPost2010Prop45
280
     0
102
RTVSPost2010PropOp45
 70
     1
102
RTVSPost2010Prop46
 90
       50
102
RTVSPost2010PropOp46
 70
     1
102
RTVSPost2010Prop47
 90
       50
102
RTVSPost2010PropOp47
 70
     1
102
RTVSPost2010Prop48
 90
       50
102
RTVSPost2010PropOp48
 70
     1
102
RTVSPost2010Prop49
280
     0
102
RTVSPost2010PropOp49
 70
     1
102
RTVSPost2010Prop50
 90
       50
102
RTVSPost2010PropOp50
 70
     1
102
RTVSPost2010Prop51ColorIndex
 90
      256
102
RTVSPost2010Prop51ColorRGB
 90
-16777216
102
RTVSPost2010PropOp51
 70
     0
102
RTVSPost2010Prop52
140
1.0
102
RTVSPost2010PropOp52
 70
     0
102
RTVSPost2010Prop53
 90
        2
102
RTVSPost2010PropOp53
 70
     1
102
RTVSPost2010Prop54
  1
strokes_ogs.tif
102
RTVSPost2010PropOp54
 70
     1
102
RTVSPost2010Prop55
280
     0
102
RTVSPost2010PropOp55
 70
     1
102
RTVSPost2010Prop56
140
1.0
102
RTVSPost2010PropOp56
 70
     1
102
RTVSPost2010Prop57
140
1.0
102
RTVSPost2010PropOp57
 70
     1
  0
XRECORD
  5
C3D
102
{ACAD_REACTORS
330
C3C
102
}
330
C3C
100
AcDbXrecord
280
     1
102
RTVSPost2010Prop28
280
     0
102
RTVSPost2010PropOp28
 70
     1
102
RTVSPost2010Prop29
280
     1
102
RTVSPost2010PropOp29
 70
     1
102
RTVSPost2010Prop30
280
     1
102
RTVSPost2010PropOp30
 70
     1
102
RTVSPost2010Prop31
280
     0
102
RTVSPost2010PropOp31
 70
     1
102
RTVSPost2010Prop32
280
     0
102
RTVSPost2010PropOp32
 70
     1
102
RTVSPost2010Prop33
280
     0
102
RTVSPost2010PropOp33
 70
     1
102
RTVSPost2010Prop34
280
     0
102
RTVSPost2010PropOp34
 70
     1
102
RTVSPost2010Prop35
280
     0
102
RTVSPost2010PropOp35
 70
     1
102
RTVSPost2010Prop36
280
     0
102
RTVSPost2010PropOp36
 70
     1
102
RTVSPost2010Prop37
 90
       50
102
RTVSPost2010PropOp37
 70
     0
102
RTVSPost2010Prop38
140
0.0
102
RTVSPost2010PropOp38
 70
     0
102
RTVSPost2010Prop39
140
1.0
102
RTVSPost2010PropOp39
 70
     0
102
RTVSPost2010Prop40
 90
        0
102
RTVSPost2010PropOp40
 70
     0
102
RTVSPost2010Prop41ColorIndex
 90
       18
102
RTVSPost2010Prop41ColorRGB
 90
        0
102
RTVSPost2010PropOp41
 70
     0
102
RTVSPost2010Prop42
 90
       50
102
RTVSPost2010PropOp42
 70
     0
102
RTVSPost2010Prop43
 90
        3
102
RTVSPost2010PropOp43
 70
     0
102
RTVSPost2010Prop44ColorIndex
 90
        5
102
RTVSPost2010Prop44ColorRGB
 90
      255
102
RTVSPost2010PropOp44
 70
     0
102
RTVSPost2010Prop45
280
     0
102
RTVSPost2010PropOp45
 70
     1
102
RTVSPost2010Prop46
 90
       50
102
RTVSPost2010PropOp46
 70
     0
102
RTVSPost2010Prop47
 90
       50
102
RTVSPost2010PropOp47
 70
     0
102
RTVSPost2010Prop48
 90
       50
102
RTVSPost2010PropOp48
 70
     0
102
RTVSPost2010Prop49
280
     0
102
RTVSPost2010PropOp49
 70
     1
102
RTVSPost2010Prop50
 90
       50
102
RTVSPost2010PropOp50
 70
     0
102
RTVSPost2010Prop51ColorIndex
 90
      256
102
RTVSPost2010Prop51ColorRGB
 90
-16777216
102
RTVSPost2010PropOp51
 70
     0
102
RTVSPost2010Prop52
140
1.0
102
RTVSPost2010PropOp52
 70
     0
102
RTVSPost2010Prop53
 90
        2
102
RTVSPost2010PropOp53
 70
     0
102
RTVSPost2010Prop54
  1
strokes_ogs.tif
102
RTVSPost2010PropOp54
 70
     0
102
RTVSPost2010Prop55
280
     0
102
RTVSPost2010PropOp55
 70
     1
102
RTVSPost2010Prop56
140
1.0
102
RTVSPost2010PropOp56
 70
     0
102
RTVSPost2010Prop57
140
1.0
102
RTVSPost2010PropOp57
 70
     0
  0
XRECORD
  5
C2B
102
{ACAD_REACTORS
330
C2A
102
}
330
C2A
100
AcDbXrecord
280
     1
102
RTVSPost2010Prop28
280
     0
102
RTVSPost2010PropOp28
 70
     1
102
RTVSPost2010Prop29
280
     1
102
RTVSPost2010PropOp29
 70
     1
102
RTVSPost2010Prop30
280
     1
102
RTVSPost2010PropOp30
 70
     1
102
RTVSPost2010Prop31
280
     0
102
RTVSPost2010PropOp31
 70
     1
102
RTVSPost2010Prop32
280
     0
102
RTVSPost2010PropOp32
 70
     1
102
RTVSPost2010Prop33
280
     0
102
RTVSPost2010PropOp33
 70
     1
102
RTVSPost2010Prop34
280
     0
102
RTVSPost2010PropOp34
 70
     1
102
RTVSPost2010Prop35
280
     0
102
RTVSPost2010PropOp35
 70
     1
102
RTVSPost2010Prop36
280
     0
102
RTVSPost2010PropOp36
 70
     1
102
RTVSPost2010Prop37
 90
       50
102
RTVSPost2010PropOp37
 70
     1
102
RTVSPost2010Prop38
140
0.0
102
RTVSPost2010PropOp38
 70
     1
102
RTVSPost2010Prop39
140
1.0
102
RTVSPost2010PropOp39
 70
     1
102
RTVSPost2010Prop40
 90
        0
102
RTVSPost2010PropOp40
 70
     1
102
RTVSPost2010Prop41ColorIndex
 90
       18
102
RTVSPost2010Prop41ColorRGB
 90
        0
102
RTVSPost2010PropOp41
 70
     1
102
RTVSPost2010Prop42
 90
       50
102
RTVSPost2010PropOp42
 70
     1
102
RTVSPost2010Prop43
 90
        3
102
RTVSPost2010PropOp43
 70
     1
102
RTVSPost2010Prop44ColorIndex
 90
        5
102
RTVSPost2010Prop44ColorRGB
 90
      255
102
RTVSPost2010PropOp44
 70
     1
102
RTVSPost2010Prop45
280
     0
102
RTVSPost2010PropOp45
 70
     1
102
RTVSPost2010Prop46
 90
       50
102
RTVSPost2010PropOp46
 70
     1
102
RTVSPost2010Prop47
 90
       50
102
RTVSPost2010PropOp47
 70
     1
102
RTVSPost2010Prop48
 90
       50
102
RTVSPost2010PropOp48
 70
     1
102
RTVSPost2010Prop49
280
     0
102
RTVSPost2010PropOp49
 70
     1
102
RTVSPost2010Prop50
 90
       50
102
RTVSPost2010PropOp50
 70
     1
102
RTVSPost2010Prop51ColorIndex
 90
      256
102
RTVSPost2010Prop51ColorRGB
 90
-16777216
102
RTVSPost2010PropOp51
 70
     0
102
RTVSPost2010Prop52
140
1.0
102
RTVSPost2010PropOp52
 70
     0
102
RTVSPost2010Prop53
 90
        2
102
RTVSPost2010PropOp53
 70
     1
102
RTVSPost2010Prop54
  1
strokes_ogs.tif
102
RTVSPost2010PropOp54
 70
     1
102
RTVSPost2010Prop55
280
     0
102
RTVSPost2010PropOp55
 70
     1
102
RTVSPost2010Prop56
140
1.0
102
RTVSPost2010PropOp56
 70
     1
102
RTVSPost2010Prop57
140
1.0
102
RTVSPost2010PropOp57
 70
     1
  0
XRECORD
  5
C0F
102
{ACAD_REACTORS
330
C0E
102
}
330
C0E
100
AcDbXrecord
280
     1
102
RTVSPost2010Prop28
280
     0
102
RTVSPost2010PropOp28
 70
     1
102
RTVSPost2010Prop29
280
     1
102
RTVSPost2010PropOp29
 70
     1
102
RTVSPost2010Prop30
280
     1
102
RTVSPost2010PropOp30
 70
     1
102
RTVSPost2010Prop31
280
     0
102
RTVSPost2010PropOp31
 70
     1
102
RTVSPost2010Prop32
280
     0
102
RTVSPost2010PropOp32
 70
     1
102
RTVSPost2010Prop33
280
     0
102
RTVSPost2010PropOp33
 70
     1
102
RTVSPost2010Prop34
280
     0
102
RTVSPost2010PropOp34
 70
     1
102
RTVSPost2010Prop35
280
     0
102
RTVSPost2010PropOp35
 70
     1
102
RTVSPost2010Prop36
280
     0
102
RTVSPost2010PropOp36
 70
     1
102
RTVSPost2010Prop37
 90
       50
102
RTVSPost2010PropOp37
 70
     1
102
RTVSPost2010Prop38
140
0.0
102
RTVSPost2010PropOp38
 70
     1
102
RTVSPost2010Prop39
140
1.0
102
RTVSPost2010PropOp39
 70
     1
102
RTVSPost2010Prop40
 90
        0
102
RTVSPost2010PropOp40
 70
     1
102
RTVSPost2010Prop41ColorIndex
 90
       18
102
RTVSPost2010Prop41ColorRGB
 90
        0
102
RTVSPost2010PropOp41
 70
     1
102
RTVSPost2010Prop42
 90
       50
102
RTVSPost2010PropOp42
 70
     1
102
RTVSPost2010Prop43
 90
        3
102
RTVSPost2010PropOp43
 70
     1
102
RTVSPost2010Prop44ColorIndex
 90
        5
102
RTVSPost2010Prop44ColorRGB
 90
      255
102
RTVSPost2010PropOp44
 70
     1
102
RTVSPost2010Prop45
280
     0
102
RTVSPost2010PropOp45
 70
     1
102
RTVSPost2010Prop46
 90
       50
102
RTVSPost2010PropOp46
 70
     1
102
RTVSPost2010Prop47
 90
       50
102
RTVSPost2010PropOp47
 70
     1
102
RTVSPost2010Prop48
 90
       50
102
RTVSPost2010PropOp48
 70
     1
102
RTVSPost2010Prop49
280
     0
102
RTVSPost2010PropOp49
 70
     1
102
RTVSPost2010Prop50
 90
       50
102
RTVSPost2010PropOp50
 70
     1
102
RTVSPost2010Prop51ColorIndex
 90
      256
102
RTVSPost2010Prop51ColorRGB
 90
-16777216
102
RTVSPost2010PropOp51
 70
     0
102
RTVSPost2010Prop52
140
1.0
102
RTVSPost2010PropOp52
 70
     0
102
RTVSPost2010Prop53
 90
        2
102
RTVSPost2010PropOp53
 70
     1
102
RTVSPost2010Prop54
  1
strokes_ogs.tif
102
RTVSPost2010PropOp54
 70
     1
102
RTVSPost2010Prop55
280
     0
102
RTVSPost2010PropOp55
 70
     1
102
RTVSPost2010Prop56
140
1.0
102
RTVSPost2010PropOp56
 70
     1
102
RTVSPost2010Prop57
140
1.0
102
RTVSPost2010PropOp57
 70
     1
  0
XRECORD
  5
C11
102
{ACAD_REACTORS
330
C10
102
}
330
C10
100
AcDbXrecord
280
     1
102
RTVSPost2010Prop28
280
     0
102
RTVSPost2010PropOp28
 70
     1
102
RTVSPost2010Prop29
280
     1
102
RTVSPost2010PropOp29
 70
     1
102
RTVSPost2010Prop30
280
     1
102
RTVSPost2010PropOp30
 70
     1
102
RTVSPost2010Prop31
280
     0
102
RTVSPost2010PropOp31
 70
     1
102
RTVSPost2010Prop32
280
     0
102
RTVSPost2010PropOp32
 70
     1
102
RTVSPost2010Prop33
280
     0
102
RTVSPost2010PropOp33
 70
     1
102
RTVSPost2010Prop34
280
     0
102
RTVSPost2010PropOp34
 70
     1
102
RTVSPost2010Prop35
280
     0
102
RTVSPost2010PropOp35
 70
     1
102
RTVSPost2010Prop36
280
     0
102
RTVSPost2010PropOp36
 70
     1
102
RTVSPost2010Prop37
 90
       50
102
RTVSPost2010PropOp37
 70
     1
102
RTVSPost2010Prop38
140
0.0
102
RTVSPost2010PropOp38
 70
     1
102
RTVSPost2010Prop39
140
1.0
102
RTVSPost2010PropOp39
 70
     1
102
RTVSPost2010Prop40
 90
        0
102
RTVSPost2010PropOp40
 70
     1
102
RTVSPost2010Prop41ColorIndex
 90
       18
102
RTVSPost2010Prop41ColorRGB
 90
        0
102
RTVSPost2010PropOp41
 70
     1
102
RTVSPost2010Prop42
 90
       50
102
RTVSPost2010PropOp42
 70
     1
102
RTVSPost2010Prop43
 90
        3
102
RTVSPost2010PropOp43
 70
     1
102
RTVSPost2010Prop44ColorIndex
 90
        5
102
RTVSPost2010Prop44ColorRGB
 90
      255
102
RTVSPost2010PropOp44
 70
     1
102
RTVSPost2010Prop45
280
     0
102
RTVSPost2010PropOp45
 70
     1
102
RTVSPost2010Prop46
 90
       50
102
RTVSPost2010PropOp46
 70
     1
102
RTVSPost2010Prop47
 90
       50
102
RTVSPost2010PropOp47
 70
     1
102
RTVSPost2010Prop48
 90
       50
102
RTVSPost2010PropOp48
 70
     1
102
RTVSPost2010Prop49
280
     0
102
RTVSPost2010PropOp49
 70
     1
102
RTVSPost2010Prop50
 90
       50
102
RTVSPost2010PropOp50
 70
     1
102
RTVSPost2010Prop51ColorIndex
 90
      256
102
RTVSPost2010Prop51ColorRGB
 90
-16777216
102
RTVSPost2010PropOp51
 70
     0
102
RTVSPost2010Prop52
140
1.0
102
RTVSPost2010PropOp52
 70
     0
102
RTVSPost2010Prop53
 90
        2
102
RTVSPost2010PropOp53
 70
     1
102
RTVSPost2010Prop54
  1
strokes_ogs.tif
102
RTVSPost2010PropOp54
 70
     1
102
RTVSPost2010Prop55
280
     0
102
RTVSPost2010PropOp55
 70
     1
102
RTVSPost2010Prop56
140
1.0
102
RTVSPost2010PropOp56
 70
     1
102
RTVSPost2010Prop57
140
1.0
102
RTVSPost2010PropOp57
 70
     1
  0
XRECORD
  5
C13
102
{ACAD_REACTORS
330
C12
102
}
330
C12
100
AcDbXrecord
280
     1
102
RTVSPost2010Prop28
280
     0
102
RTVSPost2010PropOp28
 70
     1
102
RTVSPost2010Prop29
280
     1
102
RTVSPost2010PropOp29
 70
     1
102
RTVSPost2010Prop30
280
     1
102
RTVSPost2010PropOp30
 70
     1
102
RTVSPost2010Prop31
280
     0
102
RTVSPost2010PropOp31
 70
     1
102
RTVSPost2010Prop32
280
     0
102
RTVSPost2010PropOp32
 70
     1
102
RTVSPost2010Prop33
280
     0
102
RTVSPost2010PropOp33
 70
     1
102
RTVSPost2010Prop34
280
     0
102
RTVSPost2010PropOp34
 70
     1
102
RTVSPost2010Prop35
280
     0
102
RTVSPost2010PropOp35
 70
     1
102
RTVSPost2010Prop36
280
     0
102
RTVSPost2010PropOp36
 70
     1
102
RTVSPost2010Prop37
 90
       50
102
RTVSPost2010PropOp37
 70
     1
102
RTVSPost2010Prop38
140
0.0
102
RTVSPost2010PropOp38
 70
     1
102
RTVSPost2010Prop39
140
1.0
102
RTVSPost2010PropOp39
 70
     1
102
RTVSPost2010Prop40
 90
        0
102
RTVSPost2010PropOp40
 70
     1
102
RTVSPost2010Prop41ColorIndex
 90
       18
102
RTVSPost2010Prop41ColorRGB
 90
        0
102
RTVSPost2010PropOp41
 70
     1
102
RTVSPost2010Prop42
 90
       50
102
RTVSPost2010PropOp42
 70
     1
102
RTVSPost2010Prop43
 90
        3
102
RTVSPost2010PropOp43
 70
     1
102
RTVSPost2010Prop44ColorIndex
 90
        5
102
RTVSPost2010Prop44ColorRGB
 90
      255
102
RTVSPost2010PropOp44
 70
     1
102
RTVSPost2010Prop45
280
     0
102
RTVSPost2010PropOp45
 70
     1
102
RTVSPost2010Prop46
 90
       50
102
RTVSPost2010PropOp46
 70
     1
102
RTVSPost2010Prop47
 90
       50
102
RTVSPost2010PropOp47
 70
     1
102
RTVSPost2010Prop48
 90
       50
102
RTVSPost2010PropOp48
 70
     1
102
RTVSPost2010Prop49
280
     0
102
RTVSPost2010PropOp49
 70
     1
102
RTVSPost2010Prop50
 90
       50
102
RTVSPost2010PropOp50
 70
     1
102
RTVSPost2010Prop51ColorIndex
 90
      256
102
RTVSPost2010Prop51ColorRGB
 90
-16777216
102
RTVSPost2010PropOp51
 70
     0
102
RTVSPost2010Prop52
140
1.0
102
RTVSPost2010PropOp52
 70
     0
102
RTVSPost2010Prop53
 90
        2
102
RTVSPost2010PropOp53
 70
     1
102
RTVSPost2010Prop54
  1
strokes_ogs.tif
102
RTVSPost2010PropOp54
 70
     1
102
RTVSPost2010Prop55
280
     0
102
RTVSPost2010PropOp55
 70
     1
102
RTVSPost2010Prop56
140
1.0
102
RTVSPost2010PropOp56
 70
     1
102
RTVSPost2010Prop57
140
1.0
102
RTVSPost2010PropOp57
 70
     1
  0
XRECORD
  5
C15
102
{ACAD_REACTORS
330
C14
102
}
330
C14
100
AcDbXrecord
280
     1
102
RTVSPost2010Prop28
280
     0
102
RTVSPost2010PropOp28
 70
     1
102
RTVSPost2010Prop29
280
     1
102
RTVSPost2010PropOp29
 70
     1
102
RTVSPost2010Prop30
280
     1
102
RTVSPost2010PropOp30
 70
     1
102
RTVSPost2010Prop31
280
     0
102
RTVSPost2010PropOp31
 70
     1
102
RTVSPost2010Prop32
280
     0
102
RTVSPost2010PropOp32
 70
     1
102
RTVSPost2010Prop33
280
     0
102
RTVSPost2010PropOp33
 70
     1
102
RTVSPost2010Prop34
280
     0
102
RTVSPost2010PropOp34
 70
     1
102
RTVSPost2010Prop35
280
     0
102
RTVSPost2010PropOp35
 70
     1
102
RTVSPost2010Prop36
280
     0
102
RTVSPost2010PropOp36
 70
     1
102
RTVSPost2010Prop37
 90
       50
102
RTVSPost2010PropOp37
 70
     1
102
RTVSPost2010Prop38
140
0.0
102
RTVSPost2010PropOp38
 70
     1
102
RTVSPost2010Prop39
140
1.0
102
RTVSPost2010PropOp39
 70
     1
102
RTVSPost2010Prop40
 90
        0
102
RTVSPost2010PropOp40
 70
     1
102
RTVSPost2010Prop41ColorIndex
 90
       18
102
RTVSPost2010Prop41ColorRGB
 90
        0
102
RTVSPost2010PropOp41
 70
     1
102
RTVSPost2010Prop42
 90
       50
102
RTVSPost2010PropOp42
 70
     1
102
RTVSPost2010Prop43
 90
        3
102
RTVSPost2010PropOp43
 70
     1
102
RTVSPost2010Prop44ColorIndex
 90
        5
102
RTVSPost2010Prop44ColorRGB
 90
      255
102
RTVSPost2010PropOp44
 70
     1
102
RTVSPost2010Prop45
280
     0
102
RTVSPost2010PropOp45
 70
     1
102
RTVSPost2010Prop46
 90
       50
102
RTVSPost2010PropOp46
 70
     1
102
RTVSPost2010Prop47
 90
       50
102
RTVSPost2010PropOp47
 70
     1
102
RTVSPost2010Prop48
 90
       50
102
RTVSPost2010PropOp48
 70
     1
102
RTVSPost2010Prop49
280
     0
102
RTVSPost2010PropOp49
 70
     1
102
RTVSPost2010Prop50
 90
       50
102
RTVSPost2010PropOp50
 70
     1
102
RTVSPost2010Prop51ColorIndex
 90
      256
102
RTVSPost2010Prop51ColorRGB
 90
-16777216
102
RTVSPost2010PropOp51
 70
     0
102
RTVSPost2010Prop52
140
1.0
102
RTVSPost2010PropOp52
 70
     0
102
RTVSPost2010Prop53
 90
        2
102
RTVSPost2010PropOp53
 70
     1
102
RTVSPost2010Prop54
  1
strokes_ogs.tif
102
RTVSPost2010PropOp54
 70
     1
102
RTVSPost2010Prop55
280
     0
102
RTVSPost2010PropOp55
 70
     1
102
RTVSPost2010Prop56
140
1.0
102
RTVSPost2010PropOp56
 70
     1
102
RTVSPost2010Prop57
140
1.0
102
RTVSPost2010PropOp57
 70
     1
  0
XRECORD
  5
C1D
102
{ACAD_REACTORS
330
C1C
102
}
330
C1C
100
AcDbXrecord
280
     1
102
RTVSPost2010Prop28
280
     0
102
RTVSPost2010PropOp28
 70
     1
102
RTVSPost2010Prop29
280
     1
102
RTVSPost2010PropOp29
 70
     1
102
RTVSPost2010Prop30
280
     1
102
RTVSPost2010PropOp30
 70
     1
102
RTVSPost2010Prop31
280
     0
102
RTVSPost2010PropOp31
 70
     1
102
RTVSPost2010Prop32
280
     0
102
RTVSPost2010PropOp32
 70
     1
102
RTVSPost2010Prop33
280
     0
102
RTVSPost2010PropOp33
 70
     1
102
RTVSPost2010Prop34
280
     0
102
RTVSPost2010PropOp34
 70
     1
102
RTVSPost2010Prop35
280
     0
102
RTVSPost2010PropOp35
 70
     1
102
RTVSPost2010Prop36
280
     0
102
RTVSPost2010PropOp36
 70
     1
102
RTVSPost2010Prop37
 90
       50
102
RTVSPost2010PropOp37
 70
     1
102
RTVSPost2010Prop38
140
0.0
102
RTVSPost2010PropOp38
 70
     1
102
RTVSPost2010Prop39
140
1.0
102
RTVSPost2010PropOp39
 70
     1
102
RTVSPost2010Prop40
 90
        0
102
RTVSPost2010PropOp40
 70
     1
102
RTVSPost2010Prop41ColorIndex
 90
       18
102
RTVSPost2010Prop41ColorRGB
 90
        0
102
RTVSPost2010PropOp41
 70
     1
102
RTVSPost2010Prop42
 90
       50
102
RTVSPost2010PropOp42
 70
     1
102
RTVSPost2010Prop43
 90
        3
102
RTVSPost2010PropOp43
 70
     1
102
RTVSPost2010Prop44ColorIndex
 90
        5
102
RTVSPost2010Prop44ColorRGB
 90
      255
102
RTVSPost2010PropOp44
 70
     1
102
RTVSPost2010Prop45
280
     0
102
RTVSPost2010PropOp45
 70
     1
102
RTVSPost2010Prop46
 90
       50
102
RTVSPost2010PropOp46
 70
     1
102
RTVSPost2010Prop47
 90
       50
102
RTVSPost2010PropOp47
 70
     1
102
RTVSPost2010Prop48
 90
       50
102
RTVSPost2010PropOp48
 70
     1
102
RTVSPost2010Prop49
280
     0
102
RTVSPost2010PropOp49
 70
     1
102
RTVSPost2010Prop50
 90
       50
102
RTVSPost2010PropOp50
 70
     1
102
RTVSPost2010Prop51ColorIndex
 90
      256
102
RTVSPost2010Prop51ColorRGB
 90
-16777216
102
RTVSPost2010PropOp51
 70
     0
102
RTVSPost2010Prop52
140
1.0
102
RTVSPost2010PropOp52
 70
     0
102
RTVSPost2010Prop53
 90
        2
102
RTVSPost2010PropOp53
 70
     1
102
RTVSPost2010Prop54
  1
strokes_ogs.tif
102
RTVSPost2010PropOp54
 70
     1
102
RTVSPost2010Prop55
280
     0
102
RTVSPost2010PropOp55
 70
     1
102
RTVSPost2010Prop56
140
1.0
102
RTVSPost2010PropOp56
 70
     1
102
RTVSPost2010Prop57
140
1.0
102
RTVSPost2010PropOp57
 70
     1
  0
XRECORD
  5
C39
102
{ACAD_REACTORS
330
C38
102
}
330
C38
100
AcDbXrecord
280
     1
102
RTVSPost2010Prop28
280
     0
102
RTVSPost2010PropOp28
 70
     1
102
RTVSPost2010Prop29
280
     1
102
RTVSPost2010PropOp29
 70
     1
102
RTVSPost2010Prop30
280
     1
102
RTVSPost2010PropOp30
 70
     1
102
RTVSPost2010Prop31
280
     0
102
RTVSPost2010PropOp31
 70
     1
102
RTVSPost2010Prop32
280
     0
102
RTVSPost2010PropOp32
 70
     1
102
RTVSPost2010Prop33
280
     0
102
RTVSPost2010PropOp33
 70
     1
102
RTVSPost2010Prop34
280
     0
102
RTVSPost2010PropOp34
 70
     1
102
RTVSPost2010Prop35
280
     0
102
RTVSPost2010PropOp35
 70
     1
102
RTVSPost2010Prop36
280
     0
102
RTVSPost2010PropOp36
 70
     1
102
RTVSPost2010Prop37
 90
       50
102
RTVSPost2010PropOp37
 70
     0
102
RTVSPost2010Prop38
140
0.0
102
RTVSPost2010PropOp38
 70
     0
102
RTVSPost2010Prop39
140
1.0
102
RTVSPost2010PropOp39
 70
     0
102
RTVSPost2010Prop40
 90
        0
102
RTVSPost2010PropOp40
 70
     0
102
RTVSPost2010Prop41ColorIndex
 90
       18
102
RTVSPost2010Prop41ColorRGB
 90
        0
102
RTVSPost2010PropOp41
 70
     0
102
RTVSPost2010Prop42
 90
       50
102
RTVSPost2010PropOp42
 70
     0
102
RTVSPost2010Prop43
 90
        3
102
RTVSPost2010PropOp43
 70
     0
102
RTVSPost2010Prop44ColorIndex
 90
        5
102
RTVSPost2010Prop44ColorRGB
 90
      255
102
RTVSPost2010PropOp44
 70
     0
102
RTVSPost2010Prop45
280
     0
102
RTVSPost2010PropOp45
 70
     1
102
RTVSPost2010Prop46
 90
       50
102
RTVSPost2010PropOp46
 70
     0
102
RTVSPost2010Prop47
 90
       50
102
RTVSPost2010PropOp47
 70
     0
102
RTVSPost2010Prop48
 90
       50
102
RTVSPost2010PropOp48
 70
     0
102
RTVSPost2010Prop49
280
     0
102
RTVSPost2010PropOp49
 70
     1
102
RTVSPost2010Prop50
 90
       50
102
RTVSPost2010PropOp50
 70
     0
102
RTVSPost2010Prop51ColorIndex
 90
      256
102
RTVSPost2010Prop51ColorRGB
 90
-16777216
102
RTVSPost2010PropOp51
 70
     0
102
RTVSPost2010Prop52
140
1.0
102
RTVSPost2010PropOp52
 70
     0
102
RTVSPost2010Prop53
 90
        2
102
RTVSPost2010PropOp53
 70
     0
102
RTVSPost2010Prop54
  1
strokes_ogs.tif
102
RTVSPost2010PropOp54
 70
     0
102
RTVSPost2010Prop55
280
     0
102
RTVSPost2010PropOp55
 70
     1
102
RTVSPost2010Prop56
140
1.0
102
RTVSPost2010PropOp56
 70
     0
102
RTVSPost2010Prop57
140
1.0
102
RTVSPost2010PropOp57
 70
     0
  0
XRECORD
  5
C29
102
{ACAD_REACTORS
330
C28
102
}
330
C28
100
AcDbXrecord
280
     1
102
RTVSPost2010Prop28
280
     0
102
RTVSPost2010PropOp28
 70
     1
102
RTVSPost2010Prop29
280
     1
102
RTVSPost2010PropOp29
 70
     1
102
RTVSPost2010Prop30
280
     1
102
RTVSPost2010PropOp30
 70
     1
102
RTVSPost2010Prop31
280
     0
102
RTVSPost2010PropOp31
 70
     1
102
RTVSPost2010Prop32
280
     0
102
RTVSPost2010PropOp32
 70
     1
102
RTVSPost2010Prop33
280
     0
102
RTVSPost2010PropOp33
 70
     1
102
RTVSPost2010Prop34
280
     0
102
RTVSPost2010PropOp34
 70
     1
102
RTVSPost2010Prop35
280
     0
102
RTVSPost2010PropOp35
 70
     1
102
RTVSPost2010Prop36
280
     0
102
RTVSPost2010PropOp36
 70
     1
102
RTVSPost2010Prop37
 90
       50
102
RTVSPost2010PropOp37
 70
     1
102
RTVSPost2010Prop38
140
0.0
102
RTVSPost2010PropOp38
 70
     1
102
RTVSPost2010Prop39
140
1.0
102
RTVSPost2010PropOp39
 70
     1
102
RTVSPost2010Prop40
 90
        0
102
RTVSPost2010PropOp40
 70
     1
102
RTVSPost2010Prop41ColorIndex
 90
       18
102
RTVSPost2010Prop41ColorRGB
 90
        0
102
RTVSPost2010PropOp41
 70
     1
102
RTVSPost2010Prop42
 90
       50
102
RTVSPost2010PropOp42
 70
     1
102
RTVSPost2010Prop43
 90
        3
102
RTVSPost2010PropOp43
 70
     1
102
RTVSPost2010Prop44ColorIndex
 90
        5
102
RTVSPost2010Prop44ColorRGB
 90
      255
102
RTVSPost2010PropOp44
 70
     1
102
RTVSPost2010Prop45
280
     0
102
RTVSPost2010PropOp45
 70
     1
102
RTVSPost2010Prop46
 90
       50
102
RTVSPost2010PropOp46
 70
     1
102
RTVSPost2010Prop47
 90
       50
102
RTVSPost2010PropOp47
 70
     1
102
RTVSPost2010Prop48
 90
       50
102
RTVSPost2010PropOp48
 70
     1
102
RTVSPost2010Prop49
280
     0
102
RTVSPost2010PropOp49
 70
     1
102
RTVSPost2010Prop50
 90
       50
102
RTVSPost2010PropOp50
 70
     1
102
RTVSPost2010Prop51ColorIndex
 90
      256
102
RTVSPost2010Prop51ColorRGB
 90
-16777216
102
RTVSPost2010PropOp51
 70
     0
102
RTVSPost2010Prop52
140
1.0
102
RTVSPost2010PropOp52
 70
     0
102
RTVSPost2010Prop53
 90
        2
102
RTVSPost2010PropOp53
 70
     1
102
RTVSPost2010Prop54
  1
strokes_ogs.tif
102
RTVSPost2010PropOp54
 70
     1
102
RTVSPost2010Prop55
280
     0
102
RTVSPost2010PropOp55
 70
     1
102
RTVSPost2010Prop56
140
1.0
102
RTVSPost2010PropOp56
 70
     1
102
RTVSPost2010Prop57
140
1.0
102
RTVSPost2010PropOp57
 70
     1
  0
XRECORD
  5
C3B
102
{ACAD_REACTORS
330
C3A
102
}
330
C3A
100
AcDbXrecord
280
     1
102
RTVSPost2010Prop28
280
     0
102
RTVSPost2010PropOp28
 70
     1
102
RTVSPost2010Prop29
280
     1
102
RTVSPost2010PropOp29
 70
     1
102
RTVSPost2010Prop30
280
     1
102
RTVSPost2010PropOp30
 70
     1
102
RTVSPost2010Prop31
280
     0
102
RTVSPost2010PropOp31
 70
     1
102
RTVSPost2010Prop32
280
     0
102
RTVSPost2010PropOp32
 70
     1
102
RTVSPost2010Prop33
280
     0
102
RTVSPost2010PropOp33
 70
     1
102
RTVSPost2010Prop34
280
     0
102
RTVSPost2010PropOp34
 70
     1
102
RTVSPost2010Prop35
280
     0
102
RTVSPost2010PropOp35
 70
     1
102
RTVSPost2010Prop36
280
     0
102
RTVSPost2010PropOp36
 70
     1
102
RTVSPost2010Prop37
 90
       50
102
RTVSPost2010PropOp37
 70
     0
102
RTVSPost2010Prop38
140
0.0
102
RTVSPost2010PropOp38
 70
     0
102
RTVSPost2010Prop39
140
1.0
102
RTVSPost2010PropOp39
 70
     0
102
RTVSPost2010Prop40
 90
        0
102
RTVSPost2010PropOp40
 70
     0
102
RTVSPost2010Prop41ColorIndex
 90
       18
102
RTVSPost2010Prop41ColorRGB
 90
        0
102
RTVSPost2010PropOp41
 70
     0
102
RTVSPost2010Prop42
 90
       50
102
RTVSPost2010PropOp42
 70
     0
102
RTVSPost2010Prop43
 90
        3
102
RTVSPost2010PropOp43
 70
     0
102
RTVSPost2010Prop44ColorIndex
 90
        5
102
RTVSPost2010Prop44ColorRGB
 90
      255
102
RTVSPost2010PropOp44
 70
     0
102
RTVSPost2010Prop45
280
     0
102
RTVSPost2010PropOp45
 70
     1
102
RTVSPost2010Prop46
 90
       50
102
RTVSPost2010PropOp46
 70
     0
102
RTVSPost2010Prop47
 90
       50
102
RTVSPost2010PropOp47
 70
     0
102
RTVSPost2010Prop48
 90
       50
102
RTVSPost2010PropOp48
 70
     0
102
RTVSPost2010Prop49
280
     0
102
RTVSPost2010PropOp49
 70
     1
102
RTVSPost2010Prop50
 90
       50
102
RTVSPost2010PropOp50
 70
     0
102
RTVSPost2010Prop51ColorIndex
 90
      256
102
RTVSPost2010Prop51ColorRGB
 90
-16777216
102
RTVSPost2010PropOp51
 70
     0
102
RTVSPost2010Prop52
140
1.0
102
RTVSPost2010PropOp52
 70
     0
102
RTVSPost2010Prop53
 90
        2
102
RTVSPost2010PropOp53
 70
     0
102
RTVSPost2010Prop54
  1
strokes_ogs.tif
102
RTVSPost2010PropOp54
 70
     0
102
RTVSPost2010Prop55
280
     0
102
RTVSPost2010PropOp55
 70
     1
102
RTVSPost2010Prop56
140
1.0
102
RTVSPost2010PropOp56
 70
     0
102
RTVSPost2010Prop57
140
1.0
102
RTVSPost2010PropOp57
 70
     0
  0
XRECORD
  5
C21
102
{ACAD_REACTORS
330
C20
102
}
330
C20
100
AcDbXrecord
280
     1
102
RTVSPost2010Prop28
280
     0
102
RTVSPost2010PropOp28
 70
     1
102
RTVSPost2010Prop29
280
     1
102
RTVSPost2010PropOp29
 70
     1
102
RTVSPost2010Prop30
280
     1
102
RTVSPost2010PropOp30
 70
     1
102
RTVSPost2010Prop31
280
     0
102
RTVSPost2010PropOp31
 70
     1
102
RTVSPost2010Prop32
280
     0
102
RTVSPost2010PropOp32
 70
     1
102
RTVSPost2010Prop33
280
     0
102
RTVSPost2010PropOp33
 70
     1
102
RTVSPost2010Prop34
280
     0
102
RTVSPost2010PropOp34
 70
     1
102
RTVSPost2010Prop35
280
     0
102
RTVSPost2010PropOp35
 70
     1
102
RTVSPost2010Prop36
280
     0
102
RTVSPost2010PropOp36
 70
     1
102
RTVSPost2010Prop37
 90
       50
102
RTVSPost2010PropOp37
 70
     1
102
RTVSPost2010Prop38
140
0.0
102
RTVSPost2010PropOp38
 70
     1
102
RTVSPost2010Prop39
140
1.0
102
RTVSPost2010PropOp39
 70
     1
102
RTVSPost2010Prop40
 90
        0
102
RTVSPost2010PropOp40
 70
     1
102
RTVSPost2010Prop41ColorIndex
 90
       18
102
RTVSPost2010Prop41ColorRGB
 90
        0
102
RTVSPost2010PropOp41
 70
     1
102
RTVSPost2010Prop42
 90
       50
102
RTVSPost2010PropOp42
 70
     1
102
RTVSPost2010Prop43
 90
        3
102
RTVSPost2010PropOp43
 70
     1
102
RTVSPost2010Prop44ColorIndex
 90
        5
102
RTVSPost2010Prop44ColorRGB
 90
      255
102
RTVSPost2010PropOp44
 70
     1
102
RTVSPost2010Prop45
280
     0
102
RTVSPost2010PropOp45
 70
     1
102
RTVSPost2010Prop46
 90
       50
102
RTVSPost2010PropOp46
 70
     1
102
RTVSPost2010Prop47
 90
       50
102
RTVSPost2010PropOp47
 70
     1
102
RTVSPost2010Prop48
 90
       50
102
RTVSPost2010PropOp48
 70
     1
102
RTVSPost2010Prop49
280
     0
102
RTVSPost2010PropOp49
 70
     1
102
RTVSPost2010Prop50
 90
       50
102
RTVSPost2010PropOp50
 70
     1
102
RTVSPost2010Prop51ColorIndex
 90
      256
102
RTVSPost2010Prop51ColorRGB
 90
-16777216
102
RTVSPost2010PropOp51
 70
     0
102
RTVSPost2010Prop52
140
1.0
102
RTVSPost2010PropOp52
 70
     0
102
RTVSPost2010Prop53
 90
        2
102
RTVSPost2010PropOp53
 70
     1
102
RTVSPost2010Prop54
  1
strokes_ogs.tif
102
RTVSPost2010PropOp54
 70
     1
102
RTVSPost2010Prop55
280
     0
102
RTVSPost2010PropOp55
 70
     1
102
RTVSPost2010Prop56
140
1.0
102
RTVSPost2010PropOp56
 70
     1
102
RTVSPost2010Prop57
140
1.0
102
RTVSPost2010PropOp57
 70
     1
  0
XRECORD
  5
C37
102
{ACAD_REACTORS
330
C36
102
}
330
C36
100
AcDbXrecord
280
     1
102
RTVSPost2010Prop28
280
     0
102
RTVSPost2010PropOp28
 70
     1
102
RTVSPost2010Prop29
280
     1
102
RTVSPost2010PropOp29
 70
     1
102
RTVSPost2010Prop30
280
     1
102
RTVSPost2010PropOp30
 70
     1
102
RTVSPost2010Prop31
280
     0
102
RTVSPost2010PropOp31
 70
     1
102
RTVSPost2010Prop32
280
     0
102
RTVSPost2010PropOp32
 70
     1
102
RTVSPost2010Prop33
280
     0
102
RTVSPost2010PropOp33
 70
     1
102
RTVSPost2010Prop34
280
     0
102
RTVSPost2010PropOp34
 70
     1
102
RTVSPost2010Prop35
280
     0
102
RTVSPost2010PropOp35
 70
     1
102
RTVSPost2010Prop36
280
     0
102
RTVSPost2010PropOp36
 70
     1
102
RTVSPost2010Prop37
 90
       50
102
RTVSPost2010PropOp37
 70
     1
102
RTVSPost2010Prop38
140
0.0
102
RTVSPost2010PropOp38
 70
     1
102
RTVSPost2010Prop39
140
1.0
102
RTVSPost2010PropOp39
 70
     1
102
RTVSPost2010Prop40
 90
        0
102
RTVSPost2010PropOp40
 70
     1
102
RTVSPost2010Prop41ColorIndex
 90
       18
102
RTVSPost2010Prop41ColorRGB
 90
        0
102
RTVSPost2010PropOp41
 70
     1
102
RTVSPost2010Prop42
 90
       50
102
RTVSPost2010PropOp42
 70
     1
102
RTVSPost2010Prop43
 90
        3
102
RTVSPost2010PropOp43
 70
     1
102
RTVSPost2010Prop44ColorIndex
 90
        5
102
RTVSPost2010Prop44ColorRGB
 90
      255
102
RTVSPost2010PropOp44
 70
     1
102
RTVSPost2010Prop45
280
     0
102
RTVSPost2010PropOp45
 70
     1
102
RTVSPost2010Prop46
 90
       50
102
RTVSPost2010PropOp46
 70
     1
102
RTVSPost2010Prop47
 90
       50
102
RTVSPost2010PropOp47
 70
     1
102
RTVSPost2010Prop48
 90
       50
102
RTVSPost2010PropOp48
 70
     1
102
RTVSPost2010Prop49
280
     0
102
RTVSPost2010PropOp49
 70
     1
102
RTVSPost2010Prop50
 90
       50
102
RTVSPost2010PropOp50
 70
     1
102
RTVSPost2010Prop51ColorIndex
 90
      256
102
RTVSPost2010Prop51ColorRGB
 90
-16777216
102
RTVSPost2010PropOp51
 70
     0
102
RTVSPost2010Prop52
140
1.0
102
RTVSPost2010PropOp52
 70
     0
102
RTVSPost2010Prop53
 90
        2
102
RTVSPost2010PropOp53
 70
     1
102
RTVSPost2010Prop54
  1
strokes_ogs.tif
102
RTVSPost2010PropOp54
 70
     1
102
RTVSPost2010Prop55
280
     0
102
RTVSPost2010PropOp55
 70
     1
102
RTVSPost2010Prop56
140
1.0
102
RTVSPost2010PropOp56
 70
     1
102
RTVSPost2010Prop57
140
1.0
102
RTVSPost2010PropOp57
 70
     1
  0
XRECORD
  5
C35
102
{ACAD_REACTORS
330
C34
102
}
330
C34
100
AcDbXrecord
280
     1
102
RTVSPost2010Prop28
280
     0
102
RTVSPost2010PropOp28
 70
     1
102
RTVSPost2010Prop29
280
     1
102
RTVSPost2010PropOp29
 70
     1
102
RTVSPost2010Prop30
280
     1
102
RTVSPost2010PropOp30
 70
     1
102
RTVSPost2010Prop31
280
     0
102
RTVSPost2010PropOp31
 70
     1
102
RTVSPost2010Prop32
280
     0
102
RTVSPost2010PropOp32
 70
     1
102
RTVSPost2010Prop33
280
     0
102
RTVSPost2010PropOp33
 70
     1
102
RTVSPost2010Prop34
280
     0
102
RTVSPost2010PropOp34
 70
     1
102
RTVSPost2010Prop35
280
     0
102
RTVSPost2010PropOp35
 70
     1
102
RTVSPost2010Prop36
280
     0
102
RTVSPost2010PropOp36
 70
     1
102
RTVSPost2010Prop37
 90
       50
102
RTVSPost2010PropOp37
 70
     1
102
RTVSPost2010Prop38
140
0.0
102
RTVSPost2010PropOp38
 70
     1
102
RTVSPost2010Prop39
140
1.0
102
RTVSPost2010PropOp39
 70
     1
102
RTVSPost2010Prop40
 90
        0
102
RTVSPost2010PropOp40
 70
     1
102
RTVSPost2010Prop41ColorIndex
 90
       18
102
RTVSPost2010Prop41ColorRGB
 90
        0
102
RTVSPost2010PropOp41
 70
     1
102
RTVSPost2010Prop42
 90
       50
102
RTVSPost2010PropOp42
 70
     1
102
RTVSPost2010Prop43
 90
        3
102
RTVSPost2010PropOp43
 70
     1
102
RTVSPost2010Prop44ColorIndex
 90
        5
102
RTVSPost2010Prop44ColorRGB
 90
      255
102
RTVSPost2010PropOp44
 70
     1
102
RTVSPost2010Prop45
280
     0
102
RTVSPost2010PropOp45
 70
     1
102
RTVSPost2010Prop46
 90
       50
102
RTVSPost2010PropOp46
 70
     1
102
RTVSPost2010Prop47
 90
       50
102
RTVSPost2010PropOp47
 70
     1
102
RTVSPost2010Prop48
 90
       50
102
RTVSPost2010PropOp48
 70
     1
102
RTVSPost2010Prop49
280
     0
102
RTVSPost2010PropOp49
 70
     1
102
RTVSPost2010Prop50
 90
       50
102
RTVSPost2010PropOp50
 70
     1
102
RTVSPost2010Prop51ColorIndex
 90
      256
102
RTVSPost2010Prop51ColorRGB
 90
-16777216
102
RTVSPost2010PropOp51
 70
     0
102
RTVSPost2010Prop52
140
1.0
102
RTVSPost2010PropOp52
 70
     0
102
RTVSPost2010Prop53
 90
        2
102
RTVSPost2010PropOp53
 70
     1
102
RTVSPost2010Prop54
  1
strokes_ogs.tif
102
RTVSPost2010PropOp54
 70
     1
102
RTVSPost2010Prop55
280
     0
102
RTVSPost2010PropOp55
 70
     1
102
RTVSPost2010Prop56
140
1.0
102
RTVSPost2010PropOp56
 70
     1
102
RTVSPost2010Prop57
140
1.0
102
RTVSPost2010PropOp57
 70
     1
  0
XRECORD
  5
C2F
102
{ACAD_REACTORS
330
C2E
102
}
330
C2E
100
AcDbXrecord
280
     1
102
RTVSPost2010Prop28
280
     0
102
RTVSPost2010PropOp28
 70
     1
102
RTVSPost2010Prop29
280
     1
102
RTVSPost2010PropOp29
 70
     1
102
RTVSPost2010Prop30
280
     1
102
RTVSPost2010PropOp30
 70
     1
102
RTVSPost2010Prop31
280
     0
102
RTVSPost2010PropOp31
 70
     1
102
RTVSPost2010Prop32
280
     0
102
RTVSPost2010PropOp32
 70
     1
102
RTVSPost2010Prop33
280
     0
102
RTVSPost2010PropOp33
 70
     1
102
RTVSPost2010Prop34
280
     0
102
RTVSPost2010PropOp34
 70
     1
102
RTVSPost2010Prop35
280
     0
102
RTVSPost2010PropOp35
 70
     1
102
RTVSPost2010Prop36
280
     0
102
RTVSPost2010PropOp36
 70
     1
102
RTVSPost2010Prop37
 90
       50
102
RTVSPost2010PropOp37
 70
     1
102
RTVSPost2010Prop38
140
0.0
102
RTVSPost2010PropOp38
 70
     1
102
RTVSPost2010Prop39
140
1.0
102
RTVSPost2010PropOp39
 70
     1
102
RTVSPost2010Prop40
 90
        0
102
RTVSPost2010PropOp40
 70
     1
102
RTVSPost2010Prop41ColorIndex
 90
       18
102
RTVSPost2010Prop41ColorRGB
 90
        0
102
RTVSPost2010PropOp41
 70
     1
102
RTVSPost2010Prop42
 90
       50
102
RTVSPost2010PropOp42
 70
     1
102
RTVSPost2010Prop43
 90
        3
102
RTVSPost2010PropOp43
 70
     1
102
RTVSPost2010Prop44ColorIndex
 90
        5
102
RTVSPost2010Prop44ColorRGB
 90
      255
102
RTVSPost2010PropOp44
 70
     1
102
RTVSPost2010Prop45
280
     0
102
RTVSPost2010PropOp45
 70
     1
102
RTVSPost2010Prop46
 90
       50
102
RTVSPost2010PropOp46
 70
     1
102
RTVSPost2010Prop47
 90
       50
102
RTVSPost2010PropOp47
 70
     1
102
RTVSPost2010Prop48
 90
       50
102
RTVSPost2010PropOp48
 70
     1
102
RTVSPost2010Prop49
280
     0
102
RTVSPost2010PropOp49
 70
     1
102
RTVSPost2010Prop50
 90
       50
102
RTVSPost2010PropOp50
 70
     1
102
RTVSPost2010Prop51ColorIndex
 90
      256
102
RTVSPost2010Prop51ColorRGB
 90
-16777216
102
RTVSPost2010PropOp51
 70
     0
102
RTVSPost2010Prop52
140
1.0
102
RTVSPost2010PropOp52
 70
     0
102
RTVSPost2010Prop53
 90
        2
102
RTVSPost2010PropOp53
 70
     1
102
RTVSPost2010Prop54
  1
strokes_ogs.tif
102
RTVSPost2010PropOp54
 70
     1
102
RTVSPost2010Prop55
280
     0
102
RTVSPost2010PropOp55
 70
     1
102
RTVSPost2010Prop56
140
1.0
102
RTVSPost2010PropOp56
 70
     1
102
RTVSPost2010Prop57
140
1.0
102
RTVSPost2010PropOp57
 70
     1
  0
XRECORD
  5
C31
102
{ACAD_REACTORS
330
C30
102
}
330
C30
100
AcDbXrecord
280
     1
102
RTVSPost2010Prop28
280
     0
102
RTVSPost2010PropOp28
 70
     1
102
RTVSPost2010Prop29
280
     1
102
RTVSPost2010PropOp29
 70
     1
102
RTVSPost2010Prop30
280
     1
102
RTVSPost2010PropOp30
 70
     1
102
RTVSPost2010Prop31
280
     0
102
RTVSPost2010PropOp31
 70
     1
102
RTVSPost2010Prop32
280
     0
102
RTVSPost2010PropOp32
 70
     1
102
RTVSPost2010Prop33
280
     0
102
RTVSPost2010PropOp33
 70
     1
102
RTVSPost2010Prop34
280
     0
102
RTVSPost2010PropOp34
 70
     1
102
RTVSPost2010Prop35
280
     0
102
RTVSPost2010PropOp35
 70
     1
102
RTVSPost2010Prop36
280
     0
102
RTVSPost2010PropOp36
 70
     1
102
RTVSPost2010Prop37
 90
       50
102
RTVSPost2010PropOp37
 70
     1
102
RTVSPost2010Prop38
140
0.0
102
RTVSPost2010PropOp38
 70
     1
102
RTVSPost2010Prop39
140
1.0
102
RTVSPost2010PropOp39
 70
     1
102
RTVSPost2010Prop40
 90
        0
102
RTVSPost2010PropOp40
 70
     1
102
RTVSPost2010Prop41ColorIndex
 90
       18
102
RTVSPost2010Prop41ColorRGB
 90
        0
102
RTVSPost2010PropOp41
 70
     1
102
RTVSPost2010Prop42
 90
       50
102
RTVSPost2010PropOp42
 70
     1
102
RTVSPost2010Prop43
 90
        3
102
RTVSPost2010PropOp43
 70
     1
102
RTVSPost2010Prop44ColorIndex
 90
        5
102
RTVSPost2010Prop44ColorRGB
 90
      255
102
RTVSPost2010PropOp44
 70
     1
102
RTVSPost2010Prop45
280
     0
102
RTVSPost2010PropOp45
 70
     1
102
RTVSPost2010Prop46
 90
       50
102
RTVSPost2010PropOp46
 70
     1
102
RTVSPost2010Prop47
 90
       50
102
RTVSPost2010PropOp47
 70
     1
102
RTVSPost2010Prop48
 90
       50
102
RTVSPost2010PropOp48
 70
     1
102
RTVSPost2010Prop49
280
     0
102
RTVSPost2010PropOp49
 70
     1
102
RTVSPost2010Prop50
 90
       50
102
RTVSPost2010PropOp50
 70
     1
102
RTVSPost2010Prop51ColorIndex
 90
      256
102
RTVSPost2010Prop51ColorRGB
 90
-16777216
102
RTVSPost2010PropOp51
 70
     0
102
RTVSPost2010Prop52
140
1.0
102
RTVSPost2010PropOp52
 70
     0
102
RTVSPost2010Prop53
 90
        2
102
RTVSPost2010PropOp53
 70
     1
102
RTVSPost2010Prop54
  1
strokes_ogs.tif
102
RTVSPost2010PropOp54
 70
     1
102
RTVSPost2010Prop55
280
     0
102
RTVSPost2010PropOp55
 70
     1
102
RTVSPost2010Prop56
140
1.0
102
RTVSPost2010PropOp56
 70
     1
102
RTVSPost2010Prop57
140
1.0
102
RTVSPost2010PropOp57
 70
     1
  0
XRECORD
  5
C27
102
{ACAD_REACTORS
330
C26
102
}
330
C26
100
AcDbXrecord
280
     1
102
RTVSPost2010Prop28
280
     0
102
RTVSPost2010PropOp28
 70
     1
102
RTVSPost2010Prop29
280
     1
102
RTVSPost2010PropOp29
 70
     1
102
RTVSPost2010Prop30
280
     1
102
RTVSPost2010PropOp30
 70
     1
102
RTVSPost2010Prop31
280
     0
102
RTVSPost2010PropOp31
 70
     1
102
RTVSPost2010Prop32
280
     0
102
RTVSPost2010PropOp32
 70
     1
102
RTVSPost2010Prop33
280
     0
102
RTVSPost2010PropOp33
 70
     1
102
RTVSPost2010Prop34
280
     0
102
RTVSPost2010PropOp34
 70
     1
102
RTVSPost2010Prop35
280
     0
102
RTVSPost2010PropOp35
 70
     1
102
RTVSPost2010Prop36
280
     0
102
RTVSPost2010PropOp36
 70
     1
102
RTVSPost2010Prop37
 90
       50
102
RTVSPost2010PropOp37
 70
     1
102
RTVSPost2010Prop38
140
0.0
102
RTVSPost2010PropOp38
 70
     1
102
RTVSPost2010Prop39
140
1.0
102
RTVSPost2010PropOp39
 70
     1
102
RTVSPost2010Prop40
 90
        0
102
RTVSPost2010PropOp40
 70
     1
102
RTVSPost2010Prop41ColorIndex
 90
       18
102
RTVSPost2010Prop41ColorRGB
 90
        0
102
RTVSPost2010PropOp41
 70
     1
102
RTVSPost2010Prop42
 90
       50
102
RTVSPost2010PropOp42
 70
     1
102
RTVSPost2010Prop43
 90
        3
102
RTVSPost2010PropOp43
 70
     1
102
RTVSPost2010Prop44ColorIndex
 90
        5
102
RTVSPost2010Prop44ColorRGB
 90
      255
102
RTVSPost2010PropOp44
 70
     1
102
RTVSPost2010Prop45
280
     0
102
RTVSPost2010PropOp45
 70
     1
102
RTVSPost2010Prop46
 90
       50
102
RTVSPost2010PropOp46
 70
     1
102
RTVSPost2010Prop47
 90
       50
102
RTVSPost2010PropOp47
 70
     1
102
RTVSPost2010Prop48
 90
       50
102
RTVSPost2010PropOp48
 70
     1
102
RTVSPost2010Prop49
280
     0
102
RTVSPost2010PropOp49
 70
     1
102
RTVSPost2010Prop50
 90
       50
102
RTVSPost2010PropOp50
 70
     1
102
RTVSPost2010Prop51ColorIndex
 90
      256
102
RTVSPost2010Prop51ColorRGB
 90
-16777216
102
RTVSPost2010PropOp51
 70
     0
102
RTVSPost2010Prop52
140
1.0
102
RTVSPost2010PropOp52
 70
     0
102
RTVSPost2010Prop53
 90
        2
102
RTVSPost2010PropOp53
 70
     1
102
RTVSPost2010Prop54
  1
strokes_ogs.tif
102
RTVSPost2010PropOp54
 70
     1
102
RTVSPost2010Prop55
280
     0
102
RTVSPost2010PropOp55
 70
     1
102
RTVSPost2010Prop56
140
1.0
102
RTVSPost2010PropOp56
 70
     1
102
RTVSPost2010Prop57
140
1.0
102
RTVSPost2010PropOp57
 70
     1
  0
XRECORD
  5
C1B
102
{ACAD_REACTORS
330
C1A
102
}
330
C1A
100
AcDbXrecord
280
     1
102
RTVSPost2010Prop28
280
     0
102
RTVSPost2010PropOp28
 70
     1
102
RTVSPost2010Prop29
280
     1
102
RTVSPost2010PropOp29
 70
     1
102
RTVSPost2010Prop30
280
     1
102
RTVSPost2010PropOp30
 70
     1
102
RTVSPost2010Prop31
280
     0
102
RTVSPost2010PropOp31
 70
     1
102
RTVSPost2010Prop32
280
     0
102
RTVSPost2010PropOp32
 70
     1
102
RTVSPost2010Prop33
280
     0
102
RTVSPost2010PropOp33
 70
     1
102
RTVSPost2010Prop34
280
     0
102
RTVSPost2010PropOp34
 70
     1
102
RTVSPost2010Prop35
280
     0
102
RTVSPost2010PropOp35
 70
     1
102
RTVSPost2010Prop36
280
     0
102
RTVSPost2010PropOp36
 70
     1
102
RTVSPost2010Prop37
 90
       50
102
RTVSPost2010PropOp37
 70
     1
102
RTVSPost2010Prop38
140
0.0
102
RTVSPost2010PropOp38
 70
     1
102
RTVSPost2010Prop39
140
1.0
102
RTVSPost2010PropOp39
 70
     1
102
RTVSPost2010Prop40
 90
        0
102
RTVSPost2010PropOp40
 70
     1
102
RTVSPost2010Prop41ColorIndex
 90
       18
102
RTVSPost2010Prop41ColorRGB
 90
        0
102
RTVSPost2010PropOp41
 70
     1
102
RTVSPost2010Prop42
 90
       50
102
RTVSPost2010PropOp42
 70
     1
102
RTVSPost2010Prop43
 90
        3
102
RTVSPost2010PropOp43
 70
     1
102
RTVSPost2010Prop44ColorIndex
 90
        5
102
RTVSPost2010Prop44ColorRGB
 90
      255
102
RTVSPost2010PropOp44
 70
     1
102
RTVSPost2010Prop45
280
     0
102
RTVSPost2010PropOp45
 70
     1
102
RTVSPost2010Prop46
 90
       50
102
RTVSPost2010PropOp46
 70
     1
102
RTVSPost2010Prop47
 90
       50
102
RTVSPost2010PropOp47
 70
     1
102
RTVSPost2010Prop48
 90
       50
102
RTVSPost2010PropOp48
 70
     1
102
RTVSPost2010Prop49
280
     0
102
RTVSPost2010PropOp49
 70
     1
102
RTVSPost2010Prop50
 90
       50
102
RTVSPost2010PropOp50
 70
     1
102
RTVSPost2010Prop51ColorIndex
 90
      256
102
RTVSPost2010Prop51ColorRGB
 90
-16777216
102
RTVSPost2010PropOp51
 70
     0
102
RTVSPost2010Prop52
140
1.0
102
RTVSPost2010PropOp52
 70
     0
102
RTVSPost2010Prop53
 90
        2
102
RTVSPost2010PropOp53
 70
     1
102
RTVSPost2010Prop54
  1
strokes_ogs.tif
102
RTVSPost2010PropOp54
 70
     1
102
RTVSPost2010Prop55
280
     0
102
RTVSPost2010PropOp55
 70
     1
102
RTVSPost2010Prop56
140
1.0
102
RTVSPost2010PropOp56
 70
     1
102
RTVSPost2010Prop57
140
1.0
102
RTVSPost2010PropOp57
 70
     1
  0
XRECORD
  5
C33
102
{ACAD_REACTORS
330
C32
102
}
330
C32
100
AcDbXrecord
280
     1
102
RTVSPost2010Prop28
280
     0
102
RTVSPost2010PropOp28
 70
     1
102
RTVSPost2010Prop29
280
     1
102
RTVSPost2010PropOp29
 70
     1
102
RTVSPost2010Prop30
280
     1
102
RTVSPost2010PropOp30
 70
     1
102
RTVSPost2010Prop31
280
     0
102
RTVSPost2010PropOp31
 70
     1
102
RTVSPost2010Prop32
280
     0
102
RTVSPost2010PropOp32
 70
     1
102
RTVSPost2010Prop33
280
     0
102
RTVSPost2010PropOp33
 70
     1
102
RTVSPost2010Prop34
280
     0
102
RTVSPost2010PropOp34
 70
     1
102
RTVSPost2010Prop35
280
     0
102
RTVSPost2010PropOp35
 70
     1
102
RTVSPost2010Prop36
280
     0
102
RTVSPost2010PropOp36
 70
     1
102
RTVSPost2010Prop37
 90
       50
102
RTVSPost2010PropOp37
 70
     1
102
RTVSPost2010Prop38
140
0.0
102
RTVSPost2010PropOp38
 70
     1
102
RTVSPost2010Prop39
140
1.0
102
RTVSPost2010PropOp39
 70
     1
102
RTVSPost2010Prop40
 90
        0
102
RTVSPost2010PropOp40
 70
     1
102
RTVSPost2010Prop41ColorIndex
 90
       18
102
RTVSPost2010Prop41ColorRGB
 90
        0
102
RTVSPost2010PropOp41
 70
     1
102
RTVSPost2010Prop42
 90
       50
102
RTVSPost2010PropOp42
 70
     1
102
RTVSPost2010Prop43
 90
        3
102
RTVSPost2010PropOp43
 70
     1
102
RTVSPost2010Prop44ColorIndex
 90
        5
102
RTVSPost2010Prop44ColorRGB
 90
      255
102
RTVSPost2010PropOp44
 70
     1
102
RTVSPost2010Prop45
280
     0
102
RTVSPost2010PropOp45
 70
     1
102
RTVSPost2010Prop46
 90
       50
102
RTVSPost2010PropOp46
 70
     1
102
RTVSPost2010Prop47
 90
       50
102
RTVSPost2010PropOp47
 70
     1
102
RTVSPost2010Prop48
 90
       50
102
RTVSPost2010PropOp48
 70
     1
102
RTVSPost2010Prop49
280
     0
102
RTVSPost2010PropOp49
 70
     1
102
RTVSPost2010Prop50
 90
       50
102
RTVSPost2010PropOp50
 70
     1
102
RTVSPost2010Prop51ColorIndex
 90
      256
102
RTVSPost2010Prop51ColorRGB
 90
-16777216
102
RTVSPost2010PropOp51
 70
     0
102
RTVSPost2010Prop52
140
1.0
102
RTVSPost2010PropOp52
 70
     0
102
RTVSPost2010Prop53
 90
        2
102
RTVSPost2010PropOp53
 70
     1
102
RTVSPost2010Prop54
  1
strokes_ogs.tif
102
RTVSPost2010PropOp54
 70
     1
102
RTVSPost2010Prop55
280
     0
102
RTVSPost2010PropOp55
 70
     1
102
RTVSPost2010Prop56
140
1.0
102
RTVSPost2010PropOp56
 70
     1
102
RTVSPost2010Prop57
140
1.0
102
RTVSPost2010PropOp57
 70
     1
  0
ENDSEC
  0
EOF
