  0
SECTION
  2
HEADER
  9
$ACADVER
  1
AC1024
  9
$ACADMAINTVER
 70
   205
  9
$DWGCODEPAGE
  3
ANSI_1252
  9
$LASTSAVEDBY
  1
kaschu
  9
$INSBASE
 10
0.0
 20
0.0
 30
0.0
  9
$EXTMIN
 10
273.8783235586601
 20
-2024.949317800931
 30
-0.0000000000000112
  9
$EXTMAX
 10
6526.375388498611
 20
1853.177092462213
 30
0.0000000000000432
  9
$LIMMIN
 10
0.0
 20
0.0
  9
$LIMMAX
 10
420.0
 20
297.0
  9
$ORTHOMODE
 70
     0
  9
$REGENMODE
 70
     1
  9
$FILLMODE
 70
     1
  9
$QTEXTMODE
 70
     0
  9
$MIRRTEXT
 70
     0
  9
$LTSCALE
 40
1.0
  9
$ATTMODE
 70
     1
  9
$TEXTSIZE
 40
2.5
  9
$TRACEWID
 40
1.0
  9
$TEXTSTYLE
  7
STANDARD
  9
$CLAYER
  8
0
  9
$CELTYPE
  6
BYLAYER
  9
$CECOLOR
 62
   256
  9
$CELTSCALE
 40
1.0
  9
$DISPSILH
 70
     0
  9
$DIMSCALE
 40
1.0
  9
$DIMASZ
 40
2.5
  9
$DIMEXO
 40
0.625
  9
$DIMDLI
 40
3.75
  9
$DIMRND
 40
0.0
  9
$DIMDLE
 40
0.0
  9
$DIMEXE
 40
1.25
  9
$DIMTP
 40
0.0
  9
$DIMTM
 40
0.0
  9
$DIMTXT
 40
2.5
  9
$DIMCEN
 40
2.5
  9
$DIMTSZ
 40
0.0
  9
$DIMTOL
 70
     0
  9
$DIMLIM
 70
     0
  9
$DIMTIH
 70
     0
  9
$DIMTOH
 70
     0
  9
$DIMSE1
 70
     0
  9
$DIMSE2
 70
     0
  9
$DIMTAD
 70
     1
  9
$DIMZIN
 70
     8
  9
$DIMBLK
  1

  9
$DIMASO
 70
     1
  9
$DIMSHO
 70
     1
  9
$DIMPOST
  1

  9
$DIMAPOST
  1

  9
$DIMALT
 70
     0
  9
$DIMALTD
 70
     3
  9
$DIMALTF
 40
0.03937007874016
  9
$DIMLFAC
 40
1.0
  9
$DIMTOFL
 70
     1
  9
$DIMTVP
 40
0.0
  9
$DIMTIX
 70
     0
  9
$DIMSOXD
 70
     0
  9
$DIMSAH
 70
     0
  9
$DIMBLK1
  1

  9
$DIMBLK2
  1

  9
$DIMSTYLE
  2
ISO-25
  9
$DIMCLRD
 70
     0
  9
$DIMCLRE
 70
     0
  9
$DIMCLRT
 70
     0
  9
$DIMTFAC
 40
1.0
  9
$DIMGAP
 40
0.625
  9
$DIMJUST
 70
     0
  9
$DIMSD1
 70
     0
  9
$DIMSD2
 70
     0
  9
$DIMTOLJ
 70
     0
  9
$DIMTZIN
 70
     8
  9
$DIMALTZ
 70
     0
  9
$DIMALTTZ
 70
     0
  9
$DIMUPT
 70
     0
  9
$DIMDEC
 70
     2
  9
$DIMTDEC
 70
     2
  9
$DIMALTU
 70
     2
  9
$DIMALTTD
 70
     3
  9
$DIMTXSTY
  7
STANDARD
  9
$DIMAUNIT
 70
     0
  9
$DIMADEC
 70
     0
  9
$DIMALTRND
 40
0.0
  9
$DIMAZIN
 70
     0
  9
$DIMDSEP
 70
    44
  9
$DIMATFIT
 70
     3
  9
$DIMFRAC
 70
     0
  9
$DIMLDRBLK
  1

  9
$DIMLUNIT
 70
     2
  9
$DIMLWD
 70
    -2
  9
$DIMLWE
 70
    -2
  9
$DIMTMOVE
 70
     0
  9
$DIMFXL
 40
1.0
  9
$DIMFXLON
 70
     0
  9
$DIMJOGANG
 40
0.7853981633974483
  9
$DIMTFILL
 70
     0
  9
$DIMTFILLCLR
 70
     0
  9
$DIMARCSYM
 70
     0
  9
$DIMLTYPE
  6

  9
$DIMLTEX1
  6

  9
$DIMLTEX2
  6

  9
$DIMTXTDIRECTION
 70
     0
  9
$LUNITS
 70
     2
  9
$LUPREC
 70
     4
  9
$SKETCHINC
 40
1.0
  9
$FILLETRAD
 40
10.0
  9
$AUNITS
 70
     0
  9
$AUPREC
 70
     0
  9
$MENU
  1
.
  9
$ELEVATION
 40
0.0
  9
$PELEVATION
 40
0.0
  9
$THICKNESS
 40
0.0
  9
$LIMCHECK
 70
     0
  9
$CHAMFERA
 40
10.0
  9
$CHAMFERB
 40
10.0
  9
$CHAMFERC
 40
20.0
  9
$CHAMFERD
 40
0.0
  9
$SKPOLY
 70
     0
  9
$TDCREATE
 40
2453445.475203611
  9
$TDUCREATE
 40
2453445.433536945
  9
$TDUPDATE
 40
2458516.600174861
  9
$TDUUPDATE
 40
2458516.558508195
  9
$TDINDWG
 40
0.0095760185
  9
$TDUSRTIMER
 40
0.0095759838
  9
$USRTIMER
 70
     1
  9
$ANGBASE
 50
0.0
  9
$ANGDIR
 70
     0
  9
$PDMODE
 70
     0
  9
$PDSIZE
 40
0.0
  9
$PLINEWID
 40
0.0
  9
$SPLFRAME
 70
     0
  9
$SPLINETYPE
 70
     6
  9
$SPLINESEGS
 70
     8
  9
$HANDSEED
  5
1591
  9
$SURFTAB1
 70
     6
  9
$SURFTAB2
 70
     6
  9
$SURFTYPE
 70
     6
  9
$SURFU
 70
     6
  9
$SURFV
 70
     6
  9
$UCSBASE
  2

  9
$UCSNAME
  2

  9
$UCSORG
 10
0.0
 20
0.0
 30
0.0
  9
$UCSXDIR
 10
1.0
 20
0.0
 30
0.0
  9
$UCSYDIR
 10
0.0
 20
1.0
 30
0.0
  9
$UCSORTHOREF
  2

  9
$UCSORTHOVIEW
 70
     0
  9
$UCSORGTOP
 10
0.0
 20
0.0
 30
0.0
  9
$UCSORGBOTTOM
 10
0.0
 20
0.0
 30
0.0
  9
$UCSORGLEFT
 10
0.0
 20
0.0
 30
0.0
  9
$UCSORGRIGHT
 10
0.0
 20
0.0
 30
0.0
  9
$UCSORGFRONT
 10
0.0
 20
0.0
 30
0.0
  9
$UCSORGBACK
 10
0.0
 20
0.0
 30
0.0
  9
$PUCSBASE
  2

  9
$PUCSNAME
  2

  9
$PUCSORG
 10
0.0
 20
0.0
 30
0.0
  9
$PUCSXDIR
 10
1.0
 20
0.0
 30
0.0
  9
$PUCSYDIR
 10
0.0
 20
1.0
 30
0.0
  9
$PUCSORTHOREF
  2

  9
$PUCSORTHOVIEW
 70
     0
  9
$PUCSORGTOP
 10
0.0
 20
0.0
 30
0.0
  9
$PUCSORGBOTTOM
 10
0.0
 20
0.0
 30
0.0
  9
$PUCSORGLEFT
 10
0.0
 20
0.0
 30
0.0
  9
$PUCSORGRIGHT
 10
0.0
 20
0.0
 30
0.0
  9
$PUCSORGFRONT
 10
0.0
 20
0.0
 30
0.0
  9
$PUCSORGBACK
 10
0.0
 20
0.0
 30
0.0
  9
$USERI1
 70
     0
  9
$USERI2
 70
     0
  9
$USERI3
 70
     0
  9
$USERI4
 70
     0
  9
$USERI5
 70
     0
  9
$USERR1
 40
0.0
  9
$USERR2
 40
0.0
  9
$USERR3
 40
0.0
  9
$USERR4
 40
0.0
  9
$USERR5
 40
0.0
  9
$WORLDVIEW
 70
     1
  9
$SHADEDGE
 70
     3
  9
$SHADEDIF
 70
    70
  9
$TILEMODE
 70
     1
  9
$MAXACTVP
 70
    64
  9
$PINSBASE
 10
0.0
 20
0.0
 30
0.0
  9
$PLIMCHECK
 70
     0
  9
$PEXTMIN
 10
0.0
 20
0.0
 30
0.0
  9
$PEXTMAX
 10
0.0
 20
0.0
 30
0.0
  9
$PLIMMIN
 10
0.0
 20
0.0
  9
$PLIMMAX
 10
12.0
 20
9.0
  9
$UNITMODE
 70
     0
  9
$VISRETAIN
 70
     1
  9
$PLINEGEN
 70
     0
  9
$PSLTSCALE
 70
     1
  9
$TREEDEPTH
 70
  3020
  9
$CMLSTYLE
  2
STANDARD
  9
$CMLJUST
 70
     0
  9
$CMLSCALE
 40
20.0
  9
$PROXYGRAPHICS
 70
     1
  9
$MEASUREMENT
 70
     1
  9
$CELWEIGHT
370
    -1
  9
$ENDCAPS
280
     0
  9
$JOINSTYLE
280
     0
  9
$LWDISPLAY
290
     0
  9
$INSUNITS
 70
     4
  9
$HYPERLINKBASE
  1

  9
$STYLESHEET
  1

  9
$XEDIT
290
     1
  9
$CEPSNTYPE
380
     0
  9
$PSTYLEMODE
290
     1
  9
$FINGERPRINTGUID
  2
{FDEAD578-A652-11D2-9A35-0060089B3A3F}
  9
$VERSIONGUID
  2
{A22294F1-7E2F-4275-B5B5-6A0DCAD44909}
  9
$EXTNAMES
290
     1
  9
$PSVPSCALE
 40
0.0
  9
$OLESTARTUP
290
     0
  9
$SORTENTS
280
   127
  9
$INDEXCTL
280
     0
  9
$HIDETEXT
280
     1
  9
$XCLIPFRAME
280
     2
  9
$HALOGAP
280
     0
  9
$OBSCOLOR
 70
   257
  9
$OBSLTYPE
280
     0
  9
$INTERSECTIONDISPLAY
280
     0
  9
$INTERSECTIONCOLOR
 70
   257
  9
$DIMASSOC
280
     2
  9
$PROJECTNAME
  1

  9
$CAMERADISPLAY
290
     0
  9
$LENSLENGTH
 40
50.0
  9
$CAMERAHEIGHT
 40
0.0
  9
$STEPSPERSEC
 40
2.0
  9
$STEPSIZE
 40
6.0
  9
$3DDWFPREC
 40
2.0
  9
$PSOLWIDTH
 40
0.25
  9
$PSOLHEIGHT
 40
4.0
  9
$LOFTANG1
 40
1.570796326794896
  9
$LOFTANG2
 40
1.570796326794896
  9
$LOFTMAG1
 40
0.0
  9
$LOFTMAG2
 40
0.0
  9
$LOFTPARAM
 70
     7
  9
$LOFTNORMALS
280
     1
  9
$LATITUDE
 40
37.795
  9
$LONGITUDE
 40
-122.394
  9
$NORTHDIRECTION
 40
0.0
  9
$TIMEZONE
 70
 -8000
  9
$LIGHTGLYPHDISPLAY
280
     1
  9
$TILEMODELIGHTSYNCH
280
     1
  9
$CMATERIAL
347
FD0
  9
$SOLIDHIST
280
     0
  9
$SHOWHIST
280
     1
  9
$DWFFRAME
280
     2
  9
$DGNFRAME
280
     0
  9
$REALWORLDSCALE
290
     1
  9
$INTERFERECOLOR
 62
     1
  9
$INTERFEREOBJVS
345
FF2
  9
$INTERFEREVPVS
346
FEF
  9
$CSHADOW
280
     0
  9
$SHADOWPLANELOCATION
 40
0.0
  0
ENDSEC
  0
SECTION
  2
CLASSES
  0
CLASS
  1
ACDBDICTIONARYWDFLT
  2
AcDbDictionaryWithDefault
  3
ObjectDBX Classes
 90
        0
 91
        1
280
     0
281
     0
  0
CLASS
  1
DICTIONARYVAR
  2
AcDbDictionaryVar
  3
ObjectDBX Classes
 90
        0
 91
       12
280
     0
281
     0
  0
CLASS
  1
MATERIAL
  2
AcDbMaterial
  3
ObjectDBX Classes
 90
     1153
 91
        3
280
     0
281
     0
  0
CLASS
  1
VISUALSTYLE
  2
AcDbVisualStyle
  3
ObjectDBX Classes
 90
     4095
 91
       24
280
     0
281
     0
  0
CLASS
  1
TABLESTYLE
  2
AcDbTableStyle
  3
ObjectDBX Classes
 90
     4095
 91
        1
280
     0
281
     0
  0
CLASS
  1
SCALE
  2
AcDbScale
  3
ObjectDBX Classes
 90
     1153
 91
       17
280
     0
281
     0
  0
CLASS
  1
MLEADERSTYLE
  2
AcDbMLeaderStyle
  3
ACDB_MLEADERSTYLE_CLASS
 90
     4095
 91
        1
280
     0
281
     0
  0
CLASS
  1
ACDBSECTIONVIEWSTYLE
  2
AcDbSectionViewStyle
  3
ObjectDBX Classes
 90
     1025
 91
        2
280
     0
281
     0
  0
CLASS
  1
ACDBDETAILVIEWSTYLE
  2
AcDbDetailViewStyle
  3
ObjectDBX Classes
 90
     1025
 91
        2
280
     0
281
     0
  0
CLASS
  1
DIMASSOC
  2
AcDbDimAssoc
  3
"AcDbDimAssoc|Product Desc:     AcDim ARX App For Dimension|Company:          Autodesk, Inc.|WEB Address:      www.autodesk.com"
 90
        0
 91
       12
280
     0
281
     0
  0
CLASS
  1
SORTENTSTABLE
  2
AcDbSortentsTable
  3
ObjectDBX Classes
 90
        0
 91
        2
280
     0
281
     0
  0
CLASS
  1
CELLSTYLEMAP
  2
AcDbCellStyleMap
  3
ObjectDBX Classes
 90
     1152
 91
        2
280
     0
281
     0
  0
ENDSEC
  0
SECTION
  2
TABLES
  0
TABLE
  2
VPORT
  5
8
330
0
100
AcDbSymbolTable
 70
     1
  0
VPORT
  5
FA6
330
8
100
AcDbSymbolTableRecord
100
AcDbViewportTableRecord
  2
*ACTIVE
 70
     0
 10
0.0
 20
0.0
 11
1.0
 21
1.0
 12
1631.991109723146
 22
1051.950513923629
 13
0.0
 23
0.0
 14
10.0
 24
10.0
 15
10.0
 25
10.0
 16
0.0
 26
0.0
 36
1.0
 17
0.0
 27
0.0
 37
0.0
 40
1865.431331804409
 41
2.260445682451253
 42
50.0
 43
0.0
 44
0.0
 50
0.0
 51
0.0
 71
     0
 72
  1000
 73
     1
 74
     3
 75
     0
 76
     0
 77
     0
 78
     0
281
     0
 65
     1
110
0.0
120
0.0
130
0.0
111
1.0
121
0.0
131
0.0
112
0.0
122
1.0
132
0.0
 79
     0
146
0.0
348
FEE
 60
     3
 61
     5
292
     1
282
     1
141
0.0
142
0.0
 63
   250
421
  3355443
1001
ACAD_NAV_VCDISPLAY
1070
     3
  0
ENDTAB
  0
TABLE
  2
LTYPE
  5
5
330
0
100
AcDbSymbolTable
 70
     4
  0
LTYPE
  5
14
330
5
100
AcDbSymbolTableRecord
100
AcDbLinetypeTableRecord
  2
BYBLOCK
 70
     0
  3

 72
    65
 73
     0
 40
0.0
  0
LTYPE
  5
15
330
5
100
AcDbSymbolTableRecord
100
AcDbLinetypeTableRecord
  2
BYLAYER
 70
     0
  3

 72
    65
 73
     0
 40
0.0
  0
LTYPE
  5
16
330
5
100
AcDbSymbolTableRecord
100
AcDbLinetypeTableRecord
  2
CONTINUOUS
 70
     0
  3
Solid line
 72
    65
 73
     0
 40
0.0
  0
LTYPE
  5
86
330
5
100
AcDbSymbolTableRecord
100
AcDbLinetypeTableRecord
  2
IMPORT
 70
     0
  3

 72
    65
 73
     0
 40
0.0
  0
LTYPE
  5
87
330
5
100
AcDbSymbolTableRecord
100
AcDbLinetypeTableRecord
  2
STANDARD
 70
     0
  3

 72
    65
 73
     0
 40
0.0
  0
ENDTAB
  0
TABLE
  2
LAYER
  5
2
330
0
100
AcDbSymbolTable
 70
     4
  0
LAYER
  5
10
102
{ACAD_XDICTIONARY
360
150D
102
}
330
2
100
AcDbSymbolTableRecord
100
AcDbLayerTableRecord
  2
0
 70
     0
 62
     7
  6
CONTINUOUS
370
    -3
390
F
347
FE0
  0
LAYER
  5
88
102
{ACAD_XDICTIONARY
360
150F
102
}
330
2
100
AcDbSymbolTableRecord
100
AcDbLayerTableRecord
  2
STANDARD
 70
     0
 62
     7
  6
CONTINUOUS
370
    -3
390
F
347
FE0
  0
LAYER
  5
1022
330
2
100
AcDbSymbolTableRecord
100
AcDbLayerTableRecord
  2
Defpoints
 70
     0
 62
     7
  6
CONTINUOUS
290
     0
370
    -3
390
F
347
FE0
  0
LAYER
  5
111E
102
{ACAD_XDICTIONARY
360
111F
102
}
330
2
100
AcDbSymbolTableRecord
100
AcDbLayerTableRecord
  2
HEWI
 70
     0
 62
     7
  6
CONTINUOUS
370
    -3
390
F
347
FE0
1001
AcAecLayerStandard
1000

1000

1001
AcCmTransparency
1071
        0
  0
ENDTAB
  0
TABLE
  2
STYLE
  5
3
330
0
100
AcDbSymbolTable
 70
     2
  0
STYLE
  5
11
330
3
100
AcDbSymbolTableRecord
100
AcDbTextStyleTableRecord
  2
STANDARD
 70
     0
 40
0.0
 41
1.0
 50
0.0
 71
     0
 42
2.5
  3
txt
  4

  0
STYLE
  5
89
330
3
100
AcDbSymbolTableRecord
100
AcDbTextStyleTableRecord
  2
HEWI
 70
     0
 40
0.0
 41
1.0
 50
0.0
 71
     0
 42
90.0
  3
ARIAL.TTF
  4

1001
ACAD
1000
Arial
1071
       34
  0
ENDTAB
  0
TABLE
  2
VIEW
  5
6
330
0
100
AcDbSymbolTable
 70
     0
  0
ENDTAB
  0
TABLE
  2
UCS
  5
7
330
0
100
AcDbSymbolTable
 70
     0
  0
ENDTAB
  0
TABLE
  2
APPID
  5
9
330
0
100
AcDbSymbolTable
 70
     5
  0
APPID
  5
12
330
9
100
AcDbSymbolTableRecord
100
AcDbRegAppTableRecord
  2
ACAD
 70
     0
  0
APPID
  5
106A
330
9
100
AcDbSymbolTableRecord
100
AcDbRegAppTableRecord
  2
ACAD_EXEMPT_FROM_CAD_STANDARDS
 70
     0
  0
APPID
  5
1120
330
9
100
AcDbSymbolTableRecord
100
AcDbRegAppTableRecord
  2
ACAD_NAV_VCDISPLAY
 70
     0
  0
APPID
  5
1121
330
9
100
AcDbSymbolTableRecord
100
AcDbRegAppTableRecord
  2
AcAecLayerStandard
 70
     0
  0
APPID
  5
1122
330
9
100
AcDbSymbolTableRecord
100
AcDbRegAppTableRecord
  2
AcCmTransparency
 70
     0
  0
ENDTAB
  0
TABLE
  2
DIMSTYLE
  5
A
330
0
100
AcDbSymbolTable
 70
     3
100
AcDbDimStyleTable
 71
     1
340
27
  0
DIMSTYLE
105
27
330
A
100
AcDbSymbolTableRecord
100
AcDbDimStyleTableRecord
  2
ISO-25
 70
     0
 41
2.5
 42
0.625
 43
3.75
 44
1.25
 73
     0
 74
     0
 77
     1
 78
     8
140
2.5
141
2.5
143
0.03937007874016
147
0.625
171
     3
172
     1
271
     2
272
     2
274
     3
283
     0
284
     8
340
11
  0
DIMSTYLE
105
8A
330
A
100
AcDbSymbolTableRecord
100
AcDbDimStyleTableRecord
  2
STANDARD
 70
     0
340
11
  0
ENDTAB
  0
TABLE
  2
BLOCK_RECORD
  5
1
330
0
100
AcDbSymbolTable
 70
    13
  0
BLOCK_RECORD
  5
1F
102
{ACAD_XDICTIONARY
360
FC8
102
}
330
1
100
AcDbSymbolTableRecord
100
AcDbBlockTableRecord
  2
*MODEL_SPACE
340
101B
 70
     0
280
     1
281
     0
  0
BLOCK_RECORD
  5
50
102
{ACAD_XDICTIONARY
360
FCA
102
}
330
1
100
AcDbSymbolTableRecord
100
AcDbBlockTableRecord
  2
*PAPER_SPACE
340
101C
 70
     0
280
     1
281
     0
  0
BLOCK_RECORD
  5
1023
330
1
100
AcDbSymbolTableRecord
100
AcDbBlockTableRecord
  2
*D0
340
0
 70
     0
280
     1
281
     0
  0
BLOCK_RECORD
  5
103B
330
1
100
AcDbSymbolTableRecord
100
AcDbBlockTableRecord
  2
*D1
340
0
 70
     0
280
     1
281
     0
  0
BLOCK_RECORD
  5
1053
330
1
100
AcDbSymbolTableRecord
100
AcDbBlockTableRecord
  2
*D2
340
0
 70
     0
280
     1
281
     0
  0
BLOCK_RECORD
  5
108E
330
1
100
AcDbSymbolTableRecord
100
AcDbBlockTableRecord
  2
*D4
340
0
 70
     0
280
     1
281
     0
  0
BLOCK_RECORD
  5
10A6
330
1
100
AcDbSymbolTableRecord
100
AcDbBlockTableRecord
  2
*D5
340
0
 70
     0
280
     1
281
     0
  0
BLOCK_RECORD
  5
10BF
330
1
100
AcDbSymbolTableRecord
100
AcDbBlockTableRecord
  2
*D6
340
0
 70
     0
280
     1
281
     0
  0
BLOCK_RECORD
  5
10D7
330
1
100
AcDbSymbolTableRecord
100
AcDbBlockTableRecord
  2
*D7
340
0
 70
     0
280
     1
281
     0
  0
BLOCK_RECORD
  5
10EF
330
1
100
AcDbSymbolTableRecord
100
AcDbBlockTableRecord
  2
*D8
340
0
 70
     0
280
     1
281
     0
  0
BLOCK_RECORD
  5
1107
330
1
100
AcDbSymbolTableRecord
100
AcDbBlockTableRecord
  2
*D9
340
0
 70
     0
280
     1
281
     0
  0
BLOCK_RECORD
  5
14DB
330
1
100
AcDbSymbolTableRecord
100
AcDbBlockTableRecord
  2
*D11
340
0
 70
     0
280
     1
281
     0
  0
BLOCK_RECORD
  5
14F4
330
1
100
AcDbSymbolTableRecord
100
AcDbBlockTableRecord
  2
*D12
340
0
 70
     0
280
     1
281
     0
  0
ENDTAB
  0
ENDSEC
  0
SECTION
  2
BLOCKS
  0
BLOCK
  5
20
330
1F
100
AcDbEntity
  8
0
100
AcDbBlockBegin
  2
*MODEL_SPACE
 70
     0
 10
0.0
 20
0.0
 30
0.0
  3
*MODEL_SPACE
  1

  0
ENDBLK
  5
21
330
1F
100
AcDbEntity
  8
0
100
AcDbBlockEnd
  0
BLOCK
  5
52
330
50
100
AcDbEntity
 67
     1
  8
0
100
AcDbBlockBegin
  2
*PAPER_SPACE
 70
     0
 10
0.0
 20
0.0
 30
0.0
  3
*PAPER_SPACE
  1

  0
ENDBLK
  5
53
330
50
100
AcDbEntity
 67
     1
  8
0
100
AcDbBlockEnd
  0
BLOCK
  5
1024
330
1023
100
AcDbEntity
  8
0
100
AcDbBlockBegin
  2
*D0
 70
     1
 10
0.0
 20
0.0
 30
0.0
  3
*D0
  1

  0
LINE
  5
1030
330
1023
100
AcDbEntity
  8
0
 62
     0
440
 16777216
370
    -2
100
AcDbLine
 10
5243.035207498611
 20
-718.2094986969667
 30
0.0
 11
5243.035207498611
 21
-479.7828719263152
 31
0.0
  0
LINE
  5
1031
330
1023
100
AcDbEntity
  8
0
 62
     0
440
 16777216
370
    -2
100
AcDbLine
 10
6205.035124498611
 20
-718.2094651423213
 30
0.0
 11
6205.035124498611
 21
-479.7828719263152
 31
0.0
  0
LINE
  5
1032
330
1023
100
AcDbEntity
  8
0
 62
     0
440
 16777216
370
    -2
100
AcDbLine
 10
5245.535207498612
 20
-481.0328719263152
 30
0.0
 11
6202.53512449861
 21
-481.0328719263152
 31
0.0
  0
SOLID
  5
1033
330
1023
100
AcDbEntity
  8
0
 62
     0
440
 16777216
100
AcDbTrace
 10
5245.535207498612
 20
-480.6162052596485
 30
0.0
 11
5245.535207498612
 21
-481.4495385929819
 31
0.0
 12
5243.035207498611
 22
-481.0328719263152
 32
0.0
 13
5243.035207498611
 23
-481.0328719263152
 33
0.0
  0
SOLID
  5
1034
330
1023
100
AcDbEntity
  8
0
 62
     0
440
 16777216
100
AcDbTrace
 10
6202.53512449861
 20
-480.6162052596485
 30
0.0
 11
6202.53512449861
 21
-481.4495385929819
 31
0.0
 12
6205.035124498611
 22
-481.0328719263152
 32
0.0
 13
6205.035124498611
 23
-481.0328719263152
 33
0.0
  0
MTEXT
  5
1035
330
1023
100
AcDbEntity
  8
0
 62
     0
440
 16777216
100
AcDbMText
 10
5724.035165998611
 20
-479.1578719263152
 30
0.0
 40
2.5
 41
0.0
 46
0.0
 71
     5
 72
     1
  1
962
 73
     1
 44
1.0
  0
POINT
  5
1036
330
1023
100
AcDbEntity
  8
Defpoints
 62
     0
440
 16777216
100
AcDbPoint
 10
5243.035207498611
 20
-718.8344986969667
 30
0.0
  0
POINT
  5
1037
330
1023
100
AcDbEntity
  8
Defpoints
 62
     0
440
 16777216
100
AcDbPoint
 10
6205.035124498611
 20
-718.8344651423212
 30
0.0
  0
POINT
  5
1038
330
1023
100
AcDbEntity
  8
Defpoints
 62
     0
440
 16777216
100
AcDbPoint
 10
6205.035124498611
 20
-481.0328719263152
 30
0.0
  0
ENDBLK
  5
1025
330
1023
100
AcDbEntity
  8
0
100
AcDbBlockEnd
  0
BLOCK
  5
103C
330
103B
100
AcDbEntity
  8
0
100
AcDbBlockBegin
  2
*D1
 70
     1
 10
0.0
 20
0.0
 30
0.0
  3
*D1
  1

  0
LINE
  5
1048
330
103B
100
AcDbEntity
  8
0
 62
     0
440
 16777216
370
    -2
100
AcDbLine
 10
6436.378974498609
 20
-673.461082142321
 30
0.0
 11
6436.378974498609
 21
-679.9995981491247
 31
0.0
  0
LINE
  5
1049
330
103B
100
AcDbEntity
  8
0
 62
     0
440
 16777216
370
    -2
100
AcDbLine
 10
6469.378967498608
 20
-674.4857338875508
 30
0.0
 11
6469.378967498608
 21
-679.9995981491247
 31
0.0
  0
LINE
  5
104A
330
103B
100
AcDbEntity
  8
0
 62
     0
440
 16777216
370
    -2
100
AcDbLine
 10
6438.878974498608
 20
-678.7495981491247
 30
0.0
 11
6466.878967498607
 21
-678.7495981491247
 31
0.0
  0
SOLID
  5
104B
330
103B
100
AcDbEntity
  8
0
 62
     0
440
 16777216
100
AcDbTrace
 10
6438.878974498608
 20
-678.332931482458
 30
0.0
 11
6438.878974498608
 21
-679.1662648157913
 31
0.0
 12
6436.378974498609
 22
-678.7495981491247
 32
0.0
 13
6436.378974498609
 23
-678.7495981491247
 33
0.0
  0
SOLID
  5
104C
330
103B
100
AcDbEntity
  8
0
 62
     0
440
 16777216
100
AcDbTrace
 10
6466.878967498607
 20
-678.332931482458
 30
0.0
 11
6466.878967498607
 21
-679.1662648157913
 31
0.0
 12
6469.378967498608
 22
-678.7495981491247
 32
0.0
 13
6469.378967498608
 23
-678.7495981491247
 33
0.0
  0
MTEXT
  5
104D
330
103B
100
AcDbEntity
  8
0
 62
     0
440
 16777216
100
AcDbMText
 10
6452.878970998608
 20
-676.8745981491247
 30
0.0
 40
2.5
 41
0.0
 46
0.0
 71
     5
 72
     1
  1
33
 73
     1
 44
1.0
  0
POINT
  5
104E
330
103B
100
AcDbEntity
  8
Defpoints
 62
     0
440
 16777216
100
AcDbPoint
 10
6436.378974498609
 20
-672.836082142321
 30
0.0
  0
POINT
  5
104F
330
103B
100
AcDbEntity
  8
Defpoints
 62
     0
440
 16777216
100
AcDbPoint
 10
6469.378967498608
 20
-673.8607338875509
 30
0.0
  0
POINT
  5
1050
330
103B
100
AcDbEntity
  8
Defpoints
 62
     0
440
 16777216
100
AcDbPoint
 10
6469.378967498608
 20
-678.7495981491247
 30
0.0
  0
ENDBLK
  5
103D
330
103B
100
AcDbEntity
  8
0
100
AcDbBlockEnd
  0
BLOCK
  5
1054
330
1053
100
AcDbEntity
  8
0
100
AcDbBlockBegin
  2
*D2
 70
     1
 10
0.0
 20
0.0
 30
0.0
  3
*D2
  1

  0
LINE
  5
1060
330
1053
100
AcDbEntity
  8
0
 62
     0
440
 16777216
370
    -2
100
AcDbLine
 10
6469.263152498609
 20
-672.6762180889746
 30
0.0
 11
6469.263152498609
 21
-676.7297702076294
 31
0.0
  0
LINE
  5
1061
330
1053
100
AcDbEntity
  8
0
 62
     0
440
 16777216
370
    -2
100
AcDbLine
 10
6436.378974498609
 20
-672.6762180889746
 30
0.0
 11
6436.378974498609
 21
-676.7297702076294
 31
0.0
  0
LINE
  5
1062
330
1053
100
AcDbEntity
  8
0
 62
     0
440
 16777216
370
    -2
100
AcDbLine
 10
6466.763152498607
 20
-675.4797702076293
 30
0.0
 11
6438.878974498608
 21
-675.4797702076293
 31
0.0
  0
SOLID
  5
1063
330
1053
100
AcDbEntity
  8
0
 62
     0
440
 16777216
100
AcDbTrace
 10
6466.763152498607
 20
-675.0631035409627
 30
0.0
 11
6466.763152498607
 21
-675.896436874296
 31
0.0
 12
6469.263152498609
 22
-675.4797702076293
 32
0.0
 13
6469.263152498609
 23
-675.4797702076293
 33
0.0
  0
SOLID
  5
1064
330
1053
100
AcDbEntity
  8
0
 62
     0
440
 16777216
100
AcDbTrace
 10
6438.878974498608
 20
-675.0631035409627
 30
0.0
 11
6438.878974498608
 21
-675.896436874296
 31
0.0
 12
6436.378974498609
 22
-675.4797702076293
 32
0.0
 13
6436.378974498609
 23
-675.4797702076293
 33
0.0
  0
MTEXT
  5
1065
330
1053
100
AcDbEntity
  8
0
 62
     0
440
 16777216
100
AcDbMText
 10
6452.821063498608
 20
-673.396436874296
 30
0.0
 40
2.5
 41
0.0
 46
0.0
 71
     5
 72
     1
  1
32,88
 73
     1
 44
1.0
  0
POINT
  5
1066
330
1053
100
AcDbEntity
  8
Defpoints
 62
     0
440
 16777216
100
AcDbPoint
 10
6469.263152498609
 20
-672.0512180889747
 30
0.0
  0
POINT
  5
1067
330
1053
100
AcDbEntity
  8
Defpoints
 62
     0
440
 16777216
100
AcDbPoint
 10
6436.378974498609
 20
-672.0512180889747
 30
0.0
  0
POINT
  5
1068
330
1053
100
AcDbEntity
  8
Defpoints
 62
     0
440
 16777216
100
AcDbPoint
 10
6436.378974498609
 20
-675.4797702076293
 30
0.0
  0
ENDBLK
  5
1055
330
1053
100
AcDbEntity
  8
0
100
AcDbBlockEnd
  0
BLOCK
  5
108F
330
108E
100
AcDbEntity
  8
0
100
AcDbBlockBegin
  2
*D4
 70
     1
 10
0.0
 20
0.0
 30
0.0
  3
*D4
  1

  0
LINE
  5
109B
330
108E
100
AcDbEntity
  8
0
 62
     0
440
 16777216
370
    -2
100
AcDbLine
 10
6436.87537349861
 20
-746.6459451410246
 30
0.0
 11
6436.87537349861
 21
-768.8593170977083
 31
0.0
  0
LINE
  5
109C
330
108E
100
AcDbEntity
  8
0
 62
     0
440
 16777216
370
    -2
100
AcDbLine
 10
6524.875373498608
 20
-746.6459451410246
 30
0.0
 11
6524.875373498608
 21
-768.8593170977083
 31
0.0
  0
LINE
  5
109D
330
108E
100
AcDbEntity
  8
0
 62
     0
440
 16777216
370
    -2
100
AcDbLine
 10
6439.375373498609
 20
-767.6093170977082
 30
0.0
 11
6522.375373498609
 21
-767.6093170977082
 31
0.0
  0
SOLID
  5
109E
330
108E
100
AcDbEntity
  8
0
 62
     0
440
 16777216
100
AcDbTrace
 10
6439.375373498609
 20
-767.1926504310416
 30
0.0
 11
6439.375373498609
 21
-768.0259837643749
 31
0.0
 12
6436.87537349861
 22
-767.6093170977082
 32
0.0
 13
6436.87537349861
 23
-767.6093170977082
 33
0.0
  0
SOLID
  5
109F
330
108E
100
AcDbEntity
  8
0
 62
     0
440
 16777216
100
AcDbTrace
 10
6522.375373498609
 20
-767.1926504310416
 30
0.0
 11
6522.375373498609
 21
-768.0259837643749
 31
0.0
 12
6524.875373498608
 22
-767.6093170977082
 32
0.0
 13
6524.875373498608
 23
-767.6093170977082
 33
0.0
  0
MTEXT
  5
10A0
330
108E
100
AcDbEntity
  8
0
 62
     0
440
 16777216
100
AcDbMText
 10
6480.875373498609
 20
-765.7343170977083
 30
0.0
 40
2.5
 41
0.0
 46
0.0
 71
     5
 72
     1
  1
88
 73
     1
 44
1.0
  0
POINT
  5
10A1
330
108E
100
AcDbEntity
  8
Defpoints
 62
     0
440
 16777216
100
AcDbPoint
 10
6436.87537349861
 20
-746.0209451410246
 30
0.0
  0
POINT
  5
10A2
330
108E
100
AcDbEntity
  8
Defpoints
 62
     0
440
 16777216
100
AcDbPoint
 10
6524.875373498608
 20
-746.0209451410246
 30
0.0
  0
POINT
  5
10A3
330
108E
100
AcDbEntity
  8
Defpoints
 62
     0
440
 16777216
100
AcDbPoint
 10
6524.875373498608
 20
-767.6093170977082
 30
0.0
  0
ENDBLK
  5
1090
330
108E
100
AcDbEntity
  8
0
100
AcDbBlockEnd
  0
BLOCK
  5
10A7
330
10A6
100
AcDbEntity
  8
0
100
AcDbBlockBegin
  2
*D5
 70
     1
 10
0.0
 20
0.0
 30
0.0
  3
*D5
  1

  0
LINE
  5
10B3
330
10A6
100
AcDbEntity
  8
0
 62
     0
440
 16777216
370
    -2
100
AcDbLine
 10
6436.378974498609
 20
-689.2978166423208
 30
0.0
 11
6436.378974498609
 21
-693.0196510865044
 31
0.0
  0
LINE
  5
10B4
330
10A6
100
AcDbEntity
  8
0
 62
     0
440
 16777216
370
    -2
100
AcDbLine
 10
6524.875373498608
 20
-689.2978166423208
 30
0.0
 11
6524.875373498608
 21
-693.0196510865044
 31
0.0
  0
LINE
  5
10B5
330
10A6
100
AcDbEntity
  8
0
 62
     0
440
 16777216
370
    -2
100
AcDbLine
 10
6438.878974498608
 20
-691.7696510865043
 30
0.0
 11
6522.375373498609
 21
-691.7696510865043
 31
0.0
  0
SOLID
  5
10B6
330
10A6
100
AcDbEntity
  8
0
 62
     0
440
 16777216
100
AcDbTrace
 10
6438.878974498608
 20
-691.3529844198377
 30
0.0
 11
6438.878974498608
 21
-692.186317753171
 31
0.0
 12
6436.378974498609
 22
-691.7696510865043
 32
0.0
 13
6436.378974498609
 23
-691.7696510865043
 33
0.0
  0
SOLID
  5
10B7
330
10A6
100
AcDbEntity
  8
0
 62
     0
440
 16777216
100
AcDbTrace
 10
6522.375373498609
 20
-691.3529844198377
 30
0.0
 11
6522.375373498609
 21
-692.186317753171
 31
0.0
 12
6524.875373498608
 22
-691.7696510865043
 32
0.0
 13
6524.875373498608
 23
-691.7696510865043
 33
0.0
  0
MTEXT
  5
10B8
330
10A6
100
AcDbEntity
  8
0
 62
     0
440
 16777216
100
AcDbMText
 10
6480.627173998609
 20
-689.6863177531709
 30
0.0
 40
2.5
 41
0.0
 46
0.0
 71
     5
 72
     1
  1
88,5
 73
     1
 44
1.0
  0
POINT
  5
10B9
330
10A6
100
AcDbEntity
  8
Defpoints
 62
     0
440
 16777216
100
AcDbPoint
 10
6436.378974498609
 20
-688.6728166423209
 30
0.0
  0
POINT
  5
10BA
330
10A6
100
AcDbEntity
  8
Defpoints
 62
     0
440
 16777216
100
AcDbPoint
 10
6524.875373498608
 20
-688.6728166423209
 30
0.0
  0
POINT
  5
10BB
330
10A6
100
AcDbEntity
  8
Defpoints
 62
     0
440
 16777216
100
AcDbPoint
 10
6524.875373498608
 20
-691.7696510865043
 30
0.0
  0
ENDBLK
  5
10A8
330
10A6
100
AcDbEntity
  8
0
100
AcDbBlockEnd
  0
BLOCK
  5
10C0
330
10BF
100
AcDbEntity
  8
0
100
AcDbBlockBegin
  2
*D6
 70
     1
 10
0.0
 20
0.0
 30
0.0
  3
*D6
  1

  0
LINE
  5
10CC
330
10BF
100
AcDbEntity
  8
0
 62
     0
440
 16777216
370
    -2
100
AcDbLine
 10
5917.649407150978
 20
-885.618707142321
 30
0.0
 11
5933.057243979106
 21
-885.618707142321
 31
0.0
  0
LINE
  5
10CD
330
10BF
100
AcDbEntity
  8
0
 62
     0
440
 16777216
370
    -2
100
AcDbLine
 10
5917.649407150978
 20
-973.7278381423198
 30
0.0
 11
5933.057243979106
 21
-973.7278381423198
 31
0.0
  0
LINE
  5
10CE
330
10BF
100
AcDbEntity
  8
0
 62
     0
440
 16777216
370
    -2
100
AcDbLine
 10
5931.807243979107
 20
-888.1187071423211
 30
0.0
 11
5931.807243979107
 21
-971.2278381423198
 31
0.0
  0
SOLID
  5
10CF
330
10BF
100
AcDbEntity
  8
0
 62
     0
440
 16777216
100
AcDbTrace
 10
5931.39057731244
 20
-888.1187071423211
 30
0.0
 11
5932.223910645774
 21
-888.1187071423211
 31
0.0
 12
5931.807243979107
 22
-885.618707142321
 32
0.0
 13
5931.807243979107
 23
-885.618707142321
 33
0.0
  0
SOLID
  5
10D0
330
10BF
100
AcDbEntity
  8
0
 62
     0
440
 16777216
100
AcDbTrace
 10
5931.39057731244
 20
-971.2278381423198
 30
0.0
 11
5932.223910645774
 21
-971.2278381423198
 31
0.0
 12
5931.807243979107
 22
-973.7278381423198
 32
0.0
 13
5931.807243979107
 23
-973.7278381423198
 33
0.0
  0
MTEXT
  5
10D1
330
10BF
100
AcDbEntity
  8
0
 62
     0
440
 16777216
100
AcDbMText
 10
5929.723910645773
 20
-929.6732726423194
 30
0.0
 40
2.5
 41
0.0
 46
0.0
 71
     5
 72
     1
  1
88,11
 11
0.0000000000000001
 21
1.0
 31
0.0
 73
     1
 44
1.0
  0
POINT
  5
10D2
330
10BF
100
AcDbEntity
  8
Defpoints
 62
     0
440
 16777216
100
AcDbPoint
 10
5917.024407150979
 20
-885.618707142321
 30
0.0
  0
POINT
  5
10D3
330
10BF
100
AcDbEntity
  8
Defpoints
 62
     0
440
 16777216
100
AcDbPoint
 10
5917.024407150979
 20
-973.7278381423198
 30
0.0
  0
POINT
  5
10D4
330
10BF
100
AcDbEntity
  8
Defpoints
 62
     0
440
 16777216
100
AcDbPoint
 10
5931.807243979107
 20
-973.7278381423198
 30
0.0
  0
ENDBLK
  5
10C1
330
10BF
100
AcDbEntity
  8
0
100
AcDbBlockEnd
  0
BLOCK
  5
10D8
330
10D7
100
AcDbEntity
  8
0
100
AcDbBlockBegin
  2
*D7
 70
     1
 10
0.0
 20
0.0
 30
0.0
  3
*D7
  1

  0
LINE
  5
10E4
330
10D7
100
AcDbEntity
  8
0
 62
     0
440
 16777216
370
    -2
100
AcDbLine
 10
5856.959959982378
 20
-885.618707142321
 30
0.0
 11
5884.879982192336
 21
-885.618707142321
 31
0.0
  0
LINE
  5
10E5
330
10D7
100
AcDbEntity
  8
0
 62
     0
440
 16777216
370
    -2
100
AcDbLine
 10
5856.959959982378
 20
-973.72783814232
 30
0.0
 11
5884.879982192336
 21
-973.72783814232
 31
0.0
  0
LINE
  5
10E6
330
10D7
100
AcDbEntity
  8
0
 62
     0
440
 16777216
370
    -2
100
AcDbLine
 10
5883.629982192337
 20
-888.1187071423211
 30
0.0
 11
5883.629982192337
 21
-971.22783814232
 31
0.0
  0
SOLID
  5
10E7
330
10D7
100
AcDbEntity
  8
0
 62
     0
440
 16777216
100
AcDbTrace
 10
5883.21331552567
 20
-888.1187071423211
 30
0.0
 11
5884.046648859004
 21
-888.1187071423211
 31
0.0
 12
5883.629982192337
 22
-885.618707142321
 32
0.0
 13
5883.629982192337
 23
-885.618707142321
 33
0.0
  0
SOLID
  5
10E8
330
10D7
100
AcDbEntity
  8
0
 62
     0
440
 16777216
100
AcDbTrace
 10
5883.21331552567
 20
-971.22783814232
 30
0.0
 11
5884.046648859004
 21
-971.22783814232
 31
0.0
 12
5883.629982192337
 22
-973.72783814232
 32
0.0
 13
5883.629982192337
 23
-973.72783814232
 33
0.0
  0
MTEXT
  5
10E9
330
10D7
100
AcDbEntity
  8
0
 62
     0
440
 16777216
100
AcDbMText
 10
5881.546648859004
 20
-929.6732726423195
 30
0.0
 40
2.5
 41
0.0
 46
0.0
 71
     5
 72
     1
  1
88,11
 11
0.0000000000000001
 21
1.0
 31
0.0
 73
     1
 44
1.0
  0
POINT
  5
10EA
330
10D7
100
AcDbEntity
  8
Defpoints
 62
     0
440
 16777216
100
AcDbPoint
 10
5856.334959982378
 20
-885.618707142321
 30
0.0
  0
POINT
  5
10EB
330
10D7
100
AcDbEntity
  8
Defpoints
 62
     0
440
 16777216
100
AcDbPoint
 10
5856.334959982378
 20
-973.72783814232
 30
0.0
  0
POINT
  5
10EC
330
10D7
100
AcDbEntity
  8
Defpoints
 62
     0
440
 16777216
100
AcDbPoint
 10
5883.629982192337
 20
-973.72783814232
 30
0.0
  0
ENDBLK
  5
10D9
330
10D7
100
AcDbEntity
  8
0
100
AcDbBlockEnd
  0
BLOCK
  5
10F0
330
10EF
100
AcDbEntity
  8
0
100
AcDbBlockBegin
  2
*D8
 70
     1
 10
0.0
 20
0.0
 30
0.0
  3
*D8
  1

  0
LINE
  5
10FC
330
10EF
100
AcDbEntity
  8
0
 62
     0
440
 16777216
370
    -2
100
AcDbLine
 10
5856.334959982378
 20
-973.72783814232
 30
0.0
 11
5823.058812279986
 21
-973.72783814232
 31
0.0
  0
LINE
  5
10FD
330
10EF
100
AcDbEntity
  8
0
 62
     0
440
 16777216
370
    -2
100
AcDbLine
 10
5856.334959982378
 20
-940.9545531423205
 30
0.0
 11
5823.058812279986
 21
-940.9545531423205
 31
0.0
  0
LINE
  5
10FE
330
10EF
100
AcDbEntity
  8
0
 62
     0
440
 16777216
370
    -2
100
AcDbLine
 10
5824.308812279985
 20
-971.22783814232
 30
0.0
 11
5824.308812279985
 21
-943.4545531423205
 31
0.0
  0
SOLID
  5
10FF
330
10EF
100
AcDbEntity
  8
0
 62
     0
440
 16777216
100
AcDbTrace
 10
5823.892145613318
 20
-971.22783814232
 30
0.0
 11
5824.725478946652
 21
-971.22783814232
 31
0.0
 12
5824.308812279985
 22
-973.72783814232
 32
0.0
 13
5824.308812279985
 23
-973.72783814232
 33
0.0
  0
SOLID
  5
1100
330
10EF
100
AcDbEntity
  8
0
 62
     0
440
 16777216
100
AcDbTrace
 10
5823.892145613318
 20
-943.4545531423205
 30
0.0
 11
5824.725478946652
 21
-943.4545531423205
 31
0.0
 12
5824.308812279985
 22
-940.9545531423205
 32
0.0
 13
5824.308812279985
 23
-940.9545531423205
 33
0.0
  0
MTEXT
  5
1101
330
10EF
100
AcDbEntity
  8
0
 62
     0
440
 16777216
100
AcDbMText
 10
5822.225478946652
 20
-957.3411956423193
 30
0.0
 40
2.5
 41
0.0
 46
0.0
 71
     5
 72
     1
  1
32,77
 11
0.0000000000000001
 21
1.0
 31
0.0
 73
     1
 44
1.0
  0
POINT
  5
1102
330
10EF
100
AcDbEntity
  8
Defpoints
 62
     0
440
 16777216
100
AcDbPoint
 10
5856.959959982378
 20
-973.72783814232
 30
0.0
  0
POINT
  5
1103
330
10EF
100
AcDbEntity
  8
Defpoints
 62
     0
440
 16777216
100
AcDbPoint
 10
5856.959959982378
 20
-940.9545531423205
 30
0.0
  0
POINT
  5
1104
330
10EF
100
AcDbEntity
  8
Defpoints
 62
     0
440
 16777216
100
AcDbPoint
 10
5824.308812279985
 20
-940.9545531423205
 30
0.0
  0
ENDBLK
  5
10F1
330
10EF
100
AcDbEntity
  8
0
100
AcDbBlockEnd
  0
BLOCK
  5
1108
330
1107
100
AcDbEntity
  8
0
100
AcDbBlockBegin
  2
*D9
 70
     1
 10
0.0
 20
0.0
 30
0.0
  3
*D9
  1

  0
LINE
  5
1114
330
1107
100
AcDbEntity
  8
0
 62
     0
440
 16777216
370
    -2
100
AcDbLine
 10
6129.111061113182
 20
-940.9545531423207
 30
0.0
 11
6117.757193929033
 21
-940.9545531423207
 31
0.0
  0
LINE
  5
1115
330
1107
100
AcDbEntity
  8
0
 62
     0
440
 16777216
370
    -2
100
AcDbLine
 10
6129.111061113182
 20
-974.1108331423204
 30
0.0
 11
6117.757193929033
 21
-974.1108331423204
 31
0.0
  0
LINE
  5
1116
330
1107
100
AcDbEntity
  8
0
 62
     0
440
 16777216
370
    -2
100
AcDbLine
 10
6119.007193929034
 20
-943.4545531423207
 30
0.0
 11
6119.007193929034
 21
-971.6108331423203
 31
0.0
  0
SOLID
  5
1117
330
1107
100
AcDbEntity
  8
0
 62
     0
440
 16777216
100
AcDbTrace
 10
6118.590527262367
 20
-943.4545531423207
 30
0.0
 11
6119.423860595701
 21
-943.4545531423207
 31
0.0
 12
6119.007193929034
 22
-940.9545531423207
 32
0.0
 13
6119.007193929034
 23
-940.9545531423207
 33
0.0
  0
SOLID
  5
1118
330
1107
100
AcDbEntity
  8
0
 62
     0
440
 16777216
100
AcDbTrace
 10
6118.590527262367
 20
-971.6108331423203
 30
0.0
 11
6119.423860595701
 21
-971.6108331423203
 31
0.0
 12
6119.007193929034
 22
-974.1108331423204
 32
0.0
 13
6119.007193929034
 23
-974.1108331423204
 33
0.0
  0
MTEXT
  5
1119
330
1107
100
AcDbEntity
  8
0
 62
     0
440
 16777216
100
AcDbMText
 10
6116.923860595701
 20
-957.5326931423195
 30
0.0
 40
2.5
 41
0.0
 46
0.0
 71
     5
 72
     1
  1
33,16
 11
0.0000000000000001
 21
1.0
 31
0.0
 73
     1
 44
1.0
  0
POINT
  5
111A
330
1107
100
AcDbEntity
  8
Defpoints
 62
     0
440
 16777216
100
AcDbPoint
 10
6129.736061113183
 20
-940.9545531423207
 30
0.0
  0
POINT
  5
111B
330
1107
100
AcDbEntity
  8
Defpoints
 62
     0
440
 16777216
100
AcDbPoint
 10
6129.736061113183
 20
-974.1108331423204
 30
0.0
  0
POINT
  5
111C
330
1107
100
AcDbEntity
  8
Defpoints
 62
     0
440
 16777216
100
AcDbPoint
 10
6119.007193929034
 20
-974.1108331423204
 30
0.0
  0
ENDBLK
  5
1109
330
1107
100
AcDbEntity
  8
0
100
AcDbBlockEnd
  0
BLOCK
  5
14DC
330
14DB
100
AcDbEntity
  8
0
100
AcDbBlockBegin
  2
*D11
 70
     1
 10
0.0
 20
0.0
 30
0.0
  3
*D11
  1

  0
LINE
  5
14E8
330
14DB
100
AcDbEntity
  8
0
 62
     0
440
 16777216
370
    -2
100
AcDbLine
 10
3248.568989471792
 20
-1697.970292988676
 30
0.0
 11
3248.568989471792
 21
-1858.690862862445
 31
0.0
  0
LINE
  5
14E9
330
14DB
100
AcDbEntity
  8
0
 62
     0
440
 16777216
370
    -2
100
AcDbLine
 10
3336.568989471793
 20
-1614.998441018867
 30
0.0
 11
3336.568989471793
 21
-1858.690862862445
 31
0.0
  0
LINE
  5
14EA
330
14DB
100
AcDbEntity
  8
0
 62
     0
440
 16777216
370
    -2
100
AcDbLine
 10
3251.068989471792
 20
-1857.440862862445
 30
0.0
 11
3334.068989471792
 21
-1857.440862862445
 31
0.0
  0
SOLID
  5
14EB
330
14DB
100
AcDbEntity
  8
0
 62
     0
440
 16777216
100
AcDbTrace
 10
3251.068989471792
 20
-1857.024196195778
 30
0.0
 11
3251.068989471792
 21
-1857.857529529112
 31
0.0
 12
3248.568989471792
 22
-1857.440862862445
 32
0.0
 13
3248.568989471792
 23
-1857.440862862445
 33
0.0
  0
SOLID
  5
14EC
330
14DB
100
AcDbEntity
  8
0
 62
     0
440
 16777216
100
AcDbTrace
 10
3334.068989471792
 20
-1857.024196195778
 30
0.0
 11
3334.068989471792
 21
-1857.857529529112
 31
0.0
 12
3336.568989471793
 22
-1857.440862862445
 32
0.0
 13
3336.568989471793
 23
-1857.440862862445
 33
0.0
  0
MTEXT
  5
14ED
330
14DB
100
AcDbEntity
  8
0
 62
     0
440
 16777216
100
AcDbMText
 10
3292.568989471792
 20
-1855.565862862445
 30
0.0
 40
2.5
 41
0.0
 46
0.0
 71
     5
 72
     1
  1
88
 73
     1
 44
1.0
  0
POINT
  5
14EE
330
14DB
100
AcDbEntity
  8
Defpoints
 62
     0
440
 16777216
100
AcDbPoint
 10
3248.568989471792
 20
-1697.345292988676
 30
0.0
  0
POINT
  5
14EF
330
14DB
100
AcDbEntity
  8
Defpoints
 62
     0
440
 16777216
100
AcDbPoint
 10
3336.568989471793
 20
-1614.373441018867
 30
0.0000000000000165
  0
POINT
  5
14F0
330
14DB
100
AcDbEntity
  8
Defpoints
 62
     0
440
 16777216
100
AcDbPoint
 10
3336.568989471793
 20
-1857.440862862445
 30
0.0
  0
ENDBLK
  5
14DD
330
14DB
100
AcDbEntity
  8
0
100
AcDbBlockEnd
  0
BLOCK
  5
14F5
330
14F4
100
AcDbEntity
  8
0
100
AcDbBlockBegin
  2
*D12
 70
     1
 10
0.0
 20
0.0
 30
0.0
  3
*D12
  1

  0
LINE
  5
1501
330
14F4
100
AcDbEntity
  8
0
 62
     0
440
 16777216
370
    -2
100
AcDbLine
 10
2798.447354439889
 20
-1886.581680782389
 30
0.0
 11
2883.811661891569
 21
-1886.581680782389
 31
0.0
  0
LINE
  5
1502
330
14F4
100
AcDbEntity
  8
0
 62
     0
440
 16777216
370
    -2
100
AcDbLine
 10
2798.447354439889
 20
-1974.581680782389
 30
0.0
 11
2883.811661891569
 21
-1974.581680782389
 31
0.0
  0
LINE
  5
1503
330
14F4
100
AcDbEntity
  8
0
 62
     0
440
 16777216
370
    -2
100
AcDbLine
 10
2882.561661891569
 20
-1889.081680782389
 30
0.0
 11
2882.561661891569
 21
-1972.081680782389
 31
0.0
  0
SOLID
  5
1504
330
14F4
100
AcDbEntity
  8
0
 62
     0
440
 16777216
100
AcDbTrace
 10
2882.144995224902
 20
-1889.081680782389
 30
0.0
 11
2882.978328558235
 21
-1889.081680782389
 31
0.0
 12
2882.561661891569
 22
-1886.581680782389
 32
0.0
 13
2882.561661891569
 23
-1886.581680782389
 33
0.0
  0
SOLID
  5
1505
330
14F4
100
AcDbEntity
  8
0
 62
     0
440
 16777216
100
AcDbTrace
 10
2882.144995224902
 20
-1972.081680782389
 30
0.0
 11
2882.978328558235
 21
-1972.081680782389
 31
0.0
 12
2882.561661891569
 22
-1974.581680782389
 32
0.0
 13
2882.561661891569
 23
-1974.581680782389
 33
0.0
  0
MTEXT
  5
1506
330
14F4
100
AcDbEntity
  8
0
 62
     0
440
 16777216
100
AcDbMText
 10
2880.686661891569
 20
-1930.581680782389
 30
0.0
 40
2.5
 41
0.0
 46
0.0
 71
     5
 72
     1
  1
88
 11
0.0000000000000001
 21
1.0
 31
0.0
 73
     1
 44
1.0
  0
POINT
  5
1507
330
14F4
100
AcDbEntity
  8
Defpoints
 62
     0
440
 16777216
100
AcDbPoint
 10
2797.822354439889
 20
-1886.581680782389
 30
0.0
  0
POINT
  5
1508
330
14F4
100
AcDbEntity
  8
Defpoints
 62
     0
440
 16777216
100
AcDbPoint
 10
2797.822354439889
 20
-1974.581680782389
 30
0.0
  0
POINT
  5
1509
330
14F4
100
AcDbEntity
  8
Defpoints
 62
     0
440
 16777216
100
AcDbPoint
 10
2882.561661891569
 20
-1974.581680782389
 30
0.0
  0
ENDBLK
  5
14F6
330
14F4
100
AcDbEntity
  8
0
100
AcDbBlockEnd
  0
ENDSEC
  0
SECTION
  2
ENTITIES
  0
ARC
  5
12F4
330
1F
100
AcDbEntity
  8
HEWI
100
AcDbCircle
 10
731.8785126650118
 20
1818.114592462213
 30
0.0
 40
16.5
100
AcDbArc
 50
0.0
 51
180.0
  0
LINE
  5
12F5
330
1F
100
AcDbEntity
  8
HEWI
100
AcDbLine
 10
673.5285126650133
 20
1320.614592462235
 30
-0.0000000000000072
 11
673.5285126650133
 21
1320.499097753448
 31
-0.0000000000000072
210
0.0
220
1.0
230
0.0
  0
LINE
  5
12F6
330
1F
100
AcDbEntity
  8
HEWI
100
AcDbLine
 10
673.5285126650133
 20
1320.499097753448
 30
-0.0000000000000072
 11
673.5285126650133
 21
1303.706352464276
 31
-0.0000000000000072
210
0.0
220
1.0
230
0.0
  0
LINE
  5
12F7
330
1F
100
AcDbEntity
  8
HEWI
100
AcDbLine
 10
673.5285126650133
 20
1303.706352464276
 30
-0.0000000000000072
 11
673.5285126650133
 21
1282.614592462235
 31
-0.0000000000000072
210
0.0
220
1.0
230
0.0
  0
LINE
  5
12F8
330
1F
100
AcDbEntity
  8
HEWI
100
AcDbLine
 10
699.0285126650133
 20
1315.756728085966
 30
-0.000000000000004
 11
699.0285126650133
 21
1281.614592462235
 31
-0.000000000000004
210
0.0
220
1.0
230
0.0
  0
LINE
  5
12F9
330
1F
100
AcDbEntity
  8
HEWI
100
AcDbLine
 10
699.0285126650133
 20
1321.614592462235
 30
-0.000000000000004
 11
699.0285126650133
 21
1315.756728085966
 31
-0.000000000000004
210
0.0
220
1.0
230
0.0
  0
ELLIPSE
  5
12FA
330
1F
100
AcDbEntity
  8
HEWI
100
AcDbEllipse
 10
731.8785126650118
 20
1236.783085379508
 30
0.0
 11
12.70449773839052
 21
0.0
 31
0.0000000000000016
210
-0.0000000000000001
220
0.0
230
1.0
 40
0.9961946980917455
 41
0.0
 42
6.283185307179584
  0
ELLIPSE
  5
12FB
330
1F
100
AcDbEntity
  8
HEWI
100
AcDbEllipse
 10
731.8785126650118
 20
1236.712462708215
 30
0.0
 11
-18.81828199961667
 21
0.0
 31
-0.0000000000000023
210
-0.0000000000000001
220
0.0
230
1.0
 40
0.9961946980917455
 41
-2.409769549797642
 42
-0.7318231037921505
  0
SPLINE
  5
12FC
330
1F
100
AcDbEntity
  8
HEWI
100
AcDbSpline
210
-0.0000000000000003
220
0.0
230
1.0
 70
     8
 71
     3
 72
    14
 73
    10
 74
     0
 42
0.000000001
 43
0.0000000001
 40
8.794524056531006
 40
8.794524056531006
 40
8.794524056531006
 40
8.794524056531006
 40
9.579456439527339
 40
9.579456439527339
 40
10.36438882252367
 40
10.36438882252367
 40
11.09774755945767
 40
11.09774755945767
 40
11.18149517898411
 40
11.18149517898411
 40
11.18149517898411
 40
11.18149517898411
 10
746.8785126650137
 20
1251.47304667152
 30
0.0000000000000018
 10
746.8785126650137
 20
1251.263719762861
 30
0.0000000000000018
 10
746.8478184332679
 20
1251.032929207779
 30
0.0000000000000018
 10
746.7296230410438
 20
1250.564390529366
 30
0.0000000000000018
 10
746.6428756194172
 20
1250.326068571861
 30
0.0000000000000018
 10
746.4618563934609
 20
1249.898671486289
 30
0.0000000000000018
 10
746.3524849786709
 20
1249.670559465631
 30
0.0000000000000018
 10
746.2214967459231
 20
1249.41347785053
 30
0.0000000000000017
 10
746.2079741979642
 20
1249.387094109216
 30
0.0000000000000017
 10
746.1943815310306
 20
1249.360704813154
 30
0.0000000000000017
  0
SPLINE
  5
12FD
330
1F
100
AcDbEntity
  8
HEWI
100
AcDbSpline
210
0.0
220
0.0
230
1.0
 70
     8
 71
     3
 72
    20
 73
    16
 74
     0
 42
0.000000001
 43
0.0000000001
 40
1.658125044755959
 40
1.658125044755959
 40
1.658125044755959
 40
1.658125044755959
 40
1.696828082632773
 40
1.696828082632773
 40
1.798652902623284
 40
1.798652902623284
 40
1.900477722613793
 40
1.900477722613793
 40
1.93829658602752
 40
1.93829658602752
 40
1.976115449441245
 40
1.976115449441245
 40
2.029036545889153
 40
2.029036545889153
 40
2.081957642337064
 40
2.081957642337064
 40
2.081957642337064
 40
2.081957642337064
 10
746.1943815310306
 20
1249.360704813154
 30
0.0000000000000017
 10
746.188332077857
 20
1249.348960185588
 30
0.0000000000000017
 10
746.1820739385047
 20
1249.337382729771
 30
0.0000000000000017
 10
746.1585398075758
 20
1249.296243785149
 30
0.0000000000000017
 10
746.1401280613654
 20
1249.26831066716
 30
0.0000000000000017
 10
746.0983254440771
 20
1249.219086732809
 30
0.0000000000000017
 10
746.0755781229245
 20
1249.197261007422
 30
0.0000000000000017
 10
746.0339125331129
 20
1249.178428059188
 30
0.0000000000000017
 10
746.0208859730182
 20
1249.174538819604
 30
0.0000000000000017
 10
745.9942829534329
 20
1249.172095230219
 30
0.0000000000000017
 10
745.9807017518642
 20
1249.173581595236
 30
0.0000000000000017
 10
745.9516082881373
 20
1249.181623789717
 30
0.0000000000000017
 10
745.9348205296055
 20
1249.190503078317
 30
0.0000000000000017
 10
745.9041982281424
 20
1249.212945482918
 30
0.0000000000000017
 10
745.8903004345111
 20
1249.226422917937
 30
0.0000000000000017
 10
745.8785126650118
 20
1249.23949665867
 30
0.0000000000000017
  0
SPLINE
  5
12FE
330
1F
100
AcDbEntity
  8
HEWI
100
AcDbSpline
210
-0.0000000000000002
220
0.0000000000000004
230
1.0
 70
     8
 71
     3
 72
    20
 73
    16
 74
     0
 42
0.000000001
 43
0.0000000001
 40
-2.081957642337048
 40
-2.081957642337048
 40
-2.081957642337048
 40
-2.081957642337048
 40
-2.029036545889133
 40
-2.029036545889133
 40
-1.976115449441223
 40
-1.976115449441223
 40
-1.938296586027501
 40
-1.938296586027501
 40
-1.900477722613779
 40
-1.900477722613779
 40
-1.79865290262327
 40
-1.79865290262327
 40
-1.696828082632761
 40
-1.696828082632761
 40
-1.658125044755919
 40
-1.658125044755919
 40
-1.658125044755919
 40
-1.658125044755919
 10
717.87851266501
 20
1249.23949665867
 30
-0.0000000000000017
 10
717.8667248955143
 20
1249.226422917937
 30
-0.0000000000000017
 10
717.8528271018812
 20
1249.212945482918
 30
-0.0000000000000017
 10
717.8222048004163
 20
1249.190503078317
 30
-0.0000000000000017
 10
717.8054170418845
 20
1249.181623789717
 30
-0.0000000000000017
 10
717.7763235781594
 20
1249.173581595236
 30
-0.0000000000000017
 10
717.7627423765889
 20
1249.172095230219
 30
-0.0000000000000017
 10
717.7361393570054
 20
1249.174538819604
 30
-0.0000000000000017
 10
717.7231127969108
 20
1249.178428059188
 30
-0.0000000000000017
 10
717.6814472070991
 20
1249.197261007422
 30
-0.0000000000000018
 10
717.6586998859447
 20
1249.219086732809
 30
-0.0000000000000018
 10
717.6168972686582
 20
1249.26831066716
 30
-0.0000000000000018
 10
717.598485522446
 20
1249.296243785149
 30
-0.0000000000000018
 10
717.5749513915206
 20
1249.337382729771
 30
-0.0000000000000018
 10
717.568693252163
 20
1249.348960185588
 30
-0.0000000000000018
 10
717.5626437989931
 20
1249.360704813154
 30
-0.0000000000000018
  0
SPLINE
  5
12FF
330
1F
100
AcDbEntity
  8
HEWI
100
AcDbSpline
210
0.0000000000000004
220
0.0000000000000002
230
1.0
 70
     8
 71
     3
 72
    14
 73
    10
 74
     0
 42
0.000000001
 43
0.0000000001
 40
0.649611117407552
 40
0.649611117407552
 40
0.649611117407552
 40
0.649611117407552
 40
0.7333587369340008
 40
0.7333587369340008
 40
1.466717473868001
 40
1.466717473868001
 40
2.251649856864295
 40
2.251649856864295
 40
3.036582239860591
 40
3.036582239860591
 40
3.036582239860591
 40
3.036582239860591
 10
717.5626437989931
 20
1249.360704813154
 30
-0.0000000000000018
 10
717.5490511320595
 20
1249.387094109216
 30
-0.0000000000000018
 10
717.5355285840987
 20
1249.41347785053
 30
-0.0000000000000018
 10
717.4045403513546
 20
1249.670559465631
 30
-0.0000000000000018
 10
717.2951689365627
 20
1249.898671486289
 30
-0.0000000000000018
 10
717.1141497106064
 20
1250.326068571861
 30
-0.0000000000000018
 10
717.0274022889779
 20
1250.564390529367
 30
-0.0000000000000018
 10
716.9092068967557
 20
1251.032929207779
 30
-0.0000000000000018
 10
716.8785126650136
 20
1251.263719762861
 30
-0.0000000000000019
 10
716.8785126650136
 20
1251.47304667152
 30
-0.0000000000000019
  0
LINE
  5
1300
330
1F
100
AcDbEntity
  8
HEWI
100
AcDbLine
 10
716.8785126650136
 20
1282.177562015846
 30
-0.0000000000000019
 11
716.8785126650136
 21
1251.47304667152
 31
-0.0000000000000019
210
0.0
220
1.0
230
0.0
  0
LINE
  5
1301
330
1F
100
AcDbEntity
  8
HEWI
100
AcDbLine
 10
746.8785126650137
 20
1282.177562015846
 30
0.0000000000000018
 11
746.8785126650137
 21
1251.47304667152
 31
0.0000000000000018
210
0.0
220
1.0
230
0.0
  0
LINE
  5
1302
330
1F
100
AcDbEntity
  8
HEWI
100
AcDbLine
 10
745.8785126650118
 20
1282.44184295325
 30
0.0000000000000017
 11
717.87851266501
 21
1282.44184295325
 31
-0.0000000000000017
210
0.0
220
1.0
230
0.0
  0
SPLINE
  5
1303
330
1F
100
AcDbEntity
  8
HEWI
100
AcDbSpline
210
-0.0000000000000001
220
-0.0000000000000003
230
1.0
 70
     8
 71
     3
 72
    14
 73
    10
 74
     0
 42
0.000000001
 43
0.0000000001
 40
0.0
 40
0.0
 40
0.0
 40
0.0
 40
0.3766543382939877
 40
0.3766543382939877
 40
0.7533086765879756
 40
0.7533086765879756
 40
1.135751222155823
 40
1.135751222155823
 40
1.51819376772367
 40
1.51819376772367
 40
1.51819376772367
 40
1.51819376772367
 10
717.87851266501
 20
1282.44184295325
 30
-0.0000000000000017
 10
717.7529612189146
 20
1282.44184295325
 30
-0.0000000000000017
 10
717.6192385846397
 20
1282.434500081984
 30
-0.0000000000000018
 10
717.3736595764085
 20
1282.405412958019
 30
-0.0000000000000018
 10
717.2617901057155
 20
1282.383745758491
 30
-0.0000000000000018
 10
717.0839025148352
 20
1282.33508799625
 30
-0.0000000000000018
 10
717.0064673939023
 20
1282.304730806394
 30
-0.0000000000000018
 10
716.9037721067279
 20
1282.240952290376
 30
-0.0000000000000018
 10
716.8785126650136
 20
1282.207596338147
 30
-0.0000000000000019
 10
716.8785126650136
 20
1282.177562015846
 30
-0.0000000000000019
  0
SPLINE
  5
1304
330
1F
100
AcDbEntity
  8
HEWI
100
AcDbSpline
210
-0.0000000000000002
220
-0.0000000000000004
230
1.0
 70
     8
 71
     3
 72
    14
 73
    10
 74
     0
 42
0.000000001
 43
0.0000000001
 40
-1.51819376772367
 40
-1.51819376772367
 40
-1.51819376772367
 40
-1.51819376772367
 40
-1.135751222155821
 40
-1.135751222155821
 40
-0.7533086765879721
 40
-0.7533086765879721
 40
-0.376654338293986
 40
-0.376654338293986
 40
0.0
 40
0.0
 40
0.0
 40
0.0
 10
746.8785126650137
 20
1282.177562015846
 30
0.0000000000000018
 10
746.8785126650137
 20
1282.207596338147
 30
0.0000000000000018
 10
746.8532532232956
 20
1282.240952290376
 30
0.0000000000000018
 10
746.7505579361214
 20
1282.304730806394
 30
0.0000000000000018
 10
746.6731228151902
 20
1282.33508799625
 30
0.0000000000000018
 10
746.4952352243081
 20
1282.383745758491
 30
0.0000000000000018
 10
746.383365753617
 20
1282.405412958019
 30
0.0000000000000018
 10
746.1377867453839
 20
1282.434500081984
 30
0.0000000000000017
 10
746.004064111109
 20
1282.44184295325
 30
0.0000000000000017
 10
745.8785126650118
 20
1282.44184295325
 30
0.0000000000000017
  0
LINE
  5
1305
330
1F
100
AcDbEntity
  8
HEWI
100
AcDbLine
 10
749.3785126650118
 20
1281.614569917907
 30
0.0000000000000021
 11
749.3785126650118
 21
1321.614615006562
 31
0.0000000000000021
210
0.0
220
1.0
230
0.0
  0
LINE
  5
1306
330
1F
100
AcDbEntity
  8
HEWI
100
AcDbLine
 10
755.8785126650136
 20
1301.614592462235
 30
0.0000000000000029
 11
755.8785126650136
 21
1281.614592462235
 31
0.0000000000000029
210
0.0
220
1.0
230
0.0
  0
LINE
  5
1307
330
1F
100
AcDbEntity
  8
HEWI
100
AcDbLine
 10
755.8785126650136
 20
1321.614592462235
 30
0.0000000000000029
 11
755.8785126650136
 21
1301.614592462235
 31
0.0000000000000029
210
0.0
220
1.0
230
0.0
  0
LINE
  5
1308
330
1F
100
AcDbEntity
  8
HEWI
100
AcDbLine
 10
714.3785126650118
 20
1321.614615006562
 30
-0.0000000000000022
 11
714.3785126650118
 21
1281.614569917907
 31
-0.0000000000000022
210
0.0
220
1.0
230
0.0
  0
LINE
  5
1309
330
1F
100
AcDbEntity
  8
HEWI
100
AcDbLine
 10
707.8785126650136
 20
1301.614592462235
 30
-0.000000000000003
 11
707.8785126650136
 21
1281.614592462235
 31
-0.000000000000003
210
0.0
220
1.0
230
0.0
  0
LINE
  5
130A
330
1F
100
AcDbEntity
  8
HEWI
100
AcDbLine
 10
707.8785126650136
 20
1321.614592462235
 30
-0.000000000000003
 11
707.8785126650136
 21
1301.614592462235
 31
-0.000000000000003
210
0.0
220
1.0
230
0.0
  0
LINE
  5
130B
330
1F
100
AcDbEntity
  8
HEWI
100
AcDbLine
 10
750.87851266501
 20
1213.614592462235
 30
0.0000000000000023
 11
712.8785126650118
 21
1213.614592462235
 31
-0.0000000000000023
210
0.0
220
1.0
230
0.0
  0
LINE
  5
130C
330
1F
100
AcDbEntity
  8
HEWI
100
AcDbLine
 10
764.5785126650125
 20
1301.614592462223
 30
0.000000000000004
 11
764.5785126650125
 21
1281.614592462223
 31
0.000000000000004
210
0.0
220
1.0
230
0.0
  0
LINE
  5
130D
330
1F
100
AcDbEntity
  8
HEWI
100
AcDbLine
 10
764.5785126650125
 20
1321.614592462223
 30
0.000000000000004
 11
764.5785126650125
 21
1301.614592462222
 31
0.000000000000004
210
0.0
220
1.0
230
0.0
  0
LINE
  5
130E
330
1F
100
AcDbEntity
  8
HEWI
100
AcDbLine
 10
756.0785126650126
 20
1281.614592462223
 30
0.0000000000000029
 11
756.0785126650126
 21
1321.614592462223
 31
0.0000000000000029
210
0.0
220
1.0
230
0.0
  0
LINE
  5
130F
330
1F
100
AcDbEntity
  8
HEWI
100
AcDbLine
 10
707.678512665011
 20
1319.614592462213
 30
-0.000000000000003
 11
707.8785126650136
 21
1319.614592462213
 31
-0.000000000000003
210
0.0
220
1.0
230
0.0
  0
LINE
  5
1310
330
1F
100
AcDbEntity
  8
HEWI
100
AcDbLine
 10
755.8785126650136
 20
1319.614592462213
 30
0.0000000000000029
 11
756.0785126650126
 21
1319.614592462213
 31
0.0000000000000029
210
0.0
220
1.0
230
0.0
  0
LINE
  5
1311
330
1F
100
AcDbEntity
  8
HEWI
100
AcDbLine
 10
756.0785126650107
 20
1316.914592462213
 30
0.0000000000000029
 11
755.8785126650136
 21
1316.914592462213
 31
0.0000000000000029
210
0.0
220
1.0
230
0.0
  0
LINE
  5
1312
330
1F
100
AcDbEntity
  8
HEWI
100
AcDbLine
 10
707.8785126650136
 20
1316.914592462213
 30
-0.000000000000003
 11
707.6785126650129
 21
1316.914592462213
 31
-0.000000000000003
210
0.0
220
1.0
230
0.0
  0
LINE
  5
1313
330
1F
100
AcDbEntity
  8
HEWI
100
AcDbLine
 10
707.6785126650129
 20
1286.314592462235
 30
-0.000000000000003
 11
707.8785126650136
 21
1286.314592462235
 31
-0.000000000000003
210
0.0
220
1.0
230
0.0
  0
LINE
  5
1314
330
1F
100
AcDbEntity
  8
HEWI
100
AcDbLine
 10
755.8785126650136
 20
1286.314592462235
 30
0.0000000000000029
 11
756.0785126650107
 21
1286.314592462235
 31
0.0000000000000029
210
0.0
220
1.0
230
0.0
  0
LINE
  5
1315
330
1F
100
AcDbEntity
  8
HEWI
100
AcDbLine
 10
756.0785126650126
 20
1283.614592462234
 30
0.0000000000000029
 11
755.8785126650136
 21
1283.614592462234
 31
0.0000000000000029
210
0.0
220
1.0
230
0.0
  0
LINE
  5
1316
330
1F
100
AcDbEntity
  8
HEWI
100
AcDbLine
 10
707.8785126650136
 20
1283.614592462234
 30
-0.000000000000003
 11
707.678512665011
 21
1283.614592462234
 31
-0.000000000000003
210
0.0
220
1.0
230
0.0
  0
LINE
  5
1317
330
1F
100
AcDbEntity
  8
HEWI
100
AcDbLine
 10
699.178512665011
 20
1301.614592462223
 30
-0.000000000000004
 11
699.178512665011
 21
1281.614592462223
 31
-0.000000000000004
210
0.0
220
1.0
230
0.0
  0
LINE
  5
1318
330
1F
100
AcDbEntity
  8
HEWI
100
AcDbLine
 10
699.178512665011
 20
1321.614592462223
 30
-0.000000000000004
 11
699.178512665011
 21
1301.614592462222
 31
-0.000000000000004
210
0.0
220
1.0
230
0.0
  0
LINE
  5
1319
330
1F
100
AcDbEntity
  8
HEWI
100
AcDbLine
 10
707.678512665011
 20
1281.614592462223
 30
-0.000000000000003
 11
707.678512665011
 21
1321.614592462223
 31
-0.000000000000003
210
0.0
220
1.0
230
0.0
  0
LINE
  5
131A
330
1F
100
AcDbEntity
  8
HEWI
100
AcDbLine
 10
766.7285126650122
 20
1319.614592462235
 30
0.0000000000000043
 11
766.7285126650122
 21
1283.614592462235
 31
0.0000000000000043
210
0.0
220
1.0
230
0.0
  0
LINE
  5
131B
330
1F
100
AcDbEntity
  8
HEWI
100
AcDbLine
 10
764.7285126650122
 20
1321.614592462235
 30
0.000000000000004
 11
764.7285126650122
 21
1281.614592462235
 31
0.000000000000004
210
0.0
220
1.0
230
0.0
  0
LINE
  5
131C
330
1F
100
AcDbEntity
  8
HEWI
100
AcDbLine
 10
707.678512665011
 20
1295.957738212743
 30
-0.000000000000003
 11
707.8785126650136
 21
1295.957738212743
 31
-0.000000000000003
210
0.0
220
1.0
230
0.0
  0
LINE
  5
131D
330
1F
100
AcDbEntity
  8
HEWI
100
AcDbLine
 10
707.678512665011
 20
1295.8190375045
 30
-0.000000000000003
 11
707.8785126650136
 21
1295.8190375045
 31
-0.000000000000003
210
0.0
220
1.0
230
0.0
  0
LINE
  5
131E
330
1F
100
AcDbEntity
  8
HEWI
100
AcDbLine
 10
707.8785126650136
 20
1293.887185851923
 30
-0.000000000000003
 11
707.678512665011
 21
1293.887185851923
 31
-0.000000000000003
210
0.0
220
1.0
230
0.0
  0
ARC
  5
1325
330
1F
100
AcDbEntity
  8
HEWI
100
AcDbCircle
 10
731.8785126650118
 20
683.1145924622132
 30
0.0
 40
35.0
100
AcDbArc
 50
118.1270682186321
 51
180.0
  0
ARC
  5
1326
330
1F
100
AcDbEntity
  8
HEWI
100
AcDbCircle
 10
731.8785126650118
 20
683.1145924622132
 30
0.0
 40
35.0
100
AcDbArc
 50
298.1270682186321
 51
61.87293178136793
  0
ARC
  5
1327
330
1F
100
AcDbEntity
  8
HEWI
100
AcDbCircle
 10
731.8785126650118
 20
683.1145924622132
 30
0.0
 40
35.0
100
AcDbArc
 50
180.0
 51
241.8729317813679
  0
ARC
  5
1328
330
1F
100
AcDbEntity
  8
HEWI
100
AcDbCircle
 10
731.8785126650118
 20
683.1145924622132
 30
0.0
 40
16.8
100
AcDbArc
 50
169.1559374362993
 51
180.0
  0
ARC
  5
1329
330
1F
100
AcDbEntity
  8
HEWI
100
AcDbCircle
 10
731.8785126650118
 20
683.1145924622132
 30
0.0
 40
16.8
100
AcDbArc
 50
349.1559374362993
 51
10.84406256370066
  0
ARC
  5
132A
330
1F
100
AcDbEntity
  8
HEWI
100
AcDbCircle
 10
731.8785126650118
 20
683.1145924622132
 30
0.0
 40
16.8
100
AcDbArc
 50
180.0
 51
190.8440625637006
  0
ARC
  5
132B
330
1F
100
AcDbEntity
  8
HEWI
100
AcDbCircle
 10
731.8785126650118
 20
1818.114592462213
 30
0.0
 40
35.0
100
AcDbArc
 50
298.1270682186323
 51
180.0
  0
ARC
  5
132C
330
1F
100
AcDbEntity
  8
HEWI
100
AcDbCircle
 10
731.8785126650118
 20
1818.114592462213
 30
0.0
 40
35.0
100
AcDbArc
 50
180.0
 51
241.8729317813677
  0
ARC
  5
132D
330
1F
100
AcDbEntity
  8
HEWI
100
AcDbCircle
 10
731.8785126650118
 20
1818.114592462213
 30
0.0
 40
16.8
100
AcDbArc
 50
349.1559374362989
 51
180.0
  0
ARC
  5
132E
330
1F
100
AcDbEntity
  8
HEWI
100
AcDbCircle
 10
731.8785126650118
 20
1818.114592462213
 30
0.0
 40
16.8
100
AcDbArc
 50
180.0
 51
190.8440625637011
  0
LINE
  5
1331
330
1F
100
AcDbEntity
  8
HEWI
100
AcDbLine
 10
755.8785126650136
 20
1293.614592462236
 30
0.0000000000000029
 11
756.0785126650126
 21
1293.614592462236
 31
0.0000000000000029
210
0.0
220
1.0
230
0.0
  0
LINE
  5
1332
330
1F
100
AcDbEntity
  8
HEWI
100
AcDbLine
 10
707.678512665011
 20
1293.614592462236
 30
-0.000000000000003
 11
707.8785126650136
 21
1293.614592462236
 31
-0.000000000000003
210
0.0
220
1.0
230
0.0
  0
LINE
  5
1333
330
1F
100
AcDbEntity
  8
HEWI
100
AcDbLine
 10
755.8785126650136
 20
1309.614592462235
 30
0.0000000000000029
 11
756.0785126650126
 21
1309.614592462235
 31
0.0000000000000029
210
0.0
220
1.0
230
0.0
  0
LINE
  5
1334
330
1F
100
AcDbEntity
  8
HEWI
100
AcDbLine
 10
707.678512665011
 20
1309.614592462235
 30
-0.000000000000003
 11
707.8785126650136
 21
1309.614592462235
 31
-0.000000000000003
210
0.0
220
1.0
230
0.0
  0
LINE
  5
1335
330
1F
100
AcDbEntity
  8
HEWI
100
AcDbLine
 10
764.5785126650125
 20
1284.214592462235
 30
0.000000000000004
 11
764.7285126650122
 21
1284.214592462235
 31
0.000000000000004
210
0.0
220
1.0
230
0.0
  0
LINE
  5
1336
330
1F
100
AcDbEntity
  8
HEWI
100
AcDbLine
 10
764.5785126650125
 20
1319.014592462235
 30
0.000000000000004
 11
764.7285126650122
 21
1319.014592462235
 31
0.000000000000004
210
0.0
220
1.0
230
0.0
  0
LINE
  5
1337
330
1F
100
AcDbEntity
  8
HEWI
100
AcDbLine
 10
707.678512665011
 20
1321.614592462223
 30
-0.000000000000003
 11
699.178512665011
 21
1321.614592462223
 31
-0.000000000000004
210
0.0
220
1.0
230
0.0
  0
LINE
  5
1338
330
1F
100
AcDbEntity
  8
HEWI
100
AcDbLine
 10
707.678512665011
 20
1281.614592462223
 30
-0.000000000000003
 11
699.178512665011
 21
1281.614592462223
 31
-0.000000000000004
210
0.0
220
1.0
230
0.0
  0
LINE
  5
1339
330
1F
100
AcDbEntity
  8
HEWI
100
AcDbLine
 10
764.5785126650125
 20
1321.614592462223
 30
0.000000000000004
 11
756.0785126650126
 21
1321.614592462223
 31
0.0000000000000029
210
0.0
220
1.0
230
0.0
  0
LINE
  5
133A
330
1F
100
AcDbEntity
  8
HEWI
100
AcDbLine
 10
764.5785126650125
 20
1281.614592462223
 30
0.000000000000004
 11
756.0785126650126
 21
1281.614592462223
 31
0.0000000000000029
210
0.0
220
1.0
230
0.0
  0
LINE
  5
133B
330
1F
100
AcDbEntity
  8
HEWI
100
AcDbLine
 10
751.5785126650107
 20
1214.314592462234
 30
0.0000000000000024
 11
751.5785126650107
 21
1225.527698845656
 31
0.0000000000000024
210
0.0
220
1.0
230
0.0
  0
LINE
  5
133C
330
1F
100
AcDbEntity
  8
HEWI
100
AcDbLine
 10
751.5785126650107
 20
1247.199980628795
 30
0.0000000000000024
 11
751.5785126650107
 21
1281.614592462235
 31
0.0000000000000024
210
0.0
220
1.0
230
0.0
  0
LINE
  5
133D
330
1F
100
AcDbEntity
  8
HEWI
100
AcDbLine
 10
712.178512665011
 20
1214.314592462234
 30
-0.0000000000000024
 11
712.178512665011
 21
1225.527698845658
 31
-0.0000000000000024
210
0.0
220
1.0
230
0.0
  0
LINE
  5
133E
330
1F
100
AcDbEntity
  8
HEWI
100
AcDbLine
 10
712.178512665011
 20
1247.199980628793
 30
-0.0000000000000024
 11
712.178512665011
 21
1281.614592462235
 31
-0.0000000000000024
210
0.0
220
1.0
230
0.0
  0
LINE
  5
133F
330
1F
100
AcDbEntity
  8
HEWI
100
AcDbLine
 10
714.3785126650118
 20
1321.614592462235
 30
-0.0000000000000022
 11
707.8785126650136
 21
1321.614592462235
 31
-0.000000000000003
210
0.0
220
1.0
230
0.0
  0
LINE
  5
1340
330
1F
100
AcDbEntity
  8
HEWI
100
AcDbLine
 10
714.3785126650118
 20
1281.614592462235
 30
-0.0000000000000022
 11
707.8785126650136
 21
1281.614592462235
 31
-0.000000000000003
210
0.0
220
1.0
230
0.0
  0
LINE
  5
1341
330
1F
100
AcDbEntity
  8
HEWI
100
AcDbLine
 10
755.8785126650136
 20
1321.614592462235
 30
0.0000000000000029
 11
749.3785126650118
 21
1321.614592462235
 31
0.0000000000000021
210
0.0
220
1.0
230
0.0
  0
LINE
  5
1342
330
1F
100
AcDbEntity
  8
HEWI
100
AcDbLine
 10
755.8785126650136
 20
1281.614592462235
 30
0.0000000000000029
 11
749.3785126650118
 21
1281.614592462235
 31
0.0000000000000021
210
0.0
220
1.0
230
0.0
  0
LINE
  5
1343
330
1F
100
AcDbEntity
  8
HEWI
100
AcDbLine
 10
749.3785126650118
 20
1321.614615006562
 30
0.0000000000000021
 11
714.3785126650118
 21
1321.614615006562
 31
-0.0000000000000022
210
0.0
220
1.0
230
0.0
  0
LINE
  5
1344
330
1F
100
AcDbEntity
  8
HEWI
100
AcDbLine
 10
716.8785126650136
 20
1281.614569917907
 30
-0.0000000000000019
 11
714.3785126650118
 21
1281.614569917907
 31
-0.0000000000000022
210
0.0
220
1.0
230
0.0
  0
LINE
  5
1345
330
1F
100
AcDbEntity
  8
HEWI
100
AcDbLine
 10
749.3785126650118
 20
1281.614569917907
 30
0.0000000000000021
 11
746.8785126650137
 21
1281.614569917907
 31
0.0000000000000018
210
0.0
220
1.0
230
0.0
  0
LINE
  5
1346
330
1F
100
AcDbEntity
  8
HEWI
100
AcDbLine
 10
674.5285126650133
 20
1281.614592462235
 30
-0.000000000000007
 11
699.0285126650133
 21
1281.614592462235
 31
-0.000000000000004
210
0.0
220
1.0
230
0.0
  0
LINE
  5
1347
330
1F
100
AcDbEntity
  8
HEWI
100
AcDbLine
 10
674.5285126650133
 20
1321.614592462235
 30
-0.000000000000007
 11
699.0285126650133
 21
1321.614592462235
 31
-0.000000000000004
210
0.0
220
1.0
230
0.0
  0
LINE
  5
1348
330
1F
100
AcDbEntity
  8
HEWI
100
AcDbLine
 10
677.8503266024972
 20
1308.082790997755
 30
-0.0000000000000066
 11
677.1977514805557
 21
1308.082790997755
 31
-0.0000000000000067
210
0.0
220
1.0
230
0.0
  0
LINE
  5
1349
330
1F
100
AcDbEntity
  8
HEWI
100
AcDbLine
 10
699.0285126650133
 20
1284.214592462235
 30
-0.000000000000004
 11
699.178512665011
 21
1284.214592462235
 31
-0.000000000000004
210
0.0
220
1.0
230
0.0
  0
LINE
  5
134A
330
1F
100
AcDbEntity
  8
HEWI
100
AcDbLine
 10
699.0285126650133
 20
1319.014592462235
 30
-0.000000000000004
 11
699.178512665011
 21
1319.014592462235
 31
-0.000000000000004
210
0.0
220
1.0
230
0.0
  0
LINE
  5
134B
330
1F
100
AcDbEntity
  8
HEWI
100
AcDbLine
 10
1270.878366663234
 20
584.6145924622133
 30
-0.0000000000000112
 11
761.8783540762388
 21
584.6145924622133
 31
0.0000000000000065
210
0.0
220
1.0
230
0.0
  0
LINE
  5
134C
330
1F
100
AcDbEntity
  8
HEWI
100
AcDbLine
 10
1271.132811006066
 20
551.6164398142036
 30
0.0
 11
761.8783540762388
 21
551.6145924622133
 31
0.0000000000000065
210
0.0
220
1.0
230
0.0
  0
LINE
  5
134F
330
1F
100
AcDbEntity
  8
HEWI
100
AcDbLine
 10
715.3785126650137
 20
1787.247943794111
 30
-0.000000000000002
 11
715.3785126650136
 21
1321.614615006562
 31
-0.000000000000002
210
0.0
220
1.0
230
0.0
  0
LINE
  5
1350
330
1F
100
AcDbEntity
  8
HEWI
100
AcDbLine
 10
715.3785126650136
 20
1213.614592462235
 30
-0.000000000000002
 11
715.3785126650136
 21
614.1128539987744
 31
-0.000000000000002
210
0.0
220
1.0
230
0.0
  0
LINE
  5
1351
330
1F
100
AcDbEntity
  8
HEWI
100
AcDbLine
 10
748.3785126650136
 20
1787.247943794113
 30
0.000000000000002
 11
748.3785126650136
 21
1321.614615006562
 31
0.000000000000002
210
0.0
220
1.0
230
0.0
  0
LINE
  5
1352
330
1F
100
AcDbEntity
  8
HEWI
100
AcDbLine
 10
748.3785126650136
 20
1213.614592462235
 30
0.000000000000002
 11
748.3785126650136
 21
590.112838739984
 31
0.000000000000002
210
0.0
220
1.0
230
0.0
  0
ARC
  5
1355
330
1F
100
AcDbEntity
  8
HEWI
100
AcDbCircle
 10
764.7285126650122
 20
1319.614592462235
 30
0.000000000000004
 40
1.999999999999999
100
AcDbArc
 50
0.0
 51
90.0
  0
ARC
  5
1356
330
1F
100
AcDbEntity
  8
HEWI
100
AcDbCircle
 10
764.7285126650122
 20
1283.614592462235
 30
0.000000000000004
 40
1.999999999999999
100
AcDbArc
 50
270.0
 51
0.0
  0
ARC
  5
1357
330
1F
100
AcDbEntity
  8
HEWI
100
AcDbCircle
 10
712.8785126650118
 20
1214.314592462234
 30
-0.0000000000000023
 40
0.6999999999999319
100
AcDbArc
 50
180.0
 51
270.0
  0
ARC
  5
1358
330
1F
100
AcDbEntity
  8
HEWI
100
AcDbCircle
 10
750.87851266501
 20
1214.314592462234
 30
0.0000000000000023
 40
0.6999999999999319
100
AcDbArc
 50
270.0
 51
0.0
  0
SPLINE
  5
1359
330
1F
100
AcDbEntity
  8
HEWI
100
AcDbSpline
210
-0.0000000000000001
220
0.0
230
1.0
 70
     8
 71
     3
 72
    35
 73
    31
 74
     0
 42
0.000000001
 43
0.0000000001
 40
132.3072857087884
 40
132.3072857087884
 40
132.3072857087884
 40
132.3072857087884
 40
136.7855331455956
 40
136.7855331455956
 40
141.755570234172
 40
141.755570234172
 40
141.755570234172
 40
150.5350853175938
 40
150.5350853175938
 40
159.315806993731
 40
159.315806993731
 40
168.1015031155489
 40
168.1015031155489
 40
176.8930034281765
 40
176.8930034281765
 40
185.6877688664799
 40
185.6877688664799
 40
194.4814480186248
 40
194.4814480186248
 40
203.2703476028044
 40
203.2703476028044
 40
212.0534605094474
 40
212.0534605094474
 40
220.833091053498
 40
220.833091053498
 40
229.6136189378001
 40
229.6136189378001
 40
238.3989428851335
 40
238.3989428851335
 40
241.1243396664098
 40
241.1243396664098
 40
241.1243396664098
 40
241.1243396664098
 10
716.878512674154
 20
1253.081885824881
 30
-0.0000000000000019
 10
715.7662135201708
 20
1252.090128524597
 30
-0.000000000000002
 10
714.7552750760596
 20
1250.990182398139
 30
-0.0000000000000021
 10
712.8682399951676
 20
1248.475160626356
 30
-0.0000000000000023
 10
712.0252167504559
 20
1247.046837665205
 30
-0.0000000000000024
 10
711.3472029778122
 20
1245.539142775322
 30
-0.0000000000000025
 10
710.1494992107009
 20
1242.875816568493
 30
-0.0000000000000027
 10
709.4846651815905
 20
1240.004747493453
 30
-0.0000000000000028
 10
709.2957612854052
 20
1234.169446482886
 30
-0.0000000000000028
 10
709.7736613542665
 20
1231.261187542915
 30
-0.0000000000000027
 10
711.820794610533
 20
1225.78934262536
 30
-0.0000000000000025
 10
713.3709991563109
 20
1223.278450893817
 30
-0.0000000000000023
 10
717.3504197588235
 20
1218.989147999735
 30
-0.0000000000000018
 10
719.7420999730848
 20
1217.252296396076
 30
-0.0000000000000015
 10
725.0592589777852
 20
1214.790294226143
 30
-0.0000000000000009
 10
727.9341498274234
 20
1214.089031230061
 30
-0.0000000000000005
 10
733.7910962361247
 20
1213.825192209009
 30
0.0000000000000002
 10
736.7173090864244
 20
1214.264990441342
 30
0.0000000000000006
 10
742.2343108815357
 20
1216.238106548827
 30
0.0000000000000013
 10
744.7726909153925
 20
1217.752023778885
 30
0.0000000000000016
 10
749.1231990399583
 20
1221.663896770831
 30
0.0000000000000021
 10
750.8942503527241
 20
1224.023913666813
 30
0.0000000000000023
 10
753.4291550972912
 20
1229.28729779093
 30
0.0000000000000026
 10
754.1691287758212
 20
1232.140051772611
 30
0.0000000000000027
 10
754.5111244058889
 20
1237.968375594244
 30
0.0000000000000028
 10
754.1097477241101
 20
1240.888043405929
 30
0.0000000000000027
 10
752.2070312082751
 20
1246.41128063535
 30
0.0000000000000025
 10
750.723352738646
 20
1248.961682171958
 30
0.0000000000000023
 10
748.1920154523313
 20
1251.837699721126
 30
0.000000000000002
 10
747.5530842841062
 20
1252.480415826729
 30
0.0000000000000019
 10
746.8785090407627
 20
1253.081881766929
 30
0.0000000000000018
  0
SPLINE
  5
135A
330
1F
100
AcDbEntity
  8
HEWI
100
AcDbSpline
210
-0.0000000000000055
220
-0.0000000000000074
230
1.0
 70
     8
 71
     3
 72
    24
 73
    20
 74
     0
 42
0.000000001
 43
0.0000000001
 40
0.0
 40
0.0
 40
0.0
 40
0.0
 40
0.0069048122861337
 40
0.0069048122861337
 40
0.0247659201958065
 40
0.0247659201958065
 40
0.0545551747126454
 40
0.0545551747126454
 40
0.064355803429052
 40
0.064355803429052
 40
0.0859948263386695
 40
0.0859948263386695
 40
0.1473005414935413
 40
0.1473005414935413
 40
0.1844537936440395
 40
0.1844537936440395
 40
0.205942164416787
 40
0.205942164416787
 40
0.2061964735894092
 40
0.2061964735894092
 40
0.2061964735894092
 40
0.2061964735894092
 10
678.4967493007362
 20
1307.881182052297
 30
-0.0000000000000066
 10
678.4986376236783
 20
1307.880220134161
 30
-0.0000000000000066
 10
678.5005213588947
 20
1307.879251505543
 30
-0.0000000000000066
 10
678.5072613771053
 20
1307.875753356848
 30
-0.0000000000000066
 10
678.5120915476463
 20
1307.873185868762
 30
-0.0000000000000066
 10
678.5248956486275
 20
1307.866219065914
 30
-0.0000000000000065
 10
678.5328144445802
 20
1307.86174170148
 30
-0.0000000000000065
 10
678.5432257809106
 20
1307.855633031613
 30
-0.0000000000000065
 10
678.5457938834469
 20
1307.854107967343
 30
-0.0000000000000065
 10
678.5540026366807
 20
1307.849174799956
 30
-0.0000000000000065
 10
678.5596071861464
 20
1307.84571758223
 30
-0.0000000000000065
 10
678.5809196886411
 20
1307.832232326484
 30
-0.0000000000000065
 10
678.5963020373064
 20
1307.821784985702
 30
-0.0000000000000065
 10
678.6204615317629
 20
1307.804265469559
 30
-0.0000000000000065
 10
678.6294467548696
 20
1307.797489967143
 30
-0.0000000000000065
 10
678.6434348774974
 20
1307.786542631591
 30
-0.0000000000000065
 10
678.6485182323058
 20
1307.782478518
 30
-0.0000000000000065
 10
678.6536206542159
 20
1307.778313908371
 30
-0.0000000000000065
 10
678.6536803278949
 20
1307.778265190667
 30
-0.0000000000000065
 10
678.6537399957388
 20
1307.778216465836
 30
-0.0000000000000065
  0
SPLINE
  5
135B
330
1F
100
AcDbEntity
  8
HEWI
100
AcDbSpline
210
0.0
220
0.0
230
1.0
 70
     8
 71
     3
 72
    18
 73
    14
 74
     0
 42
0.000000001
 43
0.0000000001
 40
0.2039001700724437
 40
0.2039001700724437
 40
0.2039001700724437
 40
0.2039001700724437
 40
0.4140914887339405
 40
0.4140914887339405
 40
0.5531594004309192
 40
0.5531594004309192
 40
0.9342624836310184
 40
0.9342624836310184
 40
1.05871585154823
 40
1.05871585154823
 40
1.209079350124788
 40
1.209079350124788
 40
1.267392488841178
 40
1.267392488841178
 40
1.267392488841178
 40
1.267392488841178
 10
677.8502862730902
 20
1308.082886617158
 30
-0.0000000000000066
 10
677.898664830941
 20
1308.0828938482
 30
-0.0000000000000066
 10
677.944601690714
 20
1308.077336707061
 30
-0.0000000000000066
 10
678.0118636251418
 20
1308.065534347548
 30
-0.0000000000000066
 10
678.0388045941935
 20
1308.059649265012
 30
-0.0000000000000066
 10
678.1400071955422
 20
1308.033910213831
 30
-0.0000000000000066
 10
678.2154817705186
 20
1308.007579533884
 30
-0.0000000000000066
 10
678.3175615026621
 20
1307.965481905605
 30
-0.0000000000000066
 10
678.3428194888974
 20
1307.954541367981
 30
-0.0000000000000066
 10
678.3988506521645
 20
1307.929224095304
 30
-0.0000000000000066
 10
678.4296813637492
 20
1307.914604466151
 30
-0.0000000000000066
 10
678.472663735839
 20
1307.893361680028
 30
-0.0000000000000066
 10
678.4846967490221
 20
1307.887321663185
 30
-0.0000000000000066
 10
678.4967493007543
 20
1307.881182052289
 30
-0.0000000000000066
  0
SPLINE
  5
135C
330
1F
100
AcDbEntity
  8
HEWI
100
AcDbSpline
210
-0.0000000000000001
220
0.0
230
1.0
 70
     8
 71
     3
 72
    20
 73
    16
 74
     0
 42
0.000000001
 43
0.0000000001
 40
1.736023434719417
 40
1.736023434719417
 40
1.736023434719417
 40
1.736023434719417
 40
4.481724718735246
 40
4.481724718735246
 40
8.494256553305275
 40
8.494256553305275
 40
12.23020985304464
 40
12.23020985304464
 40
16.01900340660798
 40
16.01900340660798
 40
20.63191901927132
 40
20.63191901927132
 40
24.5572638423871
 40
24.5572638423871
 40
27.0936601993847
 40
27.0936601993847
 40
27.0936601993847
 40
27.0936601993847
 10
678.6536638261577
 20
1307.778067127368
 30
-0.0000000000000065
 10
679.3488369094056
 20
1307.210309243275
 30
-0.0000000000000064
 10
680.1076871495506
 20
1306.705283446913
 30
-0.0000000000000064
 10
682.099556858323
 20
1305.689671084025
 30
-0.0000000000000061
 10
683.37874279697
 20
1305.291626653145
 30
-0.000000000000006
 10
685.9538693140648
 20
1305.067462583058
 30
-0.0000000000000056
 10
687.1828525629908
 20
1305.2087747246
 30
-0.0000000000000055
 10
689.5759319163344
 20
1305.942423260635
 30
-0.0000000000000052
 10
690.7028524821535
 20
1306.529504888658
 30
-0.0000000000000051
 10
692.9473653848608
 20
1308.131998432823
 30
-0.0000000000000048
 10
694.0174857781284
 20
1309.217017102288
 30
-0.0000000000000047
 10
695.5693539388493
 20
1311.358396698499
 30
-0.0000000000000045
 10
696.1118143201829
 20
1312.39003223117
 30
-0.0000000000000044
 10
696.6591221427124
 20
1314.048847672957
 30
-0.0000000000000043
 10
696.7821669886661
 20
1314.677307686559
 30
-0.0000000000000043
 10
696.8113991243381
 20
1315.270240511888
 30
-0.0000000000000043
  0
SPLINE
  5
135D
330
1F
100
AcDbEntity
  8
HEWI
100
AcDbSpline
210
0.0000000000000004
220
-0.0000000000000002
230
1.0
 70
     8
 71
     3
 72
    24
 73
    20
 74
     0
 42
0.000000001
 43
0.0000000001
 40
0.0
 40
0.0
 40
0.0
 40
0.0
 40
0.0756974007296981
 40
0.0756974007296981
 40
0.2789853411733985
 40
0.2789853411733985
 40
0.3497529015357024
 40
0.3497529015357024
 40
0.5919349001439281
 40
0.5919349001439281
 40
1.276514795577083
 40
1.276514795577083
 40
1.476316936617529
 40
1.476316936617529
 40
1.827563147590284
 40
1.827563147590284
 40
1.910592365072264
 40
1.910592365072264
 40
1.954297335527741
 40
1.954297335527741
 40
1.954297335527741
 40
1.954297335527741
 10
673.5285126650133
 20
1303.706352464276
 30
-0.0000000000000072
 10
673.5285126650133
 20
1303.727441981025
 30
-0.0000000000000072
 10
673.5292751986935
 20
1303.748613363141
 30
-0.0000000000000072
 10
673.5344705253001
 20
1303.826642359254
 30
-0.0000000000000072
 10
673.5429086836639
 20
1303.884222476818
 30
-0.0000000000000072
 10
673.5588065426736
 20
1303.962567436717
 30
-0.0000000000000072
 10
673.5633241960631
 20
1303.982859628634
 30
-0.0000000000000072
 10
673.5849612695046
 20
1304.072831742392
 30
-0.0000000000000072
 10
673.6060879698916
 20
1304.14321503064
 30
-0.0000000000000072
 10
673.6998619063769
 20
1304.413820522522
 30
-0.0000000000000071
 10
673.7969674470887
 20
1304.61967916603
 30
-0.0000000000000071
 10
673.9435515576596
 20
1304.87500315559
 30
-0.0000000000000071
 10
673.9782800002676
 20
1304.932301744718
 30
-0.0000000000000071
 10
674.0779824978772
 20
1305.088151554189
 30
-0.0000000000000071
 10
674.1463802809585
 20
1305.185780629043
 30
-0.0000000000000071
 10
674.2357320279616
 20
1305.300960616126
 30
-0.0000000000000071
 10
674.2530552511952
 20
1305.322760659261
 30
-0.0000000000000071
 10
674.2798428957658
 20
1305.355627267565
 30
-0.0000000000000071
 10
674.2891456042007
 20
1305.366889833615
 30
-0.0000000000000071
 10
674.2985112115629
 20
1305.378073481518
 30
-0.0000000000000071
  0
SPLINE
  5
135E
330
1F
100
AcDbEntity
  8
HEWI
100
AcDbSpline
210
-0.0000000000000003
220
0.0000000000000004
230
1.0
 70
     8
 71
     3
 72
    18
 73
    14
 74
     0
 42
0.000000001
 43
0.0000000001
 40
1.654074785728808
 40
1.654074785728808
 40
1.654074785728808
 40
1.654074785728808
 40
1.715582394945186
 40
1.715582394945186
 40
1.90297020920732
 40
1.90297020920732
 40
2.03173417515012
 40
2.03173417515012
 40
2.255265240814857
 40
2.255265240814857
 40
2.814065232784983
 40
2.814065232784983
 40
3.138692671708189
 40
3.138692671708189
 40
3.138692671708189
 40
3.138692671708189
 10
676.1503745919753
 20
1307.487320502078
 30
-0.0000000000000068
 10
676.164046190398
 20
1307.502187304175
 30
-0.0000000000000068
 10
676.1778519081953
 20
1307.516835331516
 30
-0.0000000000000068
 10
676.2341794640079
 20
1307.575186626414
 30
-0.0000000000000068
 10
676.2777165966444
 20
1307.617075871476
 30
-0.0000000000000068
 10
676.3523112119774
 20
1307.683912052178
 30
-0.0000000000000068
 10
676.3830496255441
 20
1307.710092621169
 30
-0.0000000000000068
 10
676.4678094300407
 20
1307.778680534406
 30
-0.0000000000000068
 10
676.5224186720015
 20
1307.818941972951
 30
-0.0000000000000068
 10
676.7149134750552
 20
1307.94709161958
 30
-0.0000000000000068
 10
676.8449142297659
 20
1308.009599743014
 30
-0.0000000000000068
 10
677.0338133060477
 20
1308.066568355559
 30
-0.0000000000000067
 10
677.1137091704831
 20
1308.082832585994
 30
-0.0000000000000067
 10
677.1977644114277
 20
1308.082802379865
 30
-0.0000000000000067
  0
SPLINE
  5
135F
330
1F
100
AcDbEntity
  8
HEWI
100
AcDbSpline
210
-0.0000000000000001
220
-0.0000000000000001
230
1.0
 70
     8
 71
     3
 72
    10
 73
     6
 74
     0
 42
0.000000001
 43
0.0000000001
 40
0.5238557413347951
 40
0.5238557413347951
 40
0.5238557413347951
 40
0.5238557413347951
 40
3.344927373449298
 40
3.344927373449298
 40
3.375545046730853
 40
3.375545046730853
 40
3.375545046730853
 40
3.375545046730853
 10
674.2985109936207
 20
1305.378073739023
 30
-0.0000000000000071
 10
674.8965718435656
 20
1306.092230812025
 30
-0.000000000000007
 10
675.5086202757438
 20
1306.788790608806
 30
-0.0000000000000069
 10
676.1368802116167
 20
1307.47264247104
 30
-0.0000000000000068
 10
676.1436268734205
 20
1307.479982539469
 30
-0.0000000000000068
 10
676.1503747666965
 20
1307.487320375639
 30
-0.0000000000000068
  0
ARC
  5
1360
330
1F
100
AcDbEntity
  8
HEWI
100
AcDbCircle
 10
674.5285126650133
 20
1282.614592462235
 30
-0.000000000000007
 40
0.9999999999999998
100
AcDbArc
 50
180.0
 51
270.0
  0
ARC
  5
1361
330
1F
100
AcDbEntity
  8
HEWI
100
AcDbCircle
 10
674.5285126650133
 20
1320.614592462235
 30
-0.000000000000007
 40
0.9999999999999998
100
AcDbArc
 50
90.0
 51
180.0
  0
LINE
  5
1362
330
1F
100
AcDbEntity
  8
HEWI
100
AcDbLine
 10
748.3785126650136
 20
1769.614592462213
 30
0.000000000000002
 11
748.3785126650136
 21
1818.114592462213
 31
0.000000000000002
210
0.0
220
1.0
230
0.0
  0
LINE
  5
1363
330
1F
100
AcDbEntity
  8
HEWI
100
AcDbLine
 10
715.3785126650136
 20
1818.114592462213
 30
-0.000000000000002
 11
715.3785126650136
 21
1769.614592462213
 31
-0.000000000000002
210
0.0
220
1.0
230
0.0
  0
LINE
  5
1368
330
1F
100
AcDbEntity
  8
HEWI
100
AcDbLine
 10
1776.624816624007
 20
666.6770924622133
 30
0.0000000000000105
 11
1793.124816624007
 21
683.1770924622133
 31
0.0000000000000135
210
0.0
220
1.0
230
0.0
  0
LINE
  5
1369
330
1F
100
AcDbEntity
  8
HEWI
100
AcDbLine
 10
1793.124816624007
 20
683.1770924622133
 30
0.0000000000000135
 11
1776.624816624007
 21
699.6770924622119
 31
0.0000000000000105
210
0.0
220
1.0
230
0.0
  0
ARC
  5
136B
330
1F
100
AcDbEntity
  8
HEWI
100
AcDbCircle
 10
1793.124816624007
 20
568.1770924622132
 30
0.0000000000000135
 40
16.5
100
AcDbArc
 50
270.0
 51
0.0
  0
ARC
  5
136C
330
1F
100
AcDbEntity
  8
HEWI
100
AcDbCircle
 10
1840.593015159527
 20
1319.873213059113
 30
0.0000000000000222
 40
1.000000000000051
100
AcDbArc
 50
314.9999999999908
 51
73.27371363136214
  0
LINE
  5
136D
330
1F
100
AcDbEntity
  8
HEWI
100
AcDbLine
 10
1817.635802808315
 20
1295.501787145527
 30
0.000000000000018
 11
1841.300121940712
 21
1319.166106277927
 31
0.0000000000000224
210
0.0
220
1.0
230
0.0
  0
ARC
  5
136E
330
1F
100
AcDbEntity
  8
HEWI
100
AcDbCircle
 10
1816.928696027128
 20
1296.208893926715
 30
0.0000000000000179
 40
1.000000000000051
100
AcDbArc
 50
196.7262863686416
 51
314.9999999999908
  0
LINE
  5
136F
330
1F
100
AcDbEntity
  8
HEWI
100
AcDbLine
 10
1852.613830439698
 20
1307.852397778941
 30
0.0000000000000244
 11
1828.949511307301
 21
1284.188078646543
 31
0.0000000000000201
210
0.0
220
1.0
230
0.0
  0
ARC
  5
1370
330
1F
100
AcDbEntity
  8
HEWI
100
AcDbCircle
 10
1829.656618088485
 20
1283.480971865357
 30
0.0000000000000202
 40
1.000000000000051
100
AcDbArc
 50
134.9999999999908
 51
253.2737136313622
  0
ARC
  5
1371
330
1F
100
AcDbEntity
  8
HEWI
100
AcDbCircle
 10
1853.320937220886
 20
1307.145290997755
 30
0.0000000000000246
 40
1.000000000000051
100
AcDbArc
 50
16.7262863686416
 51
134.9999999999908
  0
ARC
  5
1372
330
1F
100
AcDbEntity
  8
HEWI
100
AcDbCircle
 10
1835.124816624006
 20
1301.677092462235
 30
0.0000000000000212
 40
20.0
100
AcDbArc
 50
253.2737136313622
 51
259.5567007107996
  0
ARC
  5
1373
330
1F
100
AcDbEntity
  8
HEWI
100
AcDbCircle
 10
1835.124816624006
 20
1301.677092462235
 30
0.0000000000000212
 40
20.0
100
AcDbArc
 50
259.5567007107996
 51
10.4432992892027
  0
ARC
  5
1374
330
1F
100
AcDbEntity
  8
HEWI
100
AcDbCircle
 10
1835.124816624006
 20
1301.677092462235
 30
0.0000000000000212
 40
20.0
100
AcDbArc
 50
10.4432992892027
 51
16.7262863686416
  0
ARC
  5
1375
330
1F
100
AcDbEntity
  8
HEWI
100
AcDbCircle
 10
1835.124816624006
 20
1301.677092462235
 30
0.0000000000000212
 40
20.0
100
AcDbArc
 50
73.27371363136214
 51
79.55670071079964
  0
ARC
  5
1376
330
1F
100
AcDbEntity
  8
HEWI
100
AcDbCircle
 10
1835.124816624006
 20
1301.677092462235
 30
0.0000000000000212
 40
20.0
100
AcDbArc
 50
79.55670071079964
 51
190.4432992892027
  0
ARC
  5
1377
330
1F
100
AcDbEntity
  8
HEWI
100
AcDbCircle
 10
1835.124816624006
 20
1301.677092462235
 30
0.0000000000000212
 40
20.0
100
AcDbArc
 50
190.4432992892027
 51
196.7262863686416
  0
SPLINE
  5
1378
330
1F
100
AcDbEntity
  8
HEWI
100
AcDbSpline
210
-0.0000000000000002
220
0.0
230
1.0
 70
     8
 71
     3
 72
    38
 73
    34
 74
     0
 42
0.000000001
 43
0.0000000001
 40
7.989195374219391
 40
7.989195374219391
 40
7.989195374219391
 40
7.989195374219391
 40
8.254479951649056
 40
8.254479951649056
 40
9.559037833637082
 40
9.559037833637082
 40
10.8635957156251
 40
10.8635957156251
 40
12.16815359761313
 40
12.16815359761313
 40
13.47206133512371
 40
13.47206133512371
 40
14.77596907263428
 40
14.77596907263428
 40
16.07987681014485
 40
16.07987681014485
 40
17.38378454765543
 40
17.38378454765543
 40
18.68769228516605
 40
18.68769228516605
 40
19.99160002267667
 40
19.99160002267667
 40
21.29550776018728
 40
21.29550776018728
 40
22.59941549769791
 40
22.59941549769791
 40
23.90397337968593
 40
23.90397337968593
 40
25.20853126167392
 40
25.20853126167392
 40
26.51308914366193
 40
26.51308914366193
 40
26.77837372109186
 40
26.77837372109186
 40
26.77837372109186
 40
26.77837372109186
 10
1840.880841909859
 20
1320.830895038157
 30
0.0000000000000223
 10
1840.944912292482
 20
1320.811641067599
 30
0.0000000000000223
 10
1841.010175656009
 20
1320.791678142042
 30
0.0000000000000223
 10
1841.403074402751
 20
1320.669207717436
 30
0.0000000000000224
 10
1841.756876929119
 20
1320.549613011176
 30
0.0000000000000224
 10
1842.497421783797
 20
1320.27281640401
 30
0.0000000000000226
 10
1842.884349652414
 20
1320.11543748027
 30
0.0000000000000226
 10
1843.665487497491
 20
1319.766864734264
 30
0.0000000000000228
 10
1844.059668465037
 20
1319.575594321214
 30
0.0000000000000229
 10
1844.826669991063
 20
1319.171714498068
 30
0.000000000000023
 10
1845.232589151369
 20
1318.941824530244
 30
0.0000000000000231
 10
1846.062398014957
 20
1318.428431279218
 30
0.0000000000000232
 10
1846.486245872903
 20
1318.144842868553
 30
0.0000000000000233
 10
1847.324317995738
 20
1317.53398510561
 30
0.0000000000000235
 10
1847.738942883036
 20
1317.206346729286
 30
0.0000000000000235
 10
1848.533881589311
 20
1316.52535485639
 30
0.0000000000000237
 10
1848.914188884808
 20
1316.171991448896
 30
0.0000000000000237
 10
1849.619715610667
 20
1315.466464723036
 30
0.0000000000000239
 10
1849.973079018162
 20
1315.086157427539
 30
0.0000000000000239
 10
1850.654070891055
 20
1314.291218721265
 30
0.0000000000000241
 10
1850.981709267381
 20
1313.876593833968
 30
0.0000000000000241
 10
1851.592567030323
 20
1313.038521711129
 30
0.0000000000000242
 10
1851.876155440987
 20
1312.614673853188
 30
0.0000000000000243
 10
1852.389548692016
 20
1311.784864989598
 30
0.0000000000000244
 10
1852.619438659838
 20
1311.378945829291
 30
0.0000000000000244
 10
1853.023318482985
 20
1310.611944303267
 30
0.0000000000000245
 10
1853.214588896035
 20
1310.21776333572
 30
0.0000000000000245
 10
1853.563161642041
 20
1309.436625490643
 30
0.0000000000000246
 10
1853.720540565781
 20
1309.049697622025
 30
0.0000000000000246
 10
1853.997337172947
 20
1308.309152767349
 30
0.0000000000000247
 10
1854.116931879206
 20
1307.955350240981
 30
0.0000000000000247
 10
1854.239402303813
 20
1307.562451494238
 30
0.0000000000000247
 10
1854.259365229371
 20
1307.497188130712
 30
0.0000000000000247
 10
1854.278619199931
 20
1307.433117748088
 30
0.0000000000000247
  0
SPLINE
  5
1379
330
1F
100
AcDbEntity
  8
HEWI
100
AcDbSpline
210
-0.0000000000000002
220
0.0
230
1.0
 70
     8
 71
     3
 72
    46
 73
    42
 74
     0
 42
0.000000001
 43
0.0000000001
 40
-26.25009051702367
 40
-26.25009051702367
 40
-26.25009051702367
 40
-26.25009051702367
 40
-25.19226716828404
 40
-25.19226716828404
 40
-24.06297385938894
 40
-24.06297385938894
 40
-22.97039393615168
 40
-22.97039393615168
 40
-21.87781401291442
 40
-21.87781401291442
 40
-20.78523408967716
 40
-20.78523408967716
 40
-19.69265416643989
 40
-19.69265416643989
 40
-18.59462246291696
 40
-18.59462246291696
 40
-17.49659075939401
 40
-17.49659075939401
 40
-16.39855905587109
 40
-16.39855905587109
 40
-15.30052735234815
 40
-15.30052735234815
 40
-14.20249564882519
 40
-14.20249564882519
 40
-13.10446394530224
 40
-13.10446394530224
 40
-12.00643224177928
 40
-12.00643224177928
 40
-10.90840053825633
 40
-10.90840053825633
 40
-9.815820615019132
 40
-9.815820615019132
 40
-8.723240691781931
 40
-8.723240691781931
 40
-7.630660768544732
 40
-7.630660768544732
 40
-6.538080845307532
 40
-6.538080845307532
 40
-5.408787536412319
 40
-5.408787536412319
 40
-4.350964187672476
 40
-4.350964187672476
 40
-4.350964187672476
 40
-4.350964187672476
 10
1829.368812068422
 20
1282.523283717788
 30
0.0000000000000202
 10
1829.197542974635
 20
1282.574757978923
 30
0.0000000000000201
 10
1829.005811180889
 20
1282.634918153811
 30
0.0000000000000201
 10
1828.582248154736
 20
1282.776088741962
 30
0.00000000000002
 10
1828.348644330926
 20
1282.858287238343
 30
0.00000000000002
 10
1827.88272232879
 20
1283.032738857234
 30
0.0000000000000199
 10
1827.630230298206
 20
1283.132095653925
 30
0.0000000000000198
 10
1827.090564287386
 20
1283.359436493016
 30
0.0000000000000197
 10
1826.803423212105
 20
1283.487473797078
 30
0.0000000000000197
 10
1826.210807770074
 20
1283.770438345637
 30
0.0000000000000196
 10
1825.905202474858
 20
1283.925490644261
 30
0.0000000000000195
 10
1825.294346311203
 20
1284.256343178918
 30
0.0000000000000194
 10
1824.989115527991
 20
1284.432179552062
 30
0.0000000000000194
 10
1824.39784345919
 20
1284.793588683954
 30
0.0000000000000192
 10
1824.085428306546
 20
1284.995311105878
 30
0.0000000000000192
 10
1823.448024383974
 20
1285.435096075458
 30
0.0000000000000191
 10
1823.123059756612
 20
1285.673204715778
 30
0.000000000000019
 10
1822.480116978512
 20
1286.176184044323
 30
0.0000000000000189
 10
1822.161911619573
 20
1286.441270919362
 30
0.0000000000000188
 10
1821.550074393792
 20
1286.983776375543
 30
0.0000000000000187
 10
1821.256442933505
 20
1287.261194905272
 30
0.0000000000000187
 10
1820.708919067041
 20
1287.808718771736
 30
0.0000000000000186
 10
1820.431500537313
 20
1288.102350232021
 30
0.0000000000000185
 10
1819.888995081131
 20
1288.714187457802
 30
0.0000000000000184
 10
1819.623908206095
 20
1289.032392816743
 30
0.0000000000000184
 10
1819.120928877548
 20
1289.675335594842
 30
0.0000000000000183
 10
1818.882820237229
 20
1290.000300222202
 30
0.0000000000000182
 10
1818.443035267648
 20
1290.637704144775
 30
0.0000000000000182
 10
1818.241312845725
 20
1290.950119297419
 30
0.0000000000000181
 10
1817.879903713833
 20
1291.54139136622
 30
0.000000000000018
 10
1817.704067340689
 20
1291.846622149432
 30
0.000000000000018
 10
1817.37321480603
 20
1292.457478313087
 30
0.000000000000018
 10
1817.218162507408
 20
1292.763083608302
 30
0.0000000000000179
 10
1816.935197958848
 20
1293.355699050335
 30
0.0000000000000179
 10
1816.807160654787
 20
1293.642840125617
 30
0.0000000000000179
 10
1816.579819815696
 20
1294.182506136435
 30
0.0000000000000178
 10
1816.480463019004
 20
1294.434998167018
 30
0.0000000000000178
 10
1816.306011400115
 20
1294.900920169154
 30
0.0000000000000178
 10
1816.223812903733
 20
1295.134523992966
 30
0.0000000000000177
 10
1816.082642315583
 20
1295.558087019118
 30
0.0000000000000177
 10
1816.022482140694
 20
1295.749818812865
 30
0.0000000000000177
 10
1815.971007879559
 20
1295.921087906652
 30
0.0000000000000177
  0
LINE
  5
137A
330
1F
100
AcDbEntity
  8
HEWI
100
AcDbLine
 10
1834.934248218357
 20
1248.663247383846
 30
0.0000000000000212
 11
1837.148788091608
 21
1223.35094080604
 31
0.0000000000000216
210
0.0
220
1.0
230
0.0
  0
LINE
  5
137B
330
1F
100
AcDbEntity
  8
HEWI
100
AcDbLine
 10
1844.518247456348
 20
1249.501738668411
 30
0.0000000000000229
 11
1846.732787329598
 21
1224.189432090605
 31
0.0000000000000233
210
0.0
220
1.0
230
0.0
  0
LINE
  5
137C
330
1F
100
AcDbEntity
  8
HEWI
100
AcDbLine
 10
1840.817494204837
 20
1282.50434295325
 30
0.0000000000000223
 11
1843.722323108077
 21
1249.301996658671
 31
0.0000000000000228
210
0.0
220
1.0
230
0.0
  0
SPLINE
  5
137D
330
1F
100
AcDbEntity
  8
HEWI
100
AcDbSpline
210
0.0
220
0.0
230
1.0
 70
     8
 71
     3
 72
    20
 73
    16
 74
     0
 42
0.000000001
 43
0.0000000001
 40
-2.081957642337048
 40
-2.081957642337048
 40
-2.081957642337048
 40
-2.081957642337048
 40
-2.029036545889133
 40
-2.029036545889133
 40
-1.976115449441223
 40
-1.976115449441223
 40
-1.938296586027501
 40
-1.938296586027501
 40
-1.900477722613779
 40
-1.900477722613779
 40
-1.79865290262327
 40
-1.79865290262327
 40
-1.696828082632761
 40
-1.696828082632761
 40
-1.658125044755919
 40
-1.658125044755919
 40
-1.658125044755919
 40
-1.658125044755919
 10
1843.722323108077
 20
1249.301996658671
 30
0.0000000000000228
 10
1843.72346691218
 20
1249.288922917937
 30
0.0000000000000228
 10
1843.724432738882
 20
1249.275445482918
 30
0.0000000000000228
 10
1843.725134926843
 20
1249.253003078317
 30
0.0000000000000228
 10
1843.724847111595
 20
1249.244123789717
 30
0.0000000000000228
 10
1843.72290971345
 20
1249.236081595236
 30
0.0000000000000228
 10
1843.721561213286
 20
1249.234595230219
 30
0.0000000000000228
 10
1843.717871536201
 20
1249.237038819604
 30
0.0000000000000228
 10
1843.715537703266
 20
1249.240928059188
 30
0.0000000000000228
 10
1843.706819609103
 20
1249.259761007422
 30
0.0000000000000228
 10
1843.699796021316
 20
1249.281586732809
 30
0.0000000000000228
 10
1843.685082433188
 20
1249.33081066716
 30
0.0000000000000228
 10
1843.677365485524
 20
1249.358743785149
 30
0.0000000000000228
 10
1843.666414705964
 20
1249.399882729771
 30
0.0000000000000228
 10
1843.663375216512
 20
1249.411460185588
 30
0.0000000000000228
 10
1843.66032605982
 20
1249.423204813154
 30
0.0000000000000228
  0
SPLINE
  5
137E
330
1F
100
AcDbEntity
  8
HEWI
100
AcDbSpline
210
0.0000000000000001
220
0.0000000000000001
230
1.0
 70
     8
 71
     3
 72
    14
 73
    10
 74
     0
 42
0.000000001
 43
0.0000000001
 40
0.649611117407552
 40
0.649611117407552
 40
0.649611117407552
 40
0.649611117407552
 40
0.7333587369340008
 40
0.7333587369340008
 40
1.466717473868001
 40
1.466717473868001
 40
2.251649856864295
 40
2.251649856864295
 40
3.036582239860591
 40
3.036582239860591
 40
3.036582239860591
 40
3.036582239860591
 10
1843.66032605982
 20
1249.423204813154
 30
0.0000000000000228
 10
1843.65347483374
 20
1249.449594109216
 30
0.0000000000000228
 10
1843.646321550811
 20
1249.47597785053
 30
0.0000000000000228
 10
1843.573672173977
 20
1249.733059465631
 30
0.0000000000000228
 10
1843.484704597564
 20
1249.961171486289
 30
0.0000000000000228
 10
1843.282967181721
 20
1250.388568571861
 30
0.0000000000000227
 10
1843.148702422212
 20
1250.626890529367
 30
0.0000000000000227
 10
1842.846952407181
 20
1251.095429207779
 30
0.0000000000000226
 10
1842.68006396503
 20
1251.326219762861
 30
0.0000000000000226
 10
1842.52309296499
 20
1251.53554667152
 30
0.0000000000000226
  0
SPLINE
  5
137F
330
1F
100
AcDbEntity
  8
HEWI
100
AcDbSpline
210
-0.0000000000000002
220
0.0
230
1.0
 70
     8
 71
     3
 72
    30
 73
    26
 74
     0
 42
0.000000001
 43
0.0000000001
 40
50.21703549202495
 40
50.21703549202495
 40
50.21703549202495
 40
50.21703549202495
 40
50.53039260880385
 40
50.53039260880385
 40
51.29598074329932
 40
51.29598074329932
 40
51.92914302530023
 40
51.92914302530023
 40
52.56230530730113
 40
52.56230530730113
 40
53.12551373138332
 40
53.12551373138332
 40
53.68872215546555
 40
53.68872215546555
 40
54.25193057954776
 40
54.25193057954776
 40
54.81513900362998
 40
54.81513900362998
 40
55.44830128563085
 40
55.44830128563085
 40
56.08146356763175
 40
56.08146356763175
 40
56.84705170212724
 40
56.84705170212724
 40
57.16040881890615
 40
57.16040881890615
 40
57.16040881890615
 40
57.16040881890615
 10
1842.52309296499
 20
1251.53554667152
 30
0.0000000000000226
 10
1842.455519902322
 20
1251.625657967958
 30
0.0000000000000226
 10
1842.384027954599
 20
1251.714809390137
 30
0.0000000000000225
 10
1842.127346923671
 20
1252.01241919183
 30
0.0000000000000225
 10
1841.9259303365
 20
1252.206561245375
 30
0.0000000000000225
 10
1841.562110630688
 20
1252.498150706128
 30
0.0000000000000224
 10
1841.370937110331
 20
1252.629063042877
 30
0.0000000000000224
 10
1840.966656267767
 20
1252.84983728176
 30
0.0000000000000223
 10
1840.75342309886
 20
1252.939468655835
 30
0.0000000000000223
 10
1840.372733648346
 20
1253.058250784482
 30
0.0000000000000222
 10
1840.171632439367
 20
1253.102741979528
 30
0.0000000000000221
 10
1839.764717350981
 20
1253.148359555371
 30
0.0000000000000221
 10
1839.558893282042
 20
1253.149394998252
 30
0.000000000000022
 10
1839.184849784715
 20
1253.11667043257
 30
0.000000000000022
 10
1838.982332448636
 20
1253.079909745902
 30
0.0000000000000219
 10
1838.58952072369
 20
1252.964325139975
 30
0.0000000000000219
 10
1838.399200508891
 20
1252.885589007688
 30
0.0000000000000218
 10
1838.044920886713
 20
1252.702505417137
 30
0.0000000000000218
 10
1837.850491533541
 20
1252.577208193836
 30
0.0000000000000217
 10
1837.490689669651
 20
1252.289585380142
 30
0.0000000000000217
 10
1837.325153193345
 20
1252.127464962519
 30
0.0000000000000216
 10
1837.017494704845
 20
1251.777128771959
 30
0.0000000000000216
 10
1836.852850502021
 20
1251.550960549129
 30
0.0000000000000215
 10
1836.651748432433
 20
1251.213299915786
 30
0.0000000000000215
 10
1836.596823590035
 20
1251.113088457592
 30
0.0000000000000215
 10
1836.54592477644
 20
1251.012612215033
 30
0.0000000000000215
  0
SPLINE
  5
1380
330
1F
100
AcDbEntity
  8
HEWI
100
AcDbSpline
210
0.0000000000000001
220
-0.0000000000000001
230
1.0
 70
     8
 71
     3
 72
    14
 73
    10
 74
     0
 42
0.000000001
 43
0.0000000001
 40
8.778950683888792
 40
8.778950683888792
 40
8.778950683888792
 40
8.778950683888792
 40
9.563883066885145
 40
9.563883066885145
 40
10.34881544988148
 40
10.34881544988148
 40
11.08217418681549
 40
11.08217418681549
 40
11.16592180634193
 40
11.16592180634193
 40
11.16592180634193
 40
11.16592180634193
 10
1836.54592477644
 20
1251.012612215033
 30
0.0000000000000215
 10
1836.427687754827
 20
1250.77920772437
 30
0.0000000000000215
 10
1836.303411082421
 20
1250.52294352255
 30
0.0000000000000214
 10
1836.087606215819
 20
1250.00912465924
 30
0.0000000000000214
 10
1835.996765413321
 20
1249.751108516963
 30
0.0000000000000214
 10
1835.872309567173
 20
1249.295173218848
 30
0.0000000000000214
 10
1835.824304844846
 20
1249.055077674833
 30
0.0000000000000213
 10
1835.797400929261
 20
1248.789286275229
 30
0.0000000000000213
 10
1835.794937809375
 20
1248.762061207685
 30
0.0000000000000213
 10
1835.792773121983
 20
1248.734883121403
 30
0.0000000000000213
  0
SPLINE
  5
1381
330
1F
100
AcDbEntity
  8
HEWI
100
AcDbSpline
210
0.0
220
0.0
230
1.0
 70
     8
 71
     3
 72
    20
 73
    16
 74
     0
 42
0.000000001
 43
0.0000000001
 40
1.658125044756507
 40
1.658125044756507
 40
1.658125044756507
 40
1.658125044756507
 40
1.696828082632723
 40
1.696828082632723
 40
1.798652902623234
 40
1.798652902623234
 40
1.900477722613745
 40
1.900477722613745
 40
1.938296586027634
 40
1.938296586027634
 40
1.97611544944152
 40
1.97611544944152
 40
2.029036545890053
 40
2.029036545890053
 40
2.081957642338585
 40
2.081957642338585
 40
2.081957642338585
 40
2.081957642338585
 10
1835.792773121983
 20
1248.734883121403
 30
0.0000000000000213
 10
1835.791809722006
 20
1248.722787440617
 30
0.0000000000000213
 10
1835.790826813334
 20
1248.710858070564
 30
0.0000000000000213
 10
1835.787186103484
 20
1248.668442536036
 30
0.0000000000000213
 10
1835.784436928633
 20
1248.639593750975
 30
0.0000000000000213
 10
1835.778494519468
 20
1248.588562651027
 30
0.0000000000000213
 10
1835.775367633198
 20
1248.565848874232
 30
0.0000000000000213
 10
1835.770052293618
 20
1248.545788159634
 30
0.0000000000000213
 10
1835.768429276214
 20
1248.541552740502
 30
0.0000000000000213
 10
1835.765219978462
 20
1248.53850556903
 30
0.0000000000000213
 10
1835.763633860463
 20
1248.539735188222
 30
0.0000000000000213
 10
1835.760329383337
 20
1248.547318778042
 30
0.0000000000000213
 10
1835.758504068362
 20
1248.556013191704
 30
0.0000000000000213
 10
1835.755298505853
 20
1248.578236579411
 30
0.0000000000000213
 10
1835.753909327445
 20
1248.591676975956
 30
0.0000000000000213
 10
1835.752765523341
 20
1248.60475071669
 30
0.0000000000000213
  0
LINE
  5
1382
330
1F
100
AcDbEntity
  8
HEWI
100
AcDbLine
 10
1832.847936620104
 20
1281.807097011269
 30
0.0000000000000208
 11
1835.752765523341
 21
1248.60475071669
 31
0.0000000000000213
210
0.0
220
1.0
230
0.0
  0
ARC
  5
1383
330
1F
100
AcDbEntity
  8
HEWI
100
AcDbCircle
 10
1835.124816624006
 20
1301.677092462235
 30
0.0000000000000212
 40
20.00002254432668
100
AcDbArc
 50
244.1579338865224
 51
115.8420661135941
  0
LINE
  5
1384
330
1F
100
AcDbEntity
  8
HEWI
100
AcDbLine
 10
1812.124816624006
 20
1213.677092462235
 30
0.000000000000017
 11
1774.124816624006
 21
1213.677092462235
 31
0.00000000000001
210
0.0
220
1.0
230
0.0
  0
LINE
  5
1385
330
1F
100
AcDbEntity
  8
HEWI
100
AcDbLine
 10
1768.424816624007
 20
1283.677092462234
 30
0.000000000000009
 11
1793.124816624007
 21
1283.677092462234
 31
0.0000000000000135
210
0.0
220
1.0
230
0.0
  0
LINE
  5
1386
330
1F
100
AcDbEntity
  8
HEWI
100
AcDbLine
 10
1768.424816624007
 20
1319.677092462213
 30
0.000000000000009
 11
1793.124816624007
 21
1319.677092462213
 31
0.0000000000000135
210
0.0
220
1.0
230
0.0
  0
LINE
  5
1387
330
1F
100
AcDbEntity
  8
HEWI
100
AcDbLine
 10
1793.124816624007
 20
1319.677092462214
 30
0.0000000000000135
 11
1826.407018736909
 21
1319.677092462214
 31
0.0000000000000196
210
0.0
220
1.0
230
0.0
  0
LINE
  5
1388
330
1F
100
AcDbEntity
  8
HEWI
100
AcDbLine
 10
1793.124816624007
 20
1283.677092462236
 30
0.0000000000000135
 11
1826.407018736899
 21
1283.677092462236
 31
0.0000000000000196
210
0.0
220
1.0
230
0.0
  0
LINE
  5
138F
330
1F
100
AcDbEntity
  8
HEWI
100
AcDbLine
 10
1721.624816624007
 20
568.1770924622132
 30
0.0
 11
1721.624816624007
 21
603.1770924622133
 31
0.0
210
0.0
220
1.0
230
0.0
  0
LINE
  5
1390
330
1F
100
AcDbEntity
  8
HEWI
100
AcDbLine
 10
1721.624816624007
 20
533.1770924622133
 30
0.0
 11
1721.624816624007
 21
568.1770924622132
 31
0.0
210
0.0
220
1.0
230
0.0
  0
LINE
  5
1391
330
1F
100
AcDbEntity
  8
HEWI
100
AcDbLine
 10
1733.624816624006
 20
568.1770924622132
 30
0.0000000000000022
 11
1733.624816624006
 21
601.1770924622132
 31
0.0000000000000022
210
0.0
220
1.0
230
0.0
  0
LINE
  5
1392
330
1F
100
AcDbEntity
  8
HEWI
100
AcDbLine
 10
1733.624816624006
 20
535.1770924622132
 30
0.0000000000000022
 11
1733.624816624006
 21
568.1770924622132
 31
0.0000000000000022
210
0.0
220
1.0
230
0.0
  0
LINE
  5
1393
330
1F
100
AcDbEntity
  8
HEWI
100
AcDbLine
 10
1721.624816624007
 20
683.1770924622133
 30
0.0
 11
1721.624816624007
 21
718.1770924622132
 31
0.0
210
0.0
220
1.0
230
0.0
  0
LINE
  5
1394
330
1F
100
AcDbEntity
  8
HEWI
100
AcDbLine
 10
1721.624816624007
 20
648.1770924622132
 30
0.0
 11
1721.624816624007
 21
683.1770924622133
 31
0.0
210
0.0
220
1.0
230
0.0
  0
LINE
  5
1395
330
1F
100
AcDbEntity
  8
HEWI
100
AcDbLine
 10
1733.624816624006
 20
683.1770924622133
 30
0.0000000000000022
 11
1733.624816624006
 21
716.1770924622133
 31
0.0000000000000022
210
0.0
220
1.0
230
0.0
  0
LINE
  5
1396
330
1F
100
AcDbEntity
  8
HEWI
100
AcDbLine
 10
1733.624816624006
 20
650.1770924622133
 30
0.0000000000000022
 11
1733.624816624006
 21
683.1770924622133
 31
0.0000000000000022
210
0.0
220
1.0
230
0.0
  0
LINE
  5
1397
330
1F
100
AcDbEntity
  8
HEWI
100
AcDbLine
 10
1721.624816624007
 20
1818.177092462213
 30
0.0
 11
1721.624816624007
 21
1853.177092462213
 31
0.0
210
0.0
220
1.0
230
0.0
  0
LINE
  5
1398
330
1F
100
AcDbEntity
  8
HEWI
100
AcDbLine
 10
1721.624816624007
 20
1783.177092462213
 30
0.0
 11
1721.624816624007
 21
1818.177092462213
 31
0.0
210
0.0
220
1.0
230
0.0
  0
LINE
  5
1399
330
1F
100
AcDbEntity
  8
HEWI
100
AcDbLine
 10
1733.624816624006
 20
1818.177092462213
 30
0.0000000000000022
 11
1733.624816624006
 21
1851.177092462213
 31
0.0000000000000022
210
0.0
220
1.0
230
0.0
  0
LINE
  5
139A
330
1F
100
AcDbEntity
  8
HEWI
100
AcDbLine
 10
1733.624816624006
 20
1785.177092462213
 30
0.0000000000000022
 11
1733.624816624006
 21
1818.177092462213
 31
0.0000000000000022
210
0.0
220
1.0
230
0.0
  0
LINE
  5
139B
330
1F
100
AcDbEntity
  8
HEWI
100
AcDbLine
 10
1731.624816624005
 20
1853.177092462213
 30
0.0000000000000018
 11
1721.624816624007
 21
1853.177092462213
 31
0.0
210
0.0
220
1.0
230
0.0
  0
LINE
  5
139C
330
1F
100
AcDbEntity
  8
HEWI
100
AcDbLine
 10
1731.624816624005
 20
1783.177092462213
 30
0.0000000000000018
 11
1721.624816624007
 21
1783.177092462213
 31
0.0
210
0.0
220
1.0
230
0.0
  0
LINE
  5
139D
330
1F
100
AcDbEntity
  8
HEWI
100
AcDbLine
 10
1731.624816624005
 20
718.1770924622132
 30
0.0000000000000018
 11
1721.624816624007
 21
718.1770924622132
 31
0.0
210
0.0
220
1.0
230
0.0
  0
LINE
  5
139E
330
1F
100
AcDbEntity
  8
HEWI
100
AcDbLine
 10
1731.624816624005
 20
648.1770924622132
 30
0.0000000000000018
 11
1721.624816624007
 21
648.1770924622132
 31
0.0
210
0.0
220
1.0
230
0.0
  0
LINE
  5
139F
330
1F
100
AcDbEntity
  8
HEWI
100
AcDbLine
 10
1731.624816624005
 20
603.1770924622133
 30
0.0000000000000018
 11
1721.624816624007
 21
603.1770924622133
 31
0.0
210
0.0
220
1.0
230
0.0
  0
LINE
  5
13A0
330
1F
100
AcDbEntity
  8
HEWI
100
AcDbLine
 10
1731.624816624005
 20
533.1770924622133
 30
0.0000000000000018
 11
1721.624816624007
 21
533.1770924622133
 31
0.0
210
0.0
220
1.0
230
0.0
  0
LINE
  5
13A1
330
1F
100
AcDbEntity
  8
HEWI
100
AcDbLine
 10
1766.424816624007
 20
1285.677092462234
 30
0.0000000000000086
 11
1766.424816624007
 21
1317.677092462213
 31
0.0000000000000086
210
0.0
220
1.0
230
0.0
  0
LINE
  5
13A2
330
1F
100
AcDbEntity
  8
HEWI
100
AcDbLine
 10
1812.824816624005
 20
1214.377092462234
 30
0.0000000000000171
 11
1812.824816624005
 21
1283.677092462235
 31
0.0000000000000171
210
0.0
220
1.0
230
0.0
  0
LINE
  5
13A3
330
1F
100
AcDbEntity
  8
HEWI
100
AcDbLine
 10
1773.424816624007
 20
1214.377092462234
 30
0.0000000000000099
 11
1773.424816624007
 21
1283.677092462235
 31
0.0000000000000099
210
0.0
220
1.0
230
0.0
  0
ARC
  5
13A4
330
1F
100
AcDbEntity
  8
HEWI
100
AcDbCircle
 10
1726.754000175367
 20
1226.44567520684
 30
0.0000000000000013
 40
119.9999999999995
100
AcDbArc
 50
11.07734021684895
 51
14.02230851984941
  0
ARC
  5
13A5
330
1F
100
AcDbEntity
  8
HEWI
100
AcDbCircle
 10
1726.754000175367
 20
1226.44567520684
 30
0.0000000000000013
 40
119.9999999999995
100
AcDbArc
 50
355.8231250330063
 51
358.9226597831566
  0
ARC
  5
13A6
330
1F
100
AcDbEntity
  8
HEWI
100
AcDbCircle
 10
1954.913035372591
 20
1246.40700426761
 30
0.0000000000000432
 40
120.0000000000005
100
AcDbArc
 50
191.0773402168489
 51
194.1768749669611
  0
ARC
  5
13A7
330
1F
100
AcDbEntity
  8
HEWI
100
AcDbCircle
 10
1954.913035372591
 20
1246.40700426761
 30
0.0000000000000432
 40
120.0000000000005
100
AcDbArc
 50
175.9776914801459
 51
178.9226597831566
  0
LINE
  5
13A8
330
1F
100
AcDbEntity
  8
HEWI
100
AcDbLine
 10
1733.624816624006
 20
1801.677092462213
 30
0.0000000000000026
 11
1744.624816624007
 21
1801.677092462213
 31
0.0000000000000046
210
0.0
220
1.0
230
0.0
  0
LINE
  5
13A9
330
1F
100
AcDbEntity
  8
HEWI
100
AcDbLine
 10
1733.624816624006
 20
1834.677092462213
 30
0.0000000000000026
 11
1744.624816624007
 21
1834.677092462213
 31
0.0000000000000046
210
0.0
220
1.0
230
0.0
  0
LINE
  5
13AA
330
1F
100
AcDbEntity
  8
HEWI
100
AcDbLine
 10
1733.624816624006
 20
551.6770924622132
 30
0.0000000000000026
 11
1793.124816624007
 21
551.6770924622132
 31
0.0000000000000135
210
0.0
220
1.0
230
0.0
  0
LINE
  5
13AB
330
1F
100
AcDbEntity
  8
HEWI
100
AcDbLine
 10
1733.624816624006
 20
584.6770924622132
 30
0.0000000000000026
 11
1792.116836172321
 21
584.54638377224
 31
0.0000000000000135
210
0.0
220
1.0
230
0.0
  0
LINE
  5
13AE
330
1F
100
AcDbEntity
  8
HEWI
100
AcDbLine
 10
1776.624816624007
 20
666.6770924622133
 30
0.0000000000000105
 11
1776.624816624007
 21
616.6770924622133
 31
0.0000000000000105
210
0.0
220
1.0
230
0.0
  0
LINE
  5
13AF
330
1F
100
AcDbEntity
  8
HEWI
100
AcDbLine
 10
1776.624816624006
 20
1769.677092462213
 30
0.0000000000000105
 11
1776.624816624007
 21
1319.677092462213
 31
0.0000000000000105
210
0.0
220
1.0
230
0.0
  0
LINE
  5
13B0
330
1F
100
AcDbEntity
  8
HEWI
100
AcDbLine
 10
1776.624816624007
 20
1213.677092462235
 30
0.0000000000000105
 11
1776.624816624007
 21
699.6770924622119
 31
0.0000000000000105
210
0.0
220
1.0
230
0.0
  0
LINE
  5
13B1
330
1F
100
AcDbEntity
  8
HEWI
100
AcDbLine
 10
1809.624816624006
 20
1769.677092462213
 30
0.0000000000000165
 11
1809.624816624006
 21
1319.677092462213
 31
0.0000000000000165
210
0.0
220
1.0
230
0.0
  0
LINE
  5
13B2
330
1F
100
AcDbEntity
  8
HEWI
100
AcDbLine
 10
1809.624816624006
 20
1213.677092462235
 30
0.0000000000000165
 11
1809.624816624006
 21
582.5716190384723
 31
0.0000000000000165
210
0.0
220
1.0
230
0.0
  0
LINE
  5
13B3
330
1F
100
AcDbEntity
  8
HEWI
100
AcDbLine
 10
1733.624816624006
 20
666.6770924622133
 30
0.0000000000000026
 11
1776.624816624007
 21
666.6770924622133
 31
0.0000000000000105
210
0.0
220
1.0
230
0.0
  0
LINE
  5
13B4
330
1F
100
AcDbEntity
  8
HEWI
100
AcDbLine
 10
1733.624816624006
 20
699.6770924622133
 30
0.0000000000000026
 11
1776.624816624007
 21
699.6770924622119
 31
0.0000000000000105
210
0.0
220
1.0
230
0.0
  0
ARC
  5
13B5
330
1F
100
AcDbEntity
  8
HEWI
100
AcDbCircle
 10
1731.624816624005
 20
1785.177092462213
 30
0.0000000000000018
 40
2.0
100
AcDbArc
 50
270.0
 51
0.0
  0
ARC
  5
13B6
330
1F
100
AcDbEntity
  8
HEWI
100
AcDbCircle
 10
1731.624816624005
 20
1851.177092462213
 30
0.0000000000000018
 40
2.0
100
AcDbArc
 50
0.0
 51
90.0
  0
ARC
  5
13B7
330
1F
100
AcDbEntity
  8
HEWI
100
AcDbCircle
 10
1731.624816624005
 20
650.1770924622133
 30
0.0000000000000018
 40
2.0
100
AcDbArc
 50
270.0
 51
0.0
  0
ARC
  5
13B8
330
1F
100
AcDbEntity
  8
HEWI
100
AcDbCircle
 10
1731.624816624005
 20
716.1770924622133
 30
0.0000000000000018
 40
2.0
100
AcDbArc
 50
0.0
 51
90.0
  0
ARC
  5
13B9
330
1F
100
AcDbEntity
  8
HEWI
100
AcDbCircle
 10
1731.624816624005
 20
535.1770924622132
 30
0.0000000000000018
 40
2.0
100
AcDbArc
 50
270.0
 51
0.0
  0
ARC
  5
13BA
330
1F
100
AcDbEntity
  8
HEWI
100
AcDbCircle
 10
1731.624816624005
 20
601.1770924622132
 30
0.0000000000000018
 40
2.0
100
AcDbArc
 50
0.0
 51
90.0
  0
ARC
  5
13BB
330
1F
100
AcDbEntity
  8
HEWI
100
AcDbCircle
 10
1768.424816624007
 20
1285.677092462234
 30
0.000000000000009
 40
1.999999999999999
100
AcDbArc
 50
180.0
 51
270.0
  0
ARC
  5
13BC
330
1F
100
AcDbEntity
  8
HEWI
100
AcDbCircle
 10
1768.424816624007
 20
1317.677092462213
 30
0.000000000000009
 40
1.999999999999995
100
AcDbArc
 50
90.0
 51
180.0
  0
ARC
  5
13BD
330
1F
100
AcDbEntity
  8
HEWI
100
AcDbCircle
 10
1774.124816624006
 20
1214.377092462234
 30
0.00000000000001
 40
0.6999999999999319
100
AcDbArc
 50
180.0
 51
270.0
  0
ARC
  5
13BE
330
1F
100
AcDbEntity
  8
HEWI
100
AcDbCircle
 10
1812.124816624006
 20
1214.377092462234
 30
0.000000000000017
 40
0.6999999999999319
100
AcDbArc
 50
270.0
 51
0.0
  0
ARC
  5
13BF
330
1F
100
AcDbEntity
  8
HEWI
100
AcDbCircle
 10
1842.445899014808
 20
1217.996737822529
 30
0.0000000000000226
 40
4.000000000000073
100
AcDbArc
 50
194.1768749669611
 51
355.8231250330063
  0
ARC
  5
13C0
330
1F
100
AcDbEntity
  8
HEWI
100
AcDbCircle
 10
1744.624816624007
 20
1769.677092462213
 30
0.0000000000000046
 40
32.0
100
AcDbArc
 50
0.0
 51
90.0
  0
ARC
  5
13C1
330
1F
100
AcDbEntity
  8
HEWI
100
AcDbCircle
 10
1744.624816624007
 20
1769.677092462213
 30
0.0000000000000046
 40
65.0
100
AcDbArc
 50
0.0
 51
90.0
  0
LINE
  5
13C2
330
1F
100
AcDbEntity
  8
HEWI
100
AcDbLine
 10
1776.624816624007
 20
616.6770924622133
 30
0.0000000000000105
 11
1776.661473298726
 21
584.5809209663707
 31
0.0000000000000106
210
0.0
220
1.0
230
0.0
  0
ARC
  5
13CB
330
1F
100
AcDbEntity
  8
HEWI
100
AcDbCircle
 10
731.8785126650118
 20
307.4407046685001
 30
0.0
 40
16.5
100
AcDbArc
 50
180.0
 51
0.0
  0
ARC
  5
13CC
330
1F
100
AcDbEntity
  8
HEWI
100
AcDbCircle
 10
731.8785126650118
 20
307.440704668501
 30
0.0
 40
17.00000000000011
100
AcDbArc
 50
166.0694454376371
 51
174.9095327646302
  0
ARC
  5
13CD
330
1F
100
AcDbEntity
  8
HEWI
100
AcDbCircle
 10
710.1785126650111
 20
307.4407046685001
 30
0.0
 40
5.000000000000047
100
AcDbArc
 50
342.4416349365598
 51
17.5583650634402
  0
ARC
  5
13CE
330
1F
100
AcDbEntity
  8
HEWI
100
AcDbCircle
 10
731.8785126650136
 20
307.4407046685001
 30
0.0
 40
17.0000000000003
100
AcDbArc
 50
185.0904672353697
 51
234.9095327646663
  0
ARC
  5
13CF
330
1F
100
AcDbEntity
  8
HEWI
100
AcDbCircle
 10
721.0285126650132
 20
288.6479534063792
 30
0.0
 40
4.999999999999737
100
AcDbArc
 50
42.44163493652727
 51
77.55836506345731
  0
ARC
  5
13D0
330
1F
100
AcDbEntity
  8
HEWI
100
AcDbCircle
 10
731.8785126650118
 20
307.4407046685019
 30
0.0
 40
17.00000000000053
100
AcDbArc
 50
245.0904672353485
 51
294.9095327646515
  0
ARC
  5
13D1
330
1F
100
AcDbEntity
  8
HEWI
100
AcDbCircle
 10
742.7285126650121
 20
288.6479534063774
 30
0.0
 40
5.000000000001613
100
AcDbArc
 50
102.4416349365427
 51
137.5583650634727
  0
ARC
  5
13D2
330
1F
100
AcDbEntity
  8
HEWI
100
AcDbCircle
 10
731.8785126650118
 20
307.4407046685019
 30
0.0
 40
17.00000000000041
100
AcDbArc
 50
305.0904672353337
 51
354.9095327646302
  0
ARC
  5
13D3
330
1F
100
AcDbEntity
  8
HEWI
100
AcDbCircle
 10
753.5785126650125
 20
307.440704668501
 30
0.0
 40
5.000000000000047
100
AcDbArc
 50
162.4416349365598
 51
197.5583650634402
  0
ARC
  5
13D4
330
1F
100
AcDbEntity
  8
HEWI
100
AcDbCircle
 10
731.8785126650118
 20
307.440704668501
 30
0.0
 40
17.00000000000025
100
AcDbArc
 50
5.09046723536977
 51
13.93055456236284
  0
LINE
  5
13D7
330
1F
100
AcDbEntity
  8
HEWI
100
AcDbLine
 10
1235.878181592104
 20
378.9407046685001
 30
0.0
 11
1305.878181592104
 21
378.9407046685001
 31
0.0
  0
LINE
  5
13D8
330
1F
100
AcDbEntity
  8
HEWI
100
AcDbLine
 10
1237.878181592104
 20
366.9407046684991
 30
0.0
 11
1303.878181592105
 21
366.9407046684991
 31
0.0
  0
LINE
  5
13DB
330
1F
100
AcDbEntity
  8
HEWI
100
AcDbLine
 10
696.8785126650118
 20
378.9407046685001
 30
0.0
 11
766.8785126650118
 21
378.9407046685001
 31
0.0
  0
LINE
  5
13DC
330
1F
100
AcDbEntity
  8
HEWI
100
AcDbLine
 10
698.8785126650136
 20
366.9407046685001
 30
0.0
 11
764.8785126650118
 21
366.9407046685001
 31
0.0
  0
LINE
  5
13DD
330
1F
100
AcDbEntity
  8
HEWI
100
AcDbLine
 10
766.8785126650118
 20
368.9407046685001
 30
0.0
 11
766.8785126650118
 21
378.9407046685001
 31
0.0
  0
LINE
  5
13DE
330
1F
100
AcDbEntity
  8
HEWI
100
AcDbLine
 10
696.8785126650118
 20
368.9407046685001
 30
0.0
 11
696.8785126650118
 21
378.9407046685001
 31
0.0
  0
LINE
  5
13E1
330
1F
100
AcDbEntity
  8
HEWI
100
AcDbLine
 10
1305.878181592104
 20
368.9407046685001
 30
0.0
 11
1305.878181592104
 21
378.9407046685001
 31
0.0
  0
LINE
  5
13E2
330
1F
100
AcDbEntity
  8
HEWI
100
AcDbLine
 10
1235.878181592104
 20
368.9407046685001
 30
0.0
 11
1235.878181592104
 21
378.9407046685001
 31
0.0
  0
LINE
  5
13E5
330
1F
100
AcDbEntity
  8
HEWI
100
AcDbLine
 10
715.3785126650136
 20
366.9407046685001
 30
0.0
 11
715.3785126650136
 21
353.940704668501
 31
0.0
  0
LINE
  5
13E6
330
1F
100
AcDbEntity
  8
HEWI
100
AcDbLine
 10
748.3785126650136
 20
366.9407046685001
 30
0.0
 11
748.3785126650136
 21
353.940704668501
 31
0.0
  0
LINE
  5
13EB
330
1F
100
AcDbEntity
  8
HEWI
100
AcDbLine
 10
1222.378181592104
 20
323.9407046685001
 30
0.0
 11
780.37851266501
 21
323.9407046685001
 31
0.0
  0
LINE
  5
13ED
330
1F
100
AcDbEntity
  8
HEWI
100
AcDbLine
 10
1222.378181592104
 20
290.9407046685
 30
0.0
 11
780.37851266501
 21
290.9407046685
 31
0.0
  0
LINE
  5
13F1
330
1F
100
AcDbEntity
  8
HEWI
100
AcDbLine
 10
1254.378181592104
 20
366.9407046684991
 30
0.0
 11
1254.378181592104
 21
355.9407046685001
 31
0.0
  0
LINE
  5
13F2
330
1F
100
AcDbEntity
  8
HEWI
100
AcDbLine
 10
1287.378181592104
 20
366.9407046684991
 30
0.0
 11
1287.378181592104
 21
355.9407046685001
 31
0.0
  0
ARC
  5
13F3
330
1F
100
AcDbEntity
  8
HEWI
100
AcDbCircle
 10
698.8785126650136
 20
368.9407046685001
 30
0.0
 40
2.0
100
AcDbArc
 50
180.0
 51
270.0
  0
ARC
  5
13F4
330
1F
100
AcDbEntity
  8
HEWI
100
AcDbCircle
 10
764.8785126650118
 20
368.9407046685001
 30
0.0
 40
2.0
100
AcDbArc
 50
270.0
 51
0.0
  0
ARC
  5
13F7
330
1F
100
AcDbEntity
  8
HEWI
100
AcDbCircle
 10
1237.878181592104
 20
368.9407046685001
 30
0.0
 40
2.0
100
AcDbArc
 50
180.0
 51
270.0
  0
ARC
  5
13F8
330
1F
100
AcDbEntity
  8
HEWI
100
AcDbCircle
 10
1303.878181592105
 20
368.9407046685001
 30
0.0
 40
2.0
100
AcDbArc
 50
270.0
 51
0.0
  0
LINE
  5
13FB
330
1F
100
AcDbEntity
  8
HEWI
100
AcDbLine
 10
748.3785126650136
 20
307.4407046685001
 30
0.0
 11
748.3785126650136
 21
355.940704668501
 31
0.0
  0
LINE
  5
13FC
330
1F
100
AcDbEntity
  8
HEWI
100
AcDbLine
 10
715.3785126650136
 20
355.940704668501
 30
0.0
 11
715.3785126650136
 21
307.4407046685001
 31
0.0
  0
LINE
  5
13FD
330
1F
100
AcDbEntity
  8
HEWI
100
AcDbLine
 10
731.8785126650118
 20
290.9407046685
 30
0.0
 11
735.971189050947
 21
290.9407046685
 31
0.0
  0
LINE
  5
13FE
330
1F
100
AcDbEntity
  8
HEWI
100
AcDbLine
 10
761.880544409033
 20
290.9407046685
 30
0.0
 11
780.37851266501
 21
290.9407046685
 31
0.0
  0
LINE
  5
13FF
330
1F
100
AcDbEntity
  8
HEWI
100
AcDbLine
 10
780.37851266501
 20
323.9407046685001
 30
0.0
 11
761.880544409033
 21
323.9407046685001
 31
0.0
  0
ARC
  5
1402
330
1F
100
AcDbEntity
  8
HEWI
100
AcDbCircle
 10
1222.378181592104
 20
355.9407046685001
 30
0.0
 40
32.0
100
AcDbArc
 50
270.0
 51
0.0
  0
ARC
  5
1403
330
1F
100
AcDbEntity
  8
HEWI
100
AcDbCircle
 10
1222.378181592104
 20
355.9407046685001
 30
0.0
 40
65.0
100
AcDbArc
 50
270.0
 51
0.0
  0
LINE
  5
1404
330
1F
100
AcDbEntity
  8
HEWI
100
AcDbLine
 10
343.8785126650119
 20
378.9407046685001
 30
0.0
 11
273.8785126650118
 21
378.9407046685001
 31
0.0
  0
LINE
  5
1405
330
1F
100
AcDbEntity
  8
HEWI
100
AcDbLine
 10
341.8785126650137
 20
366.9407046685001
 30
0.0
 11
275.87851266501
 21
366.9407046685001
 31
0.0
  0
LINE
  5
1406
330
1F
100
AcDbEntity
  8
HEWI
100
AcDbLine
 10
273.8785126650118
 20
368.9407046685001
 30
0.0
 11
273.8785126650118
 21
378.9407046685001
 31
0.0
  0
LINE
  5
1407
330
1F
100
AcDbEntity
  8
HEWI
100
AcDbLine
 10
343.8785126650119
 20
368.9407046685001
 30
0.0
 11
343.8785126650119
 21
378.9407046685001
 31
0.0
  0
LINE
  5
1408
330
1F
100
AcDbEntity
  8
HEWI
100
AcDbLine
 10
325.3785126650137
 20
366.9407046685001
 30
0.0
 11
325.3785126650137
 21
355.940704668501
 31
0.0
  0
LINE
  5
1409
330
1F
100
AcDbEntity
  8
HEWI
100
AcDbLine
 10
292.3785126650118
 20
366.9407046685001
 30
0.0
 11
292.3785126650118
 21
355.940704668501
 31
0.0
  0
ARC
  5
140A
330
1F
100
AcDbEntity
  8
HEWI
100
AcDbCircle
 10
341.8785126650137
 20
368.9407046685001
 30
0.0
 40
2.0
100
AcDbArc
 50
270.0
 51
0.0
  0
ARC
  5
140B
330
1F
100
AcDbEntity
  8
HEWI
100
AcDbCircle
 10
275.87851266501
 20
368.9407046685001
 30
0.0
 40
2.0
100
AcDbArc
 50
180.0
 51
270.0
  0
ARC
  5
140C
330
1F
100
AcDbEntity
  8
HEWI
100
AcDbCircle
 10
357.3785126650137
 20
355.940704668501
 30
0.0
 40
32.0
100
AcDbArc
 50
180.0
 51
270.0
  0
ARC
  5
140D
330
1F
100
AcDbEntity
  8
HEWI
100
AcDbCircle
 10
357.3785126650137
 20
355.940704668501
 30
0.0
 40
65.0
100
AcDbArc
 50
180.0
 51
270.0
  0
LINE
  5
140E
330
1F
100
AcDbEntity
  8
HEWI
  6
Continuous
100
AcDbLine
 10
357.3785126650137
 20
323.940704668501
 30
0.0
 11
701.8805444090294
 21
323.9407046685001
 31
0.0
  0
LINE
  5
140F
330
1F
100
AcDbEntity
  8
HEWI
  6
Continuous
100
AcDbLine
 10
761.880544409033
 20
323.9407046685001
 30
0.0
 11
881.224031067305
 21
323.9407046685001
 31
0.0
  0
LINE
  5
1410
330
1F
100
AcDbEntity
  8
HEWI
  6
Continuous
100
AcDbLine
 10
357.3785126650137
 20
290.940704668501
 30
0.0
 11
701.8805444090294
 21
290.940704668501
 31
0.0
  0
LINE
  5
1411
330
1F
100
AcDbEntity
  8
HEWI
  6
STANDARD
 62
     7
100
AcDbLine
 10
1782.738689047078
 20
584.679097090111
 30
0.0000000000000135
 11
1793.124869924763
 21
584.679097090111
 31
0.0000000000000135
  0
LINE
  5
1412
330
1F
100
AcDbEntity
  8
HEWI
  6
STANDARD
 62
     7
100
AcDbLine
 10
1796.401542288045
 20
552.128437910424
 30
0.0000000000000135
 11
1796.890166860799
 21
552.1857346633533
 31
0.0000000000000135
  0
LINE
  5
1413
330
1F
100
AcDbEntity
  8
HEWI
  6
STANDARD
 62
     7
100
AcDbLine
 10
1782.56574974654
 20
584.54638377224
 30
0.0000000000000135
 11
1783.238967519977
 21
585.0629700759509
 31
0.0000000000000135
  0
LINE
  5
1414
330
1F
100
AcDbEntity
  8
HEWI
  6
STANDARD
 62
     7
100
AcDbLine
 10
1778.494189840535
 20
584.54638377224
 30
0.0000000000000135
 11
1781.988967519978
 21
587.2280396560291
 31
0.0000000000000135
  0
LINE
  5
1415
330
1F
100
AcDbEntity
  8
HEWI
  6
STANDARD
 62
     7
100
AcDbLine
 10
1792.116836172321
 20
584.54638377224
 30
0.0000000000000135
 11
1793.124869924763
 21
584.679097090111
 31
0.0000000000000135
  0
LINE
  5
1416
330
1F
100
AcDbEntity
  8
HEWI
  6
STANDARD
 62
     7
100
AcDbLine
 10
1778.657687765339
 20
551.679066572533
 30
0.0000000000000135
 11
1781.988967519978
 21
549.122914228783
 31
0.0000000000000135
  0
LINE
  5
1417
330
1F
100
AcDbEntity
  8
HEWI
  6
STANDARD
 62
     7
100
AcDbLine
 10
1782.729266744832
 20
551.679066572533
 30
0.0000000000000135
 11
1783.238967519977
 21
551.287983808861
 31
0.0000000000000135
  0
ARC
  5
1418
330
1F
100
AcDbEntity
  8
HEWI
  6
STANDARD
 62
     7
100
AcDbCircle
 10
1793.121587108603
 20
568.1757862583522
 30
0.0000000000000135
 40
16.50331115826626
100
AcDbArc
 50
1.771820875063179
 51
89.98860280157714
  0
ARC
  5
1419
330
1F
100
AcDbEntity
  8
HEWI
  6
STANDARD
 62
     7
100
AcDbCircle
 10
1793.124866018253
 20
568.1770970305869
 30
0.0000000000000135
 40
16.49999333257691
100
AcDbArc
 50
270.8837843776346
 51
1.767623473633002
  0
ARC
  5
141A
330
1F
100
AcDbEntity
  8
HEWI
  6
STANDARD
 62
     7
100
AcDbCircle
 10
1792.988971334676
 20
568.175468094882
 30
0.0000000000000135
 40
19.50000762941452
100
AcDbArc
 50
0.0000820387157152
 51
119.999999999986
  0
ARC
  5
141B
330
1F
100
AcDbEntity
  8
HEWI
  6
STANDARD
 62
     7
100
AcDbCircle
 10
1792.988971334676
 20
568.1754741655104
 30
0.0000000000000135
 40
22.00000762940538
100
AcDbArc
 50
0.0000569061187751
 51
119.999999999986
  0
ARC
  5
141C
330
1F
100
AcDbEntity
  8
HEWI
  6
STANDARD
 62
     7
100
AcDbCircle
 10
1792.988971334676
 20
568.175479719297
 30
0.0000000000000135
 40
22.00000762940057
100
AcDbArc
 50
239.9999999999915
 51
0.0000424420968088
  0
ARC
  5
141D
330
1F
100
AcDbEntity
  8
HEWI
  6
STANDARD
 62
     7
100
AcDbCircle
 10
1792.988971334676
 20
568.1754857899104
 30
0.0000000000000135
 40
19.50000762939721
100
AcDbArc
 50
239.9999999999915
 51
0.0000300464332145
  0
LINE
  5
141E
330
1F
100
AcDbEntity
  8
HEWI
  6
STANDARD
 62
     7
100
AcDbLine
 10
715.2634942381328
 20
324.1935968247653
 30
0.0
 11
715.3805291502422
 21
324.2833947983982
 31
0.0
  0
LINE
  5
141F
330
1F
100
AcDbEntity
  8
HEWI
  6
STANDARD
 62
     7
100
AcDbLine
 10
668.8805138914531
 20
244.0765619126541
 30
0.0
 11
761.880544409033
 21
244.0765619126541
 31
0.0
  0
LINE
  5
1420
330
1F
100
AcDbEntity
  8
HEWI
  6
STANDARD
 62
     7
100
AcDbLine
 10
755.3805291502404
 20
284.0765619126551
 30
0.0
 11
761.880544409033
 21
284.0765619126551
 31
0.0
  0
LINE
  5
1421
330
1F
100
AcDbEntity
  8
HEWI
  6
STANDARD
 62
     7
100
AcDbLine
 10
668.8805138914531
 20
284.0765619126551
 30
0.0
 11
708.3805596678203
 21
284.0765619126551
 31
0.0
  0
LINE
  5
1422
330
1F
100
AcDbEntity
  8
HEWI
  6
STANDARD
 62
     7
100
AcDbLine
 10
709.8257195799297
 20
263.5218286362879
 30
0.0
 11
753.9352929441875
 21
263.5218286362879
 31
0.0
  0
LINE
  5
1423
330
1F
100
AcDbEntity
  8
HEWI
  6
STANDARD
 62
     7
100
AcDbLine
 10
728.4756219236797
 20
241.6907739487879
 30
0.0
 11
735.499395117039
 21
241.7012262192966
 31
0.0
  0
LINE
  5
1424
330
1F
100
AcDbEntity
  8
HEWI
  6
STANDARD
 62
     7
100
AcDbLine
 10
741.3718926756327
 20
241.0147332993747
 30
0.0
 11
741.7578637449669
 21
241.0485315171472
 31
0.0
  0
LINE
  5
1425
330
1F
100
AcDbEntity
  8
HEWI
  6
STANDARD
 62
     7
100
AcDbLine
 10
722.0031487791484
 20
241.0485315171472
 30
0.0
 11
722.3891961424315
 21
241.0147332993747
 31
0.0
  0
LINE
  5
1426
330
1F
100
AcDbEntity
  8
HEWI
  6
STANDARD
 62
     7
100
AcDbLine
 10
748.3805596678185
 20
329.5765924302341
 30
0.0
 11
761.880544409033
 21
329.5765924302341
 31
0.0
  0
LINE
  5
1427
330
1F
100
AcDbEntity
  8
HEWI
  6
STANDARD
 62
     7
100
AcDbLine
 10
701.8805444090294
 20
329.5765924302341
 30
0.0
 11
715.3805291502422
 21
329.5765924302341
 31
0.0
  0
LINE
  5
1428
330
1F
100
AcDbEntity
  8
HEWI
  6
STANDARD
 62
     7
100
AcDbLine
 10
755.3805291502404
 20
285.5765771714441
 30
0.0
 11
761.880544409033
 21
285.5765771714441
 31
0.0
  0
LINE
  5
1429
330
1F
100
AcDbEntity
  8
HEWI
  6
STANDARD
 62
     7
100
AcDbLine
 10
701.8805444090294
 20
285.5765771714441
 30
0.0
 11
708.3805596678203
 21
285.5765771714441
 31
0.0
  0
LINE
  5
142A
330
1F
100
AcDbEntity
  8
HEWI
  6
STANDARD
 62
     7
100
AcDbLine
 10
726.7674004881328
 20
291.7529535142185
 30
0.0
 11
727.3241937010234
 21
291.6704797593356
 31
0.0
  0
LINE
  5
142B
330
1F
100
AcDbEntity
  8
HEWI
  6
STANDARD
 62
     7
100
AcDbLine
 10
731.7817437498515
 20
291.010155662656
 30
0.0
 11
732.2261559812968
 21
290.9443139878522
 31
0.0
  0
LINE
  5
142C
330
1F
100
AcDbEntity
  8
HEWI
  6
STANDARD
 62
     7
100
AcDbLine
 10
715.2634942381328
 20
324.1935968247653
 30
0.0
 11
715.3805291502422
 21
324.2833947983982
 31
0.0
  0
LINE
  5
142D
330
1F
100
AcDbEntity
  8
HEWI
  6
STANDARD
 62
     7
100
AcDbLine
 10
737.3241174070763
 20
291.9192743149997
 30
0.0
 11
737.6462304441875
 21
291.9808435288669
 31
0.0
  0
LINE
  5
142E
330
1F
100
AcDbEntity
  8
HEWI
  6
STANDARD
 62
     7
100
AcDbLine
 10
696.8805444090294
 20
244.0765619126541
 30
0.0
 11
696.8805444090294
 21
284.0765619126551
 31
0.0
  0
LINE
  5
142F
330
1F
100
AcDbEntity
  8
HEWI
  6
STANDARD
 62
     7
100
AcDbLine
 10
748.1728875486797
 20
304.8314905015222
 30
0.0
 11
748.1807458250468
 21
305.1228570786716
 31
0.0
  0
LINE
  5
1430
330
1F
100
AcDbEntity
  8
HEWI
  6
STANDARD
 62
     7
100
AcDbLine
 10
701.8805444090294
 20
285.5765771714441
 30
0.0
 11
701.8805444090294
 21
329.5765924302341
 31
0.0
  0
LINE
  5
1431
330
1F
100
AcDbEntity
  8
HEWI
  6
STANDARD
 62
     7
100
AcDbLine
 10
701.8805444090294
 20
244.0765619126541
 30
0.0
 11
701.8805444090294
 21
284.0765619126551
 31
0.0
  0
LINE
  5
1432
330
1F
100
AcDbEntity
  8
HEWI
  6
STANDARD
 62
     7
100
AcDbLine
 10
675.3014886228984
 20
272.4395990220301
 30
0.0
 11
675.3952538816893
 21
272.561898216366
 31
0.0
  0
LINE
  5
1433
330
1F
100
AcDbEntity
  8
HEWI
  6
STANDARD
 62
     7
100
AcDbLine
 10
675.3014886228984
 20
255.5913019028912
 30
0.0
 11
675.3952538816893
 21
255.713524803281
 31
0.0
  0
LINE
  5
1434
330
1F
100
AcDbEntity
  8
HEWI
  6
STANDARD
 62
     7
100
AcDbLine
 10
668.8805138914531
 20
278.527245506405
 30
0.0
 11
668.8805138914531
 21
284.0765619126551
 31
0.0
  0
LINE
  5
1435
330
1F
100
AcDbEntity
  8
HEWI
  6
STANDARD
 62
     7
100
AcDbLine
 10
668.8805138914531
 20
244.0765619126541
 30
0.0
 11
668.8805138914531
 21
249.6258783189051
 31
0.0
  0
LINE
  5
1436
330
1F
100
AcDbEntity
  8
HEWI
  6
STANDARD
 62
     7
100
AcDbLine
 10
761.880544409033
 20
285.5765771714441
 30
0.0
 11
761.880544409033
 21
329.5765924302341
 31
0.0
  0
LINE
  5
1437
330
1F
100
AcDbEntity
  8
HEWI
  6
STANDARD
 62
     7
100
AcDbLine
 10
761.880544409033
 20
244.0765619126541
 30
0.0
 11
761.880544409033
 21
284.0765619126551
 31
0.0
  0
LINE
  5
1438
330
1F
100
AcDbEntity
  8
HEWI
  6
STANDARD
 62
     7
100
AcDbLine
 10
756.8805444090312
 20
244.0765619126541
 30
0.0
 11
756.8805444090312
 21
284.0765619126551
 31
0.0
  0
LINE
  5
1439
330
1F
100
AcDbEntity
  8
HEWI
  6
STANDARD
 62
     7
100
AcDbLine
 10
755.3805291502404
 20
272.436165794491
 30
0.0
 11
755.3805291502404
 21
307.576546653866
 31
0.0
  0
LINE
  5
143A
330
1F
100
AcDbEntity
  8
HEWI
  6
STANDARD
 62
     7
100
AcDbLine
 10
709.8257195799297
 20
263.5218286362879
 30
0.0
 11
709.8804986326658
 21
307.4782800523044
 31
0.0
  0
LINE
  5
143B
330
1F
100
AcDbEntity
  8
HEWI
  6
STANDARD
 62
     7
100
AcDbLine
 10
753.8931786863732
 20
263.5218286362879
 30
0.0
 11
753.8805138914531
 21
307.4782800523044
 31
0.0
  0
LINE
  5
143C
330
1F
100
AcDbEntity
  8
HEWI
  6
STANDARD
 62
     7
100
AcDbLine
 10
747.8183495848124
 20
303.3060693589441
 30
0.0
 11
747.8982293455547
 21
303.9132928696872
 31
0.0
  0
LINE
  5
143D
330
1F
100
AcDbEntity
  8
HEWI
  6
STANDARD
 62
     7
100
AcDbLine
 10
708.3805596678203
 20
272.436165794491
 30
0.0
 11
708.3805596678203
 21
307.576546653866
 31
0.0
  0
LINE
  5
143E
330
1F
100
AcDbEntity
  8
HEWI
  6
STANDARD
 62
     7
100
AcDbLine
 10
744.7138726560997
 20
243.5090875474216
 30
0.0
 11
744.776738867039
 21
244.0765619126541
 31
0.0
  0
LINE
  5
143F
330
1F
100
AcDbEntity
  8
HEWI
  6
STANDARD
 62
     7
100
AcDbLine
 10
746.9292199461406
 20
300.6741571274997
 30
0.0
 11
746.9652306883262
 21
300.794320091366
 31
0.0
  0
LINE
  5
1440
330
1F
100
AcDbEntity
  8
HEWI
  6
STANDARD
 62
     7
100
AcDbLine
 10
715.5164086668437
 20
305.3274011460544
 30
0.0
 11
715.5196130125468
 21
306.250863060116
 31
0.0
  0
LINE
  5
1441
330
1F
100
AcDbEntity
  8
HEWI
  6
STANDARD
 62
     7
100
AcDbLine
 10
668.8805138914531
 20
249.6258783189051
 30
0.0
 11
675.3014886228984
 21
255.713524803281
 31
0.0
  0
LINE
  5
1442
330
1F
100
AcDbEntity
  8
HEWI
  6
STANDARD
 62
     7
100
AcDbLine
 10
741.4774072019981
 20
294.0186548081629
 30
0.0
 11
744.0957391111814
 21
296.4706659165631
 31
0.0
  0
LINE
  5
1443
330
1F
100
AcDbEntity
  8
HEWI
  6
STANDARD
 62
     7
100
AcDbLine
 10
748.2478082029765
 20
322.0550012437088
 30
0.0
 11
750.9219109861796
 21
318.5701227036716
 31
0.0
  0
LINE
  5
1444
330
1F
100
AcDbEntity
  8
HEWI
  6
STANDARD
 62
     7
100
AcDbLine
 10
711.7516839353966
 20
244.0765619126541
 30
0.0
 11
712.1667992918437
 21
243.5290002671472
 31
0.0
  0
LINE
  5
1445
330
1F
100
AcDbEntity
  8
HEWI
  6
STANDARD
 62
     7
100
AcDbLine
 10
743.2626092283672
 20
295.6904840317966
 30
0.0
 11
743.5477959959452
 21
295.9092950669519
 31
0.0
  0
LINE
  5
1446
330
1F
100
AcDbEntity
  8
HEWI
  6
STANDARD
 62
     7
100
AcDbLine
 10
718.8829552977031
 20
243.9128351060154
 30
0.0
 11
719.2712151853984
 21
243.3201837388269
 31
0.0
  0
LINE
  5
1447
330
1F
100
AcDbEntity
  8
HEWI
  6
STANDARD
 62
     7
100
AcDbLine
 10
750.9621178953594
 20
243.1315088120691
 30
0.0
 11
751.5942895262187
 21
243.5290002671472
 31
0.0
  0
LINE
  5
1448
330
1F
100
AcDbEntity
  8
HEWI
  6
STANDARD
 62
     7
100
AcDbLine
 10
718.3463036863749
 20
298.1704187241794
 30
0.0
 11
718.8046777098143
 21
297.3772668687106
 31
0.0
  0
LINE
  5
1449
330
1F
100
AcDbEntity
  8
HEWI
  6
STANDARD
 62
     7
100
AcDbLine
 10
716.6332757322734
 20
301.1342096177341
 30
0.0
 11
717.2547662107872
 21
300.0589990464441
 31
0.0
  0
LINE
  5
144A
330
1F
100
AcDbEntity
  8
HEWI
  6
STANDARD
 62
     7
100
AcDbLine
 10
743.6290490477049
 20
242.9030084458591
 30
0.0
 11
744.7138726560997
 21
243.5090875474216
 31
0.0
  0
LINE
  5
144B
330
1F
100
AcDbEntity
  8
HEWI
  6
STANDARD
 62
     7
100
AcDbLine
 10
741.2875878660624
 20
293.9177179185163
 30
0.0
 11
741.4774072019981
 21
294.0186548081629
 31
0.0
  0
LINE
  5
144C
330
1F
100
AcDbEntity
  8
HEWI
  6
STANDARD
 62
     7
100
AcDbLine
 10
737.6462304441875
 20
291.9808435288669
 30
0.0
 11
739.8991143553203
 21
293.1791925278903
 31
0.0
  0
LINE
  5
144D
330
1F
100
AcDbEntity
  8
HEWI
  6
STANDARD
 62
     7
100
AcDbLine
 10
750.9219109861796
 20
318.5701227036716
 30
0.0
 11
753.1184136717247
 21
313.2672357407801
 31
0.0
  0
LINE
  5
144E
330
1F
100
AcDbEntity
  8
HEWI
  6
STANDARD
 62
     7
100
AcDbLine
 10
748.9886224119591
 20
242.3041772691004
 30
0.0
 11
750.9621178953594
 21
243.1315088120691
 31
0.0
  0
LINE
  5
144F
330
1F
100
AcDbEntity
  8
HEWI
  6
STANDARD
 62
     7
100
AcDbLine
 10
708.3805596678203
 20
272.436165794491
 30
0.0
 11
709.3694054930137
 21
269.2529535142185
 31
0.0
  0
LINE
  5
1450
330
1F
100
AcDbEntity
  8
HEWI
  6
STANDARD
 62
     7
100
AcDbLine
 10
716.3966882078593
 20
302.0226526108972
 30
0.0
 11
716.6332757322734
 21
301.1342096177341
 31
0.0
  0
LINE
  5
1451
330
1F
100
AcDbEntity
  8
HEWI
  6
STANDARD
 62
     7
100
AcDbLine
 10
715.5164086668437
 20
305.3274011460544
 30
0.0
 11
715.8344781248516
 21
304.1333246079694
 31
0.0
  0
LINE
  5
1452
330
1F
100
AcDbEntity
  8
HEWI
  6
STANDARD
 62
     7
100
AcDbLine
 10
741.6154229490684
 20
242.3732995835544
 30
0.0
 11
743.6290490477049
 21
242.9030084458591
 31
0.0
  0
LINE
  5
1453
330
1F
100
AcDbEntity
  8
HEWI
  6
STANDARD
 62
     7
100
AcDbLine
 10
745.8492028562968
 20
241.5937280503513
 30
0.0
 11
748.9886224119591
 21
242.3041772691004
 31
0.0
  0
LINE
  5
1454
330
1F
100
AcDbEntity
  8
HEWI
  6
STANDARD
 62
     7
100
AcDbLine
 10
738.8322198240684
 20
241.9618463364832
 30
0.0
 11
741.6154229490684
 21
242.3732995835544
 31
0.0
  0
LINE
  5
1455
330
1F
100
AcDbEntity
  8
HEWI
  6
STANDARD
 62
     7
100
AcDbLine
 10
748.2665002195763
 20
308.3067560044519
 30
0.0
 11
748.3805596678185
 21
307.576546653866
 31
0.0
  0
LINE
  5
1456
330
1F
100
AcDbEntity
  8
HEWI
  6
STANDARD
 62
     7
100
AcDbLine
 10
715.8332574217284
 20
304.1379785386325
 30
0.0
 11
715.9427392332482
 21
303.3060693589441
 31
0.0
  0
LINE
  5
1457
330
1F
100
AcDbEntity
  8
HEWI
  6
STANDARD
 62
     7
100
AcDbLine
 10
753.1184136717247
 20
313.2672357407801
 30
0.0
 11
753.8805138914531
 21
307.4782800523044
 31
0.0
  0
LINE
  5
1458
330
1F
100
AcDbEntity
  8
HEWI
  6
STANDARD
 62
     7
100
AcDbLine
 10
741.7578637449669
 20
241.0485315171472
 30
0.0
 11
745.8492028562968
 21
241.5937280503513
 31
0.0
  0
LINE
  5
1459
330
1F
100
AcDbEntity
  8
HEWI
  6
STANDARD
 62
     7
100
AcDbLine
 10
709.3694054930137
 20
269.2529535142185
 30
0.0
 11
709.8804986326658
 21
264.076561912655
 31
0.0
  0
LINE
  5
145A
330
1F
100
AcDbEntity
  8
HEWI
  6
STANDARD
 62
     7
100
AcDbLine
 10
735.499395117039
 20
241.7012262192966
 30
0.0
 11
738.8322198240684
 21
241.9618463364832
 31
0.0
  0
LINE
  5
145B
330
1F
100
AcDbEntity
  8
HEWI
  6
STANDARD
 62
     7
100
AcDbLine
 10
736.7936456053184
 20
240.6853723374606
 30
0.0
 11
741.3718926756327
 21
241.0147332993747
 31
0.0
  0
LINE
  5
145C
330
1F
100
AcDbEntity
  8
HEWI
  6
STANDARD
 62
     7
100
AcDbLine
 10
735.499395117039
 20
241.7012262192966
 30
0.0
 11
738.8322198240684
 21
241.9618463364832
 31
0.0
  0
LINE
  5
145D
330
1F
100
AcDbEntity
  8
HEWI
  6
STANDARD
 62
     7
100
AcDbLine
 10
731.8805444090312
 20
240.5730676499588
 30
0.0
 11
736.7936456053184
 21
240.6853723374606
 31
0.0
  0
LINE
  5
145E
330
1F
100
AcDbEntity
  8
HEWI
  6
STANDARD
 62
     7
100
AcDbLine
 10
726.9674432127422
 20
240.6853723374606
 30
0.0
 11
731.8805444090312
 21
240.5730676499588
 31
0.0
  0
LINE
  5
145F
330
1F
100
AcDbEntity
  8
HEWI
  6
STANDARD
 62
     7
100
AcDbLine
 10
725.3085076658654
 20
241.9217157212497
 30
0.0
 11
728.4756219236797
 21
241.6907739487879
 31
0.0
  0
LINE
  5
1460
330
1F
100
AcDbEntity
  8
HEWI
  6
STANDARD
 62
     7
100
AcDbLine
 10
722.3891961424315
 20
241.0147332993747
 30
0.0
 11
726.9674432127422
 21
240.6853723374606
 31
0.0
  0
LINE
  5
1461
330
1F
100
AcDbEntity
  8
HEWI
  6
STANDARD
 62
     7
100
AcDbLine
 10
753.8805138914531
 20
264.076561912655
 30
0.0
 11
754.3916070311015
 21
269.2529535142185
 31
0.0
  0
LINE
  5
1462
330
1F
100
AcDbEntity
  8
HEWI
  6
STANDARD
 62
     7
100
AcDbLine
 10
709.8804986326658
 20
307.4782800523044
 30
0.0
 11
710.6426751463359
 21
313.2672357407801
 31
0.0
  0
LINE
  5
1463
330
1F
100
AcDbEntity
  8
HEWI
  6
STANDARD
 62
     7
100
AcDbLine
 10
748.2478082029765
 20
306.5685510483973
 30
0.0
 11
748.3805596678185
 21
307.576546653866
 31
0.0
  0
LINE
  5
1464
330
1F
100
AcDbEntity
  8
HEWI
  6
STANDARD
 62
     7
100
AcDbLine
 10
722.6001489012187
 20
242.2886133042575
 30
0.0
 11
725.3085076658654
 21
241.9217157212497
 31
0.0
  0
LINE
  5
1465
330
1F
100
AcDbEntity
  8
HEWI
  6
STANDARD
 62
     7
100
AcDbLine
 10
717.9118096678185
 20
241.5937280503513
 30
0.0
 11
722.0031487791484
 21
241.0485315171472
 31
0.0
  0
LINE
  5
1466
330
1F
100
AcDbEntity
  8
HEWI
  6
STANDARD
 62
     7
100
AcDbLine
 10
720.5397546141093
 20
242.7658319321872
 30
0.0
 11
722.6001489012187
 21
242.2886133042575
 31
0.0
  0
LINE
  5
1467
330
1F
100
AcDbEntity
  8
HEWI
  6
STANDARD
 62
     7
100
AcDbLine
 10
714.7724664061033
 20
242.3041772691004
 30
0.0
 11
717.9118096678185
 21
241.5937280503513
 31
0.0
  0
LINE
  5
1468
330
1F
100
AcDbEntity
  8
HEWI
  6
STANDARD
 62
     7
100
AcDbLine
 10
747.3193871824687
 20
301.9782495347263
 30
0.0
 11
748.1728875486797
 21
304.8314905015222
 31
0.0
  0
LINE
  5
1469
330
1F
100
AcDbEntity
  8
HEWI
  6
STANDARD
 62
     7
100
AcDbLine
 10
754.3916070311015
 20
269.2529535142185
 30
0.0
 11
755.3805291502404
 21
272.436165794491
 31
0.0
  0
LINE
  5
146A
330
1F
100
AcDbEntity
  8
HEWI
  6
STANDARD
 62
     7
100
AcDbLine
 10
747.4521386473124
 20
302.4220514146082
 30
0.0
 11
747.8183495848124
 21
303.3060693589441
 31
0.0
  0
LINE
  5
146B
330
1F
100
AcDbEntity
  8
HEWI
  6
STANDARD
 62
     7
100
AcDbLine
 10
746.1699426023906
 20
299.3265771714441
 30
0.0
 11
746.3217675535607
 21
299.6930932847263
 31
0.0
  0
LINE
  5
146C
330
1F
100
AcDbEntity
  8
HEWI
  6
STANDARD
 62
     7
100
AcDbLine
 10
710.6426751463359
 20
313.2672357407801
 30
0.0
 11
712.8391778318828
 21
318.5701227036716
 31
0.0
  0
LINE
  5
146D
330
1F
100
AcDbEntity
  8
HEWI
  6
STANDARD
 62
     7
100
AcDbLine
 10
712.7989709227031
 20
243.1315088120691
 30
0.0
 11
714.7724664061033
 21
242.3041772691004
 31
0.0
  0
LINE
  5
146E
330
1F
100
AcDbEntity
  8
HEWI
  6
STANDARD
 62
     7
100
AcDbLine
 10
719.2712151853984
 20
243.3201837388269
 30
0.0
 11
720.5397546141093
 21
242.7658319321872
 31
0.0
  0
LINE
  5
146F
330
1F
100
AcDbEntity
  8
HEWI
  6
STANDARD
 62
     7
100
AcDbLine
 10
725.8440911619609
 20
292.237191185116
 30
0.0
 11
726.7674004881328
 21
291.7529535142185
 31
0.0
  0
LINE
  5
1470
330
1F
100
AcDbEntity
  8
HEWI
  6
STANDARD
 62
     7
100
AcDbLine
 10
721.8805444090312
 20
294.3162774888269
 30
0.0
 11
722.7218377439921
 21
293.8749933091403
 31
0.0
  0
LINE
  5
1471
330
1F
100
AcDbEntity
  8
HEWI
  6
STANDARD
 62
     7
100
AcDbLine
 10
744.6447503416484
 20
296.9848108140222
 30
0.0
 11
746.9292199461406
 21
300.6741571274997
 31
0.0
  0
LINE
  5
1472
330
1F
100
AcDbEntity
  8
HEWI
  6
STANDARD
 62
     7
100
AcDbLine
 10
712.1667992918437
 20
243.5290002671472
 30
0.0
 11
712.7989709227031
 21
243.1315088120691
 31
0.0
  0
LINE
  5
1473
330
1F
100
AcDbEntity
  8
HEWI
  6
STANDARD
 62
     7
100
AcDbLine
 10
745.7806145994609
 20
298.819222435116
 30
0.0
 11
746.1699426023906
 21
299.3265771714441
 31
0.0
  0
LINE
  5
1474
330
1F
100
AcDbEntity
  8
HEWI
  6
STANDARD
 62
     7
100
AcDbLine
 10
743.5477959959452
 20
295.9092950669519
 30
0.0
 11
743.6793267576622
 21
296.0807275620691
 31
0.0
  0
LINE
  5
1475
330
1F
100
AcDbEntity
  8
HEWI
  6
STANDARD
 62
     7
100
AcDbLine
 10
712.8391778318828
 20
318.5701227036716
 30
0.0
 11
715.3805291502422
 21
321.8820428696872
 31
0.0
  0
LINE
  5
1476
330
1F
100
AcDbEntity
  8
HEWI
  6
STANDARD
 62
     7
100
AcDbLine
 10
751.5942895262187
 20
243.5290002671472
 30
0.0
 11
752.009404882664
 21
244.0765619126541
 31
0.0
  0
LINE
  5
1477
330
1F
100
AcDbEntity
  8
HEWI
  6
STANDARD
 62
     7
100
AcDbLine
 10
748.2478082029765
 20
324.3851709214441
 30
0.0
 11
748.4975182859844
 21
324.1935968247653
 31
0.0
  0
LINE
  5
1478
330
1F
100
AcDbEntity
  8
HEWI
  6
STANDARD
 62
     7
100
AcDbLine
 10
718.8829552977031
 20
243.9128351060154
 30
0.0
 11
719.0271508543437
 21
244.0765619126541
 31
0.0
  0
LINE
  5
1479
330
1F
100
AcDbEntity
  8
HEWI
  6
STANDARD
 62
     7
100
AcDbLine
 10
668.8805138914531
 20
278.527245506405
 30
0.0
 11
675.3014886228984
 21
272.4395990220301
 31
0.0
  0
LINE
  5
147A
330
1F
100
AcDbEntity
  8
HEWI
  6
STANDARD
 62
     7
100
AcDbLine
 10
721.2329614012187
 20
294.9606561509363
 30
0.0
 11
721.8805444090312
 21
294.3162774888269
 31
0.0
  0
LINE
  5
147B
330
1F
100
AcDbEntity
  8
HEWI
  6
STANDARD
 62
     7
100
AcDbLine
 10
718.8046777098143
 20
297.3772668687106
 30
0.0
 11
719.6902978270018
 21
296.495995506405
 31
0.0
  0
ARC
  5
147C
330
1F
100
AcDbEntity
  8
HEWI
  6
STANDARD
 62
     7
100
AcDbCircle
 10
731.8785126650118
 20
307.4407046685019
 30
0.0
 40
16.50004745378571
100
AcDbArc
 50
271.7677807602394
 51
352.7821762495847
  0
ARC
  5
147D
330
1F
100
AcDbEntity
  8
HEWI
  6
STANDARD
 62
     7
100
AcDbCircle
 10
731.8785596082989
 20
307.4406519702898
 30
0.0
 40
16.49999333257691
100
AcDbArc
 50
180.8837843776867
 51
271.7676234736847
  0
ARC
  5
147E
330
1F
100
AcDbEntity
  8
HEWI
  6
STANDARD
 62
     7
100
AcDbCircle
 10
683.880572458499
 20
264.0766000596286
 30
0.0
 40
12.00003817321934
100
AcDbArc
 50
224.9999310582979
 51
135.0000689417021
  0
ARC
  5
147F
330
1F
100
AcDbEntity
  8
HEWI
  6
STANDARD
 62
     7
100
AcDbCircle
 10
731.8811663211682
 20
307.5768311697184
 30
0.0
 40
23.49936283079745
100
AcDbArc
 50
359.9993062979172
 51
45.00071322540429
  0
ARC
  5
1480
330
1F
100
AcDbEntity
  8
HEWI
  6
STANDARD
 62
     7
100
AcDbCircle
 10
731.8803376736423
 20
307.5767354906175
 30
0.0
 40
23.49977800657983
100
AcDbArc
 50
134.9999691422886
 51
180.0004604106747
  0
LINE
  5
1481
330
1F
100
AcDbEntity
  8
HEWI
  6
STANDARD
 62
     7
100
AcDbLine
 10
304.47631550202
 20
552.2332000681103
 30
0.0
 11
304.6078462637388
 21
552.1786498972114
 31
0.0
  0
LINE
  5
1482
330
1F
100
AcDbEntity
  8
HEWI
  6
STANDARD
 62
     7
100
AcDbLine
 10
715.3783769644223
 20
614.1128539987744
 30
0.0
 11
748.3783693350278
 21
614.1128539987744
 31
0.0
  0
LINE
  5
1483
330
1F
100
AcDbEntity
  8
HEWI
  6
STANDARD
 62
     7
100
AcDbLine
 10
748.3783693350278
 20
590.112838739984
 30
0.0
 11
761.8783540762388
 21
590.112838739984
 31
0.0
  0
LINE
  5
1484
330
1F
100
AcDbEntity
  8
HEWI
  6
STANDARD
 62
     7
100
AcDbLine
 10
701.8783540762387
 20
590.112838739984
 30
0.0
 11
715.3783769644223
 21
590.112838739984
 31
0.0
  0
LINE
  5
1485
330
1F
100
AcDbEntity
  8
HEWI
  6
STANDARD
 62
     7
100
AcDbLine
 10
701.8783540762387
 20
546.1128234811963
 30
0.0
 11
761.8783540762388
 21
546.1128234811963
 31
0.0
  0
LINE
  5
1486
330
1F
100
AcDbEntity
  8
HEWI
  6
STANDARD
 62
     7
100
AcDbLine
 10
748.3783693350278
 20
590.112838739984
 30
0.0
 11
748.3783693350278
 21
614.1128539987744
 31
0.0
  0
LINE
  5
1487
330
1F
100
AcDbEntity
  8
HEWI
  6
STANDARD
 62
     7
100
AcDbLine
 10
715.3783769644223
 20
590.112838739984
 30
0.0
 11
715.3783769644223
 21
614.1128539987744
 31
0.0
  0
LINE
  5
1488
330
1F
100
AcDbEntity
  8
HEWI
  6
STANDARD
 62
     7
100
AcDbLine
 10
701.8783540762387
 20
546.1128234811963
 30
0.0
 11
701.8783540762387
 21
590.112838739984
 31
0.0
  0
LINE
  5
1489
330
1F
100
AcDbEntity
  8
HEWI
  6
STANDARD
 62
     7
100
AcDbLine
 10
761.8783540762388
 20
546.1128234811963
 30
0.0
 11
761.8783540762388
 21
590.112838739984
 31
0.0
  0
LINE
  5
148A
330
1F
100
AcDbEntity
  8
HEWI
  6
STANDARD
 62
     7
100
AcDbLine
 10
292.3783845938169
 20
568.1164550729931
 30
0.0
 11
292.4118776358091
 21
568.3710479685005
 31
0.0
  0
LINE
  5
148B
330
1F
100
AcDbEntity
  8
HEWI
  6
STANDARD
 62
     7
100
AcDbLine
 10
292.910153392645
 20
563.8459777780699
 30
0.0
 11
292.9405946768247
 21
564.0771484323668
 31
0.0
  0
LINE
  5
148C
330
1F
100
AcDbEntity
  8
HEWI
  6
STANDARD
 62
     7
100
AcDbLine
 10
294.5086641348325
 20
559.8664855905699
 30
0.0
 11
294.5889253653013
 21
560.0603485056104
 31
0.0
  0
LINE
  5
148D
330
1F
100
AcDbEntity
  8
HEWI
  6
STANDARD
 62
     7
100
AcDbLine
 10
375.8783693350279
 20
551.6164398142027
 30
0.0
 11
375.8783693350279
 21
584.5006179758238
 31
0.0
  0
LINE
  5
148E
330
1F
100
AcDbEntity
  8
HEWI
  6
STANDARD
 62
     7
100
AcDbLine
 10
719.6990938223325
 20
587.1654128976988
 30
0.0
 11
720.2111024893229
 21
586.6533660837354
 31
0.0
  0
LINE
  5
148F
330
1F
100
AcDbEntity
  8
HEWI
  6
STANDARD
 62
     7
100
AcDbLine
 10
747.8161592520182
 20
589.550628656977
 30
0.0
 11
748.3783693350278
 21
590.112838739984
 31
0.0
  0
LINE
  5
1490
330
1F
100
AcDbEntity
  8
HEWI
  6
STANDARD
 62
     7
100
AcDbLine
 10
297.0973176992857
 20
556.5974426218199
 30
0.0
 11
297.2110719717448
 21
556.4492034860791
 31
0.0
  0
LINE
  5
1491
330
1F
100
AcDbEntity
  8
HEWI
  6
STANDARD
 62
     7
100
AcDbLine
 10
294.5889253653013
 20
559.8664855905699
 30
0.0
 11
295.8189363516294
 21
558.2635497995552
 31
0.0
  0
LINE
  5
1492
330
1F
100
AcDbEntity
  8
HEWI
  6
STANDARD
 62
     7
100
AcDbLine
 10
299.4055147207701
 20
581.4675903268994
 30
0.0
 11
300.6283540762388
 21
582.4058914133252
 31
0.0
  0
LINE
  5
1493
330
1F
100
AcDbEntity
  8
HEWI
  6
STANDARD
 62
     7
100
AcDbLine
 10
297.2110719717448
 20
579.7837066599072
 30
0.0
 11
297.8695650137388
 21
580.2889633127379
 31
0.0
  0
LINE
  5
1494
330
1F
100
AcDbEntity
  8
HEWI
  6
STANDARD
 62
     7
100
AcDbLine
 10
740.1283617056333
 20
584.6413421579527
 30
0.0
 11
743.545605663151
 21
586.6533660837354
 31
0.0
  0
LINE
  5
1495
330
1F
100
AcDbEntity
  8
HEWI
  6
STANDARD
 62
     7
100
AcDbLine
 10
744.057614330145
 20
587.1654128976988
 30
0.0
 11
746.1677904165708
 21
588.3044815012153
 31
0.0
  0
LINE
  5
1496
330
1F
100
AcDbEntity
  8
HEWI
  6
STANDARD
 62
     7
100
AcDbLine
 10
736.1488695181333
 20
583.1721115060982
 30
0.0
 11
737.0697374380552
 21
583.6691665598091
 31
0.0
  0
LINE
  5
1497
330
1F
100
AcDbEntity
  8
HEWI
  6
STANDARD
 62
     7
100
AcDbLine
 10
339.1892213858091
 20
585.6164550729918
 30
0.0
 11
339.7174043692075
 21
584.4837570139097
 31
0.0
  0
LINE
  5
1498
330
1F
100
AcDbEntity
  8
HEWI
  6
STANDARD
 62
     7
100
AcDbLine
 10
292.9405946768247
 20
563.8459777780699
 30
0.0
 11
293.70971393952
 21
561.9889831491637
 31
0.0
  0
LINE
  5
1499
330
1F
100
AcDbEntity
  8
HEWI
  6
STANDARD
 62
     7
100
AcDbLine
 10
303.3786745108091
 20
583.545112604731
 30
0.0
 11
304.6078462637388
 21
584.0542221018012
 31
0.0
  0
LINE
  5
149A
330
1F
100
AcDbEntity
  8
HEWI
  6
STANDARD
 62
     7
100
AcDbLine
 10
300.6283540762388
 20
582.4058914133252
 30
0.0
 11
301.5740938223325
 21
582.7976226755322
 31
0.0
  0
LINE
  5
149B
330
1F
100
AcDbEntity
  8
HEWI
  6
STANDARD
 62
     7
100
AcDbLine
 10
737.0697374380552
 20
583.6691665598091
 30
0.0
 11
740.1283617056333
 21
584.6413421579527
 31
0.0
  0
LINE
  5
149C
330
1F
100
AcDbEntity
  8
HEWI
  6
STANDARD
 62
     7
100
AcDbLine
 10
747.2264833486979
 20
589.3632125803174
 30
0.0
 11
747.8161592520182
 21
589.550628656977
 31
0.0
  0
LINE
  5
149D
330
1F
100
AcDbEntity
  8
HEWI
  6
STANDARD
 62
     7
100
AcDbLine
 10
731.8783540762369
 20
582.4393844553173
 30
0.0
 11
736.1488695181333
 21
583.1721115060982
 31
0.0
  0
LINE
  5
149E
330
1F
100
AcDbEntity
  8
HEWI
  6
STANDARD
 62
     7
100
AcDbLine
 10
292.3783845938169
 20
568.1164550729931
 30
0.0
 11
292.6393098867857
 21
566.1343383737744
 31
0.0
  0
LINE
  5
149F
330
1F
100
AcDbEntity
  8
HEWI
  6
STANDARD
 62
     7
100
AcDbLine
 10
307.8703279531919
 20
584.4837570139097
 30
0.0
 11
308.8783235586589
 21
584.6164703317822
 31
0.0
  0
LINE
  5
14A0
330
1F
100
AcDbEntity
  8
HEWI
  6
STANDARD
 62
     7
100
AcDbLine
 10
304.6078462637388
 20
584.0542221018012
 30
0.0
 11
305.8198518789732
 21
584.2137908884224
 31
0.0
  0
LINE
  5
14A1
330
1F
100
AcDbEntity
  8
HEWI
  6
STANDARD
 62
     7
100
AcDbLine
 10
292.6283235586607
 20
570.0151061960387
 30
0.0
 11
292.9405946768247
 21
572.3869323679137
 31
0.0
  0
LINE
  5
14A2
330
1F
100
AcDbEntity
  8
HEWI
  6
STANDARD
 62
     7
100
AcDbLine
 10
304.6078462637388
 20
552.1786498972114
 30
0.0
 11
306.6574068106138
 21
551.9088745065864
 31
0.0
  0
LINE
  5
14A3
330
1F
100
AcDbEntity
  8
HEWI
  6
STANDARD
 62
     7
100
AcDbLine
 10
308.8783235586589
 20
584.6164703317822
 30
0.0
 11
309.8863954580747
 21
584.4837570139097
 31
0.0
  0
LINE
  5
14A4
330
1F
100
AcDbEntity
  8
HEWI
  6
STANDARD
 62
     7
100
AcDbLine
 10
727.6078386343442
 20
583.1721115060982
 30
0.0
 11
731.8783540762369
 21
582.4393844553173
 31
0.0
  0
LINE
  5
14A5
330
1F
100
AcDbEntity
  8
HEWI
  6
STANDARD
 62
     7
100
AcDbLine
 10
723.6283464468442
 20
584.6413421579527
 30
0.0
 11
726.687008861395
 21
583.6691665598091
 31
0.0
  0
LINE
  5
14A6
330
1F
100
AcDbEntity
  8
HEWI
  6
STANDARD
 62
     7
100
AcDbLine
 10
715.9405870474301
 20
589.550628656977
 30
0.0
 11
716.5302248037778
 21
589.3632125803174
 31
0.0
  0
LINE
  5
14A7
330
1F
100
AcDbEntity
  8
HEWI
  6
STANDARD
 62
     7
100
AcDbLine
 10
293.8102693594419
 20
574.4865417429137
 30
0.0
 11
294.5889253653013
 21
576.366424555415
 31
0.0
  0
LINE
  5
14A8
330
1F
100
AcDbEntity
  8
HEWI
  6
STANDARD
 62
     7
100
AcDbLine
 10
292.9405946768247
 20
572.3869323679137
 30
0.0
 11
293.1136293447935
 21
572.8047943063911
 31
0.0
  0
LINE
  5
14A9
330
1F
100
AcDbEntity
  8
HEWI
  6
STANDARD
 62
     7
100
AcDbLine
 10
300.6283540762388
 20
553.8270568796333
 30
0.0
 11
302.519528392645
 21
553.0436706491636
 31
0.0
  0
LINE
  5
14AA
330
1F
100
AcDbEntity
  8
HEWI
  6
STANDARD
 62
     7
100
AcDbLine
 10
339.1892213858091
 20
550.6164550729931
 30
0.0
 11
339.6555299795591
 21
551.6164398142027
 31
0.0
  0
LINE
  5
14AB
330
1F
100
AcDbEntity
  8
HEWI
  6
STANDARD
 62
     7
100
AcDbLine
 10
717.5889558828794
 20
588.3044815012153
 30
0.0
 11
719.6990938223325
 21
587.1654128976988
 31
0.0
  0
LINE
  5
14AC
330
1F
100
AcDbEntity
  8
HEWI
  6
STANDARD
 62
     7
100
AcDbLine
 10
726.687008861395
 20
583.6691665598091
 30
0.0
 11
727.6078386343442
 21
583.1721115060982
 31
0.0
  0
LINE
  5
14AD
330
1F
100
AcDbEntity
  8
HEWI
  6
STANDARD
 62
     7
100
AcDbLine
 10
720.2111024893229
 20
586.6533660837354
 30
0.0
 11
723.6283464468442
 21
584.6413421579527
 31
0.0
  0
LINE
  5
14AE
330
1F
100
AcDbEntity
  8
HEWI
  6
STANDARD
 62
     7
100
AcDbLine
 10
296.1336488760435
 20
578.3795547434019
 30
0.0
 11
297.2110719717448
 21
579.7837066599072
 31
0.0
  0
LINE
  5
14AF
330
1F
100
AcDbEntity
  8
HEWI
  6
STANDARD
 62
     7
100
AcDbLine
 10
294.5889253653013
 20
576.366424555415
 30
0.0
 11
294.9784822500669
 21
576.874084467523
 31
0.0
  0
LINE
  5
14B0
330
1F
100
AcDbEntity
  8
HEWI
  6
STANDARD
 62
     7
100
AcDbLine
 10
300.4979677236997
 20
553.927078241938
 30
0.0
 11
300.6283540762388
 21
553.8270568796333
 31
0.0
  0
LINE
  5
14B1
330
1F
100
AcDbEntity
  8
HEWI
  6
STANDARD
 62
     7
100
AcDbLine
 10
297.2110719717448
 20
556.4492034860791
 30
0.0
 11
298.8233156240903
 21
555.2120971628364
 31
0.0
  0
LINE
  5
14B2
330
1F
100
AcDbEntity
  8
HEWI
  6
STANDARD
 62
     7
100
AcDbLine
 10
746.1677904165708
 20
588.3044815012153
 30
0.0
 11
747.2264833486979
 21
589.3632125803174
 31
0.0
  0
LINE
  5
14B3
330
1F
100
AcDbEntity
  8
HEWI
  6
STANDARD
 62
     7
100
AcDbLine
 10
743.545605663151
 20
586.6533660837354
 30
0.0
 11
744.057614330145
 21
587.1654128976988
 31
0.0
  0
LINE
  5
14B4
330
1F
100
AcDbEntity
  8
HEWI
  6
STANDARD
 62
     7
100
AcDbLine
 10
716.5302248037778
 20
589.3632125803174
 30
0.0
 11
717.5889558828794
 21
588.3044815012153
 31
0.0
  0
LINE
  5
14B5
330
1F
100
AcDbEntity
  8
HEWI
  6
STANDARD
 62
     7
100
AcDbLine
 10
715.3783769644223
 20
590.112838739984
 30
0.0
 11
715.9405870474301
 21
589.550628656977
 31
0.0
  0
ARC
  5
14B6
330
1F
100
AcDbEntity
  8
HEWI
  6
STANDARD
 62
     7
100
AcDbCircle
 10
308.8783275938813
 20
568.1164550729931
 30
0.0
 40
35.00000403522119
100
AcDbArc
 50
29.99999618619853
 51
330.0000038138015
  0
ARC
  5
14B7
330
1F
100
AcDbEntity
  8
HEWI
  6
STANDARD
 62
     7
100
AcDbCircle
 10
308.8785126650118
 20
568.1145924622133
 30
0.0
 40
16.50011748247523
100
AcDbArc
 50
178.2328143305844
 51
269.1157778181431
  0
ARC
  5
14B8
330
1F
100
AcDbEntity
  8
HEWI
  6
STANDARD
 62
     7
100
AcDbCircle
 10
308.8783666632344
 20
568.1145269943636
 30
0.0
 40
16.4999735692057
100
AcDbArc
 50
97.21760870572895
 51
178.2325714684111
  0
LINE
  5
14B9
330
1F
100
AcDbEntity
  8
HEWI
  6
Continuous
100
AcDbLine
 10
306.8053407705747
 20
584.4837570139097
 30
0.0
 11
701.8783540762387
 21
584.5006179758238
 31
0.0
  0
LINE
  5
14BA
330
1F
100
AcDbEntity
  8
HEWI
  6
Continuous
100
AcDbLine
 10
308.6238832510435
 20
551.6164398142027
 30
0.0
 11
701.8783540762387
 21
551.6164398142027
 31
0.0
  0
LINE
  5
14BC
330
1F
100
AcDbEntity
  8
HEWI
  6
STANDARD
 62
     7
100
AcDbLine
 10
1275.280378755095
 20
552.2332000681103
 30
0.0
 11
1275.148847993377
 21
552.1786498972114
 31
0.0
  0
LINE
  5
14BD
330
1F
100
AcDbEntity
  8
HEWI
  6
STANDARD
 62
     7
100
AcDbLine
 10
1287.378309663299
 20
568.1164550729931
 30
0.0
 11
1287.344816621306
 21
568.3710479685005
 31
0.0
  0
LINE
  5
14BE
330
1F
100
AcDbEntity
  8
HEWI
  6
STANDARD
 62
     7
100
AcDbLine
 10
1286.84654086447
 20
563.8459777780699
 30
0.0
 11
1286.816099580291
 21
564.0771484323668
 31
0.0
  0
LINE
  5
14BF
330
1F
100
AcDbEntity
  8
HEWI
  6
STANDARD
 62
     7
100
AcDbLine
 10
1285.248030122283
 20
559.8664855905699
 30
0.0
 11
1285.167768891814
 21
560.0603485056104
 31
0.0
  0
LINE
  5
14C0
330
1F
100
AcDbEntity
  8
HEWI
  6
STANDARD
 62
     7
100
AcDbLine
 10
1203.878324922088
 20
551.6164398142027
 30
0.0
 11
1203.878324922088
 21
584.5006179758238
 31
0.0
  0
LINE
  5
14C1
330
1F
100
AcDbEntity
  8
HEWI
  6
STANDARD
 62
     7
100
AcDbLine
 10
1282.65937655783
 20
556.5974426218199
 30
0.0
 11
1282.545622285371
 21
556.4492034860791
 31
0.0
  0
LINE
  5
14C2
330
1F
100
AcDbEntity
  8
HEWI
  6
STANDARD
 62
     7
100
AcDbLine
 10
1285.167768891814
 20
559.8664855905699
 30
0.0
 11
1283.937757905486
 21
558.2635497995552
 31
0.0
  0
LINE
  5
14C3
330
1F
100
AcDbEntity
  8
HEWI
  6
STANDARD
 62
     7
100
AcDbLine
 10
1280.351179536346
 20
581.4675903268994
 30
0.0
 11
1279.128340180877
 21
582.4058914133252
 31
0.0
  0
LINE
  5
14C4
330
1F
100
AcDbEntity
  8
HEWI
  6
STANDARD
 62
     7
100
AcDbLine
 10
1282.545622285371
 20
579.7837066599072
 30
0.0
 11
1281.887129243377
 21
580.2889633127379
 31
0.0
  0
LINE
  5
14C5
330
1F
100
AcDbEntity
  8
HEWI
  6
STANDARD
 62
     7
100
AcDbLine
 10
1240.567472871306
 20
585.6164550729918
 30
0.0
 11
1240.039289887908
 21
584.4837570139097
 31
0.0
  0
LINE
  5
14C6
330
1F
100
AcDbEntity
  8
HEWI
  6
STANDARD
 62
     7
100
AcDbLine
 10
1286.816099580291
 20
563.8459777780699
 30
0.0
 11
1286.046980317596
 21
561.9889831491637
 31
0.0
  0
LINE
  5
14C7
330
1F
100
AcDbEntity
  8
HEWI
  6
STANDARD
 62
     7
100
AcDbLine
 10
1276.378019746306
 20
583.545112604731
 30
0.0
 11
1275.148847993377
 21
584.0542221018012
 31
0.0
  0
LINE
  5
14C8
330
1F
100
AcDbEntity
  8
HEWI
  6
STANDARD
 62
     7
100
AcDbLine
 10
1279.128340180877
 20
582.4058914133252
 30
0.0
 11
1278.182600434783
 21
582.7976226755322
 31
0.0
  0
LINE
  5
14C9
330
1F
100
AcDbEntity
  8
HEWI
  6
STANDARD
 62
     7
100
AcDbLine
 10
1287.378309663299
 20
568.1164550729931
 30
0.0
 11
1287.11738437033
 21
566.1343383737744
 31
0.0
  0
LINE
  5
14CB
330
1F
100
AcDbEntity
  8
HEWI
  6
STANDARD
 62
     7
100
AcDbLine
 10
1275.148847993377
 20
584.0542221018012
 30
0.0
 11
1273.936842378142
 21
584.2137908884224
 31
0.0
  0
LINE
  5
14CC
330
1F
100
AcDbEntity
  8
HEWI
  6
STANDARD
 62
     7
100
AcDbLine
 10
1287.128370698455
 20
570.0151061960387
 30
0.0
 11
1286.816099580291
 21
572.3869323679137
 31
0.0
  0
LINE
  5
14CD
330
1F
100
AcDbEntity
  8
HEWI
  6
STANDARD
 62
     7
100
AcDbLine
 10
1275.148847993377
 20
552.1786498972114
 30
0.0
 11
1273.099287446502
 21
551.9088745065864
 31
0.0
  0
LINE
  5
14CF
330
1F
100
AcDbEntity
  8
HEWI
  6
STANDARD
 62
     7
100
AcDbLine
 10
1285.946424897673
 20
574.4865417429137
 30
0.0
 11
1285.167768891814
 21
576.366424555415
 31
0.0
  0
LINE
  5
14D0
330
1F
100
AcDbEntity
  8
HEWI
  6
STANDARD
 62
     7
100
AcDbLine
 10
1286.816099580291
 20
572.3869323679137
 30
0.0
 11
1286.643064912322
 21
572.8047943063911
 31
0.0
  0
LINE
  5
14D1
330
1F
100
AcDbEntity
  8
HEWI
  6
STANDARD
 62
     7
100
AcDbLine
 10
1279.128340180877
 20
553.8270568796333
 30
0.0
 11
1277.237165864471
 21
553.0436706491636
 31
0.0
  0
LINE
  5
14D2
330
1F
100
AcDbEntity
  8
HEWI
  6
STANDARD
 62
     7
100
AcDbLine
 10
1240.567472871306
 20
550.6164550729931
 30
0.0
 11
1240.101164277557
 21
551.6164398142027
 31
0.0
  0
LINE
  5
14D3
330
1F
100
AcDbEntity
  8
HEWI
  6
STANDARD
 62
     7
100
AcDbLine
 10
1283.623045381072
 20
578.3795547434019
 30
0.0
 11
1282.545622285371
 21
579.7837066599072
 31
0.0
  0
LINE
  5
14D4
330
1F
100
AcDbEntity
  8
HEWI
  6
STANDARD
 62
     7
100
AcDbLine
 10
1285.167768891814
 20
576.366424555415
 30
0.0
 11
1284.778212007049
 21
576.874084467523
 31
0.0
  0
LINE
  5
14D5
330
1F
100
AcDbEntity
  8
HEWI
  6
STANDARD
 62
     7
100
AcDbLine
 10
1279.258726533416
 20
553.927078241938
 30
0.0
 11
1279.128340180877
 21
553.8270568796333
 31
0.0
  0
LINE
  5
14D6
330
1F
100
AcDbEntity
  8
HEWI
  6
STANDARD
 62
     7
100
AcDbLine
 10
1282.545622285371
 20
556.4492034860791
 30
0.0
 11
1280.933378633025
 21
555.2120971628364
 31
0.0
  0
ARC
  5
14D7
330
1F
100
AcDbEntity
  8
HEWI
  6
STANDARD
 62
     7
100
AcDbCircle
 10
1270.878366663234
 20
568.1164550729931
 30
0.0
 40
35.00000403522119
100
AcDbArc
 50
209.9999961861985
 51
150.0000038138014
  0
ARC
  5
14D8
330
1F
100
AcDbEntity
  8
HEWI
  6
STANDARD
 62
     7
100
AcDbCircle
 10
1270.878181592104
 20
568.1145924622133
 30
0.0
 40
16.50011748247523
100
AcDbArc
 50
270.8842221818569
 51
1.767185669415573
  0
ARC
  5
14D9
330
1F
100
AcDbEntity
  8
HEWI
  6
STANDARD
 62
     7
100
AcDbCircle
 10
1270.878176329363
 20
568.1144658145097
 30
0.0
 40
16.50012664880081
100
AcDbArc
 50
1.767624673884989
 51
89.99933907613682
  0
LINE
  5
150B
330
1F
100
AcDbEntity
  8
HEWI
  6
STANDARD
 62
     7
100
AcDbLine
 10
375.8783693350279
 20
290.9425520204895
 30
0.0000000000000074
 11
375.8783693350279
 21
323.8267301821106
 31
0.0000000000000074
  0
LINE
  5
150C
330
1F
100
AcDbEntity
  8
HEWI
  6
STANDARD
 62
     7
100
AcDbLine
 10
1203.878324922088
 20
290.9425520204895
 30
0.0000000000000074
 11
1203.878324922088
 21
323.8267301821106
 31
0.0000000000000074
  0
ENDSEC
  0
SECTION
  2
OBJECTS
  0
DICTIONARY
  5
C
330
0
100
AcDbDictionary
281
     1
  3
ACAD_CIP_PREVIOUS_PRODUCT_INFO
350
1020
  3
ACAD_COLOR
350
6B
  3
ACAD_DETAILVIEWSTYLE
350
1019
  3
ACAD_GROUP
350
D
  3
ACAD_LAYOUT
350
1A
  3
ACAD_MATERIAL
350
6A
  3
ACAD_MLEADERSTYLE
350
1015
  3
ACAD_MLINESTYLE
350
17
  3
ACAD_PLOTSETTINGS
350
19
  3
ACAD_PLOTSTYLENAME
350
E
  3
ACAD_SCALELIST
350
1003
  3
ACAD_SECTIONVIEWSTYLE
350
1017
  3
ACAD_TABLESTYLE
350
1001
  3
ACAD_VISUALSTYLE
350
FE8
  3
ACDB_RECOMPOSE_DATA
350
1558
  3
ACDBVARIABLEDICTIONARY
350
5E
  0
DICTIONARY
  5
150D
330
10
100
AcDbDictionary
280
     1
281
     1
  3
ADSK_XREC_LAYER_RECONCILED
360
150E
  0
DICTIONARY
  5
150F
330
88
100
AcDbDictionary
280
     1
281
     1
  3
ADSK_XREC_LAYER_RECONCILED
360
1510
  0
DICTIONARY
  5
111F
330
111E
100
AcDbDictionary
280
     1
281
     1
  3
ADSK_XREC_LAYER_RECONCILED
360
1511
  0
DICTIONARY
  5
FC8
330
1F
100
AcDbDictionary
280
     1
281
     1
  3
ACAD_LAYOUTSELFREF
360
FC9
  3
ACAD_SORTENTS
360
1072
  0
DICTIONARY
  5
FCA
330
50
100
AcDbDictionary
280
     1
281
     1
  3
ACAD_LAYOUTSELFREF
360
FCB
  0
XRECORD
  5
1020
102
{ACAD_REACTORS
330
C
102
}
330
C
100
AcDbXrecord
280
     1
300
ACDLT
300
2016
300
ACDLT_F_S
  0
DICTIONARY
  5
6B
102
{ACAD_REACTORS
330
C
102
}
330
C
100
AcDbDictionary
281
     1
  0
DICTIONARY
  5
1019
102
{ACAD_REACTORS
330
C
102
}
330
C
100
AcDbDictionary
281
     1
  3
Imperial24
350
1124
  3
Metric50
350
101A
  0
DICTIONARY
  5
D
102
{ACAD_REACTORS
330
C
102
}
330
C
100
AcDbDictionary
281
     1
  0
DICTIONARY
  5
1A
102
{ACAD_REACTORS
330
C
102
}
330
C
100
AcDbDictionary
281
     1
  3
Layout1
350
101C
  3
Model
350
101B
  0
DICTIONARY
  5
6A
102
{ACAD_REACTORS
330
C
102
}
330
C
100
AcDbDictionary
281
     1
  3
ByBlock
350
FD8
  3
ByLayer
350
FD0
  3
Global
350
FE0
  0
DICTIONARY
  5
1015
102
{ACAD_REACTORS
330
C
102
}
330
C
100
AcDbDictionary
281
     1
  3
Standard
350
1016
  0
DICTIONARY
  5
17
102
{ACAD_REACTORS
330
C
102
}
330
C
100
AcDbDictionary
281
     1
  3
STANDARD
350
18
  0
DICTIONARY
  5
19
102
{ACAD_REACTORS
330
C
102
}
330
C
100
AcDbDictionary
281
     1
  0
ACDBDICTIONARYWDFLT
  5
E
102
{ACAD_REACTORS
330
C
102
}
330
C
100
AcDbDictionary
281
     1
  3
Normal
350
F
100
AcDbDictionaryWithDefault
340
F
  0
DICTIONARY
  5
1003
102
{ACAD_REACTORS
330
C
102
}
330
C
100
AcDbDictionary
281
     1
  3
A0
350
1004
  3
A1
350
1005
  3
A2
350
1006
  3
A3
350
1007
  3
A4
350
1008
  3
A5
350
1009
  3
A6
350
100A
  3
A7
350
100B
  3
A8
350
100C
  3
A9
350
100D
  3
B0
350
100E
  3
B1
350
100F
  3
B2
350
1010
  3
B3
350
1011
  3
B4
350
1012
  3
B5
350
1013
  3
B6
350
1014
  0
DICTIONARY
  5
1017
102
{ACAD_REACTORS
330
C
102
}
330
C
100
AcDbDictionary
281
     1
  3
Imperial24
350
1123
  3
Metric50
350
1018
  0
DICTIONARY
  5
1001
102
{ACAD_REACTORS
330
C
102
}
330
C
100
AcDbDictionary
281
     1
  3
Standard
350
1002
  0
DICTIONARY
  5
FE8
102
{ACAD_REACTORS
330
C
102
}
330
C
100
AcDbDictionary
281
     1
  3
2dWireframe
350
FEE
  3
Basic
350
FED
  3
Brighten
350
FF4
  3
ColorChange
350
FF8
  3
Conceptual
350
FF1
  3
Dim
350
FF3
  3
EdgeColorOff
350
1000
  3
Facepattern
350
FF7
  3
Flat
350
FE9
  3
FlatWithEdges
350
FEA
  3
Gouraud
350
FEB
  3
GouraudWithEdges
350
FEC
  3
Hidden
350
FF0
  3
JitterOff
350
FFE
  3
Linepattern
350
FF6
  3
OverhangOff
350
FFF
  3
Realistic
350
FF2
  3
Shaded
350
FFD
  3
Shaded with edges
350
FFC
  3
Shades of Gray
350
FF9
  3
Sketchy
350
FFA
  3
Thicken
350
FF5
  3
Wireframe
350
FEF
  3
X-Ray
350
FFB
  0
XRECORD
  5
1558
102
{ACAD_REACTORS
330
C
102
}
330
C
100
AcDbXrecord
280
     1
 90
        1
330
1002
  0
DICTIONARY
  5
5E
102
{ACAD_REACTORS
330
C
102
}
330
C
100
AcDbDictionary
281
     1
  3
CANNOSCALE
350
1517
  3
CMLEADERSTYLE
350
1513
  3
CTABLESTYLE
350
1512
  3
CVIEWDETAILSTYLE
350
1514
  3
CVIEWSECTIONSTYLE
350
1515
  3
DIMASSOC
350
5F
  3
HIDETEXT
350
63
  3
LAYEREVAL
350
1519
  3
LAYERNOTIFY
350
151A
  3
LIGHTINGUNITS
350
1518
  3
MSLTSCALE
350
1516
  3
PROJECTNAME
350
23B
  0
XRECORD
  5
150E
102
{ACAD_REACTORS
330
150D
102
}
330
150D
100
AcDbXrecord
280
     1
290
     1
  0
XRECORD
  5
1510
102
{ACAD_REACTORS
330
150F
102
}
330
150F
100
AcDbXrecord
280
     1
290
     1
  0
XRECORD
  5
1511
102
{ACAD_REACTORS
330
111F
102
}
330
111F
100
AcDbXrecord
280
     1
290
     1
  0
XRECORD
  5
FC9
102
{ACAD_REACTORS
330
FC8
102
}
330
FC8
100
AcDbXrecord
280
     1
340
1F
  0
SORTENTSTABLE
  5
1072
102
{ACAD_REACTORS
330
FC8
102
}
330
FC8
100
AcDbSortentsTable
330
1F
  0
XRECORD
  5
FCB
102
{ACAD_REACTORS
330
FCA
102
}
330
FCA
100
AcDbXrecord
280
     1
340
50
  0
ACDBDETAILVIEWSTYLE
  5
1124
102
{ACAD_XDICTIONARY
360
158F
102
}
102
{ACAD_REACTORS
330
1019
102
}
330
1019
100
AcDbModelDocViewStyle
 70
     0
  3
Imperial24
290
     0
100
AcDbDetailViewStyle
 70
     0
 71
     0
 90
        3
 71
     1
340
11
 62
   256
 40
0.24
340
0
 62
   256
 40
0.24
300

 40
0.36
280
     3
 71
     2
340
16
 90
       25
 62
   256
 71
     3
340
11
 62
   256
 40
0.24
 90
        1
 40
0.75
 90
        1
300
%<\AcVar ViewType \f "%tc1">% %<\AcVar ViewDetailId>%\PVARIA %<\AcVar ViewScale \f "%sn">%
 71
     4
340
16
 90
       25
 62
   256
340
16
 90
       25
 62
   256
280
     0
  0
ACDBDETAILVIEWSTYLE
  5
101A
102
{ACAD_XDICTIONARY
360
158B
102
}
102
{ACAD_REACTORS
330
1019
102
}
330
1019
100
AcDbModelDocViewStyle
 70
     0
  3
Metric50
290
     0
100
AcDbDetailViewStyle
 70
     0
 71
     0
 90
        3
 71
     1
340
11
 62
   256
 40
5.0
340
0
 62
   256
 40
5.0
300

 40
0.0
280
     1
 71
     2
340
16
 90
       25
 62
   256
 71
     3
340
11
 62
   256
 40
5.0
 90
        0
 40
15.0
 90
        1
300
%<\AcVar ViewDetailId>% (%<\AcVar ViewScale \f "%sn">%)
 71
     4
340
16
 90
       25
 62
   256
340
16
 90
       25
 62
   256
280
     0
  0
LAYOUT
  5
101C
102
{ACAD_REACTORS
330
1A
102
}
330
1A
100
AcDbPlotSettings
  1

  2
\\srvadruck01\MFSA15
  4

  6

 40
0.0
 41
0.0
 42
0.0
 43
0.0
 44
0.0
 45
0.0
 46
0.0
 47
0.0
 48
0.0
 49
0.0
140
0.0
141
0.0
142
1.0
143
1.0
 70
   688
 72
     0
 73
     0
 74
     5
  7

 75
    16
147
1.0
 76
     0
 77
     2
 78
   300
148
0.0
149
0.0
100
AcDbLayout
  1
Layout1
 70
     1
 71
     1
 10
0.0
 20
0.0
 11
12.0
 21
9.0
 12
0.0
 22
0.0
 32
0.0
 14
0.0
 24
0.0
 34
0.0
 15
0.0
 25
0.0
 35
0.0
146
0.0
 13
0.0
 23
0.0
 33
0.0
 16
1.0
 26
0.0
 36
0.0
 17
0.0
 27
1.0
 37
0.0
 76
     0
330
50
  0
LAYOUT
  5
101B
102
{ACAD_REACTORS
330
1A
102
}
330
1A
100
AcDbPlotSettings
  1

  2
\\srvadruck01\MFSA15
  4

  6

 40
0.0
 41
0.0
 42
0.0
 43
0.0
 44
0.0
 45
0.0
 46
0.0
 47
0.0
 48
0.0
 49
0.0
140
0.0
141
0.0
142
1.0
143
1.0
 70
  1712
 72
     0
 73
     0
 74
     0
  7

 75
     0
147
1.0
 76
     0
 77
     2
 78
   300
148
0.0
149
0.0
100
AcDbLayout
  1
Model
 70
     1
 71
     0
 10
0.0
 20
0.0
 11
12.0
 21
9.0
 12
0.0
 22
0.0
 32
0.0
 14
0.0
 24
0.0
 34
0.0
 15
0.0
 25
0.0
 35
0.0
146
0.0
 13
0.0
 23
0.0
 33
0.0
 16
1.0
 26
0.0
 36
0.0
 17
0.0
 27
1.0
 37
0.0
 76
     0
330
1F
331
FA6
  0
MATERIAL
  5
FD8
102
{ACAD_XDICTIONARY
360
FD9
102
}
102
{ACAD_REACTORS
330
6A
102
}
330
6A
100
AcDbMaterial
  1
ByBlock
 72
     0
 43
0.0008202099737533
 43
0.0
 43
0.0
 43
0.0
 43
0.0
 43
0.0008202099737533
 43
0.0
 43
0.0
 43
0.0
 43
0.0
 43
1.0
 43
0.0
 43
0.0
 43
0.0
 43
0.0
 43
1.0
 77
     0
 47
0.0008202099737533
 47
0.0
 47
0.0
 47
0.0
 47
0.0
 47
0.0008202099737533
 47
0.0
 47
0.0
 47
0.0
 47
0.0
 47
1.0
 47
0.0
 47
0.0
 47
0.0
 47
0.0
 47
1.0
171
     0
 49
0.0008202099737533
 49
0.0
 49
0.0
 49
0.0
 49
0.0
 49
0.0008202099737533
 49
0.0
 49
0.0
 49
0.0
 49
0.0
 49
1.0
 49
0.0
 49
0.0
 49
0.0
 49
0.0
 49
1.0
175
     0
142
0.0008202099737533
142
0.0
142
0.0
142
0.0
142
0.0
142
0.0008202099737533
142
0.0
142
0.0
142
0.0
142
0.0
142
1.0
142
0.0
142
0.0
142
0.0
142
0.0
142
1.0
179
     0
144
0.0008202099737533
144
0.0
144
0.0
144
0.0
144
0.0
144
0.0008202099737533
144
0.0
144
0.0
144
0.0
144
0.0
144
1.0
144
0.0
144
0.0
144
0.0
144
0.0
144
1.0
147
0.0008202099737533
147
0.0
147
0.0
147
0.0
147
0.0
147
0.0008202099737533
147
0.0
147
0.0
147
0.0
147
0.0
147
1.0
147
0.0
147
0.0
147
0.0
147
0.0
147
1.0
  0
MATERIAL
  5
FD0
102
{ACAD_XDICTIONARY
360
FD1
102
}
102
{ACAD_REACTORS
330
6A
102
}
330
6A
100
AcDbMaterial
  1
ByLayer
 72
     0
 43
0.0008202099737533
 43
0.0
 43
0.0
 43
0.0
 43
0.0
 43
0.0008202099737533
 43
0.0
 43
0.0
 43
0.0
 43
0.0
 43
1.0
 43
0.0
 43
0.0
 43
0.0
 43
0.0
 43
1.0
 77
     0
 47
0.0008202099737533
 47
0.0
 47
0.0
 47
0.0
 47
0.0
 47
0.0008202099737533
 47
0.0
 47
0.0
 47
0.0
 47
0.0
 47
1.0
 47
0.0
 47
0.0
 47
0.0
 47
0.0
 47
1.0
171
     0
 49
0.0008202099737533
 49
0.0
 49
0.0
 49
0.0
 49
0.0
 49
0.0008202099737533
 49
0.0
 49
0.0
 49
0.0
 49
0.0
 49
1.0
 49
0.0
 49
0.0
 49
0.0
 49
0.0
 49
1.0
175
     0
142
0.0008202099737533
142
0.0
142
0.0
142
0.0
142
0.0
142
0.0008202099737533
142
0.0
142
0.0
142
0.0
142
0.0
142
1.0
142
0.0
142
0.0
142
0.0
142
0.0
142
1.0
179
     0
144
0.0008202099737533
144
0.0
144
0.0
144
0.0
144
0.0
144
0.0008202099737533
144
0.0
144
0.0
144
0.0
144
0.0
144
1.0
144
0.0
144
0.0
144
0.0
144
0.0
144
1.0
147
0.0008202099737533
147
0.0
147
0.0
147
0.0
147
0.0
147
0.0008202099737533
147
0.0
147
0.0
147
0.0
147
0.0
147
1.0
147
0.0
147
0.0
147
0.0
147
0.0
147
1.0
  0
MATERIAL
  5
FE0
102
{ACAD_XDICTIONARY
360
FE1
102
}
102
{ACAD_REACTORS
330
6A
102
}
330
6A
100
AcDbMaterial
  1
Global
 72
     0
 43
0.0008202099737533
 43
0.0
 43
0.0
 43
0.0
 43
0.0
 43
0.0008202099737533
 43
0.0
 43
0.0
 43
0.0
 43
0.0
 43
1.0
 43
0.0
 43
0.0
 43
0.0
 43
0.0
 43
1.0
 77
     0
 47
0.0008202099737533
 47
0.0
 47
0.0
 47
0.0
 47
0.0
 47
0.0008202099737533
 47
0.0
 47
0.0
 47
0.0
 47
0.0
 47
1.0
 47
0.0
 47
0.0
 47
0.0
 47
0.0
 47
1.0
171
     0
 49
0.0008202099737533
 49
0.0
 49
0.0
 49
0.0
 49
0.0
 49
0.0008202099737533
 49
0.0
 49
0.0
 49
0.0
 49
0.0
 49
1.0
 49
0.0
 49
0.0
 49
0.0
 49
0.0
 49
1.0
175
     0
142
0.0008202099737533
142
0.0
142
0.0
142
0.0
142
0.0
142
0.0008202099737533
142
0.0
142
0.0
142
0.0
142
0.0
142
1.0
142
0.0
142
0.0
142
0.0
142
0.0
142
1.0
179
     0
144
0.0008202099737533
144
0.0
144
0.0
144
0.0
144
0.0
144
0.0008202099737533
144
0.0
144
0.0
144
0.0
144
0.0
144
1.0
144
0.0
144
0.0
144
0.0
144
0.0
144
1.0
147
0.0008202099737533
147
0.0
147
0.0
147
0.0
147
0.0
147
0.0008202099737533
147
0.0
147
0.0
147
0.0
147
0.0
147
1.0
147
0.0
147
0.0
147
0.0
147
0.0
147
1.0
  0
MLEADERSTYLE
  5
1016
102
{ACAD_REACTORS
330
1015
102
}
330
1015
100
AcDbMLeaderStyle
179
     2
170
     2
171
     1
172
     0
 90
        2
 40
0.0
 41
0.0
173
     1
 91
-1056964608
340
14
 92
       -2
290
     1
 42
2.0
291
     1
 43
0.36
  3
Standard
 44
4.0
300

342
11
174
     1
178
     6
175
     1
176
     0
 93
-1056964608
 45
4.0
292
     0
297
     0
 46
4.0
 94
-1056964608
 47
1.0
 49
1.0
140
1.0
293
     1
141
0.0
294
     1
177
     0
142
1.0
295
     0
296
     0
143
0.125
271
     0
272
     9
273
     9
  0
MLINESTYLE
  5
18
102
{ACAD_REACTORS
330
17
102
}
330
17
100
AcDbMlineStyle
  2
STANDARD
 70
     0
  3

 62
   256
 51
90.0
 52
90.0
 71
     2
 49
0.5
 62
   256
  6
BYLAYER
 49
-0.5
 62
   256
  6
BYLAYER
  0
ACDBPLACEHOLDER
  5
F
102
{ACAD_REACTORS
330
E
102
}
330
E
  0
SCALE
  5
1004
102
{ACAD_REACTORS
330
1003
102
}
330
1003
100
AcDbScale
 70
     0
300
1:1
140
1.0
141
1.0
290
     1
  0
SCALE
  5
1005
102
{ACAD_REACTORS
330
1003
102
}
330
1003
100
AcDbScale
 70
     0
300
1:2
140
1.0
141
2.0
290
     0
  0
SCALE
  5
1006
102
{ACAD_REACTORS
330
1003
102
}
330
1003
100
AcDbScale
 70
     0
300
1:4
140
1.0
141
4.0
290
     0
  0
SCALE
  5
1007
102
{ACAD_REACTORS
330
1003
102
}
330
1003
100
AcDbScale
 70
     0
300
1:5
140
1.0
141
5.0
290
     0
  0
SCALE
  5
1008
102
{ACAD_REACTORS
330
1003
102
}
330
1003
100
AcDbScale
 70
     0
300
1:8
140
1.0
141
8.0
290
     0
  0
SCALE
  5
1009
102
{ACAD_REACTORS
330
1003
102
}
330
1003
100
AcDbScale
 70
     0
300
1:10
140
1.0
141
10.0
290
     0
  0
SCALE
  5
100A
102
{ACAD_REACTORS
330
1003
102
}
330
1003
100
AcDbScale
 70
     0
300
1:16
140
1.0
141
16.0
290
     0
  0
SCALE
  5
100B
102
{ACAD_REACTORS
330
1003
102
}
330
1003
100
AcDbScale
 70
     0
300
1:20
140
1.0
141
20.0
290
     0
  0
SCALE
  5
100C
102
{ACAD_REACTORS
330
1003
102
}
330
1003
100
AcDbScale
 70
     0
300
1:30
140
1.0
141
30.0
290
     0
  0
SCALE
  5
100D
102
{ACAD_REACTORS
330
1003
102
}
330
1003
100
AcDbScale
 70
     0
300
1:40
140
1.0
141
40.0
290
     0
  0
SCALE
  5
100E
102
{ACAD_REACTORS
330
1003
102
}
330
1003
100
AcDbScale
 70
     0
300
1:50
140
1.0
141
50.0
290
     0
  0
SCALE
  5
100F
102
{ACAD_REACTORS
330
1003
102
}
330
1003
100
AcDbScale
 70
     0
300
1:100
140
1.0
141
100.0
290
     0
  0
SCALE
  5
1010
102
{ACAD_REACTORS
330
1003
102
}
330
1003
100
AcDbScale
 70
     0
300
2:1
140
2.0
141
1.0
290
     0
  0
SCALE
  5
1011
102
{ACAD_REACTORS
330
1003
102
}
330
1003
100
AcDbScale
 70
     0
300
4:1
140
4.0
141
1.0
290
     0
  0
SCALE
  5
1012
102
{ACAD_REACTORS
330
1003
102
}
330
1003
100
AcDbScale
 70
     0
300
8:1
140
8.0
141
1.0
290
     0
  0
SCALE
  5
1013
102
{ACAD_REACTORS
330
1003
102
}
330
1003
100
AcDbScale
 70
     0
300
10:1
140
10.0
141
1.0
290
     0
  0
SCALE
  5
1014
102
{ACAD_REACTORS
330
1003
102
}
330
1003
100
AcDbScale
 70
     0
300
100:1
140
100.0
141
1.0
290
     0
  0
ACDBSECTIONVIEWSTYLE
  5
1123
102
{ACAD_XDICTIONARY
360
158D
102
}
102
{ACAD_REACTORS
330
1017
102
}
330
1017
100
AcDbModelDocViewStyle
 70
     0
  3
Imperial24
290
     0
100
AcDbSectionViewStyle
 70
     0
 71
     0
 90
       78
 71
     1
340
11
 62
   256
 40
0.24
340
0
340
0
 62
   256
 40
0.24
300
I, O, Q, S, X, Z
 40
0.48
 90
        3
 40
0.18
 90
        1
 71
     2
340
16
 90
       25
 62
   256
340
16
 90
       50
 62
   256
 40
0.24
 40
0.0
 40
0.24
 71
     3
340
11
 62
   256
 40
0.24
 90
        1
 40
0.75
 90
        1
300
%<\AcVar ViewType \f "%tc1">% %<\AcVar ViewSectionStartId>%-%<\AcVar ViewSectionEndId>%\PVARIA %<\AcVar ViewScale \f "%sn">%
 71
     4
 62
   256
 62
   257
300
ANSI31
 40
1.0
 90
        0
290
     0
290
     0
 90
        6
 40
0.0
 40
1.570796326794896
 40
0.2617993877991494
 40
1.308996938995747
 40
-0.2617993877991494
 40
1.832595714594046
  0
ACDBSECTIONVIEWSTYLE
  5
1018
102
{ACAD_XDICTIONARY
360
1589
102
}
102
{ACAD_REACTORS
330
1017
102
}
330
1017
100
AcDbModelDocViewStyle
 70
     0
  3
Metric50
290
     0
100
AcDbSectionViewStyle
 70
     0
 71
     0
 90
      102
 71
     1
340
11
 62
   256
 40
5.0
340
0
340
0
 62
   256
 40
5.0
300
I, O, Q, S, X, Z
 40
10.0
 90
        0
 40
2.5
 90
        0
 71
     2
340
16
 90
       25
 62
   256
340
16
 90
       50
 62
   256
 40
5.0
 40
2.5
 40
5.0
 71
     3
340
11
 62
   256
 40
5.0
 90
        0
 40
15.0
 90
        1
300
%<\AcVar ViewSectionStartId>%-%<\AcVar ViewSectionEndId>% (%<\AcVar ViewScale \f "%sn">%)
 71
     4
 62
   256
 62
   257
300
ANSI31
 40
1.0
 90
        0
290
     0
290
     0
 90
        6
 40
0.0
 40
1.570796326794896
 40
0.2617993877991494
 40
1.308996938995747
 40
-0.2617993877991494
 40
1.832595714594046
  0
TABLESTYLE
  5
1002
102
{ACAD_XDICTIONARY
360
1556
102
}
102
{ACAD_REACTORS
330
1001
102
}
330
1001
100
AcDbTableStyle
280
     0
  3
Standard
 70
     0
 71
     0
 40
1.5
 41
1.5
280
     0
281
     0
  7
STANDARD
140
4.5
170
     2
 62
     0
 63
     7
283
     0
 90
      512
 91
        0
  1

274
    -2
284
     1
 64
     0
275
    -2
285
     1
 65
     0
276
    -2
286
     1
 66
     0
277
    -2
287
     1
 67
     0
278
    -2
288
     1
 68
     0
279
    -2
289
     1
 69
     0
  7
STANDARD
140
6.0
170
     5
 62
     0
 63
     7
283
     0
 90
      512
 91
        0
  1

274
    -2
284
     1
 64
     0
275
    -2
285
     1
 65
     0
276
    -2
286
     1
 66
     0
277
    -2
287
     1
 67
     0
278
    -2
288
     1
 68
     0
279
    -2
289
     1
 69
     0
  7
STANDARD
140
4.5
170
     5
 62
     0
 63
     7
283
     0
 90
      512
 91
        0
  1

274
    -2
284
     1
 64
     0
275
    -2
285
     1
 65
     0
276
    -2
286
     1
 66
     0
277
    -2
287
     1
 67
     0
278
    -2
288
     1
 68
     0
279
    -2
289
     1
 69
     0
  0
VISUALSTYLE
  5
FEE
102
{ACAD_XDICTIONARY
360
1563
102
}
102
{ACAD_REACTORS
330
FE8
102
}
330
FE8
100
AcDbVisualStyle
  2
2dWireframe
 70
     4
177
     2
291
     0
 71
     0
176
     1
 72
     2
176
     1
 73
     0
176
     1
 90
        0
176
     1
 40
0.6
176
     1
 41
30.0
176
     1
 63
     7
421
 16777215
176
     1
 74
     1
176
     1
 91
        4
176
     1
 64
     7
176
     1
 65
   257
176
     1
 75
     1
176
     1
175
     1
176
     1
 42
1.0
176
     1
 92
        0
176
     1
 66
   257
176
     1
 43
1.0
176
     1
 76
     1
176
     1
 77
     6
176
     1
 78
     2
176
     1
 67
     7
176
     1
 79
     5
176
     1
170
     0
176
     1
171
     0
176
     1
290
     0
176
     1
 93
        1
176
     1
 44
0.0
176
     1
173
     0
176
     1
1001
ACAD
1000
AcDbSavedByObjectVersion
1070
     0
  0
VISUALSTYLE
  5
FED
102
{ACAD_XDICTIONARY
360
1561
102
}
102
{ACAD_REACTORS
330
FE8
102
}
330
FE8
100
AcDbVisualStyle
  2
Basic
 70
     7
177
     2
291
     1
 71
     1
176
     1
 72
     0
176
     1
 73
     1
176
     1
 90
        0
176
     1
 40
0.6
176
     1
 41
30.0
176
     1
 63
     7
421
 16777215
176
     1
 74
     0
176
     1
 91
        4
176
     1
 64
     7
176
     1
 65
   257
176
     1
 75
     1
176
     1
175
     1
176
     1
 42
1.0
176
     1
 92
        8
176
     1
 66
     7
176
     1
 43
1.0
176
     1
 76
     1
176
     1
 77
     6
176
     1
 78
     2
176
     1
 67
     7
176
     1
 79
     5
176
     1
170
     0
176
     1
171
     0
176
     1
290
     0
176
     1
 93
        1
176
     1
 44
0.0
176
     1
173
     0
176
     1
1001
ACAD
1000
AcDbSavedByObjectVersion
1070
     0
  0
VISUALSTYLE
  5
FF4
102
{ACAD_XDICTIONARY
360
156F
102
}
102
{ACAD_REACTORS
330
FE8
102
}
330
FE8
100
AcDbVisualStyle
  2
Brighten
 70
    12
177
     2
291
     1
 71
     2
176
     1
 72
     2
176
     1
 73
     0
176
     1
 90
        0
176
     1
 40
0.6
176
     1
 41
30.0
176
     1
 63
     7
421
 16777215
176
     1
 74
     1
176
     1
 91
        4
176
     1
 64
     7
176
     1
 65
   257
176
     1
 75
     1
176
     1
175
     1
176
     1
 42
1.0
176
     1
 92
        8
176
     1
 66
     7
176
     1
 43
1.0
176
     1
 76
     1
176
     1
 77
     6
176
     1
 78
     2
176
     1
 67
     7
176
     1
 79
     5
176
     1
170
     0
176
     1
171
     0
176
     1
290
     0
176
     1
 93
        1
176
     1
 44
50.0
176
     1
173
     0
176
     1
1001
ACAD
1000
AcDbSavedByObjectVersion
1070
     0
  0
VISUALSTYLE
  5
FF8
102
{ACAD_XDICTIONARY
360
1577
102
}
102
{ACAD_REACTORS
330
FE8
102
}
330
FE8
100
AcDbVisualStyle
  2
ColorChange
 70
    16
177
     2
291
     1
 71
     2
176
     1
 72
     2
176
     1
 73
     3
176
     1
 90
        0
176
     1
 40
0.6
176
     1
 41
30.0
176
     1
 63
     8
421
  8421504
176
     1
 74
     1
176
     1
 91
        4
176
     1
 64
     7
176
     1
 65
   257
176
     1
 75
     1
176
     1
175
     1
176
     1
 42
1.0
176
     1
 92
        8
176
     1
 66
     8
424
  8421504
176
     1
 43
1.0
176
     1
 76
     1
176
     1
 77
     6
176
     1
 78
     2
176
     1
 67
     7
176
     1
 79
     5
176
     1
170
     0
176
     1
171
     0
176
     1
290
     0
176
     1
 93
        1
176
     1
 44
0.0
176
     1
173
     0
176
     1
1001
ACAD
1000
AcDbSavedByObjectVersion
1070
     0
  0
VISUALSTYLE
  5
FF1
102
{ACAD_XDICTIONARY
360
1569
102
}
102
{ACAD_REACTORS
330
FE8
102
}
330
FE8
100
AcDbVisualStyle
  2
Conceptual
 70
     9
177
     2
291
     0
 71
     3
176
     1
 72
     2
176
     1
 73
     0
176
     1
 90
        0
176
     1
 40
0.6
176
     1
 41
30.0
176
     1
 63
     7
421
 16777215
176
     1
 74
     2
176
     1
 91
        2
176
     1
 64
     7
176
     1
 65
   257
176
     1
 75
     1
176
     1
175
     1
176
     1
 42
179.0
176
     1
 92
        8
176
     1
 66
     7
176
     1
 43
1.0
176
     1
 76
     1
176
     1
 77
     6
176
     1
 78
     2
176
     1
 67
     7
176
     1
 79
     3
176
     1
170
     0
176
     1
171
     0
176
     1
290
     0
176
     1
 93
        1
176
     1
 44
0.0
176
     1
173
     0
176
     1
1001
ACAD
1000
AcDbSavedByObjectVersion
1070
     0
  0
VISUALSTYLE
  5
FF3
102
{ACAD_XDICTIONARY
360
156D
102
}
102
{ACAD_REACTORS
330
FE8
102
}
330
FE8
100
AcDbVisualStyle
  2
Dim
 70
    11
177
     2
291
     1
 71
     2
176
     1
 72
     2
176
     1
 73
     0
176
     1
 90
        0
176
     1
 40
0.6
176
     1
 41
30.0
176
     1
 63
     7
421
 16777215
176
     1
 74
     1
176
     1
 91
        4
176
     1
 64
     7
176
     1
 65
   257
176
     1
 75
     1
176
     1
175
     1
176
     1
 42
1.0
176
     1
 92
        8
176
     1
 66
     7
176
     1
 43
1.0
176
     1
 76
     1
176
     1
 77
     6
176
     1
 78
     2
176
     1
 67
     7
176
     1
 79
     5
176
     1
170
     0
176
     1
171
     0
176
     1
290
     0
176
     1
 93
        1
176
     1
 44
-50.0
176
     1
173
     0
176
     1
1001
ACAD
1000
AcDbSavedByObjectVersion
1070
     0
  0
VISUALSTYLE
  5
1000
102
{ACAD_XDICTIONARY
360
1587
102
}
102
{ACAD_REACTORS
330
FE8
102
}
330
FE8
100
AcDbVisualStyle
  2
EdgeColorOff
 70
    22
177
     2
291
     1
 71
     2
176
     0
 72
     2
176
     0
 73
     0
176
     0
 90
        0
176
     0
 40
0.6
176
     0
 41
30.0
176
     0
 63
     7
421
 16777215
176
     0
 74
     1
176
     0
 91
        4
176
     0
 64
     7
176
     0
 65
   257
176
     0
 75
     1
176
     0
175
     1
176
     0
 42
1.0
176
     0
 92
        8
176
     2
 66
     7
176
     0
 43
1.0
176
     0
 76
     1
176
     0
 77
     6
176
     0
 78
     2
176
     0
 67
     7
176
     0
 79
     5
176
     0
170
     0
176
     0
171
     0
176
     0
290
     0
176
     0
 93
        1
176
     0
 44
0.0
176
     0
173
     0
176
     0
1001
ACAD
1000
AcDbSavedByObjectVersion
1070
     0
  0
VISUALSTYLE
  5
FF7
102
{ACAD_XDICTIONARY
360
1575
102
}
102
{ACAD_REACTORS
330
FE8
102
}
330
FE8
100
AcDbVisualStyle
  2
Facepattern
 70
    15
177
     2
291
     1
 71
     2
176
     1
 72
     2
176
     1
 73
     0
176
     1
 90
        0
176
     1
 40
0.6
176
     1
 41
30.0
176
     1
 63
     7
421
 16777215
176
     1
 74
     1
176
     1
 91
        4
176
     1
 64
     7
176
     1
 65
   257
176
     1
 75
     1
176
     1
175
     1
176
     1
 42
1.0
176
     1
 92
        8
176
     1
 66
     7
176
     1
 43
1.0
176
     1
 76
     1
176
     1
 77
     6
176
     1
 78
     2
176
     1
 67
     7
176
     1
 79
     5
176
     1
170
     0
176
     1
171
     0
176
     1
290
     0
176
     1
 93
        1
176
     1
 44
0.0
176
     1
173
     0
176
     1
1001
ACAD
1000
AcDbSavedByObjectVersion
1070
     0
  0
VISUALSTYLE
  5
FE9
102
{ACAD_XDICTIONARY
360
1559
102
}
102
{ACAD_REACTORS
330
FE8
102
}
330
FE8
100
AcDbVisualStyle
  2
Flat
 70
     0
177
     2
291
     1
 71
     2
176
     1
 72
     1
176
     1
 73
     1
176
     1
 90
        2
176
     1
 40
0.6
176
     1
 41
30.0
176
     1
 63
     7
421
 16777215
176
     1
 74
     0
176
     1
 91
        0
176
     1
 64
     7
176
     1
 65
   257
176
     1
 75
     1
176
     1
175
     1
176
     1
 42
1.0
176
     1
 92
        8
176
     1
 66
     7
176
     1
 43
1.0
176
     1
 76
     1
176
     1
 77
     6
176
     1
 78
     2
176
     1
 67
     7
176
     1
 79
     5
176
     1
170
     0
176
     1
171
     0
176
     1
290
     0
176
     1
 93
       13
176
     1
 44
0.0
176
     1
173
     0
176
     1
1001
ACAD
1000
AcDbSavedByObjectVersion
1070
     0
  0
VISUALSTYLE
  5
FEA
102
{ACAD_XDICTIONARY
360
155B
102
}
102
{ACAD_REACTORS
330
FE8
102
}
330
FE8
100
AcDbVisualStyle
  2
FlatWithEdges
 70
     1
177
     2
291
     1
 71
     2
176
     1
 72
     1
176
     1
 73
     1
176
     1
 90
        2
176
     1
 40
0.6
176
     1
 41
30.0
176
     1
 63
     7
421
 16777215
176
     1
 74
     1
176
     1
 91
        0
176
     1
 64
     7
176
     1
 65
   257
176
     1
 75
     1
176
     1
175
     1
176
     1
 42
1.0
176
     1
 92
        0
176
     1
 66
   257
176
     1
 43
1.0
176
     1
 76
     1
176
     1
 77
     6
176
     1
 78
     2
176
     1
 67
     7
176
     1
 79
     5
176
     1
170
     0
176
     1
171
     0
176
     1
290
     0
176
     1
 93
       13
176
     1
 44
0.0
176
     1
173
     0
176
     1
1001
ACAD
1000
AcDbSavedByObjectVersion
1070
     0
  0
VISUALSTYLE
  5
FEB
102
{ACAD_XDICTIONARY
360
155D
102
}
102
{ACAD_REACTORS
330
FE8
102
}
330
FE8
100
AcDbVisualStyle
  2
Gouraud
 70
     2
177
     2
291
     1
 71
     2
176
     1
 72
     2
176
     1
 73
     1
176
     1
 90
        2
176
     1
 40
0.6
176
     1
 41
30.0
176
     1
 63
     7
421
 16777215
176
     1
 74
     0
176
     1
 91
        0
176
     1
 64
     7
176
     1
 65
   257
176
     1
 75
     1
176
     1
175
     1
176
     1
 42
1.0
176
     1
 92
        0
176
     1
 66
     7
176
     1
 43
1.0
176
     1
 76
     1
176
     1
 77
     6
176
     1
 78
     2
176
     1
 67
     7
176
     1
 79
     5
176
     1
170
     0
176
     1
171
     0
176
     1
290
     0
176
     1
 93
       13
176
     1
 44
0.0
176
     1
173
     0
176
     1
1001
ACAD
1000
AcDbSavedByObjectVersion
1070
     0
  0
VISUALSTYLE
  5
FEC
102
{ACAD_XDICTIONARY
360
155F
102
}
102
{ACAD_REACTORS
330
FE8
102
}
330
FE8
100
AcDbVisualStyle
  2
GouraudWithEdges
 70
     3
177
     2
291
     1
 71
     2
176
     1
 72
     2
176
     1
 73
     1
176
     1
 90
        2
176
     1
 40
0.6
176
     1
 41
30.0
176
     1
 63
     7
421
 16777215
176
     1
 74
     1
176
     1
 91
        0
176
     1
 64
     7
176
     1
 65
   257
176
     1
 75
     1
176
     1
175
     1
176
     1
 42
1.0
176
     1
 92
        0
176
     1
 66
   257
176
     1
 43
1.0
176
     1
 76
     1
176
     1
 77
     6
176
     1
 78
     2
176
     1
 67
     7
176
     1
 79
     5
176
     1
170
     0
176
     1
171
     0
176
     1
290
     0
176
     1
 93
       13
176
     1
 44
0.0
176
     1
173
     0
176
     1
1001
ACAD
1000
AcDbSavedByObjectVersion
1070
     0
  0
VISUALSTYLE
  5
FF0
102
{ACAD_XDICTIONARY
360
1567
102
}
102
{ACAD_REACTORS
330
FE8
102
}
330
FE8
100
AcDbVisualStyle
  2
Hidden
 70
     6
177
     2
291
     0
 71
     1
176
     1
 72
     2
176
     1
 73
     2
176
     1
 90
        0
176
     1
 40
0.6
176
     1
 41
30.0
176
     1
 63
     7
421
 16777215
176
     1
 74
     2
176
     1
 91
        2
176
     1
 64
     7
176
     1
 65
   257
176
     1
 75
     2
176
     1
175
     1
176
     1
 42
40.0
176
     1
 92
        0
176
     1
 66
   257
176
     1
 43
1.0
176
     1
 76
     1
176
     1
 77
     6
176
     1
 78
     2
176
     1
 67
     7
176
     1
 79
     3
176
     1
170
     0
176
     1
171
     0
176
     1
290
     0
176
     1
 93
        1
176
     1
 44
0.0
176
     1
173
     0
176
     1
1001
ACAD
1000
AcDbSavedByObjectVersion
1070
     0
  0
VISUALSTYLE
  5
FFE
102
{ACAD_XDICTIONARY
360
1583
102
}
102
{ACAD_REACTORS
330
FE8
102
}
330
FE8
100
AcDbVisualStyle
  2
JitterOff
 70
    20
177
     2
291
     1
 71
     2
176
     0
 72
     2
176
     0
 73
     0
176
     0
 90
        0
176
     0
 40
0.6
176
     0
 41
30.0
176
     0
 63
     7
421
 16777215
176
     0
 74
     1
176
     0
 91
        4
176
     0
 64
     7
176
     0
 65
   257
176
     0
 75
     1
176
     0
175
     1
176
     0
 42
1.0
176
     0
 92
       10
176
     2
 66
     7
176
     0
 43
1.0
176
     0
 76
     1
176
     0
 77
     6
176
     0
 78
     2
176
     0
 67
     7
176
     0
 79
     5
176
     0
170
     0
176
     0
171
     0
176
     0
290
     0
176
     0
 93
        1
176
     0
 44
0.0
176
     0
173
     0
176
     0
1001
ACAD
1000
AcDbSavedByObjectVersion
1070
     0
  0
VISUALSTYLE
  5
FF6
102
{ACAD_XDICTIONARY
360
1573
102
}
102
{ACAD_REACTORS
330
FE8
102
}
330
FE8
100
AcDbVisualStyle
  2
Linepattern
 70
    14
177
     2
291
     1
 71
     2
176
     1
 72
     2
176
     1
 73
     0
176
     1
 90
        0
176
     1
 40
0.6
176
     1
 41
30.0
176
     1
 63
     7
421
 16777215
176
     1
 74
     1
176
     1
 91
        4
176
     1
 64
     7
176
     1
 65
   257
176
     1
 75
     7
176
     1
175
     7
176
     1
 42
1.0
176
     1
 92
        8
176
     1
 66
     7
176
     1
 43
1.0
176
     1
 76
     1
176
     1
 77
     6
176
     1
 78
     2
176
     1
 67
     7
176
     1
 79
     5
176
     1
170
     0
176
     1
171
     0
176
     1
290
     0
176
     1
 93
        1
176
     1
 44
0.0
176
     1
173
     0
176
     1
1001
ACAD
1000
AcDbSavedByObjectVersion
1070
     0
  0
VISUALSTYLE
  5
FFF
102
{ACAD_XDICTIONARY
360
1585
102
}
102
{ACAD_REACTORS
330
FE8
102
}
330
FE8
100
AcDbVisualStyle
  2
OverhangOff
 70
    21
177
     2
291
     1
 71
     2
176
     0
 72
     2
176
     0
 73
     0
176
     0
 90
        0
176
     0
 40
0.6
176
     0
 41
30.0
176
     0
 63
     7
421
 16777215
176
     0
 74
     1
176
     0
 91
        4
176
     0
 64
     7
176
     0
 65
   257
176
     0
 75
     1
176
     0
175
     1
176
     0
 42
1.0
176
     0
 92
        9
176
     2
 66
     7
176
     0
 43
1.0
176
     0
 76
     1
176
     0
 77
     6
176
     0
 78
     2
176
     0
 67
     7
176
     0
 79
     5
176
     0
170
     0
176
     0
171
     0
176
     0
290
     0
176
     0
 93
        1
176
     0
 44
0.0
176
     0
173
     0
176
     0
1001
ACAD
1000
AcDbSavedByObjectVersion
1070
     0
  0
VISUALSTYLE
  5
FF2
102
{ACAD_XDICTIONARY
360
156B
102
}
102
{ACAD_REACTORS
330
FE8
102
}
330
FE8
100
AcDbVisualStyle
  2
Realistic
 70
     8
177
     2
291
     0
 71
     2
176
     1
 72
     3
176
     1
 73
     0
176
     1
 90
        2
176
     1
 40
0.6
176
     1
 41
30.0
176
     1
 63
     7
421
 16777215
176
     1
 74
     0
176
     1
 91
        0
176
     1
 64
     7
176
     1
 65
   257
176
     1
 75
     1
176
     1
175
     1
176
     1
 42
1.0
176
     1
 92
        8
176
     1
 66
   257
176
     1
 43
1.0
176
     1
 76
     1
176
     1
 77
     6
176
     1
 78
     2
176
     1
 67
     7
176
     1
 79
     3
176
     1
170
     0
176
     1
171
     0
176
     1
290
     0
176
     1
 93
       13
176
     1
 44
0.0
176
     1
173
     0
176
     1
1001
ACAD
1000
AcDbSavedByObjectVersion
1070
     0
  0
VISUALSTYLE
  5
FFD
102
{ACAD_XDICTIONARY
360
1581
102
}
102
{ACAD_REACTORS
330
FE8
102
}
330
FE8
100
AcDbVisualStyle
  2
Shaded
 70
    27
177
     2
291
     0
 71
     2
176
     1
 72
     2
176
     1
 73
     1
176
     1
 90
        2
176
     1
 40
0.6
176
     1
 41
30.0
176
     1
 63
     7
421
 16777215
176
     1
 74
     0
176
     1
 91
        4
176
     1
 64
     7
176
     1
 65
   257
176
     1
 75
     1
176
     1
175
     1
176
     1
 42
1.0
176
     1
 92
        8
176
     1
 66
   257
176
     1
 43
1.0
176
     1
 76
     1
176
     1
 77
     6
176
     1
 78
     2
176
     1
 67
     8
425
  7895160
176
     1
 79
     3
176
     1
170
     0
176
     1
171
     0
176
     1
290
     0
176
     1
 93
        5
176
     1
 44
0.0
176
     1
173
     0
176
     1
1001
ACAD
1000
AcDbSavedByObjectVersion
1070
     0
  0
VISUALSTYLE
  5
FFC
102
{ACAD_XDICTIONARY
360
157F
102
}
102
{ACAD_REACTORS
330
FE8
102
}
330
FE8
100
AcDbVisualStyle
  2
Shaded with edges
 70
    26
177
     2
291
     0
 71
     2
176
     1
 72
     2
176
     1
 73
     1
176
     1
 90
        2
176
     1
 40
0.6
176
     1
 41
30.0
176
     1
 63
     7
421
 16777215
176
     1
 74
     1
176
     1
 91
       10
176
     1
 64
     7
176
     1
 65
   257
176
     1
 75
     2
176
     1
175
     1
176
     1
 42
1.0
176
     1
 92
        8
176
     1
 66
   257
176
     1
 43
1.0
176
     1
 76
     1
176
     1
 77
     6
176
     1
 78
     2
176
     1
 67
     7
176
     1
 79
     3
176
     1
170
     0
176
     1
171
     0
176
     1
290
     0
176
     1
 93
        5
176
     1
 44
0.0
176
     1
173
     0
176
     1
1001
ACAD
1000
AcDbSavedByObjectVersion
1070
     0
  0
VISUALSTYLE
  5
FF9
102
{ACAD_XDICTIONARY
360
1579
102
}
102
{ACAD_REACTORS
330
FE8
102
}
330
FE8
100
AcDbVisualStyle
  2
Shades of Gray
 70
    23
177
     2
291
     0
 71
     2
176
     1
 72
     2
176
     1
 73
     3
176
     1
 90
        0
176
     1
 40
0.6
176
     1
 41
30.0
176
     1
 63
     7
421
 16777215
176
     1
 74
     2
176
     1
 91
        2
176
     1
 64
     7
176
     1
 65
     7
176
     1
 75
     1
176
     1
175
     1
176
     1
 42
40.0
176
     1
 92
        8
176
     1
 66
     7
176
     1
 43
1.0
176
     1
 76
     1
176
     1
 77
     6
176
     1
 78
     2
176
     1
 67
     7
176
     1
 79
     3
176
     1
170
     0
176
     1
171
     0
176
     1
290
     0
176
     1
 93
        1
176
     1
 44
0.0
176
     1
173
     0
176
     1
1001
ACAD
1000
AcDbSavedByObjectVersion
1070
     0
  0
VISUALSTYLE
  5
FFA
102
{ACAD_XDICTIONARY
360
157B
102
}
102
{ACAD_REACTORS
330
FE8
102
}
330
FE8
100
AcDbVisualStyle
  2
Sketchy
 70
    24
177
     2
291
     0
 71
     1
176
     1
 72
     2
176
     1
 73
     2
176
     1
 90
        0
176
     1
 40
0.6
176
     1
 41
30.0
176
     1
 63
     7
421
 16777215
176
     1
 74
     2
176
     1
 91
        2
176
     1
 64
     7
176
     1
 65
     7
176
     1
 75
     1
176
     1
175
     1
176
     1
 42
40.0
176
     1
 92
       11
176
     1
 66
     7
176
     1
 43
1.0
176
     1
 76
     1
176
     1
 77
     6
176
     1
 78
     2
176
     1
 67
     7
176
     1
 79
     6
176
     1
170
     0
176
     1
171
     0
176
     1
290
     0
176
     1
 93
        1
176
     1
 44
0.0
176
     1
173
     0
176
     1
1001
ACAD
1000
AcDbSavedByObjectVersion
1070
     0
  0
VISUALSTYLE
  5
FF5
102
{ACAD_XDICTIONARY
360
1571
102
}
102
{ACAD_REACTORS
330
FE8
102
}
330
FE8
100
AcDbVisualStyle
  2
Thicken
 70
    13
177
     2
291
     1
 71
     2
176
     1
 72
     2
176
     1
 73
     0
176
     1
 90
        0
176
     1
 40
0.6
176
     1
 41
30.0
176
     1
 63
     7
421
 16777215
176
     1
 74
     1
176
     1
 91
        4
176
     1
 64
     7
176
     1
 65
   257
176
     1
 75
     1
176
     1
175
     1
176
     1
 42
1.0
176
     1
 92
       12
176
     1
 66
     7
176
     1
 43
1.0
176
     1
 76
     1
176
     1
 77
     6
176
     1
 78
     2
176
     1
 67
     7
176
     1
 79
     5
176
     1
170
     0
176
     1
171
     0
176
     1
290
     0
176
     1
 93
        1
176
     1
 44
0.0
176
     1
173
     0
176
     1
1001
ACAD
1000
AcDbSavedByObjectVersion
1070
     0
  0
VISUALSTYLE
  5
FEF
102
{ACAD_XDICTIONARY
360
1565
102
}
102
{ACAD_REACTORS
330
FE8
102
}
330
FE8
100
AcDbVisualStyle
  2
Wireframe
 70
     5
177
     2
291
     0
 71
     0
176
     1
 72
     2
176
     1
 73
     0
176
     1
 90
        0
176
     1
 40
0.6
176
     1
 41
30.0
176
     1
 63
     7
421
 16777215
176
     1
 74
     1
176
     1
 91
        4
176
     1
 64
     7
176
     1
 65
   257
176
     1
 75
     1
176
     1
175
     1
176
     1
 42
1.0
176
     1
 92
        0
176
     1
 66
   257
176
     1
 43
1.0
176
     1
 76
     1
176
     1
 77
     6
176
     1
 78
     2
176
     1
 67
     7
176
     1
 79
     3
176
     1
170
     0
176
     1
171
     0
176
     1
290
     0
176
     1
 93
        1
176
     1
 44
0.0
176
     1
173
     0
176
     1
1001
ACAD
1000
AcDbSavedByObjectVersion
1070
     0
  0
VISUALSTYLE
  5
FFB
102
{ACAD_XDICTIONARY
360
157D
102
}
102
{ACAD_REACTORS
330
FE8
102
}
330
FE8
100
AcDbVisualStyle
  2
X-Ray
 70
    25
177
     2
291
     0
 71
     2
176
     1
 72
     2
176
     1
 73
     1
176
     1
 90
        1
176
     1
 40
0.5
176
     1
 41
30.0
176
     1
 63
     7
421
 16777215
176
     1
 74
     1
176
     1
 91
        0
176
     1
 64
     7
176
     1
 65
   257
176
     1
 75
     1
176
     1
175
     1
176
     1
 42
1.0
176
     1
 92
        8
176
     1
 66
     7
176
     1
 43
1.0
176
     1
 76
     1
176
     1
 77
     6
176
     1
 78
     2
176
     1
 67
     7
176
     1
 79
     3
176
     1
170
     0
176
     1
171
     0
176
     1
290
     0
176
     1
 93
       13
176
     1
 44
0.0
176
     1
173
     0
176
     1
1001
ACAD
1000
AcDbSavedByObjectVersion
1070
     0
  0
DICTIONARYVAR
  5
1517
102
{ACAD_REACTORS
330
5E
102
}
330
5E
100
DictionaryVariables
280
     0
  1
1:1
  0
DICTIONARYVAR
  5
1513
102
{ACAD_REACTORS
330
5E
102
}
330
5E
100
DictionaryVariables
280
     0
  1
STANDARD
  0
DICTIONARYVAR
  5
1512
102
{ACAD_REACTORS
330
5E
102
}
330
5E
100
DictionaryVariables
280
     0
  1
STANDARD
  0
DICTIONARYVAR
  5
1514
102
{ACAD_REACTORS
330
5E
102
}
330
5E
100
DictionaryVariables
280
     0
  1
Metric50
  0
DICTIONARYVAR
  5
1515
102
{ACAD_REACTORS
330
5E
102
}
330
5E
100
DictionaryVariables
280
     0
  1
Metric50
  0
DICTIONARYVAR
  5
5F
102
{ACAD_REACTORS
330
5E
102
}
330
5E
100
DictionaryVariables
280
     0
  1
2
  0
DICTIONARYVAR
  5
63
102
{ACAD_REACTORS
330
5E
102
}
330
5E
100
DictionaryVariables
280
     0
  1
1
  0
DICTIONARYVAR
  5
1519
102
{ACAD_REACTORS
330
5E
102
}
330
5E
100
DictionaryVariables
280
     0
  1
1
  0
DICTIONARYVAR
  5
151A
102
{ACAD_REACTORS
330
5E
102
}
330
5E
100
DictionaryVariables
280
     0
  1
15
  0
DICTIONARYVAR
  5
1518
102
{ACAD_REACTORS
330
5E
102
}
330
5E
100
DictionaryVariables
280
     0
  1
0
  0
DICTIONARYVAR
  5
1516
102
{ACAD_REACTORS
330
5E
102
}
330
5E
100
DictionaryVariables
280
     0
  1
0
  0
DICTIONARYVAR
  5
23B
102
{ACAD_REACTORS
330
5E
102
}
330
5E
100
DictionaryVariables
280
     0
  1

  0
DICTIONARY
  5
158F
330
1124
100
AcDbDictionary
280
     1
281
     1
  3
ACAD_XREC_ROUNDTRIP
360
1590
  0
DICTIONARY
  5
158B
330
101A
100
AcDbDictionary
280
     1
281
     1
  3
ACAD_XREC_ROUNDTRIP
360
158C
  0
DICTIONARY
  5
FD9
330
FD8
100
AcDbDictionary
280
     1
281
     1
  3
BUMPTILE
360
FDB
  3
DIFFUSETILE
360
FDA
  3
OPACITYTILE
360
FDE
  3
REFLECTIONTILE
360
FDD
  3
REFRACTIONTILE
360
FDF
  3
SPECULARTILE
360
FDC
  0
DICTIONARY
  5
FD1
330
FD0
100
AcDbDictionary
280
     1
281
     1
  3
BUMPTILE
360
FD3
  3
DIFFUSETILE
360
FD2
  3
OPACITYTILE
360
FD6
  3
REFLECTIONTILE
360
FD5
  3
REFRACTIONTILE
360
FD7
  3
SPECULARTILE
360
FD4
  0
DICTIONARY
  5
FE1
330
FE0
100
AcDbDictionary
280
     1
281
     1
  3
BUMPTILE
360
FE3
  3
DIFFUSETILE
360
FE2
  3
OPACITYTILE
360
FE6
  3
REFLECTIONTILE
360
FE5
  3
REFRACTIONTILE
360
FE7
  3
SPECULARTILE
360
FE4
  0
DICTIONARY
  5
158D
330
1123
100
AcDbDictionary
280
     1
281
     1
  3
ACAD_XREC_ROUNDTRIP
360
158E
  0
DICTIONARY
  5
1589
330
1018
100
AcDbDictionary
280
     1
281
     1
  3
ACAD_XREC_ROUNDTRIP
360
158A
  0
DICTIONARY
  5
1556
330
1002
100
AcDbDictionary
280
     1
281
     1
  3
ACAD_ROUNDTRIP_2008_TABLESTYLE_CELLSTYLEMAP
360
1557
  0
DICTIONARY
  5
1563
330
FEE
100
AcDbDictionary
280
     1
281
     1
  3
ACAD_XREC_ROUNDTRIP
360
1564
  0
DICTIONARY
  5
1561
330
FED
100
AcDbDictionary
280
     1
281
     1
  3
ACAD_XREC_ROUNDTRIP
360
1562
  0
DICTIONARY
  5
156F
330
FF4
100
AcDbDictionary
280
     1
281
     1
  3
ACAD_XREC_ROUNDTRIP
360
1570
  0
DICTIONARY
  5
1577
330
FF8
100
AcDbDictionary
280
     1
281
     1
  3
ACAD_XREC_ROUNDTRIP
360
1578
  0
DICTIONARY
  5
1569
330
FF1
100
AcDbDictionary
280
     1
281
     1
  3
ACAD_XREC_ROUNDTRIP
360
156A
  0
DICTIONARY
  5
156D
330
FF3
100
AcDbDictionary
280
     1
281
     1
  3
ACAD_XREC_ROUNDTRIP
360
156E
  0
DICTIONARY
  5
1587
330
1000
100
AcDbDictionary
280
     1
281
     1
  3
ACAD_XREC_ROUNDTRIP
360
1588
  0
DICTIONARY
  5
1575
330
FF7
100
AcDbDictionary
280
     1
281
     1
  3
ACAD_XREC_ROUNDTRIP
360
1576
  0
DICTIONARY
  5
1559
330
FE9
100
AcDbDictionary
280
     1
281
     1
  3
ACAD_XREC_ROUNDTRIP
360
155A
  0
DICTIONARY
  5
155B
330
FEA
100
AcDbDictionary
280
     1
281
     1
  3
ACAD_XREC_ROUNDTRIP
360
155C
  0
DICTIONARY
  5
155D
330
FEB
100
AcDbDictionary
280
     1
281
     1
  3
ACAD_XREC_ROUNDTRIP
360
155E
  0
DICTIONARY
  5
155F
330
FEC
100
AcDbDictionary
280
     1
281
     1
  3
ACAD_XREC_ROUNDTRIP
360
1560
  0
DICTIONARY
  5
1567
330
FF0
100
AcDbDictionary
280
     1
281
     1
  3
ACAD_XREC_ROUNDTRIP
360
1568
  0
DICTIONARY
  5
1583
330
FFE
100
AcDbDictionary
280
     1
281
     1
  3
ACAD_XREC_ROUNDTRIP
360
1584
  0
DICTIONARY
  5
1573
330
FF6
100
AcDbDictionary
280
     1
281
     1
  3
ACAD_XREC_ROUNDTRIP
360
1574
  0
DICTIONARY
  5
1585
330
FFF
100
AcDbDictionary
280
     1
281
     1
  3
ACAD_XREC_ROUNDTRIP
360
1586
  0
DICTIONARY
  5
156B
330
FF2
100
AcDbDictionary
280
     1
281
     1
  3
ACAD_XREC_ROUNDTRIP
360
156C
  0
DICTIONARY
  5
1581
330
FFD
100
AcDbDictionary
280
     1
281
     1
  3
ACAD_XREC_ROUNDTRIP
360
1582
  0
DICTIONARY
  5
157F
330
FFC
100
AcDbDictionary
280
     1
281
     1
  3
ACAD_XREC_ROUNDTRIP
360
1580
  0
DICTIONARY
  5
1579
330
FF9
100
AcDbDictionary
280
     1
281
     1
  3
ACAD_XREC_ROUNDTRIP
360
157A
  0
DICTIONARY
  5
157B
330
FFA
100
AcDbDictionary
280
     1
281
     1
  3
ACAD_XREC_ROUNDTRIP
360
157C
  0
DICTIONARY
  5
1571
330
FF5
100
AcDbDictionary
280
     1
281
     1
  3
ACAD_XREC_ROUNDTRIP
360
1572
  0
DICTIONARY
  5
1565
330
FEF
100
AcDbDictionary
280
     1
281
     1
  3
ACAD_XREC_ROUNDTRIP
360
1566
  0
DICTIONARY
  5
157D
330
FFB
100
AcDbDictionary
280
     1
281
     1
  3
ACAD_XREC_ROUNDTRIP
360
157E
  0
XRECORD
  5
1590
102
{ACAD_REACTORS
330
158F
102
}
330
158F
100
AcDbXrecord
280
     1
102
DISPLAYNAME
  1
Imperial24
102
FLAGS
 90
        0
  0
XRECORD
  5
158C
102
{ACAD_REACTORS
330
158B
102
}
330
158B
100
AcDbXrecord
280
     1
102
DISPLAYNAME
  1
Metric50
102
FLAGS
 90
        0
  0
XRECORD
  5
FDB
102
{ACAD_REACTORS
330
FD9
102
}
330
FD9
100
AcDbXrecord
280
     1
270
     1
271
     1
  0
XRECORD
  5
FDA
102
{ACAD_REACTORS
330
FD9
102
}
330
FD9
100
AcDbXrecord
280
     1
270
     1
271
     1
  0
XRECORD
  5
FDE
102
{ACAD_REACTORS
330
FD9
102
}
330
FD9
100
AcDbXrecord
280
     1
270
     1
271
     1
  0
XRECORD
  5
FDD
102
{ACAD_REACTORS
330
FD9
102
}
330
FD9
100
AcDbXrecord
280
     1
270
     1
271
     1
  0
XRECORD
  5
FDF
102
{ACAD_REACTORS
330
FD9
102
}
330
FD9
100
AcDbXrecord
280
     1
270
     1
271
     1
  0
XRECORD
  5
FDC
102
{ACAD_REACTORS
330
FD9
102
}
330
FD9
100
AcDbXrecord
280
     1
270
     1
271
     1
  0
XRECORD
  5
FD3
102
{ACAD_REACTORS
330
FD1
102
}
330
FD1
100
AcDbXrecord
280
     1
270
     1
271
     1
  0
XRECORD
  5
FD2
102
{ACAD_REACTORS
330
FD1
102
}
330
FD1
100
AcDbXrecord
280
     1
270
     1
271
     1
  0
XRECORD
  5
FD6
102
{ACAD_REACTORS
330
FD1
102
}
330
FD1
100
AcDbXrecord
280
     1
270
     1
271
     1
  0
XRECORD
  5
FD5
102
{ACAD_REACTORS
330
FD1
102
}
330
FD1
100
AcDbXrecord
280
     1
270
     1
271
     1
  0
XRECORD
  5
FD7
102
{ACAD_REACTORS
330
FD1
102
}
330
FD1
100
AcDbXrecord
280
     1
270
     1
271
     1
  0
XRECORD
  5
FD4
102
{ACAD_REACTORS
330
FD1
102
}
330
FD1
100
AcDbXrecord
280
     1
270
     1
271
     1
  0
XRECORD
  5
FE3
102
{ACAD_REACTORS
330
FE1
102
}
330
FE1
100
AcDbXrecord
280
     1
270
     1
271
     1
  0
XRECORD
  5
FE2
102
{ACAD_REACTORS
330
FE1
102
}
330
FE1
100
AcDbXrecord
280
     1
270
     1
271
     1
  0
XRECORD
  5
FE6
102
{ACAD_REACTORS
330
FE1
102
}
330
FE1
100
AcDbXrecord
280
     1
270
     1
271
     1
  0
XRECORD
  5
FE5
102
{ACAD_REACTORS
330
FE1
102
}
330
FE1
100
AcDbXrecord
280
     1
270
     1
271
     1
  0
XRECORD
  5
FE7
102
{ACAD_REACTORS
330
FE1
102
}
330
FE1
100
AcDbXrecord
280
     1
270
     1
271
     1
  0
XRECORD
  5
FE4
102
{ACAD_REACTORS
330
FE1
102
}
330
FE1
100
AcDbXrecord
280
     1
270
     1
271
     1
  0
XRECORD
  5
158E
102
{ACAD_REACTORS
330
158D
102
}
330
158D
100
AcDbXrecord
280
     1
102
DISPLAYNAME
  1
Imperial24
102
FLAGS
 90
        0
  0
XRECORD
  5
158A
102
{ACAD_REACTORS
330
1589
102
}
330
1589
100
AcDbXrecord
280
     1
102
DISPLAYNAME
  1
Metric50
102
FLAGS
 90
        0
  0
CELLSTYLEMAP
  5
1557
102
{ACAD_REACTORS
330
1556
102
}
330
1556
100
AcDbCellStyleMap
 90
        3
300
CELLSTYLE
  1
TABLEFORMAT_BEGIN
 90
        5
170
     1
 91
        0
 92
    32768
 62
   257
 93
        1
300
CONTENTFORMAT
  1
CONTENTFORMAT_BEGIN
 90
        0
 91
        0
 92
      512
 93
        0
300

 40
0.0
140
1.0
 94
        5
 62
     0
340
11
144
6.0
309
CONTENTFORMAT_END
171
     1
301
MARGIN
  1
CELLMARGIN_BEGIN
 40
1.5
 40
1.5
 40
1.5
 40
1.5
 40
4.5
 40
4.5
309
CELLMARGIN_END
 94
        6
 95
        1
302
GRIDFORMAT
  1
GRIDFORMAT_BEGIN
 90
        0
 91
        1
 62
     0
 92
       -2
340
0
 93
        0
 40
1.125
309
GRIDFORMAT_END
 95
        2
302
GRIDFORMAT
  1
GRIDFORMAT_BEGIN
 90
        0
 91
        1
 62
     0
 92
       -2
340
0
 93
        0
 40
1.125
309
GRIDFORMAT_END
 95
        4
302
GRIDFORMAT
  1
GRIDFORMAT_BEGIN
 90
        0
 91
        1
 62
     0
 92
       -2
340
0
 93
        0
 40
1.125
309
GRIDFORMAT_END
 95
        8
302
GRIDFORMAT
  1
GRIDFORMAT_BEGIN
 90
        0
 91
        1
 62
     0
 92
       -2
340
0
 93
        0
 40
1.125
309
GRIDFORMAT_END
 95
       16
302
GRIDFORMAT
  1
GRIDFORMAT_BEGIN
 90
        0
 91
        1
 62
     0
 92
       -2
340
0
 93
        0
 40
1.125
309
GRIDFORMAT_END
 95
       32
302
GRIDFORMAT
  1
GRIDFORMAT_BEGIN
 90
        0
 91
        1
 62
     0
 92
       -2
340
0
 93
        0
 40
1.125
309
GRIDFORMAT_END
309
TABLEFORMAT_END
  1
CELLSTYLE_BEGIN
 90
        1
 91
        1
300
_TITLE
309
CELLSTYLE_END
300
CELLSTYLE
  1
TABLEFORMAT_BEGIN
 90
        5
170
     1
 91
        0
 92
        0
 62
   257
 93
        1
300
CONTENTFORMAT
  1
CONTENTFORMAT_BEGIN
 90
        0
 91
        0
 92
      512
 93
        0
300

 40
0.0
140
1.0
 94
        5
 62
     0
340
11
144
4.5
309
CONTENTFORMAT_END
171
     1
301
MARGIN
  1
CELLMARGIN_BEGIN
 40
1.5
 40
1.5
 40
1.5
 40
1.5
 40
4.5
 40
4.5
309
CELLMARGIN_END
 94
        6
 95
        1
302
GRIDFORMAT
  1
GRIDFORMAT_BEGIN
 90
        0
 91
        1
 62
     0
 92
       -2
340
0
 93
        0
 40
1.125
309
GRIDFORMAT_END
 95
        2
302
GRIDFORMAT
  1
GRIDFORMAT_BEGIN
 90
        0
 91
        1
 62
     0
 92
       -2
340
0
 93
        0
 40
1.125
309
GRIDFORMAT_END
 95
        4
302
GRIDFORMAT
  1
GRIDFORMAT_BEGIN
 90
        0
 91
        1
 62
     0
 92
       -2
340
0
 93
        0
 40
1.125
309
GRIDFORMAT_END
 95
        8
302
GRIDFORMAT
  1
GRIDFORMAT_BEGIN
 90
        0
 91
        1
 62
     0
 92
       -2
340
0
 93
        0
 40
1.125
309
GRIDFORMAT_END
 95
       16
302
GRIDFORMAT
  1
GRIDFORMAT_BEGIN
 90
        0
 91
        1
 62
     0
 92
       -2
340
0
 93
        0
 40
1.125
309
GRIDFORMAT_END
 95
       32
302
GRIDFORMAT
  1
GRIDFORMAT_BEGIN
 90
        0
 91
        1
 62
     0
 92
       -2
340
0
 93
        0
 40
1.125
309
GRIDFORMAT_END
309
TABLEFORMAT_END
  1
CELLSTYLE_BEGIN
 90
        2
 91
        1
300
_HEADER
309
CELLSTYLE_END
300
CELLSTYLE
  1
TABLEFORMAT_BEGIN
 90
        5
170
     1
 91
        0
 92
        0
 62
   257
 93
        1
300
CONTENTFORMAT
  1
CONTENTFORMAT_BEGIN
 90
        0
 91
        0
 92
      512
 93
        0
300

 40
0.0
140
1.0
 94
        2
 62
     0
340
11
144
4.5
309
CONTENTFORMAT_END
171
     1
301
MARGIN
  1
CELLMARGIN_BEGIN
 40
1.5
 40
1.5
 40
1.5
 40
1.5
 40
4.5
 40
4.5
309
CELLMARGIN_END
 94
        6
 95
        1
302
GRIDFORMAT
  1
GRIDFORMAT_BEGIN
 90
        0
 91
        1
 62
     0
 92
       -2
340
0
 93
        0
 40
1.125
309
GRIDFORMAT_END
 95
        2
302
GRIDFORMAT
  1
GRIDFORMAT_BEGIN
 90
        0
 91
        1
 62
     0
 92
       -2
340
0
 93
        0
 40
1.125
309
GRIDFORMAT_END
 95
        4
302
GRIDFORMAT
  1
GRIDFORMAT_BEGIN
 90
        0
 91
        1
 62
     0
 92
       -2
340
0
 93
        0
 40
1.125
309
GRIDFORMAT_END
 95
        8
302
GRIDFORMAT
  1
GRIDFORMAT_BEGIN
 90
        0
 91
        1
 62
     0
 92
       -2
340
0
 93
        0
 40
1.125
309
GRIDFORMAT_END
 95
       16
302
GRIDFORMAT
  1
GRIDFORMAT_BEGIN
 90
        0
 91
        1
 62
     0
 92
       -2
340
0
 93
        0
 40
1.125
309
GRIDFORMAT_END
 95
       32
302
GRIDFORMAT
  1
GRIDFORMAT_BEGIN
 90
        0
 91
        1
 62
     0
 92
       -2
340
0
 93
        0
 40
1.125
309
GRIDFORMAT_END
309
TABLEFORMAT_END
  1
CELLSTYLE_BEGIN
 90
        3
 91
        2
300
_DATA
309
CELLSTYLE_END
  0
XRECORD
  5
1564
102
{ACAD_REACTORS
330
1563
102
}
330
1563
100
AcDbXrecord
280
     1
102
RTVSPost2010Prop28
280
     1
102
RTVSPost2010PropOp28
 70
     1
102
RTVSPost2010Prop29
280
     1
102
RTVSPost2010PropOp29
 70
     1
102
RTVSPost2010Prop30
280
     0
102
RTVSPost2010PropOp30
 70
     1
102
RTVSPost2010Prop31
280
     0
102
RTVSPost2010PropOp31
 70
     1
102
RTVSPost2010Prop32
280
     0
102
RTVSPost2010PropOp32
 70
     1
102
RTVSPost2010Prop33
280
     0
102
RTVSPost2010PropOp33
 70
     1
102
RTVSPost2010Prop34
280
     0
102
RTVSPost2010PropOp34
 70
     1
102
RTVSPost2010Prop35
280
     0
102
RTVSPost2010PropOp35
 70
     1
102
RTVSPost2010Prop36
280
     0
102
RTVSPost2010PropOp36
 70
     1
102
RTVSPost2010Prop37
 90
       50
102
RTVSPost2010PropOp37
 70
     1
102
RTVSPost2010Prop38
140
0.0
102
RTVSPost2010PropOp38
 70
     1
102
RTVSPost2010Prop39
140
1.0
102
RTVSPost2010PropOp39
 70
     1
102
RTVSPost2010Prop40
 90
        0
102
RTVSPost2010PropOp40
 70
     1
102
RTVSPost2010Prop41ColorIndex
 90
       18
102
RTVSPost2010Prop41ColorRGB
 90
        0
102
RTVSPost2010PropOp41
 70
     1
102
RTVSPost2010Prop42
 90
       50
102
RTVSPost2010PropOp42
 70
     1
102
RTVSPost2010Prop43
 90
        3
102
RTVSPost2010PropOp43
 70
     1
102
RTVSPost2010Prop44ColorIndex
 90
        5
102
RTVSPost2010Prop44ColorRGB
 90
      255
102
RTVSPost2010PropOp44
 70
     1
102
RTVSPost2010Prop45
280
     0
102
RTVSPost2010PropOp45
 70
     1
102
RTVSPost2010Prop46
 90
       50
102
RTVSPost2010PropOp46
 70
     1
102
RTVSPost2010Prop47
 90
       50
102
RTVSPost2010PropOp47
 70
     1
102
RTVSPost2010Prop48
 90
       50
102
RTVSPost2010PropOp48
 70
     1
102
RTVSPost2010Prop49
280
     0
102
RTVSPost2010PropOp49
 70
     1
102
RTVSPost2010Prop50
 90
       50
102
RTVSPost2010PropOp50
 70
     1
102
RTVSPost2010Prop51ColorIndex
 90
      256
102
RTVSPost2010Prop51ColorRGB
 90
-16777216
102
RTVSPost2010PropOp51
 70
     0
102
RTVSPost2010Prop52
140
1.0
102
RTVSPost2010PropOp52
 70
     0
102
RTVSPost2010Prop53
 90
        2
102
RTVSPost2010PropOp53
 70
     1
102
RTVSPost2010Prop54
  1
strokes_ogs.tif
102
RTVSPost2010PropOp54
 70
     1
102
RTVSPost2010Prop55
280
     0
102
RTVSPost2010PropOp55
 70
     1
102
RTVSPost2010Prop56
140
1.0
102
RTVSPost2010PropOp56
 70
     1
102
RTVSPost2010Prop57
140
1.0
102
RTVSPost2010PropOp57
 70
     1
  0
XRECORD
  5
1562
102
{ACAD_REACTORS
330
1561
102
}
330
1561
100
AcDbXrecord
280
     1
102
RTVSPost2010Prop28
280
     0
102
RTVSPost2010PropOp28
 70
     1
102
RTVSPost2010Prop29
280
     1
102
RTVSPost2010PropOp29
 70
     1
102
RTVSPost2010Prop30
280
     1
102
RTVSPost2010PropOp30
 70
     1
102
RTVSPost2010Prop31
280
     0
102
RTVSPost2010PropOp31
 70
     1
102
RTVSPost2010Prop32
280
     0
102
RTVSPost2010PropOp32
 70
     1
102
RTVSPost2010Prop33
280
     0
102
RTVSPost2010PropOp33
 70
     1
102
RTVSPost2010Prop34
280
     0
102
RTVSPost2010PropOp34
 70
     1
102
RTVSPost2010Prop35
280
     0
102
RTVSPost2010PropOp35
 70
     1
102
RTVSPost2010Prop36
280
     0
102
RTVSPost2010PropOp36
 70
     1
102
RTVSPost2010Prop37
 90
       50
102
RTVSPost2010PropOp37
 70
     1
102
RTVSPost2010Prop38
140
0.0
102
RTVSPost2010PropOp38
 70
     1
102
RTVSPost2010Prop39
140
1.0
102
RTVSPost2010PropOp39
 70
     1
102
RTVSPost2010Prop40
 90
        0
102
RTVSPost2010PropOp40
 70
     1
102
RTVSPost2010Prop41ColorIndex
 90
       18
102
RTVSPost2010Prop41ColorRGB
 90
        0
102
RTVSPost2010PropOp41
 70
     1
102
RTVSPost2010Prop42
 90
       50
102
RTVSPost2010PropOp42
 70
     1
102
RTVSPost2010Prop43
 90
        3
102
RTVSPost2010PropOp43
 70
     1
102
RTVSPost2010Prop44ColorIndex
 90
        5
102
RTVSPost2010Prop44ColorRGB
 90
      255
102
RTVSPost2010PropOp44
 70
     1
102
RTVSPost2010Prop45
280
     0
102
RTVSPost2010PropOp45
 70
     1
102
RTVSPost2010Prop46
 90
       50
102
RTVSPost2010PropOp46
 70
     1
102
RTVSPost2010Prop47
 90
       50
102
RTVSPost2010PropOp47
 70
     1
102
RTVSPost2010Prop48
 90
       50
102
RTVSPost2010PropOp48
 70
     1
102
RTVSPost2010Prop49
280
     0
102
RTVSPost2010PropOp49
 70
     1
102
RTVSPost2010Prop50
 90
       50
102
RTVSPost2010PropOp50
 70
     1
102
RTVSPost2010Prop51ColorIndex
 90
      256
102
RTVSPost2010Prop51ColorRGB
 90
-16777216
102
RTVSPost2010PropOp51
 70
     0
102
RTVSPost2010Prop52
140
1.0
102
RTVSPost2010PropOp52
 70
     0
102
RTVSPost2010Prop53
 90
        2
102
RTVSPost2010PropOp53
 70
     1
102
RTVSPost2010Prop54
  1
strokes_ogs.tif
102
RTVSPost2010PropOp54
 70
     1
102
RTVSPost2010Prop55
280
     0
102
RTVSPost2010PropOp55
 70
     1
102
RTVSPost2010Prop56
140
1.0
102
RTVSPost2010PropOp56
 70
     1
102
RTVSPost2010Prop57
140
1.0
102
RTVSPost2010PropOp57
 70
     1
  0
XRECORD
  5
1570
102
{ACAD_REACTORS
330
156F
102
}
330
156F
100
AcDbXrecord
280
     1
102
RTVSPost2010Prop28
280
     0
102
RTVSPost2010PropOp28
 70
     1
102
RTVSPost2010Prop29
280
     1
102
RTVSPost2010PropOp29
 70
     1
102
RTVSPost2010Prop30
280
     1
102
RTVSPost2010PropOp30
 70
     1
102
RTVSPost2010Prop31
280
     0
102
RTVSPost2010PropOp31
 70
     1
102
RTVSPost2010Prop32
280
     0
102
RTVSPost2010PropOp32
 70
     1
102
RTVSPost2010Prop33
280
     0
102
RTVSPost2010PropOp33
 70
     1
102
RTVSPost2010Prop34
280
     0
102
RTVSPost2010PropOp34
 70
     1
102
RTVSPost2010Prop35
280
     0
102
RTVSPost2010PropOp35
 70
     1
102
RTVSPost2010Prop36
280
     0
102
RTVSPost2010PropOp36
 70
     1
102
RTVSPost2010Prop37
 90
       50
102
RTVSPost2010PropOp37
 70
     1
102
RTVSPost2010Prop38
140
0.0
102
RTVSPost2010PropOp38
 70
     1
102
RTVSPost2010Prop39
140
1.0
102
RTVSPost2010PropOp39
 70
     1
102
RTVSPost2010Prop40
 90
        0
102
RTVSPost2010PropOp40
 70
     1
102
RTVSPost2010Prop41ColorIndex
 90
       18
102
RTVSPost2010Prop41ColorRGB
 90
        0
102
RTVSPost2010PropOp41
 70
     1
102
RTVSPost2010Prop42
 90
       50
102
RTVSPost2010PropOp42
 70
     1
102
RTVSPost2010Prop43
 90
        3
102
RTVSPost2010PropOp43
 70
     1
102
RTVSPost2010Prop44ColorIndex
 90
        5
102
RTVSPost2010Prop44ColorRGB
 90
      255
102
RTVSPost2010PropOp44
 70
     1
102
RTVSPost2010Prop45
280
     0
102
RTVSPost2010PropOp45
 70
     1
102
RTVSPost2010Prop46
 90
       50
102
RTVSPost2010PropOp46
 70
     1
102
RTVSPost2010Prop47
 90
       50
102
RTVSPost2010PropOp47
 70
     1
102
RTVSPost2010Prop48
 90
       50
102
RTVSPost2010PropOp48
 70
     1
102
RTVSPost2010Prop49
280
     0
102
RTVSPost2010PropOp49
 70
     1
102
RTVSPost2010Prop50
 90
       50
102
RTVSPost2010PropOp50
 70
     1
102
RTVSPost2010Prop51ColorIndex
 90
      256
102
RTVSPost2010Prop51ColorRGB
 90
-16777216
102
RTVSPost2010PropOp51
 70
     0
102
RTVSPost2010Prop52
140
1.0
102
RTVSPost2010PropOp52
 70
     0
102
RTVSPost2010Prop53
 90
        2
102
RTVSPost2010PropOp53
 70
     1
102
RTVSPost2010Prop54
  1
strokes_ogs.tif
102
RTVSPost2010PropOp54
 70
     1
102
RTVSPost2010Prop55
280
     0
102
RTVSPost2010PropOp55
 70
     1
102
RTVSPost2010Prop56
140
1.0
102
RTVSPost2010PropOp56
 70
     1
102
RTVSPost2010Prop57
140
1.0
102
RTVSPost2010PropOp57
 70
     1
  0
XRECORD
  5
1578
102
{ACAD_REACTORS
330
1577
102
}
330
1577
100
AcDbXrecord
280
     1
102
RTVSPost2010Prop28
280
     0
102
RTVSPost2010PropOp28
 70
     1
102
RTVSPost2010Prop29
280
     1
102
RTVSPost2010PropOp29
 70
     1
102
RTVSPost2010Prop30
280
     1
102
RTVSPost2010PropOp30
 70
     1
102
RTVSPost2010Prop31
280
     0
102
RTVSPost2010PropOp31
 70
     1
102
RTVSPost2010Prop32
280
     0
102
RTVSPost2010PropOp32
 70
     1
102
RTVSPost2010Prop33
280
     0
102
RTVSPost2010PropOp33
 70
     1
102
RTVSPost2010Prop34
280
     0
102
RTVSPost2010PropOp34
 70
     1
102
RTVSPost2010Prop35
280
     0
102
RTVSPost2010PropOp35
 70
     1
102
RTVSPost2010Prop36
280
     0
102
RTVSPost2010PropOp36
 70
     1
102
RTVSPost2010Prop37
 90
       50
102
RTVSPost2010PropOp37
 70
     1
102
RTVSPost2010Prop38
140
0.0
102
RTVSPost2010PropOp38
 70
     1
102
RTVSPost2010Prop39
140
1.0
102
RTVSPost2010PropOp39
 70
     1
102
RTVSPost2010Prop40
 90
        0
102
RTVSPost2010PropOp40
 70
     1
102
RTVSPost2010Prop41ColorIndex
 90
       18
102
RTVSPost2010Prop41ColorRGB
 90
        0
102
RTVSPost2010PropOp41
 70
     1
102
RTVSPost2010Prop42
 90
       50
102
RTVSPost2010PropOp42
 70
     1
102
RTVSPost2010Prop43
 90
        3
102
RTVSPost2010PropOp43
 70
     1
102
RTVSPost2010Prop44ColorIndex
 90
        5
102
RTVSPost2010Prop44ColorRGB
 90
      255
102
RTVSPost2010PropOp44
 70
     1
102
RTVSPost2010Prop45
280
     0
102
RTVSPost2010PropOp45
 70
     1
102
RTVSPost2010Prop46
 90
       50
102
RTVSPost2010PropOp46
 70
     1
102
RTVSPost2010Prop47
 90
       50
102
RTVSPost2010PropOp47
 70
     1
102
RTVSPost2010Prop48
 90
       50
102
RTVSPost2010PropOp48
 70
     1
102
RTVSPost2010Prop49
280
     0
102
RTVSPost2010PropOp49
 70
     1
102
RTVSPost2010Prop50
 90
       50
102
RTVSPost2010PropOp50
 70
     1
102
RTVSPost2010Prop51ColorIndex
 90
      256
102
RTVSPost2010Prop51ColorRGB
 90
-16777216
102
RTVSPost2010PropOp51
 70
     0
102
RTVSPost2010Prop52
140
1.0
102
RTVSPost2010PropOp52
 70
     0
102
RTVSPost2010Prop53
 90
        2
102
RTVSPost2010PropOp53
 70
     1
102
RTVSPost2010Prop54
  1
strokes_ogs.tif
102
RTVSPost2010PropOp54
 70
     1
102
RTVSPost2010Prop55
280
     0
102
RTVSPost2010PropOp55
 70
     1
102
RTVSPost2010Prop56
140
1.0
102
RTVSPost2010PropOp56
 70
     1
102
RTVSPost2010Prop57
140
1.0
102
RTVSPost2010PropOp57
 70
     1
  0
XRECORD
  5
156A
102
{ACAD_REACTORS
330
1569
102
}
330
1569
100
AcDbXrecord
280
     1
102
RTVSPost2010Prop28
280
     0
102
RTVSPost2010PropOp28
 70
     1
102
RTVSPost2010Prop29
280
     1
102
RTVSPost2010PropOp29
 70
     1
102
RTVSPost2010Prop30
280
     1
102
RTVSPost2010PropOp30
 70
     1
102
RTVSPost2010Prop31
280
     0
102
RTVSPost2010PropOp31
 70
     1
102
RTVSPost2010Prop32
280
     0
102
RTVSPost2010PropOp32
 70
     1
102
RTVSPost2010Prop33
280
     0
102
RTVSPost2010PropOp33
 70
     1
102
RTVSPost2010Prop34
280
     0
102
RTVSPost2010PropOp34
 70
     1
102
RTVSPost2010Prop35
280
     0
102
RTVSPost2010PropOp35
 70
     1
102
RTVSPost2010Prop36
280
     0
102
RTVSPost2010PropOp36
 70
     1
102
RTVSPost2010Prop37
 90
       50
102
RTVSPost2010PropOp37
 70
     1
102
RTVSPost2010Prop38
140
0.0
102
RTVSPost2010PropOp38
 70
     1
102
RTVSPost2010Prop39
140
1.0
102
RTVSPost2010PropOp39
 70
     1
102
RTVSPost2010Prop40
 90
        0
102
RTVSPost2010PropOp40
 70
     1
102
RTVSPost2010Prop41ColorIndex
 90
       18
102
RTVSPost2010Prop41ColorRGB
 90
        0
102
RTVSPost2010PropOp41
 70
     1
102
RTVSPost2010Prop42
 90
       50
102
RTVSPost2010PropOp42
 70
     1
102
RTVSPost2010Prop43
 90
        3
102
RTVSPost2010PropOp43
 70
     1
102
RTVSPost2010Prop44ColorIndex
 90
        5
102
RTVSPost2010Prop44ColorRGB
 90
      255
102
RTVSPost2010PropOp44
 70
     1
102
RTVSPost2010Prop45
280
     0
102
RTVSPost2010PropOp45
 70
     1
102
RTVSPost2010Prop46
 90
       50
102
RTVSPost2010PropOp46
 70
     1
102
RTVSPost2010Prop47
 90
       50
102
RTVSPost2010PropOp47
 70
     1
102
RTVSPost2010Prop48
 90
       50
102
RTVSPost2010PropOp48
 70
     1
102
RTVSPost2010Prop49
280
     0
102
RTVSPost2010PropOp49
 70
     1
102
RTVSPost2010Prop50
 90
       50
102
RTVSPost2010PropOp50
 70
     1
102
RTVSPost2010Prop51ColorIndex
 90
      256
102
RTVSPost2010Prop51ColorRGB
 90
-16777216
102
RTVSPost2010PropOp51
 70
     0
102
RTVSPost2010Prop52
140
1.0
102
RTVSPost2010PropOp52
 70
     0
102
RTVSPost2010Prop53
 90
        2
102
RTVSPost2010PropOp53
 70
     1
102
RTVSPost2010Prop54
  1
strokes_ogs.tif
102
RTVSPost2010PropOp54
 70
     1
102
RTVSPost2010Prop55
280
     0
102
RTVSPost2010PropOp55
 70
     1
102
RTVSPost2010Prop56
140
1.0
102
RTVSPost2010PropOp56
 70
     1
102
RTVSPost2010Prop57
140
1.0
102
RTVSPost2010PropOp57
 70
     1
  0
XRECORD
  5
156E
102
{ACAD_REACTORS
330
156D
102
}
330
156D
100
AcDbXrecord
280
     1
102
RTVSPost2010Prop28
280
     0
102
RTVSPost2010PropOp28
 70
     1
102
RTVSPost2010Prop29
280
     1
102
RTVSPost2010PropOp29
 70
     1
102
RTVSPost2010Prop30
280
     1
102
RTVSPost2010PropOp30
 70
     1
102
RTVSPost2010Prop31
280
     0
102
RTVSPost2010PropOp31
 70
     1
102
RTVSPost2010Prop32
280
     0
102
RTVSPost2010PropOp32
 70
     1
102
RTVSPost2010Prop33
280
     0
102
RTVSPost2010PropOp33
 70
     1
102
RTVSPost2010Prop34
280
     0
102
RTVSPost2010PropOp34
 70
     1
102
RTVSPost2010Prop35
280
     0
102
RTVSPost2010PropOp35
 70
     1
102
RTVSPost2010Prop36
280
     0
102
RTVSPost2010PropOp36
 70
     1
102
RTVSPost2010Prop37
 90
       50
102
RTVSPost2010PropOp37
 70
     1
102
RTVSPost2010Prop38
140
0.0
102
RTVSPost2010PropOp38
 70
     1
102
RTVSPost2010Prop39
140
1.0
102
RTVSPost2010PropOp39
 70
     1
102
RTVSPost2010Prop40
 90
        0
102
RTVSPost2010PropOp40
 70
     1
102
RTVSPost2010Prop41ColorIndex
 90
       18
102
RTVSPost2010Prop41ColorRGB
 90
        0
102
RTVSPost2010PropOp41
 70
     1
102
RTVSPost2010Prop42
 90
       50
102
RTVSPost2010PropOp42
 70
     1
102
RTVSPost2010Prop43
 90
        3
102
RTVSPost2010PropOp43
 70
     1
102
RTVSPost2010Prop44ColorIndex
 90
        5
102
RTVSPost2010Prop44ColorRGB
 90
      255
102
RTVSPost2010PropOp44
 70
     1
102
RTVSPost2010Prop45
280
     0
102
RTVSPost2010PropOp45
 70
     1
102
RTVSPost2010Prop46
 90
       50
102
RTVSPost2010PropOp46
 70
     1
102
RTVSPost2010Prop47
 90
       50
102
RTVSPost2010PropOp47
 70
     1
102
RTVSPost2010Prop48
 90
       50
102
RTVSPost2010PropOp48
 70
     1
102
RTVSPost2010Prop49
280
     0
102
RTVSPost2010PropOp49
 70
     1
102
RTVSPost2010Prop50
 90
       50
102
RTVSPost2010PropOp50
 70
     1
102
RTVSPost2010Prop51ColorIndex
 90
      256
102
RTVSPost2010Prop51ColorRGB
 90
-16777216
102
RTVSPost2010PropOp51
 70
     0
102
RTVSPost2010Prop52
140
1.0
102
RTVSPost2010PropOp52
 70
     0
102
RTVSPost2010Prop53
 90
        2
102
RTVSPost2010PropOp53
 70
     1
102
RTVSPost2010Prop54
  1
strokes_ogs.tif
102
RTVSPost2010PropOp54
 70
     1
102
RTVSPost2010Prop55
280
     0
102
RTVSPost2010PropOp55
 70
     1
102
RTVSPost2010Prop56
140
1.0
102
RTVSPost2010PropOp56
 70
     1
102
RTVSPost2010Prop57
140
1.0
102
RTVSPost2010PropOp57
 70
     1
  0
XRECORD
  5
1588
102
{ACAD_REACTORS
330
1587
102
}
330
1587
100
AcDbXrecord
280
     1
102
RTVSPost2010Prop28
280
     0
102
RTVSPost2010PropOp28
 70
     1
102
RTVSPost2010Prop29
280
     1
102
RTVSPost2010PropOp29
 70
     1
102
RTVSPost2010Prop30
280
     1
102
RTVSPost2010PropOp30
 70
     1
102
RTVSPost2010Prop31
280
     0
102
RTVSPost2010PropOp31
 70
     1
102
RTVSPost2010Prop32
280
     0
102
RTVSPost2010PropOp32
 70
     1
102
RTVSPost2010Prop33
280
     0
102
RTVSPost2010PropOp33
 70
     1
102
RTVSPost2010Prop34
280
     0
102
RTVSPost2010PropOp34
 70
     1
102
RTVSPost2010Prop35
280
     0
102
RTVSPost2010PropOp35
 70
     1
102
RTVSPost2010Prop36
280
     0
102
RTVSPost2010PropOp36
 70
     1
102
RTVSPost2010Prop37
 90
       50
102
RTVSPost2010PropOp37
 70
     0
102
RTVSPost2010Prop38
140
0.0
102
RTVSPost2010PropOp38
 70
     0
102
RTVSPost2010Prop39
140
1.0
102
RTVSPost2010PropOp39
 70
     0
102
RTVSPost2010Prop40
 90
        0
102
RTVSPost2010PropOp40
 70
     0
102
RTVSPost2010Prop41ColorIndex
 90
       18
102
RTVSPost2010Prop41ColorRGB
 90
        0
102
RTVSPost2010PropOp41
 70
     0
102
RTVSPost2010Prop42
 90
       50
102
RTVSPost2010PropOp42
 70
     0
102
RTVSPost2010Prop43
 90
        3
102
RTVSPost2010PropOp43
 70
     0
102
RTVSPost2010Prop44ColorIndex
 90
        5
102
RTVSPost2010Prop44ColorRGB
 90
      255
102
RTVSPost2010PropOp44
 70
     0
102
RTVSPost2010Prop45
280
     0
102
RTVSPost2010PropOp45
 70
     1
102
RTVSPost2010Prop46
 90
       50
102
RTVSPost2010PropOp46
 70
     0
102
RTVSPost2010Prop47
 90
       50
102
RTVSPost2010PropOp47
 70
     0
102
RTVSPost2010Prop48
 90
       50
102
RTVSPost2010PropOp48
 70
     0
102
RTVSPost2010Prop49
280
     0
102
RTVSPost2010PropOp49
 70
     1
102
RTVSPost2010Prop50
 90
       50
102
RTVSPost2010PropOp50
 70
     0
102
RTVSPost2010Prop51ColorIndex
 90
      256
102
RTVSPost2010Prop51ColorRGB
 90
-16777216
102
RTVSPost2010PropOp51
 70
     0
102
RTVSPost2010Prop52
140
1.0
102
RTVSPost2010PropOp52
 70
     0
102
RTVSPost2010Prop53
 90
        2
102
RTVSPost2010PropOp53
 70
     0
102
RTVSPost2010Prop54
  1
strokes_ogs.tif
102
RTVSPost2010PropOp54
 70
     0
102
RTVSPost2010Prop55
280
     0
102
RTVSPost2010PropOp55
 70
     1
102
RTVSPost2010Prop56
140
1.0
102
RTVSPost2010PropOp56
 70
     0
102
RTVSPost2010Prop57
140
1.0
102
RTVSPost2010PropOp57
 70
     0
  0
XRECORD
  5
1576
102
{ACAD_REACTORS
330
1575
102
}
330
1575
100
AcDbXrecord
280
     1
102
RTVSPost2010Prop28
280
     0
102
RTVSPost2010PropOp28
 70
     1
102
RTVSPost2010Prop29
280
     1
102
RTVSPost2010PropOp29
 70
     1
102
RTVSPost2010Prop30
280
     1
102
RTVSPost2010PropOp30
 70
     1
102
RTVSPost2010Prop31
280
     0
102
RTVSPost2010PropOp31
 70
     1
102
RTVSPost2010Prop32
280
     0
102
RTVSPost2010PropOp32
 70
     1
102
RTVSPost2010Prop33
280
     0
102
RTVSPost2010PropOp33
 70
     1
102
RTVSPost2010Prop34
280
     0
102
RTVSPost2010PropOp34
 70
     1
102
RTVSPost2010Prop35
280
     0
102
RTVSPost2010PropOp35
 70
     1
102
RTVSPost2010Prop36
280
     0
102
RTVSPost2010PropOp36
 70
     1
102
RTVSPost2010Prop37
 90
       50
102
RTVSPost2010PropOp37
 70
     1
102
RTVSPost2010Prop38
140
0.0
102
RTVSPost2010PropOp38
 70
     1
102
RTVSPost2010Prop39
140
1.0
102
RTVSPost2010PropOp39
 70
     1
102
RTVSPost2010Prop40
 90
        0
102
RTVSPost2010PropOp40
 70
     1
102
RTVSPost2010Prop41ColorIndex
 90
       18
102
RTVSPost2010Prop41ColorRGB
 90
        0
102
RTVSPost2010PropOp41
 70
     1
102
RTVSPost2010Prop42
 90
       50
102
RTVSPost2010PropOp42
 70
     1
102
RTVSPost2010Prop43
 90
        3
102
RTVSPost2010PropOp43
 70
     1
102
RTVSPost2010Prop44ColorIndex
 90
        5
102
RTVSPost2010Prop44ColorRGB
 90
      255
102
RTVSPost2010PropOp44
 70
     1
102
RTVSPost2010Prop45
280
     0
102
RTVSPost2010PropOp45
 70
     1
102
RTVSPost2010Prop46
 90
       50
102
RTVSPost2010PropOp46
 70
     1
102
RTVSPost2010Prop47
 90
       50
102
RTVSPost2010PropOp47
 70
     1
102
RTVSPost2010Prop48
 90
       50
102
RTVSPost2010PropOp48
 70
     1
102
RTVSPost2010Prop49
280
     0
102
RTVSPost2010PropOp49
 70
     1
102
RTVSPost2010Prop50
 90
       50
102
RTVSPost2010PropOp50
 70
     1
102
RTVSPost2010Prop51ColorIndex
 90
      256
102
RTVSPost2010Prop51ColorRGB
 90
-16777216
102
RTVSPost2010PropOp51
 70
     0
102
RTVSPost2010Prop52
140
1.0
102
RTVSPost2010PropOp52
 70
     0
102
RTVSPost2010Prop53
 90
        2
102
RTVSPost2010PropOp53
 70
     1
102
RTVSPost2010Prop54
  1
strokes_ogs.tif
102
RTVSPost2010PropOp54
 70
     1
102
RTVSPost2010Prop55
280
     0
102
RTVSPost2010PropOp55
 70
     1
102
RTVSPost2010Prop56
140
1.0
102
RTVSPost2010PropOp56
 70
     1
102
RTVSPost2010Prop57
140
1.0
102
RTVSPost2010PropOp57
 70
     1
  0
XRECORD
  5
155A
102
{ACAD_REACTORS
330
1559
102
}
330
1559
100
AcDbXrecord
280
     1
102
RTVSPost2010Prop28
280
     0
102
RTVSPost2010PropOp28
 70
     1
102
RTVSPost2010Prop29
280
     1
102
RTVSPost2010PropOp29
 70
     1
102
RTVSPost2010Prop30
280
     1
102
RTVSPost2010PropOp30
 70
     1
102
RTVSPost2010Prop31
280
     0
102
RTVSPost2010PropOp31
 70
     1
102
RTVSPost2010Prop32
280
     0
102
RTVSPost2010PropOp32
 70
     1
102
RTVSPost2010Prop33
280
     0
102
RTVSPost2010PropOp33
 70
     1
102
RTVSPost2010Prop34
280
     0
102
RTVSPost2010PropOp34
 70
     1
102
RTVSPost2010Prop35
280
     0
102
RTVSPost2010PropOp35
 70
     1
102
RTVSPost2010Prop36
280
     0
102
RTVSPost2010PropOp36
 70
     1
102
RTVSPost2010Prop37
 90
       50
102
RTVSPost2010PropOp37
 70
     1
102
RTVSPost2010Prop38
140
0.0
102
RTVSPost2010PropOp38
 70
     1
102
RTVSPost2010Prop39
140
1.0
102
RTVSPost2010PropOp39
 70
     1
102
RTVSPost2010Prop40
 90
        0
102
RTVSPost2010PropOp40
 70
     1
102
RTVSPost2010Prop41ColorIndex
 90
       18
102
RTVSPost2010Prop41ColorRGB
 90
        0
102
RTVSPost2010PropOp41
 70
     1
102
RTVSPost2010Prop42
 90
       50
102
RTVSPost2010PropOp42
 70
     1
102
RTVSPost2010Prop43
 90
        3
102
RTVSPost2010PropOp43
 70
     1
102
RTVSPost2010Prop44ColorIndex
 90
        5
102
RTVSPost2010Prop44ColorRGB
 90
      255
102
RTVSPost2010PropOp44
 70
     1
102
RTVSPost2010Prop45
280
     0
102
RTVSPost2010PropOp45
 70
     1
102
RTVSPost2010Prop46
 90
       50
102
RTVSPost2010PropOp46
 70
     1
102
RTVSPost2010Prop47
 90
       50
102
RTVSPost2010PropOp47
 70
     1
102
RTVSPost2010Prop48
 90
       50
102
RTVSPost2010PropOp48
 70
     1
102
RTVSPost2010Prop49
280
     0
102
RTVSPost2010PropOp49
 70
     1
102
RTVSPost2010Prop50
 90
       50
102
RTVSPost2010PropOp50
 70
     1
102
RTVSPost2010Prop51ColorIndex
 90
      256
102
RTVSPost2010Prop51ColorRGB
 90
-16777216
102
RTVSPost2010PropOp51
 70
     0
102
RTVSPost2010Prop52
140
1.0
102
RTVSPost2010PropOp52
 70
     0
102
RTVSPost2010Prop53
 90
        2
102
RTVSPost2010PropOp53
 70
     1
102
RTVSPost2010Prop54
  1
strokes_ogs.tif
102
RTVSPost2010PropOp54
 70
     1
102
RTVSPost2010Prop55
280
     0
102
RTVSPost2010PropOp55
 70
     1
102
RTVSPost2010Prop56
140
1.0
102
RTVSPost2010PropOp56
 70
     1
102
RTVSPost2010Prop57
140
1.0
102
RTVSPost2010PropOp57
 70
     1
  0
XRECORD
  5
155C
102
{ACAD_REACTORS
330
155B
102
}
330
155B
100
AcDbXrecord
280
     1
102
RTVSPost2010Prop28
280
     0
102
RTVSPost2010PropOp28
 70
     1
102
RTVSPost2010Prop29
280
     1
102
RTVSPost2010PropOp29
 70
     1
102
RTVSPost2010Prop30
280
     1
102
RTVSPost2010PropOp30
 70
     1
102
RTVSPost2010Prop31
280
     0
102
RTVSPost2010PropOp31
 70
     1
102
RTVSPost2010Prop32
280
     0
102
RTVSPost2010PropOp32
 70
     1
102
RTVSPost2010Prop33
280
     0
102
RTVSPost2010PropOp33
 70
     1
102
RTVSPost2010Prop34
280
     0
102
RTVSPost2010PropOp34
 70
     1
102
RTVSPost2010Prop35
280
     0
102
RTVSPost2010PropOp35
 70
     1
102
RTVSPost2010Prop36
280
     0
102
RTVSPost2010PropOp36
 70
     1
102
RTVSPost2010Prop37
 90
       50
102
RTVSPost2010PropOp37
 70
     1
102
RTVSPost2010Prop38
140
0.0
102
RTVSPost2010PropOp38
 70
     1
102
RTVSPost2010Prop39
140
1.0
102
RTVSPost2010PropOp39
 70
     1
102
RTVSPost2010Prop40
 90
        0
102
RTVSPost2010PropOp40
 70
     1
102
RTVSPost2010Prop41ColorIndex
 90
       18
102
RTVSPost2010Prop41ColorRGB
 90
        0
102
RTVSPost2010PropOp41
 70
     1
102
RTVSPost2010Prop42
 90
       50
102
RTVSPost2010PropOp42
 70
     1
102
RTVSPost2010Prop43
 90
        3
102
RTVSPost2010PropOp43
 70
     1
102
RTVSPost2010Prop44ColorIndex
 90
        5
102
RTVSPost2010Prop44ColorRGB
 90
      255
102
RTVSPost2010PropOp44
 70
     1
102
RTVSPost2010Prop45
280
     0
102
RTVSPost2010PropOp45
 70
     1
102
RTVSPost2010Prop46
 90
       50
102
RTVSPost2010PropOp46
 70
     1
102
RTVSPost2010Prop47
 90
       50
102
RTVSPost2010PropOp47
 70
     1
102
RTVSPost2010Prop48
 90
       50
102
RTVSPost2010PropOp48
 70
     1
102
RTVSPost2010Prop49
280
     0
102
RTVSPost2010PropOp49
 70
     1
102
RTVSPost2010Prop50
 90
       50
102
RTVSPost2010PropOp50
 70
     1
102
RTVSPost2010Prop51ColorIndex
 90
      256
102
RTVSPost2010Prop51ColorRGB
 90
-16777216
102
RTVSPost2010PropOp51
 70
     0
102
RTVSPost2010Prop52
140
1.0
102
RTVSPost2010PropOp52
 70
     0
102
RTVSPost2010Prop53
 90
        2
102
RTVSPost2010PropOp53
 70
     1
102
RTVSPost2010Prop54
  1
strokes_ogs.tif
102
RTVSPost2010PropOp54
 70
     1
102
RTVSPost2010Prop55
280
     0
102
RTVSPost2010PropOp55
 70
     1
102
RTVSPost2010Prop56
140
1.0
102
RTVSPost2010PropOp56
 70
     1
102
RTVSPost2010Prop57
140
1.0
102
RTVSPost2010PropOp57
 70
     1
  0
XRECORD
  5
155E
102
{ACAD_REACTORS
330
155D
102
}
330
155D
100
AcDbXrecord
280
     1
102
RTVSPost2010Prop28
280
     0
102
RTVSPost2010PropOp28
 70
     1
102
RTVSPost2010Prop29
280
     1
102
RTVSPost2010PropOp29
 70
     1
102
RTVSPost2010Prop30
280
     1
102
RTVSPost2010PropOp30
 70
     1
102
RTVSPost2010Prop31
280
     0
102
RTVSPost2010PropOp31
 70
     1
102
RTVSPost2010Prop32
280
     0
102
RTVSPost2010PropOp32
 70
     1
102
RTVSPost2010Prop33
280
     0
102
RTVSPost2010PropOp33
 70
     1
102
RTVSPost2010Prop34
280
     0
102
RTVSPost2010PropOp34
 70
     1
102
RTVSPost2010Prop35
280
     0
102
RTVSPost2010PropOp35
 70
     1
102
RTVSPost2010Prop36
280
     0
102
RTVSPost2010PropOp36
 70
     1
102
RTVSPost2010Prop37
 90
       50
102
RTVSPost2010PropOp37
 70
     1
102
RTVSPost2010Prop38
140
0.0
102
RTVSPost2010PropOp38
 70
     1
102
RTVSPost2010Prop39
140
1.0
102
RTVSPost2010PropOp39
 70
     1
102
RTVSPost2010Prop40
 90
        0
102
RTVSPost2010PropOp40
 70
     1
102
RTVSPost2010Prop41ColorIndex
 90
       18
102
RTVSPost2010Prop41ColorRGB
 90
        0
102
RTVSPost2010PropOp41
 70
     1
102
RTVSPost2010Prop42
 90
       50
102
RTVSPost2010PropOp42
 70
     1
102
RTVSPost2010Prop43
 90
        3
102
RTVSPost2010PropOp43
 70
     1
102
RTVSPost2010Prop44ColorIndex
 90
        5
102
RTVSPost2010Prop44ColorRGB
 90
      255
102
RTVSPost2010PropOp44
 70
     1
102
RTVSPost2010Prop45
280
     0
102
RTVSPost2010PropOp45
 70
     1
102
RTVSPost2010Prop46
 90
       50
102
RTVSPost2010PropOp46
 70
     1
102
RTVSPost2010Prop47
 90
       50
102
RTVSPost2010PropOp47
 70
     1
102
RTVSPost2010Prop48
 90
       50
102
RTVSPost2010PropOp48
 70
     1
102
RTVSPost2010Prop49
280
     0
102
RTVSPost2010PropOp49
 70
     1
102
RTVSPost2010Prop50
 90
       50
102
RTVSPost2010PropOp50
 70
     1
102
RTVSPost2010Prop51ColorIndex
 90
      256
102
RTVSPost2010Prop51ColorRGB
 90
-16777216
102
RTVSPost2010PropOp51
 70
     0
102
RTVSPost2010Prop52
140
1.0
102
RTVSPost2010PropOp52
 70
     0
102
RTVSPost2010Prop53
 90
        2
102
RTVSPost2010PropOp53
 70
     1
102
RTVSPost2010Prop54
  1
strokes_ogs.tif
102
RTVSPost2010PropOp54
 70
     1
102
RTVSPost2010Prop55
280
     0
102
RTVSPost2010PropOp55
 70
     1
102
RTVSPost2010Prop56
140
1.0
102
RTVSPost2010PropOp56
 70
     1
102
RTVSPost2010Prop57
140
1.0
102
RTVSPost2010PropOp57
 70
     1
  0
XRECORD
  5
1560
102
{ACAD_REACTORS
330
155F
102
}
330
155F
100
AcDbXrecord
280
     1
102
RTVSPost2010Prop28
280
     0
102
RTVSPost2010PropOp28
 70
     1
102
RTVSPost2010Prop29
280
     1
102
RTVSPost2010PropOp29
 70
     1
102
RTVSPost2010Prop30
280
     1
102
RTVSPost2010PropOp30
 70
     1
102
RTVSPost2010Prop31
280
     0
102
RTVSPost2010PropOp31
 70
     1
102
RTVSPost2010Prop32
280
     0
102
RTVSPost2010PropOp32
 70
     1
102
RTVSPost2010Prop33
280
     0
102
RTVSPost2010PropOp33
 70
     1
102
RTVSPost2010Prop34
280
     0
102
RTVSPost2010PropOp34
 70
     1
102
RTVSPost2010Prop35
280
     0
102
RTVSPost2010PropOp35
 70
     1
102
RTVSPost2010Prop36
280
     0
102
RTVSPost2010PropOp36
 70
     1
102
RTVSPost2010Prop37
 90
       50
102
RTVSPost2010PropOp37
 70
     1
102
RTVSPost2010Prop38
140
0.0
102
RTVSPost2010PropOp38
 70
     1
102
RTVSPost2010Prop39
140
1.0
102
RTVSPost2010PropOp39
 70
     1
102
RTVSPost2010Prop40
 90
        0
102
RTVSPost2010PropOp40
 70
     1
102
RTVSPost2010Prop41ColorIndex
 90
       18
102
RTVSPost2010Prop41ColorRGB
 90
        0
102
RTVSPost2010PropOp41
 70
     1
102
RTVSPost2010Prop42
 90
       50
102
RTVSPost2010PropOp42
 70
     1
102
RTVSPost2010Prop43
 90
        3
102
RTVSPost2010PropOp43
 70
     1
102
RTVSPost2010Prop44ColorIndex
 90
        5
102
RTVSPost2010Prop44ColorRGB
 90
      255
102
RTVSPost2010PropOp44
 70
     1
102
RTVSPost2010Prop45
280
     0
102
RTVSPost2010PropOp45
 70
     1
102
RTVSPost2010Prop46
 90
       50
102
RTVSPost2010PropOp46
 70
     1
102
RTVSPost2010Prop47
 90
       50
102
RTVSPost2010PropOp47
 70
     1
102
RTVSPost2010Prop48
 90
       50
102
RTVSPost2010PropOp48
 70
     1
102
RTVSPost2010Prop49
280
     0
102
RTVSPost2010PropOp49
 70
     1
102
RTVSPost2010Prop50
 90
       50
102
RTVSPost2010PropOp50
 70
     1
102
RTVSPost2010Prop51ColorIndex
 90
      256
102
RTVSPost2010Prop51ColorRGB
 90
-16777216
102
RTVSPost2010PropOp51
 70
     0
102
RTVSPost2010Prop52
140
1.0
102
RTVSPost2010PropOp52
 70
     0
102
RTVSPost2010Prop53
 90
        2
102
RTVSPost2010PropOp53
 70
     1
102
RTVSPost2010Prop54
  1
strokes_ogs.tif
102
RTVSPost2010PropOp54
 70
     1
102
RTVSPost2010Prop55
280
     0
102
RTVSPost2010PropOp55
 70
     1
102
RTVSPost2010Prop56
140
1.0
102
RTVSPost2010PropOp56
 70
     1
102
RTVSPost2010Prop57
140
1.0
102
RTVSPost2010PropOp57
 70
     1
  0
XRECORD
  5
1568
102
{ACAD_REACTORS
330
1567
102
}
330
1567
100
AcDbXrecord
280
     1
102
RTVSPost2010Prop28
280
     0
102
RTVSPost2010PropOp28
 70
     1
102
RTVSPost2010Prop29
280
     1
102
RTVSPost2010PropOp29
 70
     1
102
RTVSPost2010Prop30
280
     1
102
RTVSPost2010PropOp30
 70
     1
102
RTVSPost2010Prop31
280
     0
102
RTVSPost2010PropOp31
 70
     1
102
RTVSPost2010Prop32
280
     0
102
RTVSPost2010PropOp32
 70
     1
102
RTVSPost2010Prop33
280
     0
102
RTVSPost2010PropOp33
 70
     1
102
RTVSPost2010Prop34
280
     0
102
RTVSPost2010PropOp34
 70
     1
102
RTVSPost2010Prop35
280
     0
102
RTVSPost2010PropOp35
 70
     1
102
RTVSPost2010Prop36
280
     0
102
RTVSPost2010PropOp36
 70
     1
102
RTVSPost2010Prop37
 90
       50
102
RTVSPost2010PropOp37
 70
     1
102
RTVSPost2010Prop38
140
0.0
102
RTVSPost2010PropOp38
 70
     1
102
RTVSPost2010Prop39
140
1.0
102
RTVSPost2010PropOp39
 70
     1
102
RTVSPost2010Prop40
 90
        0
102
RTVSPost2010PropOp40
 70
     1
102
RTVSPost2010Prop41ColorIndex
 90
       18
102
RTVSPost2010Prop41ColorRGB
 90
        0
102
RTVSPost2010PropOp41
 70
     1
102
RTVSPost2010Prop42
 90
       50
102
RTVSPost2010PropOp42
 70
     1
102
RTVSPost2010Prop43
 90
        3
102
RTVSPost2010PropOp43
 70
     1
102
RTVSPost2010Prop44ColorIndex
 90
        5
102
RTVSPost2010Prop44ColorRGB
 90
      255
102
RTVSPost2010PropOp44
 70
     1
102
RTVSPost2010Prop45
280
     0
102
RTVSPost2010PropOp45
 70
     1
102
RTVSPost2010Prop46
 90
       50
102
RTVSPost2010PropOp46
 70
     1
102
RTVSPost2010Prop47
 90
       50
102
RTVSPost2010PropOp47
 70
     1
102
RTVSPost2010Prop48
 90
       50
102
RTVSPost2010PropOp48
 70
     1
102
RTVSPost2010Prop49
280
     0
102
RTVSPost2010PropOp49
 70
     1
102
RTVSPost2010Prop50
 90
       50
102
RTVSPost2010PropOp50
 70
     1
102
RTVSPost2010Prop51ColorIndex
 90
      256
102
RTVSPost2010Prop51ColorRGB
 90
-16777216
102
RTVSPost2010PropOp51
 70
     0
102
RTVSPost2010Prop52
140
1.0
102
RTVSPost2010PropOp52
 70
     0
102
RTVSPost2010Prop53
 90
        2
102
RTVSPost2010PropOp53
 70
     1
102
RTVSPost2010Prop54
  1
strokes_ogs.tif
102
RTVSPost2010PropOp54
 70
     1
102
RTVSPost2010Prop55
280
     0
102
RTVSPost2010PropOp55
 70
     1
102
RTVSPost2010Prop56
140
1.0
102
RTVSPost2010PropOp56
 70
     1
102
RTVSPost2010Prop57
140
1.0
102
RTVSPost2010PropOp57
 70
     1
  0
XRECORD
  5
1584
102
{ACAD_REACTORS
330
1583
102
}
330
1583
100
AcDbXrecord
280
     1
102
RTVSPost2010Prop28
280
     0
102
RTVSPost2010PropOp28
 70
     1
102
RTVSPost2010Prop29
280
     1
102
RTVSPost2010PropOp29
 70
     1
102
RTVSPost2010Prop30
280
     1
102
RTVSPost2010PropOp30
 70
     1
102
RTVSPost2010Prop31
280
     0
102
RTVSPost2010PropOp31
 70
     1
102
RTVSPost2010Prop32
280
     0
102
RTVSPost2010PropOp32
 70
     1
102
RTVSPost2010Prop33
280
     0
102
RTVSPost2010PropOp33
 70
     1
102
RTVSPost2010Prop34
280
     0
102
RTVSPost2010PropOp34
 70
     1
102
RTVSPost2010Prop35
280
     0
102
RTVSPost2010PropOp35
 70
     1
102
RTVSPost2010Prop36
280
     0
102
RTVSPost2010PropOp36
 70
     1
102
RTVSPost2010Prop37
 90
       50
102
RTVSPost2010PropOp37
 70
     0
102
RTVSPost2010Prop38
140
0.0
102
RTVSPost2010PropOp38
 70
     0
102
RTVSPost2010Prop39
140
1.0
102
RTVSPost2010PropOp39
 70
     0
102
RTVSPost2010Prop40
 90
        0
102
RTVSPost2010PropOp40
 70
     0
102
RTVSPost2010Prop41ColorIndex
 90
       18
102
RTVSPost2010Prop41ColorRGB
 90
        0
102
RTVSPost2010PropOp41
 70
     0
102
RTVSPost2010Prop42
 90
       50
102
RTVSPost2010PropOp42
 70
     0
102
RTVSPost2010Prop43
 90
        3
102
RTVSPost2010PropOp43
 70
     0
102
RTVSPost2010Prop44ColorIndex
 90
        5
102
RTVSPost2010Prop44ColorRGB
 90
      255
102
RTVSPost2010PropOp44
 70
     0
102
RTVSPost2010Prop45
280
     0
102
RTVSPost2010PropOp45
 70
     1
102
RTVSPost2010Prop46
 90
       50
102
RTVSPost2010PropOp46
 70
     0
102
RTVSPost2010Prop47
 90
       50
102
RTVSPost2010PropOp47
 70
     0
102
RTVSPost2010Prop48
 90
       50
102
RTVSPost2010PropOp48
 70
     0
102
RTVSPost2010Prop49
280
     0
102
RTVSPost2010PropOp49
 70
     1
102
RTVSPost2010Prop50
 90
       50
102
RTVSPost2010PropOp50
 70
     0
102
RTVSPost2010Prop51ColorIndex
 90
      256
102
RTVSPost2010Prop51ColorRGB
 90
-16777216
102
RTVSPost2010PropOp51
 70
     0
102
RTVSPost2010Prop52
140
1.0
102
RTVSPost2010PropOp52
 70
     0
102
RTVSPost2010Prop53
 90
        2
102
RTVSPost2010PropOp53
 70
     0
102
RTVSPost2010Prop54
  1
strokes_ogs.tif
102
RTVSPost2010PropOp54
 70
     0
102
RTVSPost2010Prop55
280
     0
102
RTVSPost2010PropOp55
 70
     1
102
RTVSPost2010Prop56
140
1.0
102
RTVSPost2010PropOp56
 70
     0
102
RTVSPost2010Prop57
140
1.0
102
RTVSPost2010PropOp57
 70
     0
  0
XRECORD
  5
1574
102
{ACAD_REACTORS
330
1573
102
}
330
1573
100
AcDbXrecord
280
     1
102
RTVSPost2010Prop28
280
     0
102
RTVSPost2010PropOp28
 70
     1
102
RTVSPost2010Prop29
280
     1
102
RTVSPost2010PropOp29
 70
     1
102
RTVSPost2010Prop30
280
     1
102
RTVSPost2010PropOp30
 70
     1
102
RTVSPost2010Prop31
280
     0
102
RTVSPost2010PropOp31
 70
     1
102
RTVSPost2010Prop32
280
     0
102
RTVSPost2010PropOp32
 70
     1
102
RTVSPost2010Prop33
280
     0
102
RTVSPost2010PropOp33
 70
     1
102
RTVSPost2010Prop34
280
     0
102
RTVSPost2010PropOp34
 70
     1
102
RTVSPost2010Prop35
280
     0
102
RTVSPost2010PropOp35
 70
     1
102
RTVSPost2010Prop36
280
     0
102
RTVSPost2010PropOp36
 70
     1
102
RTVSPost2010Prop37
 90
       50
102
RTVSPost2010PropOp37
 70
     1
102
RTVSPost2010Prop38
140
0.0
102
RTVSPost2010PropOp38
 70
     1
102
RTVSPost2010Prop39
140
1.0
102
RTVSPost2010PropOp39
 70
     1
102
RTVSPost2010Prop40
 90
        0
102
RTVSPost2010PropOp40
 70
     1
102
RTVSPost2010Prop41ColorIndex
 90
       18
102
RTVSPost2010Prop41ColorRGB
 90
        0
102
RTVSPost2010PropOp41
 70
     1
102
RTVSPost2010Prop42
 90
       50
102
RTVSPost2010PropOp42
 70
     1
102
RTVSPost2010Prop43
 90
        3
102
RTVSPost2010PropOp43
 70
     1
102
RTVSPost2010Prop44ColorIndex
 90
        5
102
RTVSPost2010Prop44ColorRGB
 90
      255
102
RTVSPost2010PropOp44
 70
     1
102
RTVSPost2010Prop45
280
     0
102
RTVSPost2010PropOp45
 70
     1
102
RTVSPost2010Prop46
 90
       50
102
RTVSPost2010PropOp46
 70
     1
102
RTVSPost2010Prop47
 90
       50
102
RTVSPost2010PropOp47
 70
     1
102
RTVSPost2010Prop48
 90
       50
102
RTVSPost2010PropOp48
 70
     1
102
RTVSPost2010Prop49
280
     0
102
RTVSPost2010PropOp49
 70
     1
102
RTVSPost2010Prop50
 90
       50
102
RTVSPost2010PropOp50
 70
     1
102
RTVSPost2010Prop51ColorIndex
 90
      256
102
RTVSPost2010Prop51ColorRGB
 90
-16777216
102
RTVSPost2010PropOp51
 70
     0
102
RTVSPost2010Prop52
140
1.0
102
RTVSPost2010PropOp52
 70
     0
102
RTVSPost2010Prop53
 90
        2
102
RTVSPost2010PropOp53
 70
     1
102
RTVSPost2010Prop54
  1
strokes_ogs.tif
102
RTVSPost2010PropOp54
 70
     1
102
RTVSPost2010Prop55
280
     0
102
RTVSPost2010PropOp55
 70
     1
102
RTVSPost2010Prop56
140
1.0
102
RTVSPost2010PropOp56
 70
     1
102
RTVSPost2010Prop57
140
1.0
102
RTVSPost2010PropOp57
 70
     1
  0
XRECORD
  5
1586
102
{ACAD_REACTORS
330
1585
102
}
330
1585
100
AcDbXrecord
280
     1
102
RTVSPost2010Prop28
280
     0
102
RTVSPost2010PropOp28
 70
     1
102
RTVSPost2010Prop29
280
     1
102
RTVSPost2010PropOp29
 70
     1
102
RTVSPost2010Prop30
280
     1
102
RTVSPost2010PropOp30
 70
     1
102
RTVSPost2010Prop31
280
     0
102
RTVSPost2010PropOp31
 70
     1
102
RTVSPost2010Prop32
280
     0
102
RTVSPost2010PropOp32
 70
     1
102
RTVSPost2010Prop33
280
     0
102
RTVSPost2010PropOp33
 70
     1
102
RTVSPost2010Prop34
280
     0
102
RTVSPost2010PropOp34
 70
     1
102
RTVSPost2010Prop35
280
     0
102
RTVSPost2010PropOp35
 70
     1
102
RTVSPost2010Prop36
280
     0
102
RTVSPost2010PropOp36
 70
     1
102
RTVSPost2010Prop37
 90
       50
102
RTVSPost2010PropOp37
 70
     0
102
RTVSPost2010Prop38
140
0.0
102
RTVSPost2010PropOp38
 70
     0
102
RTVSPost2010Prop39
140
1.0
102
RTVSPost2010PropOp39
 70
     0
102
RTVSPost2010Prop40
 90
        0
102
RTVSPost2010PropOp40
 70
     0
102
RTVSPost2010Prop41ColorIndex
 90
       18
102
RTVSPost2010Prop41ColorRGB
 90
        0
102
RTVSPost2010PropOp41
 70
     0
102
RTVSPost2010Prop42
 90
       50
102
RTVSPost2010PropOp42
 70
     0
102
RTVSPost2010Prop43
 90
        3
102
RTVSPost2010PropOp43
 70
     0
102
RTVSPost2010Prop44ColorIndex
 90
        5
102
RTVSPost2010Prop44ColorRGB
 90
      255
102
RTVSPost2010PropOp44
 70
     0
102
RTVSPost2010Prop45
280
     0
102
RTVSPost2010PropOp45
 70
     1
102
RTVSPost2010Prop46
 90
       50
102
RTVSPost2010PropOp46
 70
     0
102
RTVSPost2010Prop47
 90
       50
102
RTVSPost2010PropOp47
 70
     0
102
RTVSPost2010Prop48
 90
       50
102
RTVSPost2010PropOp48
 70
     0
102
RTVSPost2010Prop49
280
     0
102
RTVSPost2010PropOp49
 70
     1
102
RTVSPost2010Prop50
 90
       50
102
RTVSPost2010PropOp50
 70
     0
102
RTVSPost2010Prop51ColorIndex
 90
      256
102
RTVSPost2010Prop51ColorRGB
 90
-16777216
102
RTVSPost2010PropOp51
 70
     0
102
RTVSPost2010Prop52
140
1.0
102
RTVSPost2010PropOp52
 70
     0
102
RTVSPost2010Prop53
 90
        2
102
RTVSPost2010PropOp53
 70
     0
102
RTVSPost2010Prop54
  1
strokes_ogs.tif
102
RTVSPost2010PropOp54
 70
     0
102
RTVSPost2010Prop55
280
     0
102
RTVSPost2010PropOp55
 70
     1
102
RTVSPost2010Prop56
140
1.0
102
RTVSPost2010PropOp56
 70
     0
102
RTVSPost2010Prop57
140
1.0
102
RTVSPost2010PropOp57
 70
     0
  0
XRECORD
  5
156C
102
{ACAD_REACTORS
330
156B
102
}
330
156B
100
AcDbXrecord
280
     1
102
RTVSPost2010Prop28
280
     0
102
RTVSPost2010PropOp28
 70
     1
102
RTVSPost2010Prop29
280
     1
102
RTVSPost2010PropOp29
 70
     1
102
RTVSPost2010Prop30
280
     1
102
RTVSPost2010PropOp30
 70
     1
102
RTVSPost2010Prop31
280
     0
102
RTVSPost2010PropOp31
 70
     1
102
RTVSPost2010Prop32
280
     0
102
RTVSPost2010PropOp32
 70
     1
102
RTVSPost2010Prop33
280
     0
102
RTVSPost2010PropOp33
 70
     1
102
RTVSPost2010Prop34
280
     0
102
RTVSPost2010PropOp34
 70
     1
102
RTVSPost2010Prop35
280
     0
102
RTVSPost2010PropOp35
 70
     1
102
RTVSPost2010Prop36
280
     0
102
RTVSPost2010PropOp36
 70
     1
102
RTVSPost2010Prop37
 90
       50
102
RTVSPost2010PropOp37
 70
     1
102
RTVSPost2010Prop38
140
0.0
102
RTVSPost2010PropOp38
 70
     1
102
RTVSPost2010Prop39
140
1.0
102
RTVSPost2010PropOp39
 70
     1
102
RTVSPost2010Prop40
 90
        0
102
RTVSPost2010PropOp40
 70
     1
102
RTVSPost2010Prop41ColorIndex
 90
       18
102
RTVSPost2010Prop41ColorRGB
 90
        0
102
RTVSPost2010PropOp41
 70
     1
102
RTVSPost2010Prop42
 90
       50
102
RTVSPost2010PropOp42
 70
     1
102
RTVSPost2010Prop43
 90
        3
102
RTVSPost2010PropOp43
 70
     1
102
RTVSPost2010Prop44ColorIndex
 90
        5
102
RTVSPost2010Prop44ColorRGB
 90
      255
102
RTVSPost2010PropOp44
 70
     1
102
RTVSPost2010Prop45
280
     0
102
RTVSPost2010PropOp45
 70
     1
102
RTVSPost2010Prop46
 90
       50
102
RTVSPost2010PropOp46
 70
     1
102
RTVSPost2010Prop47
 90
       50
102
RTVSPost2010PropOp47
 70
     1
102
RTVSPost2010Prop48
 90
       50
102
RTVSPost2010PropOp48
 70
     1
102
RTVSPost2010Prop49
280
     0
102
RTVSPost2010PropOp49
 70
     1
102
RTVSPost2010Prop50
 90
       50
102
RTVSPost2010PropOp50
 70
     1
102
RTVSPost2010Prop51ColorIndex
 90
      256
102
RTVSPost2010Prop51ColorRGB
 90
-16777216
102
RTVSPost2010PropOp51
 70
     0
102
RTVSPost2010Prop52
140
1.0
102
RTVSPost2010PropOp52
 70
     0
102
RTVSPost2010Prop53
 90
        2
102
RTVSPost2010PropOp53
 70
     1
102
RTVSPost2010Prop54
  1
strokes_ogs.tif
102
RTVSPost2010PropOp54
 70
     1
102
RTVSPost2010Prop55
280
     0
102
RTVSPost2010PropOp55
 70
     1
102
RTVSPost2010Prop56
140
1.0
102
RTVSPost2010PropOp56
 70
     1
102
RTVSPost2010Prop57
140
1.0
102
RTVSPost2010PropOp57
 70
     1
  0
XRECORD
  5
1582
102
{ACAD_REACTORS
330
1581
102
}
330
1581
100
AcDbXrecord
280
     1
102
RTVSPost2010Prop28
280
     0
102
RTVSPost2010PropOp28
 70
     1
102
RTVSPost2010Prop29
280
     1
102
RTVSPost2010PropOp29
 70
     1
102
RTVSPost2010Prop30
280
     1
102
RTVSPost2010PropOp30
 70
     1
102
RTVSPost2010Prop31
280
     0
102
RTVSPost2010PropOp31
 70
     1
102
RTVSPost2010Prop32
280
     0
102
RTVSPost2010PropOp32
 70
     1
102
RTVSPost2010Prop33
280
     0
102
RTVSPost2010PropOp33
 70
     1
102
RTVSPost2010Prop34
280
     0
102
RTVSPost2010PropOp34
 70
     1
102
RTVSPost2010Prop35
280
     0
102
RTVSPost2010PropOp35
 70
     1
102
RTVSPost2010Prop36
280
     0
102
RTVSPost2010PropOp36
 70
     1
102
RTVSPost2010Prop37
 90
       50
102
RTVSPost2010PropOp37
 70
     1
102
RTVSPost2010Prop38
140
0.0
102
RTVSPost2010PropOp38
 70
     1
102
RTVSPost2010Prop39
140
1.0
102
RTVSPost2010PropOp39
 70
     1
102
RTVSPost2010Prop40
 90
        0
102
RTVSPost2010PropOp40
 70
     1
102
RTVSPost2010Prop41ColorIndex
 90
       18
102
RTVSPost2010Prop41ColorRGB
 90
        0
102
RTVSPost2010PropOp41
 70
     1
102
RTVSPost2010Prop42
 90
       50
102
RTVSPost2010PropOp42
 70
     1
102
RTVSPost2010Prop43
 90
        3
102
RTVSPost2010PropOp43
 70
     1
102
RTVSPost2010Prop44ColorIndex
 90
        5
102
RTVSPost2010Prop44ColorRGB
 90
      255
102
RTVSPost2010PropOp44
 70
     1
102
RTVSPost2010Prop45
280
     0
102
RTVSPost2010PropOp45
 70
     1
102
RTVSPost2010Prop46
 90
       50
102
RTVSPost2010PropOp46
 70
     1
102
RTVSPost2010Prop47
 90
       50
102
RTVSPost2010PropOp47
 70
     1
102
RTVSPost2010Prop48
 90
       50
102
RTVSPost2010PropOp48
 70
     1
102
RTVSPost2010Prop49
280
     0
102
RTVSPost2010PropOp49
 70
     1
102
RTVSPost2010Prop50
 90
       50
102
RTVSPost2010PropOp50
 70
     1
102
RTVSPost2010Prop51ColorIndex
 90
      256
102
RTVSPost2010Prop51ColorRGB
 90
-16777216
102
RTVSPost2010PropOp51
 70
     0
102
RTVSPost2010Prop52
140
1.0
102
RTVSPost2010PropOp52
 70
     0
102
RTVSPost2010Prop53
 90
        2
102
RTVSPost2010PropOp53
 70
     1
102
RTVSPost2010Prop54
  1
strokes_ogs.tif
102
RTVSPost2010PropOp54
 70
     1
102
RTVSPost2010Prop55
280
     0
102
RTVSPost2010PropOp55
 70
     1
102
RTVSPost2010Prop56
140
1.0
102
RTVSPost2010PropOp56
 70
     1
102
RTVSPost2010Prop57
140
1.0
102
RTVSPost2010PropOp57
 70
     1
  0
XRECORD
  5
1580
102
{ACAD_REACTORS
330
157F
102
}
330
157F
100
AcDbXrecord
280
     1
102
RTVSPost2010Prop28
280
     0
102
RTVSPost2010PropOp28
 70
     1
102
RTVSPost2010Prop29
280
     1
102
RTVSPost2010PropOp29
 70
     1
102
RTVSPost2010Prop30
280
     1
102
RTVSPost2010PropOp30
 70
     1
102
RTVSPost2010Prop31
280
     0
102
RTVSPost2010PropOp31
 70
     1
102
RTVSPost2010Prop32
280
     0
102
RTVSPost2010PropOp32
 70
     1
102
RTVSPost2010Prop33
280
     0
102
RTVSPost2010PropOp33
 70
     1
102
RTVSPost2010Prop34
280
     0
102
RTVSPost2010PropOp34
 70
     1
102
RTVSPost2010Prop35
280
     0
102
RTVSPost2010PropOp35
 70
     1
102
RTVSPost2010Prop36
280
     0
102
RTVSPost2010PropOp36
 70
     1
102
RTVSPost2010Prop37
 90
       50
102
RTVSPost2010PropOp37
 70
     1
102
RTVSPost2010Prop38
140
0.0
102
RTVSPost2010PropOp38
 70
     1
102
RTVSPost2010Prop39
140
1.0
102
RTVSPost2010PropOp39
 70
     1
102
RTVSPost2010Prop40
 90
        0
102
RTVSPost2010PropOp40
 70
     1
102
RTVSPost2010Prop41ColorIndex
 90
       18
102
RTVSPost2010Prop41ColorRGB
 90
        0
102
RTVSPost2010PropOp41
 70
     1
102
RTVSPost2010Prop42
 90
       50
102
RTVSPost2010PropOp42
 70
     1
102
RTVSPost2010Prop43
 90
        3
102
RTVSPost2010PropOp43
 70
     1
102
RTVSPost2010Prop44ColorIndex
 90
        5
102
RTVSPost2010Prop44ColorRGB
 90
      255
102
RTVSPost2010PropOp44
 70
     1
102
RTVSPost2010Prop45
280
     0
102
RTVSPost2010PropOp45
 70
     1
102
RTVSPost2010Prop46
 90
       50
102
RTVSPost2010PropOp46
 70
     1
102
RTVSPost2010Prop47
 90
       50
102
RTVSPost2010PropOp47
 70
     1
102
RTVSPost2010Prop48
 90
       50
102
RTVSPost2010PropOp48
 70
     1
102
RTVSPost2010Prop49
280
     0
102
RTVSPost2010PropOp49
 70
     1
102
RTVSPost2010Prop50
 90
       50
102
RTVSPost2010PropOp50
 70
     1
102
RTVSPost2010Prop51ColorIndex
 90
      256
102
RTVSPost2010Prop51ColorRGB
 90
-16777216
102
RTVSPost2010PropOp51
 70
     0
102
RTVSPost2010Prop52
140
1.0
102
RTVSPost2010PropOp52
 70
     0
102
RTVSPost2010Prop53
 90
        2
102
RTVSPost2010PropOp53
 70
     1
102
RTVSPost2010Prop54
  1
strokes_ogs.tif
102
RTVSPost2010PropOp54
 70
     1
102
RTVSPost2010Prop55
280
     0
102
RTVSPost2010PropOp55
 70
     1
102
RTVSPost2010Prop56
140
1.0
102
RTVSPost2010PropOp56
 70
     1
102
RTVSPost2010Prop57
140
1.0
102
RTVSPost2010PropOp57
 70
     1
  0
XRECORD
  5
157A
102
{ACAD_REACTORS
330
1579
102
}
330
1579
100
AcDbXrecord
280
     1
102
RTVSPost2010Prop28
280
     0
102
RTVSPost2010PropOp28
 70
     1
102
RTVSPost2010Prop29
280
     1
102
RTVSPost2010PropOp29
 70
     1
102
RTVSPost2010Prop30
280
     1
102
RTVSPost2010PropOp30
 70
     1
102
RTVSPost2010Prop31
280
     0
102
RTVSPost2010PropOp31
 70
     1
102
RTVSPost2010Prop32
280
     0
102
RTVSPost2010PropOp32
 70
     1
102
RTVSPost2010Prop33
280
     0
102
RTVSPost2010PropOp33
 70
     1
102
RTVSPost2010Prop34
280
     0
102
RTVSPost2010PropOp34
 70
     1
102
RTVSPost2010Prop35
280
     0
102
RTVSPost2010PropOp35
 70
     1
102
RTVSPost2010Prop36
280
     0
102
RTVSPost2010PropOp36
 70
     1
102
RTVSPost2010Prop37
 90
       50
102
RTVSPost2010PropOp37
 70
     1
102
RTVSPost2010Prop38
140
0.0
102
RTVSPost2010PropOp38
 70
     1
102
RTVSPost2010Prop39
140
1.0
102
RTVSPost2010PropOp39
 70
     1
102
RTVSPost2010Prop40
 90
        0
102
RTVSPost2010PropOp40
 70
     1
102
RTVSPost2010Prop41ColorIndex
 90
       18
102
RTVSPost2010Prop41ColorRGB
 90
        0
102
RTVSPost2010PropOp41
 70
     1
102
RTVSPost2010Prop42
 90
       50
102
RTVSPost2010PropOp42
 70
     1
102
RTVSPost2010Prop43
 90
        3
102
RTVSPost2010PropOp43
 70
     1
102
RTVSPost2010Prop44ColorIndex
 90
        5
102
RTVSPost2010Prop44ColorRGB
 90
      255
102
RTVSPost2010PropOp44
 70
     1
102
RTVSPost2010Prop45
280
     0
102
RTVSPost2010PropOp45
 70
     1
102
RTVSPost2010Prop46
 90
       50
102
RTVSPost2010PropOp46
 70
     1
102
RTVSPost2010Prop47
 90
       50
102
RTVSPost2010PropOp47
 70
     1
102
RTVSPost2010Prop48
 90
       50
102
RTVSPost2010PropOp48
 70
     1
102
RTVSPost2010Prop49
280
     0
102
RTVSPost2010PropOp49
 70
     1
102
RTVSPost2010Prop50
 90
       50
102
RTVSPost2010PropOp50
 70
     1
102
RTVSPost2010Prop51ColorIndex
 90
      256
102
RTVSPost2010Prop51ColorRGB
 90
-16777216
102
RTVSPost2010PropOp51
 70
     0
102
RTVSPost2010Prop52
140
1.0
102
RTVSPost2010PropOp52
 70
     0
102
RTVSPost2010Prop53
 90
        2
102
RTVSPost2010PropOp53
 70
     1
102
RTVSPost2010Prop54
  1
strokes_ogs.tif
102
RTVSPost2010PropOp54
 70
     1
102
RTVSPost2010Prop55
280
     0
102
RTVSPost2010PropOp55
 70
     1
102
RTVSPost2010Prop56
140
1.0
102
RTVSPost2010PropOp56
 70
     1
102
RTVSPost2010Prop57
140
1.0
102
RTVSPost2010PropOp57
 70
     1
  0
XRECORD
  5
157C
102
{ACAD_REACTORS
330
157B
102
}
330
157B
100
AcDbXrecord
280
     1
102
RTVSPost2010Prop28
280
     0
102
RTVSPost2010PropOp28
 70
     1
102
RTVSPost2010Prop29
280
     1
102
RTVSPost2010PropOp29
 70
     1
102
RTVSPost2010Prop30
280
     1
102
RTVSPost2010PropOp30
 70
     1
102
RTVSPost2010Prop31
280
     0
102
RTVSPost2010PropOp31
 70
     1
102
RTVSPost2010Prop32
280
     0
102
RTVSPost2010PropOp32
 70
     1
102
RTVSPost2010Prop33
280
     0
102
RTVSPost2010PropOp33
 70
     1
102
RTVSPost2010Prop34
280
     0
102
RTVSPost2010PropOp34
 70
     1
102
RTVSPost2010Prop35
280
     0
102
RTVSPost2010PropOp35
 70
     1
102
RTVSPost2010Prop36
280
     0
102
RTVSPost2010PropOp36
 70
     1
102
RTVSPost2010Prop37
 90
       50
102
RTVSPost2010PropOp37
 70
     1
102
RTVSPost2010Prop38
140
0.0
102
RTVSPost2010PropOp38
 70
     1
102
RTVSPost2010Prop39
140
1.0
102
RTVSPost2010PropOp39
 70
     1
102
RTVSPost2010Prop40
 90
        0
102
RTVSPost2010PropOp40
 70
     1
102
RTVSPost2010Prop41ColorIndex
 90
       18
102
RTVSPost2010Prop41ColorRGB
 90
        0
102
RTVSPost2010PropOp41
 70
     1
102
RTVSPost2010Prop42
 90
       50
102
RTVSPost2010PropOp42
 70
     1
102
RTVSPost2010Prop43
 90
        3
102
RTVSPost2010PropOp43
 70
     1
102
RTVSPost2010Prop44ColorIndex
 90
        5
102
RTVSPost2010Prop44ColorRGB
 90
      255
102
RTVSPost2010PropOp44
 70
     1
102
RTVSPost2010Prop45
280
     0
102
RTVSPost2010PropOp45
 70
     1
102
RTVSPost2010Prop46
 90
       50
102
RTVSPost2010PropOp46
 70
     1
102
RTVSPost2010Prop47
 90
       50
102
RTVSPost2010PropOp47
 70
     1
102
RTVSPost2010Prop48
 90
       50
102
RTVSPost2010PropOp48
 70
     1
102
RTVSPost2010Prop49
280
     0
102
RTVSPost2010PropOp49
 70
     1
102
RTVSPost2010Prop50
 90
       50
102
RTVSPost2010PropOp50
 70
     1
102
RTVSPost2010Prop51ColorIndex
 90
      256
102
RTVSPost2010Prop51ColorRGB
 90
-16777216
102
RTVSPost2010PropOp51
 70
     0
102
RTVSPost2010Prop52
140
1.0
102
RTVSPost2010PropOp52
 70
     0
102
RTVSPost2010Prop53
 90
        2
102
RTVSPost2010PropOp53
 70
     1
102
RTVSPost2010Prop54
  1
strokes_ogs.tif
102
RTVSPost2010PropOp54
 70
     1
102
RTVSPost2010Prop55
280
     0
102
RTVSPost2010PropOp55
 70
     1
102
RTVSPost2010Prop56
140
1.0
102
RTVSPost2010PropOp56
 70
     1
102
RTVSPost2010Prop57
140
1.0
102
RTVSPost2010PropOp57
 70
     1
  0
XRECORD
  5
1572
102
{ACAD_REACTORS
330
1571
102
}
330
1571
100
AcDbXrecord
280
     1
102
RTVSPost2010Prop28
280
     0
102
RTVSPost2010PropOp28
 70
     1
102
RTVSPost2010Prop29
280
     1
102
RTVSPost2010PropOp29
 70
     1
102
RTVSPost2010Prop30
280
     1
102
RTVSPost2010PropOp30
 70
     1
102
RTVSPost2010Prop31
280
     0
102
RTVSPost2010PropOp31
 70
     1
102
RTVSPost2010Prop32
280
     0
102
RTVSPost2010PropOp32
 70
     1
102
RTVSPost2010Prop33
280
     0
102
RTVSPost2010PropOp33
 70
     1
102
RTVSPost2010Prop34
280
     0
102
RTVSPost2010PropOp34
 70
     1
102
RTVSPost2010Prop35
280
     0
102
RTVSPost2010PropOp35
 70
     1
102
RTVSPost2010Prop36
280
     0
102
RTVSPost2010PropOp36
 70
     1
102
RTVSPost2010Prop37
 90
       50
102
RTVSPost2010PropOp37
 70
     1
102
RTVSPost2010Prop38
140
0.0
102
RTVSPost2010PropOp38
 70
     1
102
RTVSPost2010Prop39
140
1.0
102
RTVSPost2010PropOp39
 70
     1
102
RTVSPost2010Prop40
 90
        0
102
RTVSPost2010PropOp40
 70
     1
102
RTVSPost2010Prop41ColorIndex
 90
       18
102
RTVSPost2010Prop41ColorRGB
 90
        0
102
RTVSPost2010PropOp41
 70
     1
102
RTVSPost2010Prop42
 90
       50
102
RTVSPost2010PropOp42
 70
     1
102
RTVSPost2010Prop43
 90
        3
102
RTVSPost2010PropOp43
 70
     1
102
RTVSPost2010Prop44ColorIndex
 90
        5
102
RTVSPost2010Prop44ColorRGB
 90
      255
102
RTVSPost2010PropOp44
 70
     1
102
RTVSPost2010Prop45
280
     0
102
RTVSPost2010PropOp45
 70
     1
102
RTVSPost2010Prop46
 90
       50
102
RTVSPost2010PropOp46
 70
     1
102
RTVSPost2010Prop47
 90
       50
102
RTVSPost2010PropOp47
 70
     1
102
RTVSPost2010Prop48
 90
       50
102
RTVSPost2010PropOp48
 70
     1
102
RTVSPost2010Prop49
280
     0
102
RTVSPost2010PropOp49
 70
     1
102
RTVSPost2010Prop50
 90
       50
102
RTVSPost2010PropOp50
 70
     1
102
RTVSPost2010Prop51ColorIndex
 90
      256
102
RTVSPost2010Prop51ColorRGB
 90
-16777216
102
RTVSPost2010PropOp51
 70
     0
102
RTVSPost2010Prop52
140
1.0
102
RTVSPost2010PropOp52
 70
     0
102
RTVSPost2010Prop53
 90
        2
102
RTVSPost2010PropOp53
 70
     1
102
RTVSPost2010Prop54
  1
strokes_ogs.tif
102
RTVSPost2010PropOp54
 70
     1
102
RTVSPost2010Prop55
280
     0
102
RTVSPost2010PropOp55
 70
     1
102
RTVSPost2010Prop56
140
1.0
102
RTVSPost2010PropOp56
 70
     1
102
RTVSPost2010Prop57
140
1.0
102
RTVSPost2010PropOp57
 70
     1
  0
XRECORD
  5
1566
102
{ACAD_REACTORS
330
1565
102
}
330
1565
100
AcDbXrecord
280
     1
102
RTVSPost2010Prop28
280
     0
102
RTVSPost2010PropOp28
 70
     1
102
RTVSPost2010Prop29
280
     1
102
RTVSPost2010PropOp29
 70
     1
102
RTVSPost2010Prop30
280
     1
102
RTVSPost2010PropOp30
 70
     1
102
RTVSPost2010Prop31
280
     0
102
RTVSPost2010PropOp31
 70
     1
102
RTVSPost2010Prop32
280
     0
102
RTVSPost2010PropOp32
 70
     1
102
RTVSPost2010Prop33
280
     0
102
RTVSPost2010PropOp33
 70
     1
102
RTVSPost2010Prop34
280
     0
102
RTVSPost2010PropOp34
 70
     1
102
RTVSPost2010Prop35
280
     0
102
RTVSPost2010PropOp35
 70
     1
102
RTVSPost2010Prop36
280
     0
102
RTVSPost2010PropOp36
 70
     1
102
RTVSPost2010Prop37
 90
       50
102
RTVSPost2010PropOp37
 70
     1
102
RTVSPost2010Prop38
140
0.0
102
RTVSPost2010PropOp38
 70
     1
102
RTVSPost2010Prop39
140
1.0
102
RTVSPost2010PropOp39
 70
     1
102
RTVSPost2010Prop40
 90
        0
102
RTVSPost2010PropOp40
 70
     1
102
RTVSPost2010Prop41ColorIndex
 90
       18
102
RTVSPost2010Prop41ColorRGB
 90
        0
102
RTVSPost2010PropOp41
 70
     1
102
RTVSPost2010Prop42
 90
       50
102
RTVSPost2010PropOp42
 70
     1
102
RTVSPost2010Prop43
 90
        3
102
RTVSPost2010PropOp43
 70
     1
102
RTVSPost2010Prop44ColorIndex
 90
        5
102
RTVSPost2010Prop44ColorRGB
 90
      255
102
RTVSPost2010PropOp44
 70
     1
102
RTVSPost2010Prop45
280
     0
102
RTVSPost2010PropOp45
 70
     1
102
RTVSPost2010Prop46
 90
       50
102
RTVSPost2010PropOp46
 70
     1
102
RTVSPost2010Prop47
 90
       50
102
RTVSPost2010PropOp47
 70
     1
102
RTVSPost2010Prop48
 90
       50
102
RTVSPost2010PropOp48
 70
     1
102
RTVSPost2010Prop49
280
     0
102
RTVSPost2010PropOp49
 70
     1
102
RTVSPost2010Prop50
 90
       50
102
RTVSPost2010PropOp50
 70
     1
102
RTVSPost2010Prop51ColorIndex
 90
      256
102
RTVSPost2010Prop51ColorRGB
 90
-16777216
102
RTVSPost2010PropOp51
 70
     0
102
RTVSPost2010Prop52
140
1.0
102
RTVSPost2010PropOp52
 70
     0
102
RTVSPost2010Prop53
 90
        2
102
RTVSPost2010PropOp53
 70
     1
102
RTVSPost2010Prop54
  1
strokes_ogs.tif
102
RTVSPost2010PropOp54
 70
     1
102
RTVSPost2010Prop55
280
     0
102
RTVSPost2010PropOp55
 70
     1
102
RTVSPost2010Prop56
140
1.0
102
RTVSPost2010PropOp56
 70
     1
102
RTVSPost2010Prop57
140
1.0
102
RTVSPost2010PropOp57
 70
     1
  0
XRECORD
  5
157E
102
{ACAD_REACTORS
330
157D
102
}
330
157D
100
AcDbXrecord
280
     1
102
RTVSPost2010Prop28
280
     0
102
RTVSPost2010PropOp28
 70
     1
102
RTVSPost2010Prop29
280
     1
102
RTVSPost2010PropOp29
 70
     1
102
RTVSPost2010Prop30
280
     1
102
RTVSPost2010PropOp30
 70
     1
102
RTVSPost2010Prop31
280
     0
102
RTVSPost2010PropOp31
 70
     1
102
RTVSPost2010Prop32
280
     0
102
RTVSPost2010PropOp32
 70
     1
102
RTVSPost2010Prop33
280
     0
102
RTVSPost2010PropOp33
 70
     1
102
RTVSPost2010Prop34
280
     0
102
RTVSPost2010PropOp34
 70
     1
102
RTVSPost2010Prop35
280
     0
102
RTVSPost2010PropOp35
 70
     1
102
RTVSPost2010Prop36
280
     0
102
RTVSPost2010PropOp36
 70
     1
102
RTVSPost2010Prop37
 90
       50
102
RTVSPost2010PropOp37
 70
     1
102
RTVSPost2010Prop38
140
0.0
102
RTVSPost2010PropOp38
 70
     1
102
RTVSPost2010Prop39
140
1.0
102
RTVSPost2010PropOp39
 70
     1
102
RTVSPost2010Prop40
 90
        0
102
RTVSPost2010PropOp40
 70
     1
102
RTVSPost2010Prop41ColorIndex
 90
       18
102
RTVSPost2010Prop41ColorRGB
 90
        0
102
RTVSPost2010PropOp41
 70
     1
102
RTVSPost2010Prop42
 90
       50
102
RTVSPost2010PropOp42
 70
     1
102
RTVSPost2010Prop43
 90
        3
102
RTVSPost2010PropOp43
 70
     1
102
RTVSPost2010Prop44ColorIndex
 90
        5
102
RTVSPost2010Prop44ColorRGB
 90
      255
102
RTVSPost2010PropOp44
 70
     1
102
RTVSPost2010Prop45
280
     0
102
RTVSPost2010PropOp45
 70
     1
102
RTVSPost2010Prop46
 90
       50
102
RTVSPost2010PropOp46
 70
     1
102
RTVSPost2010Prop47
 90
       50
102
RTVSPost2010PropOp47
 70
     1
102
RTVSPost2010Prop48
 90
       50
102
RTVSPost2010PropOp48
 70
     1
102
RTVSPost2010Prop49
280
     0
102
RTVSPost2010PropOp49
 70
     1
102
RTVSPost2010Prop50
 90
       50
102
RTVSPost2010PropOp50
 70
     1
102
RTVSPost2010Prop51ColorIndex
 90
      256
102
RTVSPost2010Prop51ColorRGB
 90
-16777216
102
RTVSPost2010PropOp51
 70
     0
102
RTVSPost2010Prop52
140
1.0
102
RTVSPost2010PropOp52
 70
     0
102
RTVSPost2010Prop53
 90
        2
102
RTVSPost2010PropOp53
 70
     1
102
RTVSPost2010Prop54
  1
strokes_ogs.tif
102
RTVSPost2010PropOp54
 70
     1
102
RTVSPost2010Prop55
280
     0
102
RTVSPost2010PropOp55
 70
     1
102
RTVSPost2010Prop56
140
1.0
102
RTVSPost2010PropOp56
 70
     1
102
RTVSPost2010Prop57
140
1.0
102
RTVSPost2010PropOp57
 70
     1
  0
ENDSEC
  0
EOF
