  0
SECTION
  2
HEADER
  9
$ACADVER
  1
AC1014
  9
$ACADMAINTVER
 70
     9
  9
$DWGCODEPAGE
  3
ANSI_1252
  9
$INSBASE
 10
0.0
 20
0.0
 30
0.0
  9
$EXTMIN
 10
-2018.255985
 20
1167.17999013645
 30
0.0
  9
$EXTMAX
 10
-311.207805
 20
2291.130946416574
 30
0.0
  9
$LIMMIN
 10
0.0
 20
0.0
  9
$LIMMAX
 10
0.0
 20
0.0
  9
$ORTHOMODE
 70
     1
  9
$REGENMODE
 70
     1
  9
$FILLMODE
 70
     1
  9
$QTEXTMODE
 70
     0
  9
$MIRRTEXT
 70
     1
  9
$DRAGMODE
 70
     2
  9
$LTSCALE
 40
1.0
  9
$OSMODE
 70
  2223
  9
$ATTMODE
 70
     1
  9
$TEXTSIZE
 40
0.0
  9
$TRACEWID
 40
0.05
  9
$TEXTSTYLE
  7
STANDARD
  9
$CLAYER
  8
0
  9
$CELTYPE
  6
CONTINUOUS
  9
$CECOLOR
 62
   256
  9
$CELTSCALE
 40
15.0
  9
$DELOBJ
 70
     1
  9
$DISPSILH
 70
     0
  9
$DIMSCALE
 40
1.0
  9
$DIMASZ
 40
0.18
  9
$DIMEXO
 40
0.0625
  9
$DIMDLI
 40
0.38
  9
$DIMRND
 40
0.0
  9
$DIMDLE
 40
0.0
  9
$DIMEXE
 40
0.18
  9
$DIMTP
 40
0.0
  9
$DIMTM
 40
0.0
  9
$DIMTXT
 40
0.18
  9
$DIMCEN
 40
0.09
  9
$DIMTSZ
 40
0.0
  9
$DIMTOL
 70
     0
  9
$DIMLIM
 70
     0
  9
$DIMTIH
 70
     1
  9
$DIMTOH
 70
     1
  9
$DIMSE1
 70
     0
  9
$DIMSE2
 70
     0
  9
$DIMTAD
 70
     0
  9
$DIMZIN
 70
     0
  9
$DIMBLK
  1

  9
$DIMASO
 70
     1
  9
$DIMSHO
 70
     1
  9
$DIMPOST
  1

  9
$DIMAPOST
  1

  9
$DIMALT
 70
     0
  9
$DIMALTD
 70
     2
  9
$DIMALTF
 40
25.4
  9
$DIMLFAC
 40
1.0
  9
$DIMTOFL
 70
     0
  9
$DIMTVP
 40
0.0
  9
$DIMTIX
 70
     0
  9
$DIMSOXD
 70
     0
  9
$DIMSAH
 70
     0
  9
$DIMBLK1
  1

  9
$DIMBLK2
  1

  9
$DIMSTYLE
  2
STANDARD
  9
$DIMCLRD
 70
     0
  9
$DIMCLRE
 70
     0
  9
$DIMCLRT
 70
     0
  9
$DIMTFAC
 40
1.0
  9
$DIMGAP
 40
0.09
  9
$DIMJUST
 70
     0
  9
$DIMSD1
 70
     0
  9
$DIMSD2
 70
     0
  9
$DIMTOLJ
 70
     1
  9
$DIMTZIN
 70
     0
  9
$DIMALTZ
 70
     0
  9
$DIMALTTZ
 70
     0
  9
$DIMFIT
 70
     3
  9
$DIMUPT
 70
     0
  9
$DIMUNIT
 70
     2
  9
$DIMDEC
 70
     4
  9
$DIMTDEC
 70
     4
  9
$DIMALTU
 70
     2
  9
$DIMALTTD
 70
     2
  9
$DIMTXSTY
  7
STANDARD
  9
$DIMAUNIT
 70
     0
  9
$LUNITS
 70
     2
  9
$LUPREC
 70
     4
  9
$SKETCHINC
 40
0.1
  9
$FILLETRAD
 40
0.0
  9
$AUNITS
 70
     0
  9
$AUPREC
 70
     0
  9
$MENU
  1
acad
  9
$ELEVATION
 40
0.0
  9
$PELEVATION
 40
0.0
  9
$THICKNESS
 40
0.0
  9
$LIMCHECK
 70
     0
  9
$BLIPMODE
 70
     0
  9
$CHAMFERA
 40
0.0
  9
$CHAMFERB
 40
0.0
  9
$CHAMFERC
 40
0.0
  9
$CHAMFERD
 40
0.0
  9
$SKPOLY
 70
     0
  9
$TDCREATE
 40
2311945.525078055
  9
$TDUPDATE
 40
2453488.613197361
  9
$TDINDWG
 40
0.0062365162
  9
$TDUSRTIMER
 40
0.0062354745
  9
$USRTIMER
 70
     1
  9
$ANGBASE
 50
0.0
  9
$ANGDIR
 70
     0
  9
$PDMODE
 70
     0
  9
$PDSIZE
 40
0.0
  9
$PLINEWID
 40
0.0
  9
$COORDS
 70
     1
  9
$SPLFRAME
 70
     0
  9
$SPLINETYPE
 70
     6
  9
$SPLINESEGS
 70
     8
  9
$ATTDIA
 70
     0
  9
$ATTREQ
 70
     1
  9
$HANDLING
 70
 10241
  9
$HANDSEED
  5
1E9
  9
$SURFTAB1
 70
     6
  9
$SURFTAB2
 70
     6
  9
$SURFTYPE
 70
     6
  9
$SURFU
 70
     6
  9
$SURFV
 70
     6
  9
$UCSNAME
  2

  9
$UCSORG
 10
0.0
 20
0.0
 30
0.0
  9
$UCSXDIR
 10
1.0
 20
0.0
 30
0.0
  9
$UCSYDIR
 10
0.0
 20
1.0
 30
0.0
  9
$PUCSNAME
  2

  9
$PUCSORG
 10
0.0
 20
0.0
 30
0.0
  9
$PUCSXDIR
 10
1.0
 20
0.0
 30
0.0
  9
$PUCSYDIR
 10
0.0
 20
1.0
 30
0.0
  9
$USERI1
 70
     0
  9
$USERI2
 70
     0
  9
$USERI3
 70
     0
  9
$USERI4
 70
     0
  9
$USERI5
 70
     0
  9
$USERR1
 40
0.0
  9
$USERR2
 40
0.0
  9
$USERR3
 40
0.0
  9
$USERR4
 40
0.0
  9
$USERR5
 40
0.0
  9
$WORLDVIEW
 70
     1
  9
$SHADEDGE
 70
     3
  9
$SHADEDIF
 70
    70
  9
$TILEMODE
 70
     1
  9
$MAXACTVP
 70
    16
  9
$PINSBASE
 10
0.0
 20
0.0
 30
0.0
  9
$PLIMCHECK
 70
     0
  9
$PEXTMIN
 10
0.0
 20
0.0
 30
0.0
  9
$PEXTMAX
 10
0.0
 20
0.0
 30
0.0
  9
$PLIMMIN
 10
0.0
 20
0.0
  9
$PLIMMAX
 10
0.0
 20
0.0
  9
$UNITMODE
 70
     0
  9
$VISRETAIN
 70
     0
  9
$PLINEGEN
 70
     1
  9
$PSLTSCALE
 70
     0
  9
$TREEDEPTH
 70
  3020
  9
$PICKSTYLE
 70
     1
  9
$CMLSTYLE
  2
STANDARD
  9
$CMLJUST
 70
     0
  9
$CMLSCALE
 40
1.0
  9
$PROXYGRAPHICS
 70
     1
  9
$MEASUREMENT
 70
     0
  0
ENDSEC
  0
SECTION
  2
CLASSES
  0
CLASS
  1
LWPOLYLINE
  2
AcDbPolyline
  3
AutoCAD 2000
 90
        0
280
     0
281
     1
  0
CLASS
  1
IMAGE
  2
AcDbRasterImage
  3
ISM
 90
      127
280
     0
281
     1
  0
CLASS
  1
OLE2FRAME
  2
AcDbOle2Frame
  3
AutoCAD 2000
 90
        0
280
     0
281
     1
  0
CLASS
  1
HATCH
  2
AcDbHatch
  3
AutoCAD 2000
 90
        0
280
     0
281
     1
  0
CLASS
  1
DICTIONARYVAR
  2
AcDbDictionaryVar
  3
AutoCAD 2000
 90
        0
280
     0
281
     0
  0
CLASS
  1
RASTERVARIABLES
  2
AcDbRasterVariables
  3
ISM
 90
        0
280
     0
281
     0
  0
CLASS
  1
IMAGEDEF
  2
AcDbRasterImageDef
  3
ISM
 90
        0
280
     0
281
     0
  0
CLASS
  1
IMAGEDEF_REACTOR
  2
AcDbRasterImageDefReactor
  3
ISM
 90
        1
280
     0
281
     0
  0
CLASS
  1
IDBUFFER
  2
AcDbIdBuffer
  3
AutoCAD 2000
 90
        0
280
     0
281
     0
  0
CLASS
  1
SPATIAL_FILTER
  2
AcDbSpatialFilter
  3
AutoCAD 2000
 90
        0
280
     0
281
     0
  0
CLASS
  1
XRECORD
  2
AcDbXrecord
  3
AutoCAD 2000
 90
        0
280
     0
281
     0
  0
CLASS
  1
SORTENTSTABLE
  2
AcDbSortentsTable
  3
AutoCAD 2000
 90
        0
280
     0
281
     0
  0
CLASS
  1
LAYER_INDEX
  2
AcDbLayerIndex
  3
AutoCAD 2000
 90
        0
280
     0
281
     0
  0
CLASS
  1
SPATIAL_INDEX
  2
AcDbSpatialIndex
  3
AutoCAD 2000
 90
        0
280
     0
281
     0
  0
CLASS
  1
OBJECT_PTR
  2
CAseDLPNTableRecord
  3
"ASE-LPNTableRecord"
 90
        0
280
     0
281
     0
  0
CLASS
  1
LAYOUT
  2
AcDbLayout
  3
AutoCAD 2000
 90
        0
280
     0
281
     0
  0
CLASS
  1
PLOTSETTINGS
  2
AcDbPlotSettings
  3
AutoCAD 2000
 90
        0
280
     0
281
     0
  0
CLASS
  1
ACDBDICTIONARYWDFLT
  2
AcDbDictionaryWithDefault
  3
AutoCAD 2000
 90
        0
280
     0
281
     0
  0
CLASS
  1
ACDBPLACEHOLDER
  2
AcDbPlaceHolder
  3
AutoCAD 2000
 90
        0
280
     0
281
     0
  0
CLASS
  1
VBA_PROJECT
  2
AcDbVbaProject
  3
"acadvba"
 90
        0
280
     0
281
     0
  0
CLASS
  1
WIPEOUT
  2
AcDbWipeout
  3
WipeOut|AutoCAD Express Tool|expresstools@autodesk.com
 90
        0
280
     0
281
     1
  0
CLASS
  1
WIPEOUTVARIABLES
  2
AcDbWipeoutVariables
  3
WipeOut|AutoCAD Express Tool|expresstools@autodesk.com
 90
        0
280
     0
281
     0
  0
CLASS
  1
RTEXT
  2
RText
  3
RText|AutoCAD Express Tool|expresstools@autodesk.com
 90
        0
280
     0
281
     1
  0
CLASS
  1
ARCALIGNEDTEXT
  2
AcDbArcAlignedText
  3
ATEXT|AutoCAD Express Tool|expresstools@autodesk.com
 90
        0
280
     0
281
     1
  0
CLASS
  1
LONG_TRANSACTION
  2
AcDbLongTransaction
  3
AutoCAD 2000
 90
        0
280
     0
281
     0
  0
CLASS
  1
LWPOLYLINE
  2
AcDbPolyline
  3
AutoCAD 2000
 90
        0
280
     0
281
     1
  0
CLASS
  1
HATCH
  2
AcDbHatch
  3
AutoCAD 2000
 90
        0
280
     0
281
     1
  0
CLASS
  1
XRECORD
  2
AcDbXrecord
  3
AutoCAD 2000
 90
        0
280
     0
281
     0
  0
CLASS
  1
LONG_TRANSACTION
  2
AcDbLongTransaction
  3
AutoCAD 2000
 90
        0
280
     0
281
     0
  0
CLASS
  1
LWPOLYLINE
  2
AcDbPolyline
  3
AutoCAD 2000
 90
        0
280
     0
281
     1
  0
CLASS
  1
HATCH
  2
AcDbHatch
  3
AutoCAD 2000
 90
        0
280
     0
281
     1
  0
CLASS
  1
XRECORD
  2
AcDbXrecord
  3
AutoCAD 2000
 90
        0
280
     0
281
     0
  0
ENDSEC
  0
SECTION
  2
TABLES
  0
TABLE
  2
VPORT
  5
7
330
0
100
AcDbSymbolTable
 70
     2
  0
VPORT
  5
1C6
330
7
100
AcDbSymbolTableRecord
100
AcDbViewportTableRecord
  2
*ACTIVE
 70
     0
 10
0.0
 20
0.0
 11
1.0
 21
1.0
 12
-764.1281610969086
 22
1871.519639956441
 13
0.0
 23
0.0
 14
1.0
 24
1.0
 15
0.0
 25
0.0
 16
0.0
 26
0.0
 36
1.0
 17
0.0
 27
0.0
 37
0.0
 40
1793.352235833383
 41
1.525316455696202
 42
50.0
 43
0.0
 44
0.0
 50
0.0
 51
0.0
 71
     0
 72
   100
 73
     1
 74
     1
 75
     0
 76
     0
 77
     0
 78
     0
  0
ENDTAB
  0
TABLE
  2
LTYPE
  5
4
330
0
100
AcDbSymbolTable
 70
     3
  0
LTYPE
  5
11
330
4
100
AcDbSymbolTableRecord
100
AcDbLinetypeTableRecord
  2
BYBLOCK
 70
     0
  3

 72
    65
 73
     0
 40
0.0
  0
LTYPE
  5
12
330
4
100
AcDbSymbolTableRecord
100
AcDbLinetypeTableRecord
  2
BYLAYER
 70
     0
  3

 72
    65
 73
     0
 40
0.0
  0
LTYPE
  5
13
330
4
100
AcDbSymbolTableRecord
100
AcDbLinetypeTableRecord
  2
CONTINUOUS
 70
     0
  3
Solid line
 72
    65
 73
     0
 40
0.0
  0
LTYPE
  5
1E
330
4
100
AcDbSymbolTableRecord
100
AcDbLinetypeTableRecord
  2
IMPORT
 70
     0
  3

 72
    65
 73
     0
 40
0.0
  0
LTYPE
  5
16F
330
4
100
AcDbSymbolTableRecord
100
AcDbLinetypeTableRecord
  2
ACAD_ISO03W100
 70
     0
  3
ISO Gestrichelt mit Abstand __    __    __    _
 72
    65
 73
     2
 40
30.0
 49
12.0
 74
     0
 49
-18.0
 74
     0
  0
ENDTAB
  0
TABLE
  2
LAYER
  5
2
330
0
100
AcDbSymbolTable
 70
     4
  0
LAYER
  5
14
330
2
100
AcDbSymbolTableRecord
100
AcDbLayerTableRecord
  2
0
 70
     0
 62
     7
  6
CONTINUOUS
  0
LAYER
  5
1D
330
2
100
AcDbSymbolTableRecord
100
AcDbLayerTableRecord
  2
STANDARD
 70
     0
 62
     7
  6
CONTINUOUS
  0
LAYER
  5
170
330
2
100
AcDbSymbolTableRecord
100
AcDbLayerTableRecord
  2
VD
 70
     0
 62
     4
  6
ACAD_ISO03W100
  0
LAYER
  5
1B8
330
2
100
AcDbSymbolTableRecord
100
AcDbLayerTableRecord
  2
DEFPOINTS
 70
     0
 62
     7
  6
CONTINUOUS
  0
ENDTAB
  0
TABLE
  2
STYLE
  5
3
330
0
100
AcDbSymbolTable
 70
     2
  0
STYLE
  5
17
330
3
100
AcDbSymbolTableRecord
100
AcDbTextStyleTableRecord
  2
STANDARD
 70
     0
 40
0.0
 41
1.0
 50
0.0
 71
     0
 42
0.0
  3
txt
  4

  0
STYLE
  5
16E
330
3
100
AcDbSymbolTableRecord
100
AcDbTextStyleTableRecord
  2

 70
     1
 40
0.0
 41
1.0
 50
0.0
 71
     0
 42
0.2
  3
ltypeshp.shx
  4

  0
ENDTAB
  0
TABLE
  2
VIEW
  5
5
330
0
100
AcDbSymbolTable
 70
     0
  0
ENDTAB
  0
TABLE
  2
UCS
  5
6
330
0
100
AcDbSymbolTable
 70
     0
  0
ENDTAB
  0
TABLE
  2
APPID
  5
8
330
0
100
AcDbSymbolTable
 70
     1
  0
APPID
  5
16
330
8
100
AcDbSymbolTableRecord
100
AcDbRegAppTableRecord
  2
ACAD
 70
     0
  0
ENDTAB
  0
TABLE
  2
DIMSTYLE
  5
9
330
0
100
AcDbSymbolTable
 70
     1
  0
DIMSTYLE
105
18
102
{ACAD_REACTORS
330
1B7
102
}
330
9
100
AcDbSymbolTableRecord
100
AcDbDimStyleTableRecord
  2
STANDARD
 70
     0
  3

  4

  5

  6

  7

 40
1.0
 41
0.18
 42
0.0625
 43
0.38
 44
0.18
 45
0.0
 46
0.0
 47
0.0
 48
0.0
140
0.18
141
0.09
142
0.0
143
25.4
144
1.0
145
0.0
146
1.0
147
0.09
 71
     0
 72
     0
 73
     1
 74
     1
 75
     0
 76
     0
 77
     0
 78
     0
170
     0
171
     2
172
     0
173
     0
174
     0
175
     0
176
     0
177
     0
178
     0
270
     2
271
     4
272
     4
273
     2
274
     2
340
17
275
     0
280
     0
281
     0
282
     0
283
     1
284
     0
285
     0
286
     0
287
     3
288
     0
  0
ENDTAB
  0
TABLE
  2
BLOCK_RECORD
  5
1
330
0
100
AcDbSymbolTable
 70
     1
  0
BLOCK_RECORD
  5
A
102
{ACAD_XDICTIONARY
360
160
102
}
330
1
100
AcDbSymbolTableRecord
100
AcDbBlockTableRecord
  2
*MODEL_SPACE
  0
BLOCK_RECORD
  5
B
102
{ACAD_XDICTIONARY
360
162
102
}
330
1
100
AcDbSymbolTableRecord
100
AcDbBlockTableRecord
  2
*PAPER_SPACE
  0
BLOCK_RECORD
  5
1B9
330
1
100
AcDbSymbolTableRecord
100
AcDbBlockTableRecord
  2
*D0
  0
ENDTAB
  0
ENDSEC
  0
SECTION
  2
BLOCKS
  0
BLOCK
  5
D
330
A
100
AcDbEntity
  8
0
100
AcDbBlockBegin
  2
*MODEL_SPACE
 70
     0
 10
0.0
 20
0.0
 30
0.0
  3
*MODEL_SPACE
  1

  0
ENDBLK
  5
E
330
A
100
AcDbEntity
  8
0
100
AcDbBlockEnd
  0
BLOCK
  5
F
330
B
100
AcDbEntity
 67
     1
  8
0
100
AcDbBlockBegin
  2
*PAPER_SPACE
 70
     0
 10
0.0
 20
0.0
 30
0.0
  3
*PAPER_SPACE
  1

  0
ENDBLK
  5
10
330
B
100
AcDbEntity
 67
     1
  8
0
100
AcDbBlockEnd
  0
BLOCK
  5
1C4
330
1B9
100
AcDbEntity
  8
0
 48
15.0
100
AcDbBlockBegin
  2
*D0
 70
     1
 10
0.0
 20
0.0
 30
0.0
  3
*D0
  1

  0
LINE
  5
1BA
330
1B9
100
AcDbEntity
  8
0
  6
CONTINUOUS
 62
     0
 48
15.0
100
AcDbLine
 10
-1318.192928
 20
2112.775983999998
 30
0.0
 11
-1318.192928
 21
2291.130946416574
 31
0.0
  0
LINE
  5
1BB
330
1B9
100
AcDbEntity
  8
0
  6
CONTINUOUS
 62
     0
 48
15.0
100
AcDbLine
 10
-2018.255985
 20
2111.2760065
 30
0.0
 11
-2018.255985
 21
2291.130946416574
 31
0.0
  0
LINE
  5
1BC
330
1B9
100
AcDbEntity
  8
0
  6
CONTINUOUS
 62
     0
 48
15.0
100
AcDbLine
 10
-1318.372928
 20
2290.950946416574
 30
0.0
 11
-1667.5794565
 21
2290.950946416574
 31
0.0
  0
LINE
  5
1BD
330
1B9
100
AcDbEntity
  8
0
  6
CONTINUOUS
 62
     0
 48
15.0
100
AcDbLine
 10
-2018.075985
 20
2290.950946416574
 30
0.0
 11
-1668.8694565
 21
2290.950946416574
 31
0.0
  0
SOLID
  5
1BE
330
1B9
100
AcDbEntity
  8
0
  6
CONTINUOUS
 62
     0
 48
15.0
100
AcDbTrace
 10
-1318.372928
 20
2290.980946416574
 30
0.0
 11
-1318.372928
 21
2290.920946416574
 31
0.0
 12
-1318.192928
 22
2290.950946416574
 32
0.0
 13
-1318.192928
 23
2290.950946416574
 33
0.0
  0
SOLID
  5
1BF
330
1B9
100
AcDbEntity
  8
0
  6
CONTINUOUS
 62
     0
 48
15.0
100
AcDbTrace
 10
-2018.075985
 20
2290.980946416574
 30
0.0
 11
-2018.075985
 21
2290.920946416574
 31
0.0
 12
-2018.255985
 22
2290.950946416574
 32
0.0
 13
-2018.255985
 23
2290.950946416574
 33
0.0
  0
MTEXT
  5
1C0
330
1B9
100
AcDbEntity
  8
0
  6
CONTINUOUS
 62
     0
 48
15.0
100
AcDbMText
 10
-1668.2244565
 20
2290.950946416574
 30
0.0
 40
0.18
 41
0.0
 71
     5
 72
     1
  1
\A1;700.0631
1001
ACAD
1000
MTEXTBEGIN
1070
    73
1070
     1
1070
    44
1040
1.0
1070
    74
1070
     0
1000
MTEXTEND
  0
POINT
  5
1C1
330
1B9
100
AcDbEntity
  8
DEFPOINTS
  6
CONTINUOUS
 62
     0
 48
15.0
100
AcDbPoint
 10
-1318.192928
 20
2112.713483999999
 30
0.0
  0
POINT
  5
1C2
330
1B9
100
AcDbEntity
  8
DEFPOINTS
  6
CONTINUOUS
 62
     0
 48
15.0
100
AcDbPoint
 10
-2018.255985
 20
2111.2135065
 30
0.0
  0
POINT
  5
1C3
330
1B9
100
AcDbEntity
  8
DEFPOINTS
  6
CONTINUOUS
 62
     0
 48
15.0
100
AcDbPoint
 10
-2018.255985
 20
2290.950946416574
 30
0.0
  0
ENDBLK
  5
1C5
330
1B9
100
AcDbEntity
  8
0
 48
15.0
100
AcDbBlockEnd
  0
ENDSEC
  0
SECTION
  2
ENTITIES
  0
LINE
  5
1F
330
A
100
AcDbEntity
  8
VD
  6
IMPORT
100
AcDbLine
 10
-926.9282109999997
 20
2197.713503
 30
0.0
 11
-344.068447
 21
2197.713503
 31
0.0
  0
LINE
  5
20
330
A
100
AcDbEntity
  8
VD
  6
IMPORT
100
AcDbLine
 10
-411.861797
 20
2164.713472
 30
0.0
 11
-345.371662
 21
2164.713472
 31
0.0
  0
LINE
  5
21
330
A
100
AcDbEntity
  8
VD
  6
IMPORT
100
AcDbLine
 10
-925.4874189999997
 20
2164.713472
 30
0.0
 11
-501.207824
 21
2164.713472
 31
0.0
  0
LINE
  5
22
330
A
100
AcDbEntity
  8
VD
  6
IMPORT
100
AcDbLine
 10
-411.861797
 20
2060.713456999998
 30
0.0
 11
-321.207805
 21
2060.713456999998
 31
0.0
  0
LINE
  5
23
330
A
100
AcDbEntity
  8
VD
  6
IMPORT
100
AcDbLine
 10
-814.7683480000001
 20
2060.713456999998
 30
0.0
 11
-501.207824
 21
2060.713456999998
 31
0.0
  0
LINE
  5
24
330
A
100
AcDbEntity
  8
VD
  6
IMPORT
100
AcDbLine
 10
-925.4874189999997
 20
2060.713456999998
 30
0.0
 11
-904.7683479999999
 21
2060.713456999998
 31
0.0
  0
LINE
  5
25
330
A
100
AcDbEntity
  8
VD
  6
IMPORT
100
AcDbLine
 10
-814.7683480000001
 20
2027.713503
 30
0.0
 11
-321.207805
 21
2027.713503
 31
0.0
  0
LINE
  5
26
330
A
100
AcDbEntity
  8
VD
  6
IMPORT
100
AcDbLine
 10
-926.9282109999997
 20
2027.713503
 30
0.0
 11
-904.7683479999999
 21
2027.713503
 31
0.0
  0
LINE
  5
29
330
A
100
AcDbEntity
  8
VD
  6
IMPORT
100
AcDbLine
 10
-315.207821
 20
2240.713495
 30
0.0
 11
-311.207805
 21
2240.713495
 31
0.0
  0
LINE
  5
2A
330
A
100
AcDbEntity
  8
VD
  6
IMPORT
100
AcDbLine
 10
-321.207805
 20
1981.713518
 30
0.0
 11
-311.207805
 21
1981.713518
 31
0.0
  0
LINE
  5
2F
330
A
100
AcDbEntity
  8
STANDARD
  6
IMPORT
 62
     7
100
AcDbLine
 10
-889.2597160000001
 20
2071.213487
 30
0.0
 11
-875.2769810000001
 21
2071.213487
 31
0.0
  0
LINE
  5
31
330
A
100
AcDbEntity
  8
STANDARD
  6
IMPORT
 62
     7
100
AcDbLine
 10
-890.2683599999997
 20
2070.213503
 30
0.0
 11
-874.2683560000001
 21
2070.213503
 31
0.0
  0
LINE
  5
34
330
A
100
AcDbEntity
  8
STANDARD
  6
IMPORT
 62
     7
100
AcDbLine
 10
-877.5031809999997
 20
2067.878679
 30
0.0
 11
-876.6114960000001
 21
2067.968781999999
 31
0.0
  0
LINE
  5
35
330
A
100
AcDbEntity
  8
STANDARD
  6
IMPORT
 62
     7
100
AcDbLine
 10
-887.925201
 20
2067.968781999999
 30
0.0
 11
-887.0335159999997
 21
2067.878679
 31
0.0
  0
LINE
  5
36
330
A
100
AcDbEntity
  8
STANDARD
  6
IMPORT
 62
     7
100
AcDbLine
 10
-829.268347
 20
2068.713487
 30
0.0
 11
-814.7683480000001
 21
2068.713487
 31
0.0
  0
LINE
  5
37
330
A
100
AcDbEntity
  8
STANDARD
  6
IMPORT
 62
     7
100
AcDbLine
 10
-874.2683560000001
 20
2068.713487
 30
0.0
 11
-845.26835
 21
2068.713487
 31
0.0
  0
LINE
  5
38
330
A
100
AcDbEntity
  8
STANDARD
  6
IMPORT
 62
     7
100
AcDbLine
 10
-904.7683479999999
 20
2068.713487
 30
0.0
 11
-890.2683599999997
 21
2068.713487
 31
0.0
  0
LINE
  5
39
330
A
100
AcDbEntity
  8
VD
  6
IMPORT
100
AcDbLine
 10
-321.207805
 20
1981.713518
 30
0.0
 11
-321.207805
 21
2234.713472
 31
0.0
  0
LINE
  5
3A
330
A
100
AcDbEntity
  8
VD
  6
IMPORT
100
AcDbLine
 10
-311.207805
 20
1981.713518
 30
0.0
 11
-311.207805
 21
2240.713495
 31
0.0
  0
LINE
  5
41
330
A
100
AcDbEntity
  8
STANDARD
  6
IMPORT
 62
     7
100
AcDbLine
 10
-814.7683480000003
 20
2001.213518
 30
0.0
 11
-814.7683480000001
 21
2068.713487
 31
0.0
  0
LINE
  5
42
330
A
100
AcDbEntity
  8
VD
  6
IMPORT
100
AcDbLine
 10
-904.7078279999999
 20
2164.713472
 30
0.0
 11
-904.7078279999999
 21
2197.713503
 31
0.0
  0
LINE
  5
43
330
A
100
AcDbEntity
  8
STANDARD
  6
IMPORT
 62
     7
100
AcDbLine
 10
-904.7683479999999
 20
2001.213518
 30
0.0
 11
-904.7683479999999
 21
2068.713487
 31
0.0
  0
LINE
  5
45
330
A
100
AcDbEntity
  8
STANDARD
  6
IMPORT
 62
     7
100
AcDbLine
 10
-874.2683560000001
 20
2068.713487
 30
0.0
 11
-874.2683560000001
 21
2070.213503
 31
0.0
  0
LINE
  5
46
330
A
100
AcDbEntity
  8
STANDARD
  6
IMPORT
 62
     7
100
AcDbLine
 10
-890.2683599999997
 20
2068.713487
 30
0.0
 11
-890.2683599999997
 21
2070.213503
 31
0.0
  0
LINE
  5
4A
330
A
100
AcDbEntity
  8
STANDARD
  6
IMPORT
 62
     7
100
AcDbLine
 10
-890.2683599999997
 20
2070.213503
 30
0.0
 11
-889.2597160000001
 21
2071.213487
 31
0.0
  0
LINE
  5
52
330
A
100
AcDbEntity
  8
STANDARD
  6
IMPORT
 62
     7
100
AcDbLine
 10
-878.2683519999999
 20
2067.635453999999
 30
0.0
 11
-877.5031809999997
 21
2067.878679
 31
0.0
  0
LINE
  5
54
330
A
100
AcDbEntity
  8
STANDARD
  6
IMPORT
 62
     7
100
AcDbLine
 10
-875.340152
 20
2068.186907
 30
0.0
 11
-874.540935
 21
2068.440889
 31
0.0
  0
LINE
  5
58
330
A
100
AcDbEntity
  8
STANDARD
  6
IMPORT
 62
     7
100
AcDbLine
 10
-876.6114960000001
 20
2067.968781999999
 30
0.0
 11
-875.340152
 21
2068.186907
 31
0.0
  0
LINE
  5
59
330
A
100
AcDbEntity
  8
STANDARD
  6
IMPORT
 62
     7
100
AcDbLine
 10
-880.197807
 20
2067.304415
 30
0.0
 11
-878.2683519999999
 21
2067.635453999999
 31
0.0
  0
LINE
  5
5E
330
A
100
AcDbEntity
  8
VD
  6
IMPORT
100
AcDbLine
 10
-940.978866
 20
2196.484217
 30
0.0
 11
-926.9282109999997
 21
2197.713503
 31
0.0
  0
LINE
  5
5F
330
A
100
AcDbEntity
  8
VD
  6
IMPORT
100
AcDbLine
 10
-935.2265889999999
 20
2163.861421
 30
0.0
 11
-925.4874189999997
 21
2164.713472
 31
0.0
  0
LINE
  5
62
330
A
100
AcDbEntity
  8
VD
  6
IMPORT
100
AcDbLine
 10
-336.772419
 20
2201.480898
 30
0.0
 11
-321.207805
 21
2202.213471999999
 31
0.0
  0
LINE
  5
63
330
A
100
AcDbEntity
  8
STANDARD
  6
IMPORT
 62
     7
100
AcDbLine
 10
-882.268348
 20
2067.191499999999
 30
0.0
 11
-880.197807
 21
2067.304415
 31
0.0
  0
LINE
  5
67
330
A
100
AcDbEntity
  8
VD
  6
IMPORT
100
AcDbLine
 10
-336.772419
 20
2159.946092
 30
0.0
 11
-321.207805
 21
2159.213518
 31
0.0
  0
LINE
  5
68
330
A
100
AcDbEntity
  8
STANDARD
  6
IMPORT
 62
     7
100
AcDbLine
 10
-884.338909
 20
2067.304415
 30
0.0
 11
-882.268348
 21
2067.191499999999
 31
0.0
  0
LINE
  5
6A
330
A
100
AcDbEntity
  8
VD
  6
IMPORT
100
AcDbLine
 10
-940.978866
 20
2028.942751
 30
0.0
 11
-926.9282109999997
 21
2027.713503
 31
0.0
  0
LINE
  5
6B
330
A
100
AcDbEntity
  8
VD
  6
IMPORT
100
AcDbLine
 10
-935.2265889999999
 20
2061.565583999999
 30
0.0
 11
-925.4874189999997
 21
2060.713456999998
 31
0.0
  0
LINE
  5
6E
330
A
100
AcDbEntity
  8
STANDARD
  6
IMPORT
 62
     7
100
AcDbLine
 10
-886.268345
 20
2067.635453999999
 30
0.0
 11
-884.338909
 21
2067.304415
 31
0.0
  0
LINE
  5
6F
330
A
100
AcDbEntity
  8
STANDARD
  6
IMPORT
 62
     7
100
AcDbLine
 10
-889.1965439999999
 20
2068.186907
 30
0.0
 11
-887.925201
 21
2067.968781999999
 31
0.0
  0
LINE
  5
74
330
A
100
AcDbEntity
  8
STANDARD
  6
IMPORT
 62
     7
100
AcDbLine
 10
-887.0335159999997
 20
2067.878679
 30
0.0
 11
-886.268345
 21
2067.635453999999
 31
0.0
  0
LINE
  5
77
330
A
100
AcDbEntity
  8
STANDARD
  6
IMPORT
 62
     7
100
AcDbLine
 10
-889.9957619999996
 20
2068.440889
 30
0.0
 11
-889.1965439999999
 21
2068.186907
 31
0.0
  0
LINE
  5
7E
330
A
100
AcDbEntity
  8
STANDARD
  6
IMPORT
 62
     7
100
AcDbLine
 10
-874.540935
 20
2068.440889
 30
0.0
 11
-874.2683560000001
 21
2068.713487
 31
0.0
  0
LINE
  5
80
330
A
100
AcDbEntity
  8
STANDARD
  6
IMPORT
 62
     7
100
AcDbLine
 10
-875.2769810000001
 20
2071.213487
 30
0.0
 11
-874.2683560000001
 21
2070.213503
 31
0.0
  0
LINE
  5
81
330
A
100
AcDbEntity
  8
STANDARD
  6
IMPORT
 62
     7
100
AcDbLine
 10
-890.2683599999997
 20
2068.713487
 30
0.0
 11
-889.9957619999996
 21
2068.440889
 31
0.0
  0
ARC
  5
82
330
A
100
AcDbEntity
  8
VD
  6
IMPORT
100
AcDbCircle
 10
-926.207838
 20
2112.713503
 30
0.0
 40
51.936957
100
AcDbArc
 50
99.99999300000002
 51
260.0000069999999
  0
ARC
  5
83
330
A
100
AcDbEntity
  8
VD
  6
IMPORT
100
AcDbCircle
 10
-331.207828
 20
2180.713495
 30
0.0
 40
21.499993
100
AcDbArc
 50
104.999953
 51
255.000047
  0
ARC
  5
84
330
A
100
AcDbEntity
  8
VD
  6
IMPORT
100
AcDbCircle
 10
-926.2078090000001
 20
2112.713483999999
 30
0.0
 40
85.063034
100
AcDbArc
 50
100.0000109999999
 51
259.999989
  0
ARC
  5
86
330
A
100
AcDbEntity
  8
VD
  6
IMPORT
100
AcDbCircle
 10
-315.207821
 20
2234.713511
 30
0.0
 40
5.999983999999997
100
AcDbArc
 50
89.99999700000001
 51
180.0003679999999
  0
LINE
  5
87
330
A
100
AcDbEntity
  8
VD
  6
IMPORT
100
AcDbLine
 10
-1198.543672
 20
1981.713518
 30
0.0
 11
-1120.543671999999
 21
1981.713518
 31
0.0
  0
LINE
  5
88
330
A
100
AcDbEntity
  8
VD
  6
IMPORT
100
AcDbLine
 10
-1198.543672
 20
2240.713495
 30
0.0
 11
-1120.543671999999
 21
2240.713495
 31
0.0
  0
LINE
  5
8B
330
A
100
AcDbEntity
  8
VD
  6
IMPORT
100
AcDbLine
 10
-1143.043672
 20
2164.288895999999
 30
0.0
 11
-1130.543671
 21
2164.288895999999
 31
0.0
  0
LINE
  5
8C
330
A
100
AcDbEntity
  8
VD
  6
IMPORT
100
AcDbLine
 10
-1188.543671999997
 20
2164.288895999999
 30
0.0
 11
-1176.043672
 21
2164.288895999999
 31
0.0
  0
LINE
  5
8D
330
A
100
AcDbEntity
  8
VD
  6
IMPORT
100
AcDbLine
 10
-1155.241391999999
 20
2197.138094
 30
0.0
 11
-1130.543671
 21
2197.138094
 31
0.0
  0
LINE
  5
8E
330
A
100
AcDbEntity
  8
VD
  6
IMPORT
100
AcDbLine
 10
-1188.543671999997
 20
2197.138094
 30
0.0
 11
-1163.845951
 21
2197.138094
 31
0.0
  0
LINE
  5
8F
330
A
100
AcDbEntity
  8
VD
  6
IMPORT
100
AcDbLine
 10
-1130.543671
 20
2159.213518
 30
0.0
 11
-1120.543671999999
 21
2159.213518
 31
0.0
  0
LINE
  5
90
330
A
100
AcDbEntity
  8
VD
  6
IMPORT
100
AcDbLine
 10
-1198.543672
 20
2159.213518
 30
0.0
 11
-1188.543671999997
 21
2159.213518
 31
0.0
  0
LINE
  5
91
330
A
100
AcDbEntity
  8
VD
  6
IMPORT
100
AcDbLine
 10
-1130.543671
 20
2202.213471999999
 30
0.0
 11
-1120.543671999999
 21
2202.213471999999
 31
0.0
  0
LINE
  5
92
330
A
100
AcDbEntity
  8
VD
  6
IMPORT
100
AcDbLine
 10
-1198.543672
 20
2202.213471999999
 30
0.0
 11
-1188.543671999997
 21
2202.213471999999
 31
0.0
  0
LINE
  5
93
330
A
100
AcDbEntity
  8
STANDARD
  6
IMPORT
 62
     7
100
AcDbLine
 10
-1159.889281
 20
2027.713503
 30
0.0
 11
-1159.716472
 21
2027.736238
 31
0.0
  0
LINE
  5
96
330
A
100
AcDbEntity
  8
VD
  6
IMPORT
100
AcDbLine
 10
-1120.543671999999
 20
1981.713518
 30
0.0
 11
-1120.543671999999
 21
2240.713495
 31
0.0
  0
LINE
  5
97
330
A
100
AcDbEntity
  8
VD
  6
IMPORT
100
AcDbLine
 10
-1130.543671
 20
2159.213518
 30
0.0
 11
-1130.543671
 21
2202.213471999999
 31
0.0
  0
LINE
  5
98
330
A
100
AcDbEntity
  8
VD
  6
IMPORT
100
AcDbLine
 10
-1198.543672
 20
1981.713518
 30
0.0
 11
-1198.543672
 21
2240.713495
 31
0.0
  0
LINE
  5
99
330
A
100
AcDbEntity
  8
VD
  6
IMPORT
100
AcDbLine
 10
-1188.543671999997
 20
2159.213518
 30
0.0
 11
-1188.543671999997
 21
2202.213471999999
 31
0.0
  0
LINE
  5
9A
330
A
100
AcDbEntity
  8
VD
  6
IMPORT
100
AcDbLine
 10
-1176.043672
 20
2044.213518
 30
0.0
 11
-1176.043672
 21
2181.213487
 31
0.0
  0
LINE
  5
9B
330
A
100
AcDbEntity
  8
VD
  6
IMPORT
100
AcDbLine
 10
-1143.043672
 20
2044.213518
 30
0.0
 11
-1143.043672
 21
2181.213487
 31
0.0
  0
LINE
  5
9F
330
A
100
AcDbEntity
  8
STANDARD
  6
IMPORT
 62
     7
100
AcDbLine
 10
-1177.213401
 20
2061.537584
 30
0.0
 11
-1176.043672
 21
2062.435182
 31
0.0
  0
LINE
  5
A0
330
A
100
AcDbEntity
  8
STANDARD
  6
IMPORT
 62
     7
100
AcDbLine
 10
-1176.389281
 20
2044.213518
 30
0.0
 11
-1176.043672
 21
2046.83864
 31
0.0
  0
LINE
  5
A1
330
A
100
AcDbEntity
  8
VD
  6
IMPORT
100
AcDbLine
 10
-1164.159791
 20
2028.275713
 30
0.0
 11
-1159.543672
 21
2027.713503
 31
0.0
  0
LINE
  5
A2
330
A
100
AcDbEntity
  8
STANDARD
  6
IMPORT
 62
     7
100
AcDbLine
 10
-1143.043672
 20
2061.904787
 30
0.0
 11
-1142.565161999999
 21
2061.537584
 31
0.0
  0
ARC
  5
A3
330
A
100
AcDbEntity
  8
STANDARD
  6
IMPORT
 62
     7
100
AcDbCircle
 10
-1159.889326999999
 20
2044.213453
 30
0.0
 40
24.500045
100
AcDbArc
 50
0.000152
 51
44.999944
  0
ARC
  5
A4
330
A
100
AcDbEntity
  8
STANDARD
  6
IMPORT
 62
     7
100
AcDbCircle
 10
-1159.889281
 20
2025.713518
 30
0.0
 40
24.5
100
AcDbArc
 50
179.9999319999999
 51
0.000068
  0
ARC
  5
A5
330
A
100
AcDbEntity
  8
STANDARD
  6
IMPORT
 62
     7
100
AcDbCircle
 10
-1159.889324
 20
2044.213457
 30
0.0
 40
16.499957
100
AcDbArc
 50
179.9997899999999
 51
255.0001299999999
  0
ARC
  5
A6
330
A
100
AcDbEntity
  8
VD
  6
IMPORT
100
AcDbCircle
 10
-1159.543672
 20
2181.213502999999
 30
0.0
 40
16.5
100
AcDbArc
 50
359.999947
 51
180.000053
  0
ARC
  5
A7
330
A
100
AcDbEntity
  8
VD
  6
IMPORT
100
AcDbCircle
 10
-1159.543706
 20
2044.213464
 30
0.0
 40
16.499966
100
AcDbArc
 50
179.999812
 51
255.000108
  0
ARC
  5
A8
330
A
100
AcDbEntity
  8
VD
  6
IMPORT
100
AcDbCircle
 10
-1159.543627
 20
2044.213457999999
 30
0.0
 40
16.499955
100
AcDbArc
 50
269.9998439999999
 51
0.000208
  0
ARC
  5
A9
330
A
100
AcDbEntity
  8
STANDARD
  6
IMPORT
 62
     7
100
AcDbCircle
 10
-1159.889486999998
 20
2044.213558
 30
0.0
 40
24.499794
100
AcDbArc
 50
134.9998149999999
 51
180.0000929999999
  0
LINE
  5
AA
330
A
100
AcDbEntity
  8
VD
  6
IMPORT
100
AcDbLine
 10
-1985.395344
 20
2197.713503
 30
0.0
 11
-1402.53558
 21
2197.713503
 31
0.0
  0
LINE
  5
AB
330
A
100
AcDbEntity
  8
VD
  6
IMPORT
100
AcDbLine
 10
-1424.695441999999
 20
2027.713503
 30
0.0
 11
-1402.53558
 21
2027.713503
 31
0.0
  0
LINE
  5
AC
330
A
100
AcDbEntity
  8
VD
  6
IMPORT
100
AcDbLine
 10
-2008.255985
 20
2027.713503
 30
0.0
 11
-1514.695442
 21
2027.713503
 31
0.0
  0
LINE
  5
AF
330
A
100
AcDbEntity
  8
VD
  6
IMPORT
 48
0.3
100
AcDbLine
 10
-1828.255966
 20
2164.713472
 30
0.0
 11
-1403.976372
 21
2164.713472
 31
0.0
  0
LINE
  5
B0
330
A
100
AcDbEntity
  8
VD
  6
IMPORT
100
AcDbLine
 10
-1984.092129
 20
2164.713472
 30
0.0
 11
-1917.601993999999
 21
2164.713472
 31
0.0
  0
LINE
  5
B1
330
A
100
AcDbEntity
  8
VD
  6
IMPORT
100
AcDbLine
 10
-1424.695441999999
 20
2060.713456999998
 30
0.0
 11
-1403.976372
 21
2060.713456999998
 31
0.0
  0
LINE
  5
B2
330
A
100
AcDbEntity
  8
VD
  6
IMPORT
 48
10.0
100
AcDbLine
 10
-1828.255966
 20
2060.713456999998
 30
0.0
 11
-1514.695442
 21
2060.713456999998
 31
0.0
  0
LINE
  5
B3
330
A
100
AcDbEntity
  8
VD
  6
IMPORT
100
AcDbLine
 10
-2008.255985
 20
2060.713456999998
 30
0.0
 11
-1917.601993999999
 21
2060.713456999998
 31
0.0
  0
LINE
  5
B5
330
A
100
AcDbEntity
  8
STANDARD
  6
IMPORT
 62
     7
100
AcDbLine
 10
-1454.18681
 20
2071.213487
 30
0.0
 11
-1440.204075
 21
2071.213487
 31
0.0
  0
LINE
  5
B7
330
A
100
AcDbEntity
  8
STANDARD
  6
IMPORT
 62
     7
100
AcDbLine
 10
-1455.195435
 20
2070.213503
 30
0.0
 11
-1439.195431
 21
2070.213503
 31
0.0
  0
LINE
  5
B9
330
A
100
AcDbEntity
  8
STANDARD
  6
IMPORT
 62
     7
100
AcDbLine
 10
-1439.195431
 20
2068.713487
 30
0.0
 11
-1424.695441999999
 21
2068.713487
 31
0.0
  0
LINE
  5
BA
330
A
100
AcDbEntity
  8
STANDARD
  6
IMPORT
 62
     7
100
AcDbLine
 10
-1484.19544
 20
2068.713487
 30
0.0
 11
-1455.195435
 21
2068.713487
 31
0.0
  0
LINE
  5
BB
330
A
100
AcDbEntity
  8
STANDARD
  6
IMPORT
 62
     7
100
AcDbLine
 10
-1514.695442
 20
2068.713487
 30
0.0
 11
-1500.195444
 21
2068.713487
 31
0.0
  0
LINE
  5
BC
330
A
100
AcDbEntity
  8
STANDARD
  6
IMPORT
 62
     7
100
AcDbLine
 10
-1442.430274999999
 20
2067.878679
 30
0.0
 11
-1441.538589
 21
2067.968781999999
 31
0.0
  0
LINE
  5
BD
330
A
100
AcDbEntity
  8
STANDARD
  6
IMPORT
 62
     7
100
AcDbLine
 10
-1452.852295
 20
2067.968781999999
 30
0.0
 11
-1451.960609
 21
2067.878679
 31
0.0
  0
LINE
  5
C0
330
A
100
AcDbEntity
  8
VD
  6
IMPORT
100
AcDbLine
 10
-2018.255985
 20
2240.713495
 30
0.0
 11
-2014.25597
 21
2240.713495
 31
0.0
  0
LINE
  5
C1
330
A
100
AcDbEntity
  8
VD
  6
IMPORT
100
AcDbLine
 10
-2018.255985
 20
1981.713518
 30
0.0
 11
-2008.255985
 21
1981.713518
 31
0.0
  0
LINE
  5
C4
330
A
100
AcDbEntity
  8
STANDARD
  6
IMPORT
 62
     7
100
AcDbLine
 10
-1514.695442
 20
2001.213518
 30
0.0
 11
-1514.695442
 21
2068.713487
 31
0.0
  0
LINE
  5
C5
330
A
100
AcDbEntity
  8
VD
  6
IMPORT
100
AcDbLine
 10
-1424.755962
 20
2164.713472
 30
0.0
 11
-1424.755962
 21
2197.713503
 31
0.0
  0
LINE
  5
C6
330
A
100
AcDbEntity
  8
STANDARD
  6
IMPORT
 62
     7
100
AcDbLine
 10
-1424.695441999999
 20
2001.213518
 30
0.0
 11
-1424.695441999999
 21
2068.713487
 31
0.0
  0
LINE
  5
C8
330
A
100
AcDbEntity
  8
STANDARD
  6
IMPORT
 62
     7
100
AcDbLine
 10
-1455.195435
 20
2068.713487
 30
0.0
 11
-1455.195435
 21
2070.213503
 31
0.0
  0
LINE
  5
C9
330
A
100
AcDbEntity
  8
STANDARD
  6
IMPORT
 62
     7
100
AcDbLine
 10
-1439.195431
 20
2068.713487
 30
0.0
 11
-1439.195431
 21
2070.213503
 31
0.0
  0
LINE
  5
CB
330
A
100
AcDbEntity
  8
VD
  6
IMPORT
 48
15.0
100
AcDbLine
 10
-2008.255985
 20
1981.713518
 30
0.0
 11
-2008.255985
 21
2234.713472
 31
0.0
  0
LINE
  5
CC
330
A
100
AcDbEntity
  8
VD
  6
IMPORT
100
AcDbLine
 10
-2018.255985
 20
1981.713518
 30
0.0
 11
-2018.255985
 21
2240.713495
 31
0.0
  0
LINE
  5
D3
330
A
100
AcDbEntity
  8
STANDARD
  6
IMPORT
 62
     7
100
AcDbLine
 10
-1455.195435
 20
2068.713487
 30
0.0
 11
-1454.922855
 21
2068.440889
 31
0.0
  0
LINE
  5
D5
330
A
100
AcDbEntity
  8
STANDARD
  6
IMPORT
 62
     7
100
AcDbLine
 10
-1455.195435
 20
2070.213503
 30
0.0
 11
-1454.18681
 21
2071.213487
 31
0.0
  0
LINE
  5
D6
330
A
100
AcDbEntity
  8
STANDARD
  6
IMPORT
 62
     7
100
AcDbLine
 10
-1439.468028999999
 20
2068.440889
 30
0.0
 11
-1439.195431
 21
2068.713487
 31
0.0
  0
LINE
  5
DE
330
A
100
AcDbEntity
  8
STANDARD
  6
IMPORT
 62
     7
100
AcDbLine
 10
-1440.267246
 20
2068.186907
 30
0.0
 11
-1439.468028999999
 21
2068.440889
 31
0.0
  0
LINE
  5
E0
330
A
100
AcDbEntity
  8
STANDARD
  6
IMPORT
 62
     7
100
AcDbLine
 10
-1443.195446
 20
2067.635453999999
 30
0.0
 11
-1442.430274999999
 21
2067.878679
 31
0.0
  0
LINE
  5
E5
330
A
100
AcDbEntity
  8
STANDARD
  6
IMPORT
 62
     7
100
AcDbLine
 10
-1441.538589
 20
2067.968781999999
 30
0.0
 11
-1440.267246
 21
2068.186907
 31
0.0
  0
LINE
  5
E6
330
A
100
AcDbEntity
  8
STANDARD
  6
IMPORT
 62
     7
100
AcDbLine
 10
-1445.124882
 20
2067.304415
 30
0.0
 11
-1443.195446
 21
2067.635453999999
 31
0.0
  0
LINE
  5
E9
330
A
100
AcDbEntity
  8
VD
  6
IMPORT
100
AcDbLine
 10
-1402.53558
 20
2027.713503
 30
0.0
 11
-1388.484924
 21
2028.942751
 31
0.0
  0
LINE
  5
EA
330
A
100
AcDbEntity
  8
VD
  6
IMPORT
100
AcDbLine
 10
-1403.976372
 20
2060.713456999998
 30
0.0
 11
-1394.237202
 21
2061.565583999999
 31
0.0
  0
LINE
  5
EE
330
A
100
AcDbEntity
  8
STANDARD
  6
IMPORT
 62
     7
100
AcDbLine
 10
-1447.195441999999
 20
2067.191499999999
 30
0.0
 11
-1445.124882
 21
2067.304415
 31
0.0
  0
LINE
  5
EF
330
A
100
AcDbEntity
  8
VD
  6
IMPORT
100
AcDbLine
 10
-2008.255985
 20
2159.213518
 30
0.0
 11
-1992.691371999999
 21
2159.946092
 31
0.0
  0
LINE
  5
F3
330
A
100
AcDbEntity
  8
STANDARD
  6
IMPORT
 62
     7
100
AcDbLine
 10
-1449.265984
 20
2067.304415
 30
0.0
 11
-1447.195441999999
 21
2067.191499999999
 31
0.0
  0
LINE
  5
F4
330
A
100
AcDbEntity
  8
VD
  6
IMPORT
100
AcDbLine
 10
-2008.255985
 20
2202.213471999999
 30
0.0
 11
-1992.691371999999
 21
2201.480898
 31
0.0
  0
LINE
  5
F5
330
A
100
AcDbEntity
  8
VD
  6
IMPORT
100
AcDbLine
 10
-1402.53558
 20
2197.713503
 30
0.0
 11
-1388.484924
 21
2196.484217
 31
0.0
  0
LINE
  5
F6
330
A
100
AcDbEntity
  8
VD
  6
IMPORT
100
AcDbLine
 10
-1403.976372
 20
2164.713472
 30
0.0
 11
-1394.237202
 21
2163.861421
 31
0.0
  0
LINE
  5
F9
330
A
100
AcDbEntity
  8
STANDARD
  6
IMPORT
 62
     7
100
AcDbLine
 10
-1451.195438
 20
2067.635453999999
 30
0.0
 11
-1449.265984
 21
2067.304415
 31
0.0
  0
LINE
  5
FA
330
A
100
AcDbEntity
  8
STANDARD
  6
IMPORT
 62
     7
100
AcDbLine
 10
-1454.123638
 20
2068.186907
 30
0.0
 11
-1452.852295
 21
2067.968781999999
 31
0.0
  0
LINE
  5
FF
330
A
100
AcDbEntity
  8
STANDARD
  6
IMPORT
 62
     7
100
AcDbLine
 10
-1454.922855
 20
2068.440889
 30
0.0
 11
-1454.123638
 21
2068.186907
 31
0.0
  0
LINE
  5
101
330
A
100
AcDbEntity
  8
STANDARD
  6
IMPORT
 62
     7
100
AcDbLine
 10
-1451.960609
 20
2067.878679
 30
0.0
 11
-1451.195438
 21
2067.635453999999
 31
0.0
  0
LINE
  5
10B
330
A
100
AcDbEntity
  8
STANDARD
  6
IMPORT
 62
     7
100
AcDbLine
 10
-1440.204075
 20
2071.213487
 30
0.0
 11
-1439.195431
 21
2070.213503
 31
0.0
  0
ARC
  5
10D
330
A
100
AcDbEntity
  8
VD
  6
IMPORT
100
AcDbCircle
 10
-1403.255959
 20
2112.713483999999
 30
0.0
 40
85.06303100000002
100
AcDbArc
 50
279.999996
 51
80.00000400000002
  0
ARC
  5
10F
330
A
100
AcDbEntity
  8
VD
  6
IMPORT
100
AcDbCircle
 10
-1403.255984
 20
2112.713503
 30
0.0
 40
51.936962
100
AcDbArc
 50
280.000026
 51
79.99997399999998
  0
ARC
  5
110
330
A
100
AcDbEntity
  8
VD
  6
IMPORT
100
AcDbCircle
 10
-1998.255942
 20
2180.713495
 30
0.0
 40
21.499987
100
AcDbArc
 50
284.9999009999999
 51
75.00009900000002
  0
ARC
  5
111
330
A
100
AcDbEntity
  8
VD
  6
IMPORT
100
AcDbCircle
 10
-2014.25597
 20
2234.713511
 30
0.0
 40
5.999983999999997
100
AcDbArc
 50
359.9996319999998
 51
90.00000300000001
  0
LINE
  5
112
330
A
100
AcDbEntity
  8
VD
  6
IMPORT
100
AcDbLine
 10
-1194.173889
 20
1868.751373
 30
0.0
 11
-1116.173935
 21
1868.751373
 31
0.0
  0
LINE
  5
113
330
A
100
AcDbEntity
  8
VD
  6
IMPORT
100
AcDbLine
 10
-1116.173935
 20
1827.251281999999
 30
0.0
 11
-1116.173935
 21
1868.751373
 31
0.0
  0
LINE
  5
114
330
A
100
AcDbEntity
  8
VD
  6
IMPORT
100
AcDbLine
 10
-1194.173889
 20
1827.251281999999
 30
0.0
 11
-1194.173889
 21
1868.751373
 31
0.0
  0
LINE
  5
115
330
A
100
AcDbEntity
  8
VD
  6
IMPORT
100
AcDbLine
 10
-1194.173889
 20
1858.751373
 30
0.0
 11
-1116.173935
 21
1858.751373
 31
0.0
  0
LINE
  5
116
330
A
100
AcDbEntity
  8
VD
  6
IMPORT
100
AcDbLine
 10
-1159.721068999999
 20
1850.751342999997
 30
0.0
 11
-1150.626755
 21
1850.751342999997
 31
0.0
  0
LINE
  5
117
330
A
100
AcDbEntity
  8
VD
  6
IMPORT
100
AcDbLine
 10
-1194.173889
 20
1827.251281999999
 30
0.0
 11
-1184.173889
 21
1827.251281999999
 31
0.0
  0
LINE
  5
118
330
A
100
AcDbEntity
  8
VD
  6
IMPORT
100
AcDbLine
 10
-1184.173889
 20
1832.251282
 30
0.0
 11
-1171.673889
 21
1832.251282
 31
0.0
  0
LINE
  5
119
330
A
100
AcDbEntity
  8
VD
  6
IMPORT
100
AcDbLine
 10
-1171.673889
 20
1185.251311999999
 30
0.0
 11
-1171.673889
 21
1832.321167
 31
0.0
  0
LINE
  5
11A
330
A
100
AcDbEntity
  8
VD
  6
IMPORT
100
AcDbLine
 10
-1184.173889
 20
1827.251281999999
 30
0.0
 11
-1184.173889
 21
1858.751373
 31
0.0
  0
LINE
  5
11B
330
A
100
AcDbEntity
  8
VD
  6
IMPORT
100
AcDbLine
 10
-1126.173935
 20
1827.251281999999
 30
0.0
 11
-1116.173935
 21
1827.251281999999
 31
0.0
  0
LINE
  5
11C
330
A
100
AcDbEntity
  8
VD
  6
IMPORT
100
AcDbLine
 10
-1138.673935
 20
1832.251282
 30
0.0
 11
-1126.173935
 21
1832.251282
 31
0.0
  0
LINE
  5
11D
330
A
100
AcDbEntity
  8
VD
  6
IMPORT
100
AcDbLine
 10
-1138.673935
 20
1185.251311999999
 30
0.0
 11
-1138.673935
 21
1832.321167
 31
0.0
  0
LINE
  5
11F
330
A
100
AcDbEntity
  8
VD
  6
IMPORT
100
AcDbLine
 10
-1126.173935
 20
1827.251281999999
 30
0.0
 11
-1126.173935
 21
1858.751373
 31
0.0
  0
LINE
  5
120
330
A
100
AcDbEntity
  8
STANDARD
  6
IMPORT
 62
     7
100
AcDbLine
 10
-1138.673935
 20
1365.190735
 30
0.0
 11
-1131.019516
 21
1365.190735
 31
0.0
  0
LINE
  5
121
330
A
100
AcDbEntity
  8
STANDARD
  6
IMPORT
 62
     7
100
AcDbLine
 10
-1180.019531
 20
1365.190735
 30
0.0
 11
-1171.673889
 21
1365.190735
 31
0.0
  0
LINE
  5
122
330
A
100
AcDbEntity
  8
STANDARD
  6
IMPORT
 62
     7
100
AcDbLine
 10
-1180.019531
 20
1275.190811
 30
0.0
 11
-1171.673889
 21
1275.190811
 31
0.0
  0
LINE
  5
123
330
A
100
AcDbEntity
  8
STANDARD
  6
IMPORT
 62
     7
100
AcDbLine
 10
-1131.019516
 20
1275.190811
 30
0.0
 11
-1131.019516
 21
1365.190735
 31
0.0
  0
LINE
  5
124
330
A
100
AcDbEntity
  8
STANDARD
  6
IMPORT
 62
     7
100
AcDbLine
 10
-1180.019531
 20
1275.190811
 30
0.0
 11
-1180.019531
 21
1365.190735
 31
0.0
  0
ARC
  5
125
330
A
100
AcDbEntity
  8
VD
  6
IMPORT
100
AcDbCircle
 10
-1155.114964
 20
1185.235553
 30
0.0
 40
16.558932
100
AcDbArc
 50
179.94547
 51
254.843415
  0
ARC
  5
126
330
A
100
AcDbEntity
  8
VD
  6
IMPORT
100
AcDbCircle
 10
-1155.173912
 20
1185.172094999999
 30
0.0
 40
16.483816
100
AcDbArc
 50
194.788731
 51
345.211269
  0
ARC
  5
127
330
A
100
AcDbEntity
  8
VD
  6
IMPORT
100
AcDbCircle
 10
-1155.263311999997
 20
1185.243681
 30
0.0
 40
16.589379
100
AcDbArc
 50
315.1282479999998
 51
0.026356
  0
LINE
  5
16B
330
A
100
AcDbEntity
  8
VD
  6
CONTINUOUS
100
AcDbLine
 10
-1917.601993999999
 20
2164.713472
 30
0.0
 11
-1828.255966
 21
2164.713472
 31
0.0
  0
LINE
  5
16C
330
A
100
AcDbEntity
  8
VD
  6
CONTINUOUS
100
AcDbLine
 10
-1828.255966
 20
2060.713456999998
 30
0.0
 11
-1917.601993999999
 21
2060.713456999998
 31
0.0
  0
LINE
  5
177
330
A
100
AcDbEntity
  8
VD
  6
IMPORT
100
AcDbLine
 10
-501.207824
 20
2164.713472
 30
0.0
 11
-411.861797
 21
2164.713472
 31
0.0
  0
LINE
  5
178
330
A
100
AcDbEntity
  8
VD
  6
IMPORT
100
AcDbLine
 10
-411.861797
 20
2060.713456999998
 30
0.0
 11
-501.207824
 21
2060.713456999998
 31
0.0
  0
LINE
  5
179
330
A
100
AcDbEntity
  8
STANDARD
  6
IMPORT
 62
     7
100
AcDbLine
 10
-1138.673935
 20
1275.190811
 30
0.0
 11
-1131.019516
 21
1275.190811
 31
0.0
  0
LINE
  5
186
330
A
100
AcDbEntity
  8
0
  6
CONTINUOUS
 48
15.0
100
AcDbLine
 10
-1184.389280999965
 20
2044.213518233007
 30
0.0
 11
-1184.389280999982
 21
2025.713547077185
 31
0.0
  0
LINE
  5
187
330
A
100
AcDbEntity
  8
0
  6
CONTINUOUS
 48
15.0
100
AcDbLine
 10
-1135.389282000085
 20
2044.213517996181
 30
0.0
 11
-1135.389281000017
 21
2025.713547077185
 31
0.0
  0
LINE
  5
188
330
A
100
AcDbEntity
  8
0
  6
CONTINUOUS
 48
15.0
100
AcDbLine
 10
-1424.695441999999
 20
2001.213518
 30
0.0
 11
-1514.695441999999
 21
2001.213518
 31
0.0
  0
LINE
  5
189
330
A
100
AcDbEntity
  8
0
  6
CONTINUOUS
 48
15.0
100
AcDbLine
 10
-1514.695442
 20
2001.213518
 30
0.0
 11
-1424.695441999999
 21
2001.213517999999
 31
0.0
  0
LINE
  5
18C
330
A
100
AcDbEntity
  8
0
  6
CONTINUOUS
 48
15.0
100
AcDbLine
 10
-904.7683479999999
 20
2001.213517999999
 30
0.0
 11
-814.7683480000001
 21
2001.213518
 31
0.0
  0
LINE
  5
18D
330
A
100
AcDbEntity
  8
0
  6
CONTINUOUS
 48
15.0
100
AcDbLine
 10
-1500.195444
 20
2068.713487
 30
0.0
 11
-1484.19544
 21
2068.713487
 31
0.0
  0
LINE
  5
18E
330
A
100
AcDbEntity
  8
0
  6
CONTINUOUS
 48
15.0
100
AcDbLine
 10
-845.26835
 20
2068.713487
 30
0.0
 11
-829.268347
 21
2068.713487
 31
0.0
  0
VIEWPORT
  5
174
330
B
100
AcDbEntity
 67
     1
  8
0
  6
CONTINUOUS
100
AcDbViewport
 10
0.0
 20
0.0
 30
0.0
 40
0.0
 41
0.0
 68
     1
 69
     1
1001
ACAD
1000
MVIEW
1002
{
1070
    16
1010
0.0
1020
0.0
1030
0.0
1010
0.0
1020
0.0
1030
1.0
1040
0.0
1040
0.0
1040
0.0
1040
0.0
1040
50.0
1040
0.0
1040
0.0
1070
     0
1070
   100
1070
     1
1070
     1
1070
     0
1070
     0
1070
     0
1070
     0
1040
0.0
1040
0.0
1040
0.0
1040
10.0
1040
10.0
1040
10.0
1040
10.0
1070
     0
1002
{
1002
}
1002
}
  0
VIEWPORT
  5
176
330
B
100
AcDbEntity
 67
     1
  8
0
  6
CONTINUOUS
100
AcDbViewport
 10
0.0
 20
0.0
 30
0.0
 40
0.0
 41
0.0
 68
     2
 69
     2
1001
ACAD
1000
MVIEW
1002
{
1070
    16
1010
0.0
1020
0.0
1030
0.0
1010
0.0
1020
0.0
1030
1.0
1040
0.0
1040
1307.14395305568
1040
-1151.132396708701
1040
1701.026021992245
1040
50.0
1040
0.0
1040
0.0
1070
     0
1070
   100
1070
     1
1070
     1
1070
     0
1070
     0
1070
     0
1070
     0
1040
0.0
1040
0.0
1040
0.0
1040
1.0
1040
1.0
1040
0.0
1040
0.0
1070
     0
1002
{
1002
}
1002
}
  0
ENDSEC
  0
SECTION
  2
OBJECTS
  0
DICTIONARY
  5
19
330
0
100
AcDbDictionary
  3
ACAD_GROUP
350
1A
  3
ACAD_LAYOUT
350
12E
  3
ACAD_MLINESTYLE
350
1B
  3
ACAD_PLOTSETTINGS
350
12F
  3
ACAD_PLOTSTYLENAME
350
12C
  3
ACDBHEADERROUNDTRIPXREC
350
1C7
  0
DICTIONARY
  5
160
330
A
100
AcDbDictionary
280
     1
  3
ACAD_LAYOUTSELFREF
360
1E7
  0
DICTIONARY
  5
162
330
B
100
AcDbDictionary
280
     1
  3
ACAD_LAYOUTSELFREF
360
1E8
  0
DICTIONARY
  5
1A
102
{ACAD_REACTORS
330
19
102
}
330
19
100
AcDbDictionary
  0
DICTIONARY
  5
12E
102
{ACAD_REACTORS
330
19
102
}
330
19
100
AcDbDictionary
  0
DICTIONARY
  5
1B
102
{ACAD_REACTORS
330
19
102
}
330
19
100
AcDbDictionary
  3
STANDARD
350
1C
  0
DICTIONARY
  5
12F
102
{ACAD_REACTORS
330
19
102
}
330
19
100
AcDbDictionary
  0
ACDBDICTIONARYWDFLT
  5
12C
102
{ACAD_REACTORS
330
19
102
}
330
19
100
AcDbDictionary
281
     1
  3
Normal
350
12D
100
AcDbDictionaryWithDefault
340
12D
  0
DICTIONARY
  5
1C7
102
{ACAD_REACTORS
330
19
102
}
330
19
100
AcDbDictionary
  3
TSTACKALIGN
350
1C8
  3
TSTACKSIZE
350
1C9
  3
HYPERLINKBASE
350
1CA
  3
STYLESHEET
350
1CB
  3
LAYOUTDICT
350
1CC
  3
PLOTSETDICT
350
1CD
  3
PLOTSTYLNAMDICT
350
1CE
  3
LWETCUNION
350
1CF
  3
INSUNITS
350
1D0
  3
CEPSNTYPE
350
1D1
  3
FINGERPRINTGUID
350
1D2
  3
VERSIONGUID
350
1D3
  3
PSVPSCALE
350
1D4
  3
PUCSORTHOREF
350
1D5
  3
PUCSORTHOVIEW
350
1D6
  3
PUCSBASE
350
1D7
  3
PUCSORGTOP
350
1D8
  3
PUCSORGBOTTOM
350
1D9
  3
PUCSORGLEFT
350
1DA
  3
PUCSORGRIGHT
350
1DB
  3
PUCSORGFRONT
350
1DC
  3
PUCSORGBACK
350
1DD
  3
UCSORTHOREF
350
1DE
  3
UCSORTHOVIEW
350
1DF
  3
UCSBASE
350
1E0
  3
UCSORGTOP
350
1E1
  3
UCSORGBOTTOM
350
1E2
  3
UCSORGLEFT
350
1E3
  3
UCSORGRIGHT
350
1E4
  3
UCSORGFRONT
350
1E5
  3
UCSORGBACK
350
1E6
  0
XRECORD
  5
1E7
102
{ACAD_REACTORS
330
160
102
}
330
160
100
AcDbXrecord
340
A
  0
XRECORD
  5
1E8
102
{ACAD_REACTORS
330
162
102
}
330
162
100
AcDbXrecord
340
B
  0
MLINESTYLE
  5
1C
102
{ACAD_REACTORS
330
1B
102
}
330
1B
100
AcDbMlineStyle
  2
STANDARD
 70
     0
  3

 62
     0
 51
90.0
 52
90.0
 71
     2
 49
0.5
 62
   256
  6
BYLAYER
 49
-0.5
 62
   256
  6
BYLAYER
  0
ACDBPLACEHOLDER
  5
12D
102
{ACAD_REACTORS
330
12C
102
}
330
12C
100
AcDbPlaceHolder
280
     0
  0
XRECORD
  5
1C8
102
{ACAD_REACTORS
330
1C7
102
}
330
1C7
100
AcDbXrecord
 90
        1
  0
XRECORD
  5
1C9
102
{ACAD_REACTORS
330
1C7
102
}
330
1C7
100
AcDbXrecord
 90
       70
  0
XRECORD
  5
1CA
102
{ACAD_REACTORS
330
1C7
102
}
330
1C7
100
AcDbXrecord
  1

  0
XRECORD
  5
1CB
102
{ACAD_REACTORS
330
1C7
102
}
330
1C7
100
AcDbXrecord
  1

  0
XRECORD
  5
1CC
102
{ACAD_REACTORS
330
1C7
102
}
330
1C7
100
AcDbXrecord
340
12E
  0
XRECORD
  5
1CD
102
{ACAD_REACTORS
330
1C7
102
}
330
1C7
100
AcDbXrecord
340
12F
  0
XRECORD
  5
1CE
102
{ACAD_REACTORS
330
1C7
102
}
330
1C7
100
AcDbXrecord
340
12C
  0
XRECORD
  5
1CF
102
{ACAD_REACTORS
330
1C7
102
}
330
1C7
100
AcDbXrecord
 90
    10781
  0
XRECORD
  5
1D0
102
{ACAD_REACTORS
330
1C7
102
}
330
1C7
100
AcDbXrecord
 90
        0
  0
XRECORD
  5
1D1
102
{ACAD_REACTORS
330
1C7
102
}
330
1C7
100
AcDbXrecord
 90
        0
  0
XRECORD
  5
1D2
102
{ACAD_REACTORS
330
1C7
102
}
330
1C7
100
AcDbXrecord
  1
{CA118010-49E5-4163-BD0D-F2E27ADFA963}
  0
XRECORD
  5
1D3
102
{ACAD_REACTORS
330
1C7
102
}
330
1C7
100
AcDbXrecord
  1
{22D27FEF-03B9-41B6-9637-668901B5A5EF}
  0
XRECORD
  5
1D4
102
{ACAD_REACTORS
330
1C7
102
}
330
1C7
100
AcDbXrecord
 40
0.0
  0
XRECORD
  5
1D5
102
{ACAD_REACTORS
330
1C7
102
}
330
1C7
100
AcDbXrecord
340
0
  0
XRECORD
  5
1D6
102
{ACAD_REACTORS
330
1C7
102
}
330
1C7
100
AcDbXrecord
 70
     0
  0
XRECORD
  5
1D7
102
{ACAD_REACTORS
330
1C7
102
}
330
1C7
100
AcDbXrecord
340
0
  0
XRECORD
  5
1D8
102
{ACAD_REACTORS
330
1C7
102
}
330
1C7
100
AcDbXrecord
 10
0.0
 20
0.0
 30
0.0
  0
XRECORD
  5
1D9
102
{ACAD_REACTORS
330
1C7
102
}
330
1C7
100
AcDbXrecord
 10
0.0
 20
0.0
 30
0.0
  0
XRECORD
  5
1DA
102
{ACAD_REACTORS
330
1C7
102
}
330
1C7
100
AcDbXrecord
 10
0.0
 20
0.0
 30
0.0
  0
XRECORD
  5
1DB
102
{ACAD_REACTORS
330
1C7
102
}
330
1C7
100
AcDbXrecord
 10
0.0
 20
0.0
 30
0.0
  0
XRECORD
  5
1DC
102
{ACAD_REACTORS
330
1C7
102
}
330
1C7
100
AcDbXrecord
 10
0.0
 20
0.0
 30
0.0
  0
XRECORD
  5
1DD
102
{ACAD_REACTORS
330
1C7
102
}
330
1C7
100
AcDbXrecord
 10
0.0
 20
0.0
 30
0.0
  0
XRECORD
  5
1DE
102
{ACAD_REACTORS
330
1C7
102
}
330
1C7
100
AcDbXrecord
340
0
  0
XRECORD
  5
1DF
102
{ACAD_REACTORS
330
1C7
102
}
330
1C7
100
AcDbXrecord
 70
     0
  0
XRECORD
  5
1E0
102
{ACAD_REACTORS
330
1C7
102
}
330
1C7
100
AcDbXrecord
340
0
  0
XRECORD
  5
1E1
102
{ACAD_REACTORS
330
1C7
102
}
330
1C7
100
AcDbXrecord
 10
0.0
 20
0.0
 30
0.0
  0
XRECORD
  5
1E2
102
{ACAD_REACTORS
330
1C7
102
}
330
1C7
100
AcDbXrecord
 10
0.0
 20
0.0
 30
0.0
  0
XRECORD
  5
1E3
102
{ACAD_REACTORS
330
1C7
102
}
330
1C7
100
AcDbXrecord
 10
0.0
 20
0.0
 30
0.0
  0
XRECORD
  5
1E4
102
{ACAD_REACTORS
330
1C7
102
}
330
1C7
100
AcDbXrecord
 10
0.0
 20
0.0
 30
0.0
  0
XRECORD
  5
1E5
102
{ACAD_REACTORS
330
1C7
102
}
330
1C7
100
AcDbXrecord
 10
0.0
 20
0.0
 30
0.0
  0
XRECORD
  5
1E6
102
{ACAD_REACTORS
330
1C7
102
}
330
1C7
100
AcDbXrecord
 10
0.0
 20
0.0
 30
0.0
  0
ENDSEC
  0
EOF
