  0
SECTION
  2
HEADER
  9
$ACADVER
  1
AC1014
  9
$ACADMAINTVER
 70
     9
  9
$DWGCODEPAGE
  3
ANSI_1252
  9
$INSBASE
 10
0.0
 20
0.0
 30
0.0
  9
$EXTMIN
 10
-759.0000000119999
 20
-848.0000000119996
 30
-0.00000001
  9
$EXTMAX
 10
759.0000000119999
 20
130.3817279836453
 30
0.00000001
  9
$LIMMIN
 10
0.0
 20
0.0
  9
$LIMMAX
 10
12.0
 20
9.0
  9
$ORTHOMODE
 70
     0
  9
$REGENMODE
 70
     1
  9
$FILLMODE
 70
     1
  9
$QTEXTMODE
 70
     0
  9
$MIRRTEXT
 70
     1
  9
$DRAGMODE
 70
     2
  9
$LTSCALE
 40
1.0
  9
$OSMODE
 70
    37
  9
$ATTMODE
 70
     1
  9
$TEXTSIZE
 40
0.2
  9
$TRACEWID
 40
0.05
  9
$TEXTSTYLE
  7
STANDARD
  9
$CLAYER
  8
0
  9
$CELTYPE
  6
BYLAYER
  9
$CECOLOR
 62
   256
  9
$CELTSCALE
 40
1.0
  9
$DELOBJ
 70
     1
  9
$DISPSILH
 70
     0
  9
$DIMSCALE
 40
1.0
  9
$DIMASZ
 40
0.18
  9
$DIMEXO
 40
0.0625
  9
$DIMDLI
 40
0.38
  9
$DIMRND
 40
0.0
  9
$DIMDLE
 40
0.0
  9
$DIMEXE
 40
0.18
  9
$DIMTP
 40
0.0
  9
$DIMTM
 40
0.0
  9
$DIMTXT
 40
0.18
  9
$DIMCEN
 40
0.09
  9
$DIMTSZ
 40
0.0
  9
$DIMTOL
 70
     0
  9
$DIMLIM
 70
     0
  9
$DIMTIH
 70
     1
  9
$DIMTOH
 70
     1
  9
$DIMSE1
 70
     0
  9
$DIMSE2
 70
     0
  9
$DIMTAD
 70
     0
  9
$DIMZIN
 70
     0
  9
$DIMBLK
  1

  9
$DIMASO
 70
     1
  9
$DIMSHO
 70
     1
  9
$DIMPOST
  1

  9
$DIMAPOST
  1

  9
$DIMALT
 70
     0
  9
$DIMALTD
 70
     2
  9
$DIMALTF
 40
25.4
  9
$DIMLFAC
 40
1.0
  9
$DIMTOFL
 70
     0
  9
$DIMTVP
 40
0.0
  9
$DIMTIX
 70
     0
  9
$DIMSOXD
 70
     0
  9
$DIMSAH
 70
     0
  9
$DIMBLK1
  1

  9
$DIMBLK2
  1

  9
$DIMSTYLE
  2
STANDARD
  9
$DIMCLRD
 70
     0
  9
$DIMCLRE
 70
     0
  9
$DIMCLRT
 70
     0
  9
$DIMTFAC
 40
1.0
  9
$DIMGAP
 40
0.09
  9
$DIMJUST
 70
     0
  9
$DIMSD1
 70
     0
  9
$DIMSD2
 70
     0
  9
$DIMTOLJ
 70
     1
  9
$DIMTZIN
 70
     0
  9
$DIMALTZ
 70
     0
  9
$DIMALTTZ
 70
     0
  9
$DIMFIT
 70
     3
  9
$DIMUPT
 70
     0
  9
$DIMUNIT
 70
     2
  9
$DIMDEC
 70
     4
  9
$DIMTDEC
 70
     4
  9
$DIMALTU
 70
     2
  9
$DIMALTTD
 70
     2
  9
$DIMTXSTY
  7
STANDARD
  9
$DIMAUNIT
 70
     0
  9
$LUNITS
 70
     2
  9
$LUPREC
 70
     4
  9
$SKETCHINC
 40
0.1
  9
$FILLETRAD
 40
0.5
  9
$AUNITS
 70
     0
  9
$AUPREC
 70
     0
  9
$MENU
  1
.
  9
$ELEVATION
 40
0.0
  9
$PELEVATION
 40
0.0
  9
$THICKNESS
 40
0.0
  9
$LIMCHECK
 70
     0
  9
$BLIPMODE
 70
     0
  9
$CHAMFERA
 40
0.5
  9
$CHAMFERB
 40
0.5
  9
$CHAMFERC
 40
1.0
  9
$CHAMFERD
 40
0.0
  9
$SKPOLY
 70
     0
  9
$TDCREATE
 40
2451762.465165509
  9
$TDUPDATE
 40
2452860.375519560
  9
$TDINDWG
 40
0.0003852778
  9
$TDUSRTIMER
 40
0.0003850926
  9
$USRTIMER
 70
     1
  9
$ANGBASE
 50
0.0
  9
$ANGDIR
 70
     0
  9
$PDMODE
 70
     0
  9
$PDSIZE
 40
0.0
  9
$PLINEWID
 40
0.0
  9
$COORDS
 70
     1
  9
$SPLFRAME
 70
     0
  9
$SPLINETYPE
 70
     6
  9
$SPLINESEGS
 70
     8
  9
$ATTDIA
 70
     0
  9
$ATTREQ
 70
     1
  9
$HANDLING
 70
  4097
  9
$HANDSEED
  5
194
  9
$SURFTAB1
 70
     6
  9
$SURFTAB2
 70
     6
  9
$SURFTYPE
 70
     6
  9
$SURFU
 70
     6
  9
$SURFV
 70
     6
  9
$UCSNAME
  2

  9
$UCSORG
 10
0.0
 20
0.0
 30
0.0
  9
$UCSXDIR
 10
1.0
 20
0.0
 30
0.0
  9
$UCSYDIR
 10
0.0
 20
1.0
 30
0.0
  9
$PUCSNAME
  2

  9
$PUCSORG
 10
0.0
 20
0.0
 30
0.0
  9
$PUCSXDIR
 10
1.0
 20
0.0
 30
0.0
  9
$PUCSYDIR
 10
0.0
 20
1.0
 30
0.0
  9
$USERI1
 70
     0
  9
$USERI2
 70
     0
  9
$USERI3
 70
     0
  9
$USERI4
 70
     0
  9
$USERI5
 70
     0
  9
$USERR1
 40
0.0
  9
$USERR2
 40
0.0
  9
$USERR3
 40
0.0
  9
$USERR4
 40
0.0
  9
$USERR5
 40
0.0
  9
$WORLDVIEW
 70
     1
  9
$SHADEDGE
 70
     3
  9
$SHADEDIF
 70
    70
  9
$TILEMODE
 70
     1
  9
$MAXACTVP
 70
    64
  9
$PINSBASE
 10
0.0
 20
0.0
 30
0.0
  9
$PLIMCHECK
 70
     0
  9
$PEXTMIN
 10
1.000000000000000E+20
 20
1.000000000000000E+20
 30
1.000000000000000E+20
  9
$PEXTMAX
 10
-1.000000000000000E+20
 20
-1.000000000000000E+20
 30
-1.000000000000000E+20
  9
$PLIMMIN
 10
0.0
 20
0.0
  9
$PLIMMAX
 10
12.0
 20
9.0
  9
$UNITMODE
 70
     0
  9
$VISRETAIN
 70
     1
  9
$PLINEGEN
 70
     0
  9
$PSLTSCALE
 70
     1
  9
$TREEDEPTH
 70
  3020
  9
$PICKSTYLE
 70
     1
  9
$CMLSTYLE
  2
STANDARD
  9
$CMLJUST
 70
     0
  9
$CMLSCALE
 40
1.0
  9
$PROXYGRAPHICS
 70
     1
  9
$MEASUREMENT
 70
     0
  0
ENDSEC
  0
SECTION
  2
CLASSES
  0
CLASS
  1
ACDBDICTIONARYWDFLT
  2
AcDbDictionaryWithDefault
  3
AutoCAD 2000
 90
        0
280
     0
281
     0
  0
CLASS
  1
ACDBPLACEHOLDER
  2
AcDbPlaceHolder
  3
AutoCAD 2000
 90
        0
280
     0
281
     0
  0
CLASS
  1
LAYOUT
  2
AcDbLayout
  3
AutoCAD 2000
 90
        0
280
     0
281
     0
  0
CLASS
  1
LONG_TRANSACTION
  2
AcDbLongTransaction
  3
AutoCAD 2000
 90
        0
280
     0
281
     0
  0
CLASS
  1
LWPOLYLINE
  2
AcDbPolyline
  3
AutoCAD 2000
 90
        0
280
     0
281
     1
  0
CLASS
  1
HATCH
  2
AcDbHatch
  3
AutoCAD 2000
 90
        0
280
     0
281
     1
  0
CLASS
  1
XRECORD
  2
AcDbXrecord
  3
AutoCAD 2000
 90
        0
280
     0
281
     0
  0
CLASS
  1
LONG_TRANSACTION
  2
AcDbLongTransaction
  3
AutoCAD 2000
 90
        0
280
     0
281
     0
  0
CLASS
  1
LWPOLYLINE
  2
AcDbPolyline
  3
AutoCAD 2000
 90
        0
280
     0
281
     1
  0
CLASS
  1
HATCH
  2
AcDbHatch
  3
AutoCAD 2000
 90
        0
280
     0
281
     1
  0
CLASS
  1
XRECORD
  2
AcDbXrecord
  3
AutoCAD 2000
 90
        0
280
     0
281
     0
  0
ENDSEC
  0
SECTION
  2
TABLES
  0
TABLE
  2
VPORT
  5
8
330
0
100
AcDbSymbolTable
 70
     2
  0
VPORT
  5
171
330
8
100
AcDbSymbolTableRecord
100
AcDbViewportTableRecord
  2
*ACTIVE
 70
     0
 10
0.0
 20
0.0
 11
1.0
 21
1.0
 12
-0.0000000000001077
 22
-289.9006663106254
 13
0.0
 23
0.0
 14
0.5
 24
0.5
 15
0.5
 25
0.5
 16
0.0
 26
0.0
 36
1.0
 17
0.0
 27
0.0
 37
0.0
 40
1128.984693603779
 41
1.818713450292397
 42
50.0
 43
0.0
 44
0.0
 50
0.0
 51
0.0
 71
     0
 72
   100
 73
     1
 74
     3
 75
     0
 76
     0
 77
     0
 78
     0
  0
ENDTAB
  0
TABLE
  2
LTYPE
  5
5
330
0
100
AcDbSymbolTable
 70
     1
  0
LTYPE
  5
14
330
5
100
AcDbSymbolTableRecord
100
AcDbLinetypeTableRecord
  2
BYBLOCK
 70
     0
  3

 72
    65
 73
     0
 40
0.0
  0
LTYPE
  5
15
330
5
100
AcDbSymbolTableRecord
100
AcDbLinetypeTableRecord
  2
BYLAYER
 70
     0
  3

 72
    65
 73
     0
 40
0.0
  0
LTYPE
  5
16
330
5
100
AcDbSymbolTableRecord
100
AcDbLinetypeTableRecord
  2
CONTINUOUS
 70
     0
  3
Solid line
 72
    65
 73
     0
 40
0.0
  0
ENDTAB
  0
TABLE
  2
LAYER
  5
2
330
0
100
AcDbSymbolTable
 70
     2
  0
LAYER
  5
10
330
2
100
AcDbSymbolTableRecord
100
AcDbLayerTableRecord
  2
0
 70
     0
 62
     7
  6
CONTINUOUS
  0
LAYER
  5
67
330
2
100
AcDbSymbolTableRecord
100
AcDbLayerTableRecord
  2
PV-F9
 70
     2
 62
     7
  6
CONTINUOUS
  0
ENDTAB
  0
TABLE
  2
STYLE
  5
3
330
0
100
AcDbSymbolTable
 70
     1
  0
STYLE
  5
11
330
3
100
AcDbSymbolTableRecord
100
AcDbTextStyleTableRecord
  2
STANDARD
 70
     0
 40
0.0
 41
1.0
 50
0.0
 71
     0
 42
0.2
  3
txt
  4

  0
ENDTAB
  0
TABLE
  2
VIEW
  5
6
330
0
100
AcDbSymbolTable
 70
     0
  0
ENDTAB
  0
TABLE
  2
UCS
  5
7
330
0
100
AcDbSymbolTable
 70
     0
  0
ENDTAB
  0
TABLE
  2
APPID
  5
9
330
0
100
AcDbSymbolTable
 70
     1
  0
APPID
  5
12
330
9
100
AcDbSymbolTableRecord
100
AcDbRegAppTableRecord
  2
ACAD
 70
     0
  0
ENDTAB
  0
TABLE
  2
DIMSTYLE
  5
A
330
0
100
AcDbSymbolTable
 70
     1
  0
DIMSTYLE
105
27
330
A
100
AcDbSymbolTableRecord
100
AcDbDimStyleTableRecord
  2
STANDARD
 70
     0
  3

  4

  5

  6

  7

 40
1.0
 41
0.18
 42
0.0625
 43
0.38
 44
0.18
 45
0.0
 46
0.0
 47
0.0
 48
0.0
140
0.18
141
0.09
142
0.0
143
25.4
144
1.0
145
0.0
146
1.0
147
0.09
 71
     0
 72
     0
 73
     1
 74
     1
 75
     0
 76
     0
 77
     0
 78
     0
170
     0
171
     2
172
     0
173
     0
174
     0
175
     0
176
     0
177
     0
178
     0
270
     2
271
     4
272
     4
273
     2
274
     2
340
11
275
     0
280
     0
281
     0
282
     0
283
     1
284
     0
285
     0
286
     0
287
     3
288
     0
  0
ENDTAB
  0
TABLE
  2
BLOCK_RECORD
  5
1
330
0
100
AcDbSymbolTable
 70
     8
  0
BLOCK_RECORD
  5
1F
102
{ACAD_XDICTIONARY
360
E7
102
}
330
1
100
AcDbSymbolTableRecord
100
AcDbBlockTableRecord
  2
*MODEL_SPACE
  0
BLOCK_RECORD
  5
1B
102
{ACAD_XDICTIONARY
360
E5
102
}
330
1
100
AcDbSymbolTableRecord
100
AcDbBlockTableRecord
  2
*PAPER_SPACE
  0
BLOCK_RECORD
  5
48
330
1
100
AcDbSymbolTableRecord
100
AcDbBlockTableRecord
  2
*U0
  0
BLOCK_RECORD
  5
68
330
1
100
AcDbSymbolTableRecord
100
AcDbBlockTableRecord
  2
FRONT
  0
BLOCK_RECORD
  5
6D
330
1
100
AcDbSymbolTableRecord
100
AcDbBlockTableRecord
  2
*U2
  0
BLOCK_RECORD
  5
8E
330
1
100
AcDbSymbolTableRecord
100
AcDbBlockTableRecord
  2
LEFT
  0
BLOCK_RECORD
  5
93
330
1
100
AcDbSymbolTableRecord
100
AcDbBlockTableRecord
  2
*U4
  0
BLOCK_RECORD
  5
B4
330
1
100
AcDbSymbolTableRecord
100
AcDbBlockTableRecord
  2
RIGHT
  0
BLOCK_RECORD
  5
B9
330
1
100
AcDbSymbolTableRecord
100
AcDbBlockTableRecord
  2
*U6
  0
BLOCK_RECORD
  5
DF
330
1
100
AcDbSymbolTableRecord
100
AcDbBlockTableRecord
  2
TOP
  0
ENDTAB
  0
ENDSEC
  0
SECTION
  2
BLOCKS
  0
BLOCK
  5
20
330
1F
100
AcDbEntity
  8
0
100
AcDbBlockBegin
  2
*MODEL_SPACE
 70
     0
 10
0.0
 20
0.0
 30
0.0
  3
*MODEL_SPACE
  1

  0
ENDBLK
  5
21
330
1F
100
AcDbEntity
  8
0
100
AcDbBlockEnd
  0
BLOCK
  5
1C
330
1B
100
AcDbEntity
 67
     1
  8
0
100
AcDbBlockBegin
  2
*PAPER_SPACE
 70
     0
 10
0.0
 20
0.0
 30
0.0
  3
*PAPER_SPACE
  1

  0
ENDBLK
  5
1D
330
1B
100
AcDbEntity
 67
     1
  8
0
100
AcDbBlockEnd
  0
BLOCK
  5
64
330
48
100
AcDbEntity
  8
0
100
AcDbBlockBegin
  2
*U0
 70
     1
 10
0.0
 20
0.0
 30
0.0
  3
*U0
  1
*ANON
  0
ARC
  5
49
330
48
100
AcDbEntity
  8
PV-F9
100
AcDbCircle
 10
0.0
 20
0.0
 30
0.0
 40
16.5
210
0.0
220
-1.0
230
0.0
100
AcDbArc
 50
359.9999999999992
 51
179.9999999999978
  0
ARC
  5
4A
330
48
100
AcDbEntity
  8
PV-F9
100
AcDbCircle
 10
0.0
 20
-137.0
 30
0.0
 40
16.5
210
0.0
220
-1.0
230
0.0
100
AcDbArc
 50
180.0000000000011
 51
0.0000000000007895
  0
LINE
  5
4B
330
48
100
AcDbEntity
  8
PV-F9
100
AcDbLine
 10
-20.5
 20
0.0
 30
22.74999999999999
 11
-37.0
 21
0.0
 31
22.74999999999999
  0
LINE
  5
4C
330
48
100
AcDbEntity
  8
PV-F9
100
AcDbLine
 10
-20.5
 20
0.0
 30
-22.74999999999999
 11
-20.5
 21
0.0
 31
22.74999999999999
  0
LINE
  5
4D
330
48
100
AcDbEntity
  8
PV-F9
100
AcDbLine
 10
-20.5
 20
0.0
 30
-22.74999999999999
 11
-37.0
 21
0.0
 31
-22.74999999999999
  0
LINE
  5
4E
330
48
100
AcDbEntity
  8
PV-F9
100
AcDbLine
 10
-37.0
 20
0.0
 30
22.74999999999999
 11
-37.0
 21
0.0
 31
-22.74999999999999
  0
LINE
  5
4F
330
48
100
AcDbEntity
  8
PV-F9
100
AcDbLine
 10
-39.0
 20
0.0
 30
48.0
 11
-39.0
 21
0.0
 31
-185.0
  0
LINE
  5
50
330
48
100
AcDbEntity
  8
PV-F9
100
AcDbLine
 10
-39.0
 20
0.0
 30
58.0
 11
-39.0
 21
0.0
 31
48.0
  0
LINE
  5
51
330
48
100
AcDbEntity
  8
PV-F9
100
AcDbLine
 10
-39.0
 20
0.0
 30
-185.0
 11
-39.0
 21
0.0
 31
-195.0
  0
ARC
  5
52
330
48
100
AcDbEntity
  8
PV-F9
100
AcDbCircle
 10
-37.5
 20
58.0
 30
0.0
 40
1.5
210
0.0
220
-1.0
230
0.0
100
AcDbArc
 50
90.0
 51
180.0
  0
ARC
  5
53
330
48
100
AcDbEntity
  8
PV-F9
100
AcDbCircle
 10
-37.5
 20
-195.0
 30
0.0
 40
1.5
210
0.0
220
-1.0
230
0.0
100
AcDbArc
 50
180.0
 51
270.0
  0
LINE
  5
54
330
48
100
AcDbEntity
  8
PV-F9
100
AcDbLine
 10
37.5
 20
0.0
 30
59.5
 11
-37.5
 21
0.0
 31
59.5
  0
LINE
  5
55
330
48
100
AcDbEntity
  8
PV-F9
100
AcDbLine
 10
37.5
 20
0.0
 30
-196.5
 11
-37.5
 21
0.0
 31
-196.5
  0
LINE
  5
56
330
48
100
AcDbEntity
  8
PV-F9
100
AcDbLine
 10
39.0
 20
0.0
 30
-185.0
 11
39.0
 21
0.0
 31
48.0
  0
LINE
  5
57
330
48
100
AcDbEntity
  8
PV-F9
100
AcDbLine
 10
39.0
 20
0.0
 30
48.0
 11
39.0
 21
0.0
 31
58.0
  0
LINE
  5
58
330
48
100
AcDbEntity
  8
PV-F9
100
AcDbLine
 10
39.0
 20
0.0
 30
-195.0
 11
39.0
 21
0.0
 31
-185.0
  0
ARC
  5
59
330
48
100
AcDbEntity
  8
PV-F9
100
AcDbCircle
 10
37.5
 20
58.0
 30
0.0
 40
1.5
210
0.0
220
-1.0
230
0.0
100
AcDbArc
 50
0.0
 51
90.0
  0
ARC
  5
5A
330
48
100
AcDbEntity
  8
PV-F9
100
AcDbCircle
 10
37.5
 20
-195.0
 30
0.0
 40
1.5
210
0.0
220
-1.0
230
0.0
100
AcDbArc
 50
270.0
 51
0.0
  0
LINE
  5
5B
330
48
100
AcDbEntity
  8
PV-F9
100
AcDbLine
 10
37.0
 20
0.0
 30
22.74999999999999
 11
20.5
 21
0.0
 31
22.74999999999999
  0
LINE
  5
5C
330
48
100
AcDbEntity
  8
PV-F9
100
AcDbLine
 10
37.0
 20
0.0
 30
-22.74999999999999
 11
37.0
 21
0.0
 31
22.74999999999999
  0
LINE
  5
5D
330
48
100
AcDbEntity
  8
PV-F9
100
AcDbLine
 10
37.0
 20
0.0
 30
-22.74999999999999
 11
20.5
 21
0.0
 31
-22.74999999999999
  0
LINE
  5
5E
330
48
100
AcDbEntity
  8
PV-F9
100
AcDbLine
 10
20.5
 20
0.0
 30
22.74999999999999
 11
20.5
 21
0.0
 31
-22.74999999999999
  0
LINE
  5
5F
330
48
100
AcDbEntity
  8
PV-F9
100
AcDbLine
 10
-20.5
 20
0.0
 30
-22.5
 11
-16.5
 21
0.0
 31
-22.5
  0
LINE
  5
60
330
48
100
AcDbEntity
  8
PV-F9
100
AcDbLine
 10
16.5
 20
0.0
 30
-22.5
 11
20.5
 21
0.0
 31
-22.5
  0
LINE
  5
61
330
48
100
AcDbEntity
  8
PV-F9
100
AcDbLine
 10
-20.5
 20
0.0
 30
22.5
 11
20.5
 21
0.0
 31
22.5
  0
LINE
  5
62
330
48
100
AcDbEntity
  8
PV-F9
100
AcDbLine
 10
16.5
 20
0.0
 30
-137.0
 11
16.5
 21
0.0
 31
0.0
  0
LINE
  5
63
330
48
100
AcDbEntity
  8
PV-F9
100
AcDbLine
 10
-16.5
 20
0.0
 30
0.0
 11
-16.5
 21
0.0
 31
-137.0
  0
ENDBLK
  5
65
330
48
100
AcDbEntity
  8
0
100
AcDbBlockEnd
  0
BLOCK
  5
6A
330
68
100
AcDbEntity
  8
0
100
AcDbBlockBegin
  2
FRONT
 70
     0
 10
0.0
 20
0.0
 30
0.0
  3
FRONT
  1

  0
INSERT
  5
69
330
68
100
AcDbEntity
  8
PV-F9
100
AcDbBlockReference
  2
*U0
 10
0.0
 20
0.0
 30
0.0
 50
180.0
210
0.0
220
1.0
230
0.0
  0
ENDBLK
  5
6B
330
68
100
AcDbEntity
  8
0
100
AcDbBlockEnd
  0
BLOCK
  5
8C
330
6D
100
AcDbEntity
  8
0
100
AcDbBlockBegin
  2
*U2
 70
     1
 10
0.0
 20
0.0
 30
0.0
  3
*U2
  1
*ANON
  0
LINE
  5
6E
330
6D
100
AcDbEntity
  8
PV-F9
100
AcDbLine
 10
0.0
 20
-75.5
 30
0.0000000000003424
 11
0.0
 21
-75.5
 31
-16.5
  0
LINE
  5
6F
330
6D
100
AcDbEntity
  8
PV-F9
100
AcDbLine
 10
0.0
 20
-75.5
 30
16.5
 11
0.0
 21
-75.5
 31
0.0000000000001119
  0
LINE
  5
70
330
6D
100
AcDbEntity
  8
PV-F9
100
AcDbLine
 10
0.0
 20
-150.0
 30
0.000000000000001
 11
0.0
 21
-166.5
 31
-16.5
  0
LINE
  5
71
330
6D
100
AcDbEntity
  8
PV-F9
100
AcDbLine
 10
0.0
 20
-133.4999999999998
 30
-16.5
 11
0.0
 21
-150.0
 31
-0.000000000000001
  0
LINE
  5
72
330
6D
100
AcDbEntity
  8
PV-F9
100
AcDbLine
 10
0.0
 20
-166.5
 30
-120.5
 11
0.0
 21
-149.9999999999998
 31
-137.0000000000001
  0
LINE
  5
73
330
6D
100
AcDbEntity
  8
PV-F9
100
AcDbLine
 10
0.0
 20
-150.0
 30
-137.0
 11
0.0
 21
-133.4999999999998
 31
-120.5
  0
LINE
  5
74
330
6D
100
AcDbEntity
  8
PV-F9
100
AcDbLine
 10
0.0
 20
-16.5
 30
22.74999999999999
 11
0.0
 21
-41.0
 31
22.74999999999999
  0
LINE
  5
75
330
6D
100
AcDbEntity
  8
PV-F9
100
AcDbLine
 10
0.0
 20
-41.0
 30
-22.74999999999999
 11
0.0
 21
-16.5
 31
-22.74999999999999
  0
ARC
  5
76
330
6D
100
AcDbEntity
  8
PV-F9
100
AcDbCircle
 10
41.0
 20
0.0
 30
0.0
 40
22.74999999999999
210
-1.0
220
0.0
230
0.0
100
AcDbArc
 50
269.9999999999997
 51
90.00000000000019
  0
LINE
  5
77
330
6D
100
AcDbEntity
  8
PV-F9
100
AcDbLine
 10
0.0
 20
0.0
 30
-195.0
 11
0.0
 21
0.0
 31
58.0
  0
LINE
  5
78
330
6D
100
AcDbEntity
  8
PV-F9
100
AcDbLine
 10
0.0
 20
0.0
 30
59.5
 11
0.0
 21
0.0
 31
58.0
  0
LINE
  5
79
330
6D
100
AcDbEntity
  8
PV-F9
100
AcDbLine
 10
0.0
 20
0.0
 30
-195.0
 11
0.0
 21
0.0
 31
-196.5
  0
LINE
  5
7A
330
6D
100
AcDbEntity
  8
PV-F9
100
AcDbLine
 10
0.0
 20
-4.999999999999999
 30
59.5
 11
0.0
 21
0.0
 31
59.5
  0
ARC
  5
7B
330
6D
100
AcDbEntity
  8
PV-F9
100
AcDbCircle
 10
5.0
 20
48.0
 30
0.0
 40
11.5
210
-1.0
220
0.0
230
0.0
100
AcDbArc
 50
0.0
 51
90.00000000000003
  0
LINE
  5
7C
330
6D
100
AcDbEntity
  8
PV-F9
100
AcDbLine
 10
0.0
 20
-16.5
 30
-185.0
 11
0.0
 21
-16.5
 31
48.0
  0
ARC
  5
7D
330
6D
100
AcDbEntity
  8
PV-F9
100
AcDbCircle
 10
5.0
 20
-185.0
 30
0.0
 40
11.5
210
-1.0
220
0.0
230
0.0
100
AcDbArc
 50
270.0
 51
0.0
  0
LINE
  5
7E
330
6D
100
AcDbEntity
  8
PV-F9
100
AcDbLine
 10
0.0
 20
0.0
 30
-196.5
 11
0.0
 21
-5.0
 31
-196.5
  0
LINE
  5
7F
330
6D
100
AcDbEntity
  8
PV-F9
100
AcDbLine
 10
0.0
 20
-75.5
 30
16.5
 11
0.0
 21
-75.5
 31
-16.5
  0
LINE
  5
80
330
6D
100
AcDbEntity
  8
PV-F9
100
AcDbLine
 10
0.0
 20
-56.66245510767708
 30
-16.5
 11
0.0
 21
-75.5
 31
-16.5
  0
LINE
  5
81
330
6D
100
AcDbEntity
  8
PV-F9
100
AcDbLine
 10
0.0
 20
-56.66245510767708
 30
16.5
 11
0.0
 21
-75.5
 31
16.5
  0
LINE
  5
82
330
6D
100
AcDbEntity
  8
PV-F9
100
AcDbLine
 10
0.0
 20
-133.4999999999998
 30
-16.5
 11
0.0
 21
-133.4999999999998
 31
-120.5
  0
LINE
  5
83
330
6D
100
AcDbEntity
  8
PV-F9
100
AcDbLine
 10
0.0
 20
-166.5
 30
-16.5
 11
0.0
 21
-166.5
 31
-120.5
  0
LINE
  5
84
330
6D
100
AcDbEntity
  8
PV-F9
100
AcDbLine
 10
0.0
 20
-133.4999999999998
 30
-120.5
 11
0.0
 21
-16.5
 31
-120.5
  0
LINE
  5
85
330
6D
100
AcDbEntity
  8
PV-F9
100
AcDbLine
 10
0.0
 20
-515.0
 30
-120.5
 11
0.0
 21
-166.5
 31
-120.5
  0
LINE
  5
86
330
6D
100
AcDbEntity
  8
PV-F9
100
AcDbLine
 10
0.0
 20
-515.0
 30
-153.5
 11
0.0
 21
-16.5
 31
-153.5
  0
LINE
  5
87
330
6D
100
AcDbEntity
  8
PV-F9
100
AcDbLine
 10
0.0
 20
-166.5
 30
-16.5
 11
0.0
 21
-515.0
 31
-16.5
  0
LINE
  5
88
330
6D
100
AcDbEntity
  8
PV-F9
100
AcDbLine
 10
0.0
 20
-75.5
 30
-16.5
 11
0.0
 21
-133.4999999999998
 31
-16.5
  0
LINE
  5
89
330
6D
100
AcDbEntity
  8
PV-F9
100
AcDbLine
 10
0.0
 20
-75.5
 30
16.5
 11
0.0
 21
-515.0
 31
16.5
  0
ARC
  5
8A
330
6D
100
AcDbEntity
  8
PV-F9
100
AcDbCircle
 10
515.0
 20
-68.5
 30
0.0
 40
52.0
210
-1.0
220
0.0
230
0.0
100
AcDbArc
 50
270.0
 51
90.00000000000111
  0
ARC
  5
8B
330
6D
100
AcDbEntity
  8
PV-F9
100
AcDbCircle
 10
515.0
 20
-68.5
 30
0.0
 40
85.0
210
-1.0
220
0.0
230
0.0
100
AcDbArc
 50
270.0
 51
90.00000000000124
  0
ENDBLK
  5
8D
330
6D
100
AcDbEntity
  8
0
100
AcDbBlockEnd
  0
BLOCK
  5
90
330
8E
100
AcDbEntity
  8
0
100
AcDbBlockBegin
  2
LEFT
 70
     0
 10
0.0
 20
0.0
 30
0.0
  3
LEFT
  1

  0
INSERT
  5
8F
330
8E
100
AcDbEntity
  8
PV-F9
100
AcDbBlockReference
  2
*U2
 10
0.0
 20
0.0
 30
0.0
 50
270.0
210
0.0
220
1.0
230
0.0
  0
ENDBLK
  5
91
330
8E
100
AcDbEntity
  8
0
100
AcDbBlockEnd
  0
BLOCK
  5
B2
330
93
100
AcDbEntity
  8
0
100
AcDbBlockBegin
  2
*U4
 70
     1
 10
0.0
 20
0.0
 30
0.0
  3
*U4
  1
*ANON
  0
LINE
  5
94
330
93
100
AcDbEntity
  8
PV-F9
100
AcDbLine
 10
0.0
 20
-75.5
 30
-16.5
 11
0.0
 21
-75.5
 31
16.5
  0
LINE
  5
95
330
93
100
AcDbEntity
  8
PV-F9
100
AcDbLine
 10
0.0
 20
-166.5
 30
-16.5
 11
0.0
 21
-149.9999999999996
 31
0.0000000000002314
  0
LINE
  5
96
330
93
100
AcDbEntity
  8
PV-F9
100
AcDbLine
 10
0.0
 20
-150.0
 30
-0.000000000000001
 11
0.0
 21
-133.4999999999998
 31
-16.5
  0
LINE
  5
97
330
93
100
AcDbEntity
  8
PV-F9
100
AcDbLine
 10
0.0
 20
-150.0
 30
-136.9999999999998
 11
0.0
 21
-166.5
 31
-120.5
  0
LINE
  5
98
330
93
100
AcDbEntity
  8
PV-F9
100
AcDbLine
 10
0.0
 20
-133.4999999999998
 30
-120.5
 11
0.0
 21
-150.0
 31
-137.0
  0
LINE
  5
99
330
93
100
AcDbEntity
  8
PV-F9
100
AcDbLine
 10
0.0
 20
0.0
 30
-195.0
 11
0.0
 21
0.0
 31
58.0
  0
LINE
  5
9A
330
93
100
AcDbEntity
  8
PV-F9
100
AcDbLine
 10
0.0
 20
-16.5
 30
48.0
 11
0.0
 21
-16.5
 31
-185.0
  0
ARC
  5
9B
330
93
100
AcDbEntity
  8
PV-F9
100
AcDbCircle
 10
-5.0
 20
48.0
 30
0.0
 40
11.5
210
1.0
220
0.0
230
0.0
100
AcDbArc
 50
89.99999999999998
 51
180.0
  0
ARC
  5
9C
330
93
100
AcDbEntity
  8
PV-F9
100
AcDbCircle
 10
-5.0
 20
-185.0
 30
0.0
 40
11.5
210
1.0
220
0.0
230
0.0
100
AcDbArc
 50
180.0
 51
270.0
  0
LINE
  5
9D
330
93
100
AcDbEntity
  8
PV-F9
100
AcDbLine
 10
0.0
 20
0.0
 30
58.0
 11
0.0
 21
0.0
 31
59.5
  0
LINE
  5
9E
330
93
100
AcDbEntity
  8
PV-F9
100
AcDbLine
 10
0.0
 20
0.0
 30
59.5
 11
0.0
 21
-4.999999999999999
 31
59.5
  0
LINE
  5
9F
330
93
100
AcDbEntity
  8
PV-F9
100
AcDbLine
 10
0.0
 20
0.0
 30
-196.5
 11
0.0
 21
0.0
 31
-195.0
  0
LINE
  5
A0
330
93
100
AcDbEntity
  8
PV-F9
100
AcDbLine
 10
0.0
 20
-5.0
 30
-196.5
 11
0.0
 21
0.0
 31
-196.5
  0
LINE
  5
A1
330
93
100
AcDbEntity
  8
PV-F9
100
AcDbLine
 10
0.0
 20
-41.0
 30
22.74999999999999
 11
0.0
 21
-16.5
 31
22.74999999999999
  0
LINE
  5
A2
330
93
100
AcDbEntity
  8
PV-F9
100
AcDbLine
 10
0.0
 20
-16.5
 30
-22.74999999999999
 11
0.0
 21
-41.0
 31
-22.74999999999999
  0
ARC
  5
A3
330
93
100
AcDbEntity
  8
PV-F9
100
AcDbCircle
 10
-41.0
 20
0.0
 30
0.0
 40
22.74999999999999
210
1.0
220
0.0
230
0.0
100
AcDbArc
 50
89.99999999999982
 51
270.0000000000002
  0
LINE
  5
A4
330
93
100
AcDbEntity
  8
PV-F9
100
AcDbLine
 10
0.0
 20
-75.5
 30
0.0
 11
0.0
 21
-75.5
 31
16.5
  0
LINE
  5
A5
330
93
100
AcDbEntity
  8
PV-F9
100
AcDbLine
 10
0.0
 20
-75.5
 30
-16.5
 11
0.0
 21
-75.5
 31
0.0000000000002304
  0
LINE
  5
A6
330
93
100
AcDbEntity
  8
PV-F9
100
AcDbLine
 10
0.0
 20
-56.66245510767708
 30
16.5
 11
0.0
 21
-75.5
 31
16.5
  0
LINE
  5
A7
330
93
100
AcDbEntity
  8
PV-F9
100
AcDbLine
 10
0.0
 20
-56.66245510767708
 30
-16.5
 11
0.0
 21
-75.5
 31
-16.5
  0
LINE
  5
A8
330
93
100
AcDbEntity
  8
PV-F9
100
AcDbLine
 10
0.0
 20
-166.5
 30
-16.5
 11
0.0
 21
-166.5
 31
-120.5
  0
LINE
  5
A9
330
93
100
AcDbEntity
  8
PV-F9
100
AcDbLine
 10
0.0
 20
-133.4999999999998
 30
-16.5
 11
0.0
 21
-133.4999999999998
 31
-120.5
  0
LINE
  5
AA
330
93
100
AcDbEntity
  8
PV-F9
100
AcDbLine
 10
0.0
 20
-515.0
 30
-153.5
 11
0.0
 21
-16.5
 31
-153.5
  0
LINE
  5
AB
330
93
100
AcDbEntity
  8
PV-F9
100
AcDbLine
 10
0.0
 20
-133.4999999999998
 30
-120.5
 11
0.0
 21
-16.5
 31
-120.5
  0
LINE
  5
AC
330
93
100
AcDbEntity
  8
PV-F9
100
AcDbLine
 10
0.0
 20
-515.0
 30
-120.5
 11
0.0
 21
-166.5
 31
-120.5
  0
LINE
  5
AD
330
93
100
AcDbEntity
  8
PV-F9
100
AcDbLine
 10
0.0
 20
-75.5
 30
16.5
 11
0.0
 21
-515.0
 31
16.5
  0
LINE
  5
AE
330
93
100
AcDbEntity
  8
PV-F9
100
AcDbLine
 10
0.0
 20
-166.5
 30
-16.5
 11
0.0
 21
-515.0
 31
-16.5
  0
LINE
  5
AF
330
93
100
AcDbEntity
  8
PV-F9
100
AcDbLine
 10
0.0
 20
-75.5
 30
-16.5
 11
0.0
 21
-133.4999999999998
 31
-16.5
  0
ARC
  5
B0
330
93
100
AcDbEntity
  8
PV-F9
100
AcDbCircle
 10
-515.0
 20
-68.5
 30
0.0
 40
85.0
210
1.0
220
0.0
230
0.0
100
AcDbArc
 50
89.99999999999797
 51
270.0
  0
ARC
  5
B1
330
93
100
AcDbEntity
  8
PV-F9
100
AcDbCircle
 10
-515.0
 20
-68.5
 30
0.0
 40
52.0
210
1.0
220
0.0
230
0.0
100
AcDbArc
 50
89.99999999999808
 51
270.0
  0
ENDBLK
  5
B3
330
93
100
AcDbEntity
  8
0
100
AcDbBlockEnd
  0
BLOCK
  5
B6
330
B4
100
AcDbEntity
  8
0
100
AcDbBlockBegin
  2
RIGHT
 70
     0
 10
0.0
 20
0.0
 30
0.0
  3
RIGHT
  1

  0
INSERT
  5
B5
330
B4
100
AcDbEntity
  8
PV-F9
100
AcDbBlockReference
  2
*U4
 10
0.0
 20
0.0
 30
0.0
 50
90.0
210
0.0
220
1.0
230
0.0
  0
ENDBLK
  5
B7
330
B4
100
AcDbEntity
  8
0
100
AcDbBlockEnd
  0
BLOCK
  5
DD
330
B9
100
AcDbEntity
  8
0
100
AcDbBlockBegin
  2
*U6
 70
     1
 10
0.0
 20
0.0
 30
0.0
  3
*U6
  1
*ANON
  0
LINE
  5
BA
330
B9
100
AcDbEntity
  8
PV-F9
100
AcDbLine
 10
16.5
 20
-75.5
 30
0.0
 11
-16.5
 21
-75.5
 31
0.0
  0
LINE
  5
BB
330
B9
100
AcDbEntity
  8
PV-F9
100
AcDbLine
 10
-20.5
 20
-41.0
 30
0.0
 11
-20.5
 21
-16.5
 31
0.0
  0
LINE
  5
BC
330
B9
100
AcDbEntity
  8
PV-F9
100
AcDbLine
 10
-37.0
 20
-16.5
 30
0.0
 11
-37.0
 21
-41.0
 31
0.0
  0
LINE
  5
BD
330
B9
100
AcDbEntity
  8
PV-F9
100
AcDbLine
 10
-20.5
 20
-63.75
 30
0.0
 11
-20.5
 21
-40.99999999999992
 31
0.0
  0
LINE
  5
BE
330
B9
100
AcDbEntity
  8
PV-F9
100
AcDbLine
 10
-37.0
 20
-40.99999999999992
 30
0.0
 11
-37.0
 21
-63.75
 31
0.0
  0
ARC
  5
BF
330
B9
100
AcDbEntity
  8
PV-F9
100
AcDbCircle
 10
-37.5
 20
-15.0
 30
0.0
 40
1.5
100
AcDbArc
 50
180.0
 51
270.0
  0
LINE
  5
C0
330
B9
100
AcDbEntity
  8
PV-F9
100
AcDbLine
 10
-39.0
 20
-4.999999999999999
 30
0.0
 11
-39.0
 21
-15.0
 31
0.0
  0
LINE
  5
C1
330
B9
100
AcDbEntity
  8
PV-F9
100
AcDbLine
 10
-37.5
 20
0.0
 30
0.0
 11
-39.0
 21
0.0
 31
0.0
  0
LINE
  5
C2
330
B9
100
AcDbEntity
  8
PV-F9
100
AcDbLine
 10
-39.0
 20
0.0
 30
0.0
 11
-39.0
 21
-4.999999999999999
 31
0.0
  0
LINE
  5
C3
330
B9
100
AcDbEntity
  8
PV-F9
100
AcDbLine
 10
37.5
 20
0.0
 30
0.0
 11
-37.5
 21
0.0
 31
0.0
  0
LINE
  5
C4
330
B9
100
AcDbEntity
  8
PV-F9
100
AcDbLine
 10
37.5
 20
-16.5
 30
0.0
 11
-37.5
 21
-16.5
 31
0.0
  0
LINE
  5
C5
330
B9
100
AcDbEntity
  8
PV-F9
100
AcDbLine
 10
39.0
 20
-15.0
 30
0.0
 11
39.0
 21
-4.999999999999999
 31
0.0
  0
ARC
  5
C6
330
B9
100
AcDbEntity
  8
PV-F9
100
AcDbCircle
 10
37.5
 20
-15.0
 30
0.0
 40
1.5
100
AcDbArc
 50
270.0
 51
0.0
  0
LINE
  5
C7
330
B9
100
AcDbEntity
  8
PV-F9
100
AcDbLine
 10
39.0
 20
0.0
 30
0.0
 11
37.5
 21
0.0
 31
0.0
  0
LINE
  5
C8
330
B9
100
AcDbEntity
  8
PV-F9
100
AcDbLine
 10
39.0
 20
-4.999999999999999
 30
0.0
 11
39.0
 21
0.0
 31
0.0
  0
LINE
  5
C9
330
B9
100
AcDbEntity
  8
PV-F9
100
AcDbLine
 10
37.0
 20
-41.0
 30
0.0
 11
37.0
 21
-16.5
 31
0.0
  0
LINE
  5
CA
330
B9
100
AcDbEntity
  8
PV-F9
100
AcDbLine
 10
20.5
 20
-16.5
 30
0.0
 11
20.5
 21
-41.0
 31
0.0
  0
LINE
  5
CB
330
B9
100
AcDbEntity
  8
PV-F9
100
AcDbLine
 10
37.0
 20
-63.75
 30
0.0
 11
37.0
 21
-40.99999999999992
 31
0.0
  0
LINE
  5
CC
330
B9
100
AcDbEntity
  8
PV-F9
100
AcDbLine
 10
20.5
 20
-40.99999999999992
 30
0.0
 11
20.5
 21
-63.75
 31
0.0
  0
LINE
  5
CD
330
B9
100
AcDbEntity
  8
PV-F9
100
AcDbLine
 10
16.5
 20
-75.5
 30
0.0
 11
-16.5
 21
-75.5
 31
0.0
  0
SPLINE
  5
CE
330
B9
100
AcDbEntity
  8
PV-F9
100
AcDbSpline
210
0.0
220
0.0
230
1.0
 70
     8
 71
     3
 72
    42
 73
    38
 74
     0
 42
0.0000000001
 43
0.0000000001
 40
26.21588118668894
 40
26.21588118668894
 40
26.21588118668894
 40
26.21588118668894
 40
29.46229922291184
 40
29.46229922291184
 40
32.70871725913472
 40
32.70871725913472
 40
35.95513529535762
 40
35.95513529535762
 40
39.20155333158049
 40
39.20155333158049
 40
42.50910559202984
 40
42.50910559202984
 40
45.8166578524792
 40
45.8166578524792
 40
49.12421011292853
 40
49.12421011292853
 40
50.77798624315322
 40
50.77798624315322
 40
52.43176237337789
 40
52.43176237337789
 40
54.08553850360258
 40
54.08553850360258
 40
55.73931463382725
 40
55.73931463382725
 40
59.04686689427662
 40
59.04686689427662
 40
62.35441915472598
 40
62.35441915472598
 40
65.66197141517534
 40
65.66197141517534
 40
68.90838945139825
 40
68.90838945139825
 40
72.15480748762115
 40
72.15480748762115
 40
75.40122552384406
 40
75.40122552384406
 40
78.64764356006697
 40
78.64764356006697
 40
78.64764356006697
 40
78.64764356006697
 10
16.5
 20
-63.5
 30
0.0
 10
16.5
 20
-63.5
 30
0.0
 10
16.39183527914408
 20
-63.42029034359335
 30
0.0
 10
15.95193928845766
 20
-63.10071316351374
 30
0.0
 10
15.62039769506283
 20
-62.86102169759992
 30
0.0
 10
14.7628814189079
 20
-62.25676639174245
 30
0.0
 10
14.23618779883281
 20
-61.89185854326736
 30
0.0
 10
13.0400312747397
 20
-61.09584847907679
 30
0.0
 10
12.37051620840881
 20
-60.66512132976864
 30
0.0
 10
10.95076438803451
 20
-59.8041133621031
 30
0.0
 10
10.14474583632959
 20
-59.33988781777181
 30
0.0
 10
8.388063587989906
 20
-58.42972254015836
 30
0.0
 10
7.437461759841366
 20
-57.98418486500752
 30
0.0
 10
5.433214894535279
 20
-57.20699344403482
 30
0.0
 10
4.377535134614306
 20
-56.87585702770672
 30
0.0
 10
2.75369276209461
 20
-56.53392514340414
 30
0.0
 10
2.205670966067851
 20
-56.4455600109062
 30
0.0
 10
1.104456686280179
 20
-56.32710553946233
 30
0.0
 10
0.5512587100748903
 20
-56.29705854077835
 30
0.0
 10
-0.5512587100748948
 20
-56.29705854077835
 30
0.0
 10
-1.104456686280187
 20
-56.32710553946233
 30
0.0
 10
-2.205670966067863
 20
-56.4455600109062
 30
0.0
 10
-2.753692762094622
 20
-56.53392514340414
 30
0.0
 10
-4.377535134614322
 20
-56.87585702770672
 30
0.0
 10
-5.433214894535299
 20
-57.20699344403483
 30
0.0
 10
-7.437461759841396
 20
-57.98418486500753
 30
0.0
 10
-8.388063587989938
 20
-58.42972254015837
 30
0.0
 10
-10.14474583632962
 20
-59.33988781777183
 30
0.0
 10
-10.95076438803456
 20
-59.80411336210313
 30
0.0
 10
-12.37051620840885
 20
-60.66512132976868
 30
0.0
 10
-13.04003127473974
 20
-61.09584847907683
 30
0.0
 10
-14.23618779883285
 20
-61.89185854326739
 30
0.0
 10
-14.76288141890794
 20
-62.25676639174249
 30
0.0
 10
-15.62039769506287
 20
-62.86102169759995
 30
0.0
 10
-15.95193928845769
 20
-63.10071316351375
 30
0.0
 10
-16.3918352791441
 20
-63.42029034359335
 30
0.0
 10
-16.5
 20
-63.50000000000001
 30
0.0
 10
-16.5
 20
-63.5
 30
0.0
  0
LINE
  5
CF
330
B9
100
AcDbEntity
  8
PV-F9
100
AcDbLine
 10
16.5
 20
-63.5
 30
0.0
 11
20.5
 21
-63.5
 31
0.0
  0
LINE
  5
D0
330
B9
100
AcDbEntity
  8
PV-F9
100
AcDbLine
 10
-20.5
 20
-63.5
 30
0.0
 11
-16.5
 21
-63.5
 31
0.0
  0
LINE
  5
D1
330
B9
100
AcDbEntity
  8
PV-F9
100
AcDbLine
 10
-20.5
 20
-18.5
 30
0.0
 11
20.5
 21
-18.5
 31
0.0
  0
LINE
  5
D2
330
B9
100
AcDbEntity
  8
PV-F9
100
AcDbLine
 10
-16.5
 20
-63.5
 30
0.0
 11
-16.5
 21
-75.5
 31
0.0
  0
LINE
  5
D3
330
B9
100
AcDbEntity
  8
PV-F9
100
AcDbLine
 10
16.5
 20
-63.5
 30
0.0
 11
16.5
 21
-75.5
 31
0.0
  0
LINE
  5
D4
330
B9
100
AcDbEntity
  8
PV-F9
100
AcDbLine
 10
37.0
 20
-63.75
 30
0.0
 11
20.5
 21
-63.75
 31
0.0
  0
LINE
  5
D5
330
B9
100
AcDbEntity
  8
PV-F9
100
AcDbLine
 10
-20.5
 20
-63.75
 30
0.0
 11
-37.0
 21
-63.75
 31
0.0
  0
LINE
  5
D6
330
B9
100
AcDbEntity
  8
PV-F9
100
AcDbLine
 10
16.5
 20
-18.5
 30
0.0
 11
16.5
 21
-16.5
 31
0.0
  0
LINE
  5
D7
330
B9
100
AcDbEntity
  8
PV-F9
100
AcDbLine
 10
-16.5
 20
-18.5
 30
0.0
 11
-16.5
 21
-16.5
 31
0.0
  0
LINE
  5
D8
330
B9
100
AcDbEntity
  8
PV-F9
100
AcDbLine
 10
-16.5
 20
-75.5
 30
0.0
 11
-16.5
 21
-515.0
 31
0.0
  0
LINE
  5
D9
330
B9
100
AcDbEntity
  8
PV-F9
100
AcDbLine
 10
16.5
 20
-75.5
 30
0.0
 11
16.5
 21
-515.0
 31
0.0
  0
LINE
  5
DA
330
B9
100
AcDbEntity
  8
PV-F9
100
AcDbLine
 10
16.5
 20
-583.4999999999999
 30
0.0
 11
16.5
 21
-514.9999999999996
 31
0.0
  0
LINE
  5
DB
330
B9
100
AcDbEntity
  8
PV-F9
100
AcDbLine
 10
-16.5
 20
-514.9999999999996
 30
0.0
 11
-16.5
 21
-583.4999999999999
 31
0.0
  0
ARC
  5
DC
330
B9
100
AcDbEntity
  8
PV-F9
100
AcDbCircle
 10
0.0
 20
-583.4999999999999
 30
0.0
 40
16.5
100
AcDbArc
 50
179.9999999999978
 51
0.0
  0
ENDBLK
  5
DE
330
B9
100
AcDbEntity
  8
0
100
AcDbBlockEnd
  0
BLOCK
  5
E1
330
DF
100
AcDbEntity
  8
0
100
AcDbBlockBegin
  2
TOP
 70
     0
 10
0.0
 20
0.0
 30
0.0
  3
TOP
  1

  0
INSERT
  5
E0
330
DF
100
AcDbEntity
  8
PV-F9
100
AcDbBlockReference
  2
*U6
 10
0.0
 20
0.0
 30
0.0
  0
ENDBLK
  5
E2
330
DF
100
AcDbEntity
  8
0
100
AcDbBlockEnd
  0
ENDSEC
  0
SECTION
  2
ENTITIES
  0
LINE
  5
F4
330
1F
100
AcDbEntity
  8
PV-F9
100
AcDbLine
 10
-234.5000000119999
 20
52.0
 30
-0.0000000000000046
 11
-234.5000000119999
 21
85.0
 31
-0.0000000000000046
210
0.0
220
1.0
230
0.0
  0
LINE
  5
F5
330
1F
100
AcDbEntity
  8
PV-F9
100
AcDbLine
 10
-325.5000000119999
 20
52.0
 30
-0.0000000000000102
 11
-309.0000000119996
 21
68.50000000000022
 31
-0.0000000000000092
210
0.0
220
1.0
230
0.0
  0
LINE
  5
F6
330
1F
100
AcDbEntity
  8
PV-F9
100
AcDbLine
 10
-309.0000000119999
 20
68.5
 30
-0.0000000000000092
 11
-292.5000000119998
 21
52.0
 31
-0.0000000000000082
210
0.0
220
1.0
230
0.0
  0
LINE
  5
F7
330
1F
100
AcDbEntity
  8
PV-F9
100
AcDbLine
 10
-309.0000000119999
 20
-68.49999999999988
 30
-0.0000000000000092
 11
-325.5000000119999
 21
-52.0
 31
-0.0000000000000102
210
0.0
220
1.0
230
0.0
  0
LINE
  5
F8
330
1F
100
AcDbEntity
  8
PV-F9
100
AcDbLine
 10
-292.5000000119998
 20
-52.0
 30
-0.0000000000000082
 11
-309.0000000119999
 21
-68.5
 31
-0.0000000000000092
210
0.0
220
1.0
230
0.0
  0
LINE
  5
F9
330
1F
100
AcDbEntity
  8
PV-F9
100
AcDbLine
 10
-159.0000000119999
 20
-126.5
 30
0.0
 11
-159.0000000119999
 21
126.5
 31
0.0
210
0.0
220
1.0
230
0.0
  0
LINE
  5
FA
330
1F
100
AcDbEntity
  8
PV-F9
100
AcDbLine
 10
-175.5000000119999
 20
116.5
 30
-0.000000000000001
 11
-175.5000000119999
 21
-116.5
 31
-0.000000000000001
210
0.0
220
1.0
230
0.0
  0
ARC
  5
FB
330
1F
100
AcDbEntity
  8
PV-F9
100
AcDbCircle
 10
-164.0000000119999
 20
116.5
 30
-0.0000000000000003
 40
11.5
100
AcDbArc
 50
90.0
 51
180.0
  0
ARC
  5
FC
330
1F
100
AcDbEntity
  8
PV-F9
100
AcDbCircle
 10
-164.0000000119999
 20
-116.5
 30
-0.0000000000000003
 40
11.5
100
AcDbArc
 50
180.0
 51
270.0
  0
LINE
  5
FD
330
1F
100
AcDbEntity
  8
PV-F9
100
AcDbLine
 10
-159.0000000119999
 20
126.5
 30
0.0
 11
-159.0000000119999
 21
128.0
 31
0.0
210
0.0
220
1.0
230
0.0
  0
LINE
  5
FE
330
1F
100
AcDbEntity
  8
PV-F9
100
AcDbLine
 10
-159.0000000119999
 20
128.0
 30
0.0
 11
-164.0000000119999
 21
128.0
 31
-0.0000000000000003
210
0.0
220
1.0
230
0.0
  0
LINE
  5
FF
330
1F
100
AcDbEntity
  8
PV-F9
100
AcDbLine
 10
-159.0000000119999
 20
-128.0
 30
0.0
 11
-159.0000000119999
 21
-126.5
 31
0.0
210
0.0
220
1.0
230
0.0
  0
LINE
  5
100
330
1F
100
AcDbEntity
  8
PV-F9
100
AcDbLine
 10
-164.0000000119999
 20
-128.0
 30
-0.0000000000000003
 11
-159.0000000119999
 21
-128.0
 31
0.0
210
0.0
220
1.0
230
0.0
  0
LINE
  5
101
330
1F
100
AcDbEntity
  8
PV-F9
100
AcDbLine
 10
-200.000000012
 20
91.24999999999998
 30
-0.0000000000000025
 11
-175.5000000119999
 21
91.24999999999998
 31
-0.000000000000001
210
0.0
220
1.0
230
0.0
  0
LINE
  5
102
330
1F
100
AcDbEntity
  8
PV-F9
100
AcDbLine
 10
-175.5000000119999
 20
45.75000000000001
 30
-0.000000000000001
 11
-200.000000012
 21
45.75000000000001
 31
-0.0000000000000025
210
0.0
220
1.0
230
0.0
  0
ARC
  5
103
330
1F
100
AcDbEntity
  8
PV-F9
100
AcDbCircle
 10
-200.000000012
 20
68.5
 30
-0.0000000000000025
 40
22.74999999999999
100
AcDbArc
 50
90.0
 51
270.0
  0
LINE
  5
104
330
1F
100
AcDbEntity
  8
PV-F9
100
AcDbLine
 10
-234.5000000119999
 20
68.5
 30
-0.0000000000000046
 11
-234.5000000119999
 21
85.0
 31
-0.0000000000000046
210
0.0
220
1.0
230
0.0
  0
LINE
  5
105
330
1F
100
AcDbEntity
  8
PV-F9
100
AcDbLine
 10
-234.5000000119999
 20
52.0
 30
-0.0000000000000046
 11
-234.5000000119999
 21
68.50000000000022
 31
-0.0000000000000046
210
0.0
220
1.0
230
0.0
  0
LINE
  5
106
330
1F
100
AcDbEntity
  8
PV-F9
100
AcDbLine
 10
-215.662455119677
 20
85.0
 30
-0.0000000000000035
 11
-234.5000000119999
 21
85.0
 31
-0.0000000000000046
210
0.0
220
1.0
230
0.0
  0
LINE
  5
107
330
1F
100
AcDbEntity
  8
PV-F9
100
AcDbLine
 10
-215.662455119677
 20
52.0
 30
-0.0000000000000035
 11
-234.5000000119999
 21
52.0
 31
-0.0000000000000046
210
0.0
220
1.0
230
0.0
  0
LINE
  5
108
330
1F
100
AcDbEntity
  8
PV-F9
100
AcDbLine
 10
-325.5000000119999
 20
52.0
 30
-0.0000000000000102
 11
-325.5000000119999
 21
-52.0
 31
-0.0000000000000102
210
0.0
220
1.0
230
0.0
  0
LINE
  5
109
330
1F
100
AcDbEntity
  8
PV-F9
100
AcDbLine
 10
-292.5000000119998
 20
52.0
 30
-0.0000000000000082
 11
-292.5000000119998
 21
-52.0
 31
-0.0000000000000082
210
0.0
220
1.0
230
0.0
  0
LINE
  5
10A
330
1F
100
AcDbEntity
  8
PV-F9
100
AcDbLine
 10
-674.000000012
 20
-85.0
 30
-0.0000000000000315
 11
-175.5000000119999
 21
-85.0
 31
-0.000000000000001
210
0.0
220
1.0
230
0.0
  0
LINE
  5
10B
330
1F
100
AcDbEntity
  8
PV-F9
100
AcDbLine
 10
-292.5000000119998
 20
-52.0
 30
-0.0000000000000082
 11
-175.5000000119999
 21
-52.0
 31
-0.000000000000001
210
0.0
220
1.0
230
0.0
  0
LINE
  5
10C
330
1F
100
AcDbEntity
  8
PV-F9
100
AcDbLine
 10
-674.000000012
 20
-52.0
 30
-0.0000000000000315
 11
-325.5000000119999
 21
-52.0
 31
-0.0000000000000102
210
0.0
220
1.0
230
0.0
  0
LINE
  5
10D
330
1F
100
AcDbEntity
  8
PV-F9
100
AcDbLine
 10
-234.5000000119999
 20
85.0
 30
-0.0000000000000046
 11
-674.000000012
 21
85.0
 31
-0.0000000000000315
210
0.0
220
1.0
230
0.0
  0
LINE
  5
10E
330
1F
100
AcDbEntity
  8
PV-F9
100
AcDbLine
 10
-325.5000000119999
 20
52.0
 30
-0.0000000000000102
 11
-674.000000012
 21
52.0
 31
-0.0000000000000315
210
0.0
220
1.0
230
0.0
  0
LINE
  5
10F
330
1F
100
AcDbEntity
  8
PV-F9
100
AcDbLine
 10
-234.5000000119999
 20
52.0
 30
-0.0000000000000046
 11
-292.5000000119998
 21
52.0
 31
-0.0000000000000082
210
0.0
220
1.0
230
0.0
  0
ARC
  5
110
330
1F
100
AcDbEntity
  8
PV-F9
100
AcDbCircle
 10
-674.000000012
 20
0.0
 30
-0.0000000000000315
 40
85.0
100
AcDbArc
 50
89.99999999999836
 51
270.0
  0
ARC
  5
111
330
1F
100
AcDbEntity
  8
PV-F9
100
AcDbCircle
 10
-674.000000012
 20
0.0
 30
-0.0000000000000315
 40
52.0
100
AcDbArc
 50
89.99999999999836
 51
270.0
  0
ARC
  5
113
330
1F
100
AcDbEntity
  8
PV-F9
100
AcDbCircle
 10
0.0
 20
68.5
 30
0.0
 40
16.5
100
AcDbArc
 50
359.9999999999992
 51
179.9999999999975
  0
ARC
  5
114
330
1F
100
AcDbEntity
  8
PV-F9
100
AcDbCircle
 10
0.0
 20
-68.5
 30
0.0
 40
16.5
100
AcDbArc
 50
180.0000000000008
 51
0.0000000000008142
  0
LINE
  5
115
330
1F
100
AcDbEntity
  8
PV-F9
100
AcDbLine
 10
-20.5
 20
91.24999999999998
 30
-0.0000000000000025
 11
-37.0
 21
91.24999999999998
 31
-0.0000000000000045
210
0.0
220
1.0
230
0.0
  0
LINE
  5
116
330
1F
100
AcDbEntity
  8
PV-F9
100
AcDbLine
 10
-20.5
 20
45.75000000000001
 30
-0.0000000000000025
 11
-20.5
 21
91.24999999999998
 31
-0.0000000000000025
210
0.0
220
1.0
230
0.0
  0
LINE
  5
117
330
1F
100
AcDbEntity
  8
PV-F9
100
AcDbLine
 10
-20.5
 20
45.75000000000001
 30
-0.0000000000000025
 11
-37.0
 21
45.75000000000001
 31
-0.0000000000000045
210
0.0
220
1.0
230
0.0
  0
LINE
  5
118
330
1F
100
AcDbEntity
  8
PV-F9
100
AcDbLine
 10
-37.0
 20
91.24999999999998
 30
-0.0000000000000045
 11
-37.0
 21
45.75000000000001
 31
-0.0000000000000045
210
0.0
220
1.0
230
0.0
  0
LINE
  5
119
330
1F
100
AcDbEntity
  8
PV-F9
100
AcDbLine
 10
-39.0
 20
116.5
 30
-0.0000000000000048
 11
-39.0
 21
-116.5
 31
-0.0000000000000048
210
0.0
220
1.0
230
0.0
  0
LINE
  5
11A
330
1F
100
AcDbEntity
  8
PV-F9
100
AcDbLine
 10
-39.0
 20
126.5
 30
-0.0000000000000048
 11
-39.0
 21
116.5
 31
-0.0000000000000048
210
0.0
220
1.0
230
0.0
  0
LINE
  5
11B
330
1F
100
AcDbEntity
  8
PV-F9
100
AcDbLine
 10
-39.0
 20
-116.5
 30
-0.0000000000000048
 11
-39.0
 21
-126.5
 31
-0.0000000000000048
210
0.0
220
1.0
230
0.0
  0
ARC
  5
11C
330
1F
100
AcDbEntity
  8
PV-F9
100
AcDbCircle
 10
-37.5
 20
126.5
 30
-0.0000000000000046
 40
1.5
100
AcDbArc
 50
90.0
 51
180.0
  0
ARC
  5
11D
330
1F
100
AcDbEntity
  8
PV-F9
100
AcDbCircle
 10
-37.5
 20
-126.5
 30
-0.0000000000000046
 40
1.5
100
AcDbArc
 50
180.0
 51
270.0
  0
LINE
  5
11E
330
1F
100
AcDbEntity
  8
PV-F9
100
AcDbLine
 10
37.5
 20
128.0
 30
0.0000000000000046
 11
-37.5
 21
128.0
 31
-0.0000000000000046
210
0.0
220
1.0
230
0.0
  0
LINE
  5
11F
330
1F
100
AcDbEntity
  8
PV-F9
100
AcDbLine
 10
37.5
 20
-128.0
 30
0.0000000000000046
 11
-37.5
 21
-128.0
 31
-0.0000000000000046
210
0.0
220
1.0
230
0.0
  0
LINE
  5
120
330
1F
100
AcDbEntity
  8
PV-F9
100
AcDbLine
 10
39.0
 20
-116.5
 30
0.0000000000000048
 11
39.0
 21
116.5
 31
0.0000000000000048
210
0.0
220
1.0
230
0.0
  0
LINE
  5
121
330
1F
100
AcDbEntity
  8
PV-F9
100
AcDbLine
 10
39.0
 20
116.5
 30
0.0000000000000048
 11
39.0
 21
126.5
 31
0.0000000000000048
210
0.0
220
1.0
230
0.0
  0
LINE
  5
122
330
1F
100
AcDbEntity
  8
PV-F9
100
AcDbLine
 10
39.0
 20
-126.5
 30
0.0000000000000048
 11
39.0
 21
-116.5
 31
0.0000000000000048
210
0.0
220
1.0
230
0.0
  0
ARC
  5
123
330
1F
100
AcDbEntity
  8
PV-F9
100
AcDbCircle
 10
37.5
 20
126.5
 30
0.0000000000000046
 40
1.5
100
AcDbArc
 50
0.0
 51
90.0
  0
ARC
  5
124
330
1F
100
AcDbEntity
  8
PV-F9
100
AcDbCircle
 10
37.5
 20
-126.5
 30
0.0000000000000046
 40
1.5
100
AcDbArc
 50
270.0
 51
0.0
  0
LINE
  5
125
330
1F
100
AcDbEntity
  8
PV-F9
100
AcDbLine
 10
37.0
 20
91.24999999999998
 30
0.0000000000000045
 11
20.5
 21
91.24999999999998
 31
0.0000000000000025
210
0.0
220
1.0
230
0.0
  0
LINE
  5
126
330
1F
100
AcDbEntity
  8
PV-F9
100
AcDbLine
 10
37.0
 20
45.75000000000001
 30
0.0000000000000045
 11
37.0
 21
91.24999999999998
 31
0.0000000000000045
210
0.0
220
1.0
230
0.0
  0
LINE
  5
127
330
1F
100
AcDbEntity
  8
PV-F9
100
AcDbLine
 10
37.0
 20
45.75000000000001
 30
0.0000000000000045
 11
20.5
 21
45.75000000000001
 31
0.0000000000000025
210
0.0
220
1.0
230
0.0
  0
LINE
  5
128
330
1F
100
AcDbEntity
  8
PV-F9
100
AcDbLine
 10
20.5
 20
91.24999999999998
 30
0.0000000000000025
 11
20.5
 21
45.75000000000001
 31
0.0000000000000025
210
0.0
220
1.0
230
0.0
  0
LINE
  5
129
330
1F
100
AcDbEntity
  8
PV-F9
100
AcDbLine
 10
-20.5
 20
46.0
 30
-0.0000000000000025
 11
-16.5
 21
46.0
 31
-0.000000000000002
210
0.0
220
1.0
230
0.0
  0
LINE
  5
12A
330
1F
100
AcDbEntity
  8
PV-F9
100
AcDbLine
 10
16.5
 20
46.0
 30
0.000000000000002
 11
20.5
 21
46.0
 31
0.0000000000000025
210
0.0
220
1.0
230
0.0
  0
LINE
  5
12B
330
1F
100
AcDbEntity
  8
PV-F9
100
AcDbLine
 10
-20.5
 20
91.0
 30
-0.0000000000000025
 11
20.5
 21
91.0
 31
0.0000000000000025
210
0.0
220
1.0
230
0.0
  0
LINE
  5
12C
330
1F
100
AcDbEntity
  8
PV-F9
100
AcDbLine
 10
16.5
 20
-68.5
 30
0.000000000000002
 11
16.5
 21
68.5
 31
0.000000000000002
210
0.0
220
1.0
230
0.0
  0
LINE
  5
12D
330
1F
100
AcDbEntity
  8
PV-F9
100
AcDbLine
 10
-16.5
 20
68.5
 30
-0.000000000000002
 11
-16.5
 21
-68.5
 31
-0.000000000000002
210
0.0
220
1.0
230
0.0
  0
LINE
  5
12F
330
1F
100
AcDbEntity
  8
PV-F9
100
AcDbLine
 10
234.5000000119999
 20
68.50000000000034
 30
0.0000000000000139
 11
234.5000000119999
 21
52.0
 31
0.0000000000000139
210
0.0
220
1.0
230
0.0
  0
LINE
  5
130
330
1F
100
AcDbEntity
  8
PV-F9
100
AcDbLine
 10
234.5000000119999
 20
85.0
 30
0.0000000000000139
 11
234.5000000119999
 21
68.50000000000012
 31
0.0000000000000139
210
0.0
220
1.0
230
0.0
  0
LINE
  5
131
330
1F
100
AcDbEntity
  8
PV-F9
100
AcDbLine
 10
309.0000000119999
 20
68.5
 30
0.0000000000000276
 11
325.5000000119999
 21
52.0
 31
0.0000000000000306
210
0.0
220
1.0
230
0.0
  0
LINE
  5
132
330
1F
100
AcDbEntity
  8
PV-F9
100
AcDbLine
 10
292.5000000119998
 20
52.0
 30
0.0000000000000245
 11
309.0000000119999
 21
68.5
 31
0.0000000000000276
210
0.0
220
1.0
230
0.0
  0
LINE
  5
133
330
1F
100
AcDbEntity
  8
PV-F9
100
AcDbLine
 10
325.5000000119999
 20
-52.0
 30
0.0000000000000306
 11
309.0000000119997
 21
-68.50000000000012
 31
0.0000000000000276
210
0.0
220
1.0
230
0.0
  0
LINE
  5
134
330
1F
100
AcDbEntity
  8
PV-F9
100
AcDbLine
 10
309.0000000119999
 20
-68.5
 30
0.0000000000000276
 11
292.5000000119998
 21
-52.0
 31
0.0000000000000245
210
0.0
220
1.0
230
0.0
  0
LINE
  5
135
330
1F
100
AcDbEntity
  8
PV-F9
100
AcDbLine
 10
175.5000000119999
 20
91.24999999999998
 30
0.000000000000003
 11
200.000000012
 21
91.24999999999998
 31
0.0000000000000075
210
0.0
220
1.0
230
0.0
  0
LINE
  5
136
330
1F
100
AcDbEntity
  8
PV-F9
100
AcDbLine
 10
200.000000012
 20
45.75000000000001
 30
0.0000000000000075
 11
175.5000000119999
 21
45.75000000000001
 31
0.000000000000003
210
0.0
220
1.0
230
0.0
  0
ARC
  5
137
330
1F
100
AcDbEntity
  8
PV-F9
100
AcDbCircle
 10
200.000000012
 20
68.5
 30
0.0000000000000075
 40
22.74999999999999
100
AcDbArc
 50
270.0
 51
90.0
  0
LINE
  5
138
330
1F
100
AcDbEntity
  8
PV-F9
100
AcDbLine
 10
159.0000000119999
 20
-126.5
 30
0.0
 11
159.0000000119999
 21
126.5
 31
0.0
210
0.0
220
1.0
230
0.0
  0
LINE
  5
139
330
1F
100
AcDbEntity
  8
PV-F9
100
AcDbLine
 10
159.0000000119999
 20
128.0
 30
0.0
 11
159.0000000119999
 21
126.5
 31
0.0
210
0.0
220
1.0
230
0.0
  0
LINE
  5
13A
330
1F
100
AcDbEntity
  8
PV-F9
100
AcDbLine
 10
159.0000000119999
 20
-126.5
 30
0.0
 11
159.0000000119999
 21
-128.0
 31
0.0
210
0.0
220
1.0
230
0.0
  0
LINE
  5
13B
330
1F
100
AcDbEntity
  8
PV-F9
100
AcDbLine
 10
164.0000000119999
 20
128.0
 30
0.0000000000000009
 11
159.0000000119999
 21
128.0
 31
0.0
210
0.0
220
1.0
230
0.0
  0
ARC
  5
13C
330
1F
100
AcDbEntity
  8
PV-F9
100
AcDbCircle
 10
164.0000000119999
 20
116.5
 30
0.0000000000000009
 40
11.5
100
AcDbArc
 50
0.0
 51
90.0
  0
LINE
  5
13D
330
1F
100
AcDbEntity
  8
PV-F9
100
AcDbLine
 10
175.5000000119999
 20
-116.5
 30
0.000000000000003
 11
175.5000000119999
 21
116.5
 31
0.000000000000003
210
0.0
220
1.0
230
0.0
  0
ARC
  5
13E
330
1F
100
AcDbEntity
  8
PV-F9
100
AcDbCircle
 10
164.0000000119999
 20
-116.5
 30
0.0000000000000009
 40
11.5
100
AcDbArc
 50
270.0
 51
0.0
  0
LINE
  5
13F
330
1F
100
AcDbEntity
  8
PV-F9
100
AcDbLine
 10
159.0000000119999
 20
-128.0
 30
0.0
 11
164.0000000119999
 21
-128.0
 31
0.0000000000000009
210
0.0
220
1.0
230
0.0
  0
LINE
  5
140
330
1F
100
AcDbEntity
  8
PV-F9
100
AcDbLine
 10
234.5000000119999
 20
85.0
 30
0.0000000000000139
 11
234.5000000119999
 21
52.0
 31
0.0000000000000139
210
0.0
220
1.0
230
0.0
  0
LINE
  5
141
330
1F
100
AcDbEntity
  8
PV-F9
100
AcDbLine
 10
215.662455119677
 20
52.0
 30
0.0000000000000104
 11
234.5000000119999
 21
52.0
 31
0.0000000000000139
210
0.0
220
1.0
230
0.0
  0
LINE
  5
142
330
1F
100
AcDbEntity
  8
PV-F9
100
AcDbLine
 10
215.662455119677
 20
85.0
 30
0.0000000000000104
 11
234.5000000119999
 21
85.0
 31
0.0000000000000139
210
0.0
220
1.0
230
0.0
  0
LINE
  5
143
330
1F
100
AcDbEntity
  8
PV-F9
100
AcDbLine
 10
292.5000000119998
 20
52.0
 30
0.0000000000000245
 11
292.5000000119998
 21
-52.0
 31
0.0000000000000245
210
0.0
220
1.0
230
0.0
  0
LINE
  5
144
330
1F
100
AcDbEntity
  8
PV-F9
100
AcDbLine
 10
325.5000000119999
 20
52.0
 30
0.0000000000000306
 11
325.5000000119999
 21
-52.0
 31
0.0000000000000306
210
0.0
220
1.0
230
0.0
  0
LINE
  5
145
330
1F
100
AcDbEntity
  8
PV-F9
100
AcDbLine
 10
292.5000000119998
 20
-52.0
 30
0.0000000000000245
 11
175.5000000119999
 21
-52.0
 31
0.000000000000003
210
0.0
220
1.0
230
0.0
  0
LINE
  5
146
330
1F
100
AcDbEntity
  8
PV-F9
100
AcDbLine
 10
674.000000012
 20
-52.0
 30
0.0000000000000946
 11
325.5000000119999
 21
-52.0
 31
0.0000000000000306
210
0.0
220
1.0
230
0.0
  0
LINE
  5
147
330
1F
100
AcDbEntity
  8
PV-F9
100
AcDbLine
 10
674.000000012
 20
-85.0
 30
0.0000000000000946
 11
175.5000000119999
 21
-85.0
 31
0.000000000000003
210
0.0
220
1.0
230
0.0
  0
LINE
  5
148
330
1F
100
AcDbEntity
  8
PV-F9
100
AcDbLine
 10
325.5000000119999
 20
52.0
 30
0.0000000000000306
 11
674.000000012
 21
52.0
 31
0.0000000000000946
210
0.0
220
1.0
230
0.0
  0
LINE
  5
149
330
1F
100
AcDbEntity
  8
PV-F9
100
AcDbLine
 10
234.5000000119999
 20
52.0
 30
0.0000000000000139
 11
292.5000000119998
 21
52.0
 31
0.0000000000000245
210
0.0
220
1.0
230
0.0
  0
LINE
  5
14A
330
1F
100
AcDbEntity
  8
PV-F9
100
AcDbLine
 10
234.5000000119999
 20
85.0
 30
0.0000000000000139
 11
674.000000012
 21
85.0
 31
0.0000000000000946
210
0.0
220
1.0
230
0.0
  0
ARC
  5
14B
330
1F
100
AcDbEntity
  8
PV-F9
100
AcDbCircle
 10
674.000000012
 20
0.0
 30
0.0000000000000946
 40
52.0
100
AcDbArc
 50
270.0
 51
90.00000000000161
  0
ARC
  5
14C
330
1F
100
AcDbEntity
  8
PV-F9
100
AcDbCircle
 10
674.000000012
 20
0.0
 30
0.0000000000000946
 40
85.0
100
AcDbArc
 50
270.0
 51
90.00000000000161
  0
LINE
  5
14E
330
1F
100
AcDbEntity
  8
PV-F9
100
AcDbLine
 10
16.5
 20
-323.5000000119998
 30
0.0
 11
-16.5
 21
-323.5000000119998
 31
0.0
  0
LINE
  5
14F
330
1F
100
AcDbEntity
  8
PV-F9
100
AcDbLine
 10
-20.5
 20
-289.0000000119998
 30
0.0
 11
-20.5
 21
-264.5000000119998
 31
0.0
  0
LINE
  5
150
330
1F
100
AcDbEntity
  8
PV-F9
100
AcDbLine
 10
-37.0
 20
-264.5000000119998
 30
0.0
 11
-37.0
 21
-289.0000000119998
 31
0.0
  0
LINE
  5
151
330
1F
100
AcDbEntity
  8
PV-F9
100
AcDbLine
 10
-20.5
 20
-311.7500000119998
 30
0.0
 11
-20.5
 21
-289.0000000119998
 31
0.0
  0
LINE
  5
152
330
1F
100
AcDbEntity
  8
PV-F9
100
AcDbLine
 10
-37.0
 20
-289.0000000119998
 30
0.0
 11
-37.0
 21
-311.7500000119998
 31
0.0
  0
ARC
  5
153
330
1F
100
AcDbEntity
  8
PV-F9
100
AcDbCircle
 10
-37.5
 20
-263.0000000119998
 30
0.0
 40
1.5
100
AcDbArc
 50
180.0
 51
270.0
  0
LINE
  5
154
330
1F
100
AcDbEntity
  8
PV-F9
100
AcDbLine
 10
-39.0
 20
-253.0000000119998
 30
0.0
 11
-39.0
 21
-263.0000000119998
 31
0.0
  0
LINE
  5
155
330
1F
100
AcDbEntity
  8
PV-F9
100
AcDbLine
 10
-37.5
 20
-248.0000000119999
 30
0.0
 11
-39.0
 21
-248.0000000119999
 31
0.0
  0
LINE
  5
156
330
1F
100
AcDbEntity
  8
PV-F9
100
AcDbLine
 10
-39.0
 20
-248.0000000119999
 30
0.0
 11
-39.0
 21
-253.0000000119998
 31
0.0
  0
LINE
  5
157
330
1F
100
AcDbEntity
  8
PV-F9
100
AcDbLine
 10
37.5
 20
-248.0000000119999
 30
0.0
 11
-37.5
 21
-248.0000000119999
 31
0.0
  0
LINE
  5
158
330
1F
100
AcDbEntity
  8
PV-F9
100
AcDbLine
 10
37.5
 20
-264.5000000119998
 30
0.0
 11
-37.5
 21
-264.5000000119998
 31
0.0
  0
LINE
  5
159
330
1F
100
AcDbEntity
  8
PV-F9
100
AcDbLine
 10
39.0
 20
-263.0000000119998
 30
0.0
 11
39.0
 21
-253.0000000119998
 31
0.0
  0
ARC
  5
15A
330
1F
100
AcDbEntity
  8
PV-F9
100
AcDbCircle
 10
37.5
 20
-263.0000000119998
 30
0.0
 40
1.5
100
AcDbArc
 50
270.0
 51
0.0
  0
LINE
  5
15B
330
1F
100
AcDbEntity
  8
PV-F9
100
AcDbLine
 10
39.0
 20
-248.0000000119999
 30
0.0
 11
37.5
 21
-248.0000000119999
 31
0.0
  0
LINE
  5
15C
330
1F
100
AcDbEntity
  8
PV-F9
100
AcDbLine
 10
39.0
 20
-253.0000000119998
 30
0.0
 11
39.0
 21
-248.0000000119999
 31
0.0
  0
LINE
  5
15D
330
1F
100
AcDbEntity
  8
PV-F9
100
AcDbLine
 10
37.0
 20
-289.0000000119998
 30
0.0
 11
37.0
 21
-264.5000000119998
 31
0.0
  0
LINE
  5
15E
330
1F
100
AcDbEntity
  8
PV-F9
100
AcDbLine
 10
20.5
 20
-264.5000000119998
 30
0.0
 11
20.5
 21
-289.0000000119998
 31
0.0
  0
LINE
  5
15F
330
1F
100
AcDbEntity
  8
PV-F9
100
AcDbLine
 10
37.0
 20
-311.7500000119998
 30
0.0
 11
37.0
 21
-289.0000000119998
 31
0.0
  0
LINE
  5
160
330
1F
100
AcDbEntity
  8
PV-F9
100
AcDbLine
 10
20.5
 20
-289.0000000119998
 30
0.0
 11
20.5
 21
-311.7500000119998
 31
0.0
  0
LINE
  5
161
330
1F
100
AcDbEntity
  8
PV-F9
100
AcDbLine
 10
16.5
 20
-323.5000000119998
 30
0.0
 11
-16.5
 21
-323.5000000119998
 31
0.0
  0
SPLINE
  5
162
330
1F
100
AcDbEntity
  8
PV-F9
100
AcDbSpline
210
0.0
220
0.0
230
1.0
 70
     8
 71
     3
 72
    42
 73
    38
 74
     0
 42
0.0000000001
 43
0.0000000001
 40
26.21588118668894
 40
26.21588118668894
 40
26.21588118668894
 40
26.21588118668894
 40
29.46229922291184
 40
29.46229922291184
 40
32.70871725913472
 40
32.70871725913472
 40
35.95513529535762
 40
35.95513529535762
 40
39.20155333158049
 40
39.20155333158049
 40
42.50910559202984
 40
42.50910559202984
 40
45.8166578524792
 40
45.8166578524792
 40
49.12421011292853
 40
49.12421011292853
 40
50.77798624315322
 40
50.77798624315322
 40
52.43176237337789
 40
52.43176237337789
 40
54.08553850360258
 40
54.08553850360258
 40
55.73931463382725
 40
55.73931463382725
 40
59.04686689427662
 40
59.04686689427662
 40
62.35441915472598
 40
62.35441915472598
 40
65.66197141517534
 40
65.66197141517534
 40
68.90838945139825
 40
68.90838945139825
 40
72.15480748762115
 40
72.15480748762115
 40
75.40122552384406
 40
75.40122552384406
 40
78.64764356006697
 40
78.64764356006697
 40
78.64764356006697
 40
78.64764356006697
 10
16.5
 20
-311.5000000119998
 30
0.0
 10
16.5
 20
-311.5000000119998
 30
0.0
 10
16.39183527914408
 20
-311.4202903555932
 30
0.0
 10
15.95193928845766
 20
-311.1007131755136
 30
0.0
 10
15.62039769506283
 20
-310.8610217095998
 30
0.0
 10
14.7628814189079
 20
-310.2567664037423
 30
0.0
 10
14.23618779883281
 20
-309.8918585552672
 30
0.0
 10
13.0400312747397
 20
-309.0958484910767
 30
0.0
 10
12.37051620840881
 20
-308.6651213417685
 30
0.0
 10
10.95076438803451
 20
-307.804113374103
 30
0.0
 10
10.14474583632959
 20
-307.3398878297717
 30
0.0
 10
8.388063587989906
 20
-306.4297225521582
 30
0.0
 10
7.437461759841366
 20
-305.9841848770074
 30
0.0
 10
5.433214894535279
 20
-305.2069934560347
 30
0.0
 10
4.377535134614306
 20
-304.8758570397065
 30
0.0
 10
2.75369276209461
 20
-304.533925155404
 30
0.0
 10
2.205670966067851
 20
-304.445560022906
 30
0.0
 10
1.104456686280179
 20
-304.3271055514622
 30
0.0
 10
0.5512587100748903
 20
-304.2970585527782
 30
0.0
 10
-0.5512587100748948
 20
-304.2970585527782
 30
0.0
 10
-1.104456686280187
 20
-304.3271055514622
 30
0.0
 10
-2.205670966067863
 20
-304.445560022906
 30
0.0
 10
-2.753692762094622
 20
-304.533925155404
 30
0.0
 10
-4.377535134614322
 20
-304.8758570397065
 30
0.0
 10
-5.433214894535299
 20
-305.2069934560347
 30
0.0
 10
-7.437461759841396
 20
-305.9841848770074
 30
0.0
 10
-8.388063587989938
 20
-306.4297225521583
 30
0.0
 10
-10.14474583632962
 20
-307.3398878297717
 30
0.0
 10
-10.95076438803456
 20
-307.804113374103
 30
0.0
 10
-12.37051620840885
 20
-308.6651213417685
 30
0.0
 10
-13.04003127473974
 20
-309.0958484910767
 30
0.0
 10
-14.23618779883285
 20
-309.8918585552672
 30
0.0
 10
-14.76288141890794
 20
-310.2567664037424
 30
0.0
 10
-15.62039769506287
 20
-310.8610217095998
 30
0.0
 10
-15.95193928845769
 20
-311.1007131755136
 30
0.0
 10
-16.3918352791441
 20
-311.4202903555932
 30
0.0
 10
-16.5
 20
-311.5000000119999
 30
0.0
 10
-16.5
 20
-311.5000000119998
 30
0.0
  0
LINE
  5
163
330
1F
100
AcDbEntity
  8
PV-F9
100
AcDbLine
 10
16.5
 20
-311.5000000119998
 30
0.0
 11
20.5
 21
-311.5000000119998
 31
0.0
  0
LINE
  5
164
330
1F
100
AcDbEntity
  8
PV-F9
100
AcDbLine
 10
-20.5
 20
-311.5000000119998
 30
0.0
 11
-16.5
 21
-311.5000000119998
 31
0.0
  0
LINE
  5
165
330
1F
100
AcDbEntity
  8
PV-F9
100
AcDbLine
 10
-20.5
 20
-266.5000000119998
 30
0.0
 11
20.5
 21
-266.5000000119998
 31
0.0
  0
LINE
  5
166
330
1F
100
AcDbEntity
  8
PV-F9
100
AcDbLine
 10
-16.5
 20
-311.5000000119998
 30
0.0
 11
-16.5
 21
-323.5000000119998
 31
0.0
  0
LINE
  5
167
330
1F
100
AcDbEntity
  8
PV-F9
100
AcDbLine
 10
16.5
 20
-311.5000000119998
 30
0.0
 11
16.5
 21
-323.5000000119998
 31
0.0
  0
LINE
  5
168
330
1F
100
AcDbEntity
  8
PV-F9
100
AcDbLine
 10
37.0
 20
-311.7500000119998
 30
0.0
 11
20.5
 21
-311.7500000119998
 31
0.0
  0
LINE
  5
169
330
1F
100
AcDbEntity
  8
PV-F9
100
AcDbLine
 10
-20.5
 20
-311.7500000119998
 30
0.0
 11
-37.0
 21
-311.7500000119998
 31
0.0
  0
LINE
  5
16A
330
1F
100
AcDbEntity
  8
PV-F9
100
AcDbLine
 10
16.5
 20
-266.5000000119998
 30
0.0
 11
16.5
 21
-264.5000000119998
 31
0.0
  0
LINE
  5
16B
330
1F
100
AcDbEntity
  8
PV-F9
100
AcDbLine
 10
-16.5
 20
-266.5000000119998
 30
0.0
 11
-16.5
 21
-264.5000000119998
 31
0.0
  0
LINE
  5
16C
330
1F
100
AcDbEntity
  8
PV-F9
100
AcDbLine
 10
-16.5
 20
-323.5000000119998
 30
0.0
 11
-16.5
 21
-763.0000000119999
 31
0.0
  0
LINE
  5
16D
330
1F
100
AcDbEntity
  8
PV-F9
100
AcDbLine
 10
16.5
 20
-323.5000000119998
 30
0.0
 11
16.5
 21
-763.0000000119999
 31
0.0
  0
LINE
  5
16E
330
1F
100
AcDbEntity
  8
PV-F9
100
AcDbLine
 10
16.5
 20
-831.5000000119997
 30
0.0
 11
16.5
 21
-763.0000000119995
 31
0.0
  0
LINE
  5
16F
330
1F
100
AcDbEntity
  8
PV-F9
100
AcDbLine
 10
-16.5
 20
-763.0000000119995
 30
0.0
 11
-16.5
 21
-831.5000000119997
 31
0.0
  0
ARC
  5
170
330
1F
100
AcDbEntity
  8
PV-F9
100
AcDbCircle
 10
0.0
 20
-831.5000000119997
 30
0.0
 40
16.5
100
AcDbArc
 50
179.9999999999983
 51
0.0
  0
ENDSEC
  0
SECTION
  2
OBJECTS
  0
DICTIONARY
  5
C
330
0
100
AcDbDictionary
  3
ACAD_GROUP
350
D
  3
ACAD_LAYOUT
350
1A
  3
ACAD_MLINESTYLE
350
17
  3
ACAD_PLOTSETTINGS
350
19
  3
ACAD_PLOTSTYLENAME
350
ED
  3
ACDBHEADERROUNDTRIPXREC
350
172
1001
ACAD
1000
TREAT_AS_HARD
1070
     0
  0
DICTIONARY
  5
E7
330
1F
100
AcDbDictionary
  3
ACAD_LAYOUTSELFREF
350
193
  0
DICTIONARY
  5
E5
330
1B
100
AcDbDictionary
  3
ACAD_LAYOUTSELFREF
350
192
  0
DICTIONARY
  5
D
102
{ACAD_REACTORS
330
C
102
}
330
C
100
AcDbDictionary
1001
ACAD
1000
TREAT_AS_HARD
1070
     0
  0
DICTIONARY
  5
1A
102
{ACAD_REACTORS
330
C
102
}
330
C
100
AcDbDictionary
1001
ACAD
1000
TREAT_AS_HARD
1070
     0
  0
DICTIONARY
  5
17
102
{ACAD_REACTORS
330
C
102
}
330
C
100
AcDbDictionary
  3
STANDARD
350
18
1001
ACAD
1000
TREAT_AS_HARD
1070
     0
  0
DICTIONARY
  5
19
102
{ACAD_REACTORS
330
C
102
}
330
C
100
AcDbDictionary
1001
ACAD
1000
TREAT_AS_HARD
1070
     0
  0
ACDBDICTIONARYWDFLT
  5
ED
102
{ACAD_REACTORS
330
C
102
}
330
C
100
AcDbDictionary
281
     1
  3
Normal
350
EE
100
AcDbDictionaryWithDefault
340
EE
  0
DICTIONARY
  5
172
102
{ACAD_REACTORS
330
C
102
}
330
C
100
AcDbDictionary
  3
TSTACKALIGN
350
173
  3
TSTACKSIZE
350
174
  3
HYPERLINKBASE
350
175
  3
STYLESHEET
350
176
  3
LAYOUTDICT
350
177
  3
PLOTSETDICT
350
178
  3
PLOTSTYLNAMDICT
350
179
  3
LWETCUNION
350
17A
  3
INSUNITS
350
17B
  3
CEPSNTYPE
350
17C
  3
FINGERPRINTGUID
350
17D
  3
VERSIONGUID
350
17E
  3
PSVPSCALE
350
17F
  3
PUCSORTHOREF
350
180
  3
PUCSORTHOVIEW
350
181
  3
PUCSBASE
350
182
  3
PUCSORGTOP
350
183
  3
PUCSORGBOTTOM
350
184
  3
PUCSORGLEFT
350
185
  3
PUCSORGRIGHT
350
186
  3
PUCSORGFRONT
350
187
  3
PUCSORGBACK
350
188
  3
UCSORTHOREF
350
189
  3
UCSORTHOVIEW
350
18A
  3
UCSBASE
350
18B
  3
UCSORGTOP
350
18C
  3
UCSORGBOTTOM
350
18D
  3
UCSORGLEFT
350
18E
  3
UCSORGRIGHT
350
18F
  3
UCSORGFRONT
350
190
  3
UCSORGBACK
350
191
  0
XRECORD
  5
193
102
{ACAD_REACTORS
330
E7
102
}
330
E7
100
AcDbXrecord
340
1F
  0
XRECORD
  5
192
102
{ACAD_REACTORS
330
E5
102
}
330
E5
100
AcDbXrecord
340
1B
  0
MLINESTYLE
  5
18
102
{ACAD_REACTORS
330
17
102
}
330
17
100
AcDbMlineStyle
  2
STANDARD
 70
     0
  3

 62
   256
 51
90.0
 52
90.0
 71
     2
 49
0.5
 62
   256
  6
BYLAYER
 49
-0.5
 62
   256
  6
BYLAYER
  0
ACDBPLACEHOLDER
  5
EE
102
{ACAD_REACTORS
330
ED
102
}
330
ED
100
AcDbPlaceHolder
280
     0
  0
XRECORD
  5
173
102
{ACAD_REACTORS
330
172
102
}
330
172
100
AcDbXrecord
 90
        1
  0
XRECORD
  5
174
102
{ACAD_REACTORS
330
172
102
}
330
172
100
AcDbXrecord
 90
       70
  0
XRECORD
  5
175
102
{ACAD_REACTORS
330
172
102
}
330
172
100
AcDbXrecord
  1

  0
XRECORD
  5
176
102
{ACAD_REACTORS
330
172
102
}
330
172
100
AcDbXrecord
  1

  0
XRECORD
  5
177
102
{ACAD_REACTORS
330
172
102
}
330
172
100
AcDbXrecord
340
1A
  0
XRECORD
  5
178
102
{ACAD_REACTORS
330
172
102
}
330
172
100
AcDbXrecord
340
19
  0
XRECORD
  5
179
102
{ACAD_REACTORS
330
172
102
}
330
172
100
AcDbXrecord
340
ED
  0
XRECORD
  5
17A
102
{ACAD_REACTORS
330
172
102
}
330
172
100
AcDbXrecord
 90
    10781
  0
XRECORD
  5
17B
102
{ACAD_REACTORS
330
172
102
}
330
172
100
AcDbXrecord
 90
        0
  0
XRECORD
  5
17C
102
{ACAD_REACTORS
330
172
102
}
330
172
100
AcDbXrecord
 90
        0
  0
XRECORD
  5
17D
102
{ACAD_REACTORS
330
172
102
}
330
172
100
AcDbXrecord
  1
{EEDD273F-A2ED-4497-B414-16910144ED26}
  0
XRECORD
  5
17E
102
{ACAD_REACTORS
330
172
102
}
330
172
100
AcDbXrecord
  1
{4E9645FE-8D2C-49B7-A5D0-380A42C30762}
  0
XRECORD
  5
17F
102
{ACAD_REACTORS
330
172
102
}
330
172
100
AcDbXrecord
 40
0.0
  0
XRECORD
  5
180
102
{ACAD_REACTORS
330
172
102
}
330
172
100
AcDbXrecord
340
0
  0
XRECORD
  5
181
102
{ACAD_REACTORS
330
172
102
}
330
172
100
AcDbXrecord
 70
     0
  0
XRECORD
  5
182
102
{ACAD_REACTORS
330
172
102
}
330
172
100
AcDbXrecord
340
0
  0
XRECORD
  5
183
102
{ACAD_REACTORS
330
172
102
}
330
172
100
AcDbXrecord
 10
0.0
 20
0.0
 30
0.0
  0
XRECORD
  5
184
102
{ACAD_REACTORS
330
172
102
}
330
172
100
AcDbXrecord
 10
0.0
 20
0.0
 30
0.0
  0
XRECORD
  5
185
102
{ACAD_REACTORS
330
172
102
}
330
172
100
AcDbXrecord
 10
0.0
 20
0.0
 30
0.0
  0
XRECORD
  5
186
102
{ACAD_REACTORS
330
172
102
}
330
172
100
AcDbXrecord
 10
0.0
 20
0.0
 30
0.0
  0
XRECORD
  5
187
102
{ACAD_REACTORS
330
172
102
}
330
172
100
AcDbXrecord
 10
0.0
 20
0.0
 30
0.0
  0
XRECORD
  5
188
102
{ACAD_REACTORS
330
172
102
}
330
172
100
AcDbXrecord
 10
0.0
 20
0.0
 30
0.0
  0
XRECORD
  5
189
102
{ACAD_REACTORS
330
172
102
}
330
172
100
AcDbXrecord
340
0
  0
XRECORD
  5
18A
102
{ACAD_REACTORS
330
172
102
}
330
172
100
AcDbXrecord
 70
     0
  0
XRECORD
  5
18B
102
{ACAD_REACTORS
330
172
102
}
330
172
100
AcDbXrecord
340
0
  0
XRECORD
  5
18C
102
{ACAD_REACTORS
330
172
102
}
330
172
100
AcDbXrecord
 10
0.0
 20
0.0
 30
0.0
  0
XRECORD
  5
18D
102
{ACAD_REACTORS
330
172
102
}
330
172
100
AcDbXrecord
 10
0.0
 20
0.0
 30
0.0
  0
XRECORD
  5
18E
102
{ACAD_REACTORS
330
172
102
}
330
172
100
AcDbXrecord
 10
0.0
 20
0.0
 30
0.0
  0
XRECORD
  5
18F
102
{ACAD_REACTORS
330
172
102
}
330
172
100
AcDbXrecord
 10
0.0
 20
0.0
 30
0.0
  0
XRECORD
  5
190
102
{ACAD_REACTORS
330
172
102
}
330
172
100
AcDbXrecord
 10
0.0
 20
0.0
 30
0.0
  0
XRECORD
  5
191
102
{ACAD_REACTORS
330
172
102
}
330
172
100
AcDbXrecord
 10
0.0
 20
0.0
 30
0.0
  0
ENDSEC
  0
EOF
