  0
SECTION
  2
HEADER
  9
$ACADVER
  1
AC1014
  9
$ACADMAINTVER
 70
     9
  9
$DWGCODEPAGE
  3
ANSI_1252
  9
$INSBASE
 10
0.0
 20
0.0
 30
0.0
  9
$EXTMIN
 10
-879.0000000019999
 20
-968.0000000019999
 30
-0.0000000000000429
  9
$EXTMAX
 10
879.0000000019999
 20
130.3817279836453
 30
0.0000000000001286
  9
$LIMMIN
 10
0.0
 20
0.0
  9
$LIMMAX
 10
12.0
 20
9.0
  9
$ORTHOMODE
 70
     0
  9
$REGENMODE
 70
     1
  9
$FILLMODE
 70
     1
  9
$QTEXTMODE
 70
     0
  9
$MIRRTEXT
 70
     1
  9
$DRAGMODE
 70
     2
  9
$LTSCALE
 40
1.0
  9
$OSMODE
 70
    37
  9
$ATTMODE
 70
     1
  9
$TEXTSIZE
 40
0.2
  9
$TRACEWID
 40
0.05
  9
$TEXTSTYLE
  7
STANDARD
  9
$CLAYER
  8
0
  9
$CELTYPE
  6
BYLAYER
  9
$CECOLOR
 62
   256
  9
$CELTSCALE
 40
1.0
  9
$DELOBJ
 70
     1
  9
$DISPSILH
 70
     0
  9
$DIMSCALE
 40
1.0
  9
$DIMASZ
 40
0.18
  9
$DIMEXO
 40
0.0625
  9
$DIMDLI
 40
0.38
  9
$DIMRND
 40
0.0
  9
$DIMDLE
 40
0.0
  9
$DIMEXE
 40
0.18
  9
$DIMTP
 40
0.0
  9
$DIMTM
 40
0.0
  9
$DIMTXT
 40
0.18
  9
$DIMCEN
 40
0.09
  9
$DIMTSZ
 40
0.0
  9
$DIMTOL
 70
     0
  9
$DIMLIM
 70
     0
  9
$DIMTIH
 70
     1
  9
$DIMTOH
 70
     1
  9
$DIMSE1
 70
     0
  9
$DIMSE2
 70
     0
  9
$DIMTAD
 70
     0
  9
$DIMZIN
 70
     0
  9
$DIMBLK
  1

  9
$DIMASO
 70
     1
  9
$DIMSHO
 70
     1
  9
$DIMPOST
  1

  9
$DIMAPOST
  1

  9
$DIMALT
 70
     0
  9
$DIMALTD
 70
     2
  9
$DIMALTF
 40
25.4
  9
$DIMLFAC
 40
1.0
  9
$DIMTOFL
 70
     0
  9
$DIMTVP
 40
0.0
  9
$DIMTIX
 70
     0
  9
$DIMSOXD
 70
     0
  9
$DIMSAH
 70
     0
  9
$DIMBLK1
  1

  9
$DIMBLK2
  1

  9
$DIMSTYLE
  2
STANDARD
  9
$DIMCLRD
 70
     0
  9
$DIMCLRE
 70
     0
  9
$DIMCLRT
 70
     0
  9
$DIMTFAC
 40
1.0
  9
$DIMGAP
 40
0.09
  9
$DIMJUST
 70
     0
  9
$DIMSD1
 70
     0
  9
$DIMSD2
 70
     0
  9
$DIMTOLJ
 70
     1
  9
$DIMTZIN
 70
     0
  9
$DIMALTZ
 70
     0
  9
$DIMALTTZ
 70
     0
  9
$DIMFIT
 70
     3
  9
$DIMUPT
 70
     0
  9
$DIMUNIT
 70
     2
  9
$DIMDEC
 70
     4
  9
$DIMTDEC
 70
     4
  9
$DIMALTU
 70
     2
  9
$DIMALTTD
 70
     2
  9
$DIMTXSTY
  7
STANDARD
  9
$DIMAUNIT
 70
     0
  9
$LUNITS
 70
     2
  9
$LUPREC
 70
     4
  9
$SKETCHINC
 40
0.1
  9
$FILLETRAD
 40
0.5
  9
$AUNITS
 70
     0
  9
$AUPREC
 70
     0
  9
$MENU
  1
.
  9
$ELEVATION
 40
0.0
  9
$PELEVATION
 40
0.0
  9
$THICKNESS
 40
0.0
  9
$LIMCHECK
 70
     0
  9
$BLIPMODE
 70
     0
  9
$CHAMFERA
 40
0.5
  9
$CHAMFERB
 40
0.5
  9
$CHAMFERC
 40
1.0
  9
$CHAMFERD
 40
0.0
  9
$SKPOLY
 70
     0
  9
$TDCREATE
 40
2451762.463012268
  9
$TDUPDATE
 40
2452863.334720046
  9
$TDINDWG
 40
0.0004083912
  9
$TDUSRTIMER
 40
0.0004083912
  9
$USRTIMER
 70
     1
  9
$ANGBASE
 50
0.0
  9
$ANGDIR
 70
     0
  9
$PDMODE
 70
     0
  9
$PDSIZE
 40
0.0
  9
$PLINEWID
 40
0.0
  9
$COORDS
 70
     1
  9
$SPLFRAME
 70
     0
  9
$SPLINETYPE
 70
     6
  9
$SPLINESEGS
 70
     8
  9
$ATTDIA
 70
     0
  9
$ATTREQ
 70
     1
  9
$HANDLING
 70
  4097
  9
$HANDSEED
  5
FE
  9
$SURFTAB1
 70
     6
  9
$SURFTAB2
 70
     6
  9
$SURFTYPE
 70
     6
  9
$SURFU
 70
     6
  9
$SURFV
 70
     6
  9
$UCSNAME
  2

  9
$UCSORG
 10
0.0
 20
0.0
 30
0.0
  9
$UCSXDIR
 10
1.0
 20
0.0
 30
0.0
  9
$UCSYDIR
 10
0.0
 20
1.0
 30
0.0
  9
$PUCSNAME
  2

  9
$PUCSORG
 10
0.0
 20
0.0
 30
0.0
  9
$PUCSXDIR
 10
1.0
 20
0.0
 30
0.0
  9
$PUCSYDIR
 10
0.0
 20
1.0
 30
0.0
  9
$USERI1
 70
     0
  9
$USERI2
 70
     0
  9
$USERI3
 70
     0
  9
$USERI4
 70
     0
  9
$USERI5
 70
     0
  9
$USERR1
 40
0.0
  9
$USERR2
 40
0.0
  9
$USERR3
 40
0.0
  9
$USERR4
 40
0.0
  9
$USERR5
 40
0.0
  9
$WORLDVIEW
 70
     1
  9
$SHADEDGE
 70
     3
  9
$SHADEDIF
 70
    70
  9
$TILEMODE
 70
     1
  9
$MAXACTVP
 70
    64
  9
$PINSBASE
 10
0.0
 20
0.0
 30
0.0
  9
$PLIMCHECK
 70
     0
  9
$PEXTMIN
 10
1.000000000000000E+20
 20
1.000000000000000E+20
 30
1.000000000000000E+20
  9
$PEXTMAX
 10
-1.000000000000000E+20
 20
-1.000000000000000E+20
 30
-1.000000000000000E+20
  9
$PLIMMIN
 10
0.0
 20
0.0
  9
$PLIMMAX
 10
12.0
 20
9.0
  9
$UNITMODE
 70
     0
  9
$VISRETAIN
 70
     1
  9
$PLINEGEN
 70
     0
  9
$PSLTSCALE
 70
     1
  9
$TREEDEPTH
 70
  3020
  9
$PICKSTYLE
 70
     1
  9
$CMLSTYLE
  2
STANDARD
  9
$CMLJUST
 70
     0
  9
$CMLSCALE
 40
1.0
  9
$PROXYGRAPHICS
 70
     1
  9
$MEASUREMENT
 70
     0
  0
ENDSEC
  0
SECTION
  2
CLASSES
  0
CLASS
  1
ACDBDICTIONARYWDFLT
  2
AcDbDictionaryWithDefault
  3
AutoCAD 2000
 90
        0
280
     0
281
     0
  0
CLASS
  1
ACDBPLACEHOLDER
  2
AcDbPlaceHolder
  3
AutoCAD 2000
 90
        0
280
     0
281
     0
  0
CLASS
  1
LAYOUT
  2
AcDbLayout
  3
AutoCAD 2000
 90
        0
280
     0
281
     0
  0
CLASS
  1
LONG_TRANSACTION
  2
AcDbLongTransaction
  3
AutoCAD 2000
 90
        0
280
     0
281
     0
  0
CLASS
  1
LWPOLYLINE
  2
AcDbPolyline
  3
AutoCAD 2000
 90
        0
280
     0
281
     1
  0
CLASS
  1
HATCH
  2
AcDbHatch
  3
AutoCAD 2000
 90
        0
280
     0
281
     1
  0
CLASS
  1
XRECORD
  2
AcDbXrecord
  3
AutoCAD 2000
 90
        0
280
     0
281
     0
  0
CLASS
  1
LONG_TRANSACTION
  2
AcDbLongTransaction
  3
AutoCAD 2000
 90
        0
280
     0
281
     0
  0
CLASS
  1
LWPOLYLINE
  2
AcDbPolyline
  3
AutoCAD 2000
 90
        0
280
     0
281
     1
  0
CLASS
  1
HATCH
  2
AcDbHatch
  3
AutoCAD 2000
 90
        0
280
     0
281
     1
  0
CLASS
  1
XRECORD
  2
AcDbXrecord
  3
AutoCAD 2000
 90
        0
280
     0
281
     0
  0
ENDSEC
  0
SECTION
  2
TABLES
  0
TABLE
  2
VPORT
  5
8
330
0
100
AcDbSymbolTable
 70
     2
  0
VPORT
  5
DB
330
8
100
AcDbSymbolTableRecord
100
AcDbViewportTableRecord
  2
*ACTIVE
 70
     0
 10
0.0
 20
0.0
 11
1.0
 21
1.0
 12
0.0000000000002274
 22
-341.281895770133
 13
0.0
 23
0.0
 14
0.5
 24
0.5
 15
0.5
 25
0.5
 16
0.0
 26
0.0
 36
1.0
 17
0.0
 27
0.0
 37
0.0
 40
1267.794287066379
 41
1.818713450292397
 42
50.0
 43
0.0
 44
0.0
 50
0.0
 51
0.0
 71
     0
 72
   100
 73
     1
 74
     3
 75
     0
 76
     0
 77
     0
 78
     0
  0
ENDTAB
  0
TABLE
  2
LTYPE
  5
5
330
0
100
AcDbSymbolTable
 70
     1
  0
LTYPE
  5
14
330
5
100
AcDbSymbolTableRecord
100
AcDbLinetypeTableRecord
  2
BYBLOCK
 70
     0
  3

 72
    65
 73
     0
 40
0.0
  0
LTYPE
  5
15
330
5
100
AcDbSymbolTableRecord
100
AcDbLinetypeTableRecord
  2
BYLAYER
 70
     0
  3

 72
    65
 73
     0
 40
0.0
  0
LTYPE
  5
16
330
5
100
AcDbSymbolTableRecord
100
AcDbLinetypeTableRecord
  2
CONTINUOUS
 70
     0
  3
Solid line
 72
    65
 73
     0
 40
0.0
  0
ENDTAB
  0
TABLE
  2
LAYER
  5
2
330
0
100
AcDbSymbolTable
 70
     2
  0
LAYER
  5
10
330
2
100
AcDbSymbolTableRecord
100
AcDbLayerTableRecord
  2
0
 70
     0
 62
     7
  6
CONTINUOUS
  0
LAYER
  5
58
330
2
100
AcDbSymbolTableRecord
100
AcDbLayerTableRecord
  2
PV-E4
 70
     2
 62
     7
  6
CONTINUOUS
  0
ENDTAB
  0
TABLE
  2
STYLE
  5
3
330
0
100
AcDbSymbolTable
 70
     1
  0
STYLE
  5
11
330
3
100
AcDbSymbolTableRecord
100
AcDbTextStyleTableRecord
  2
STANDARD
 70
     0
 40
0.0
 41
1.0
 50
0.0
 71
     0
 42
0.2
  3
txt
  4

  0
ENDTAB
  0
TABLE
  2
VIEW
  5
6
330
0
100
AcDbSymbolTable
 70
     0
  0
ENDTAB
  0
TABLE
  2
UCS
  5
7
330
0
100
AcDbSymbolTable
 70
     0
  0
ENDTAB
  0
TABLE
  2
APPID
  5
9
330
0
100
AcDbSymbolTable
 70
     1
  0
APPID
  5
12
330
9
100
AcDbSymbolTableRecord
100
AcDbRegAppTableRecord
  2
ACAD
 70
     0
  0
ENDTAB
  0
TABLE
  2
DIMSTYLE
  5
A
330
0
100
AcDbSymbolTable
 70
     1
  0
DIMSTYLE
105
27
330
A
100
AcDbSymbolTableRecord
100
AcDbDimStyleTableRecord
  2
STANDARD
 70
     0
  3

  4

  5

  6

  7

 40
1.0
 41
0.18
 42
0.0625
 43
0.38
 44
0.18
 45
0.0
 46
0.0
 47
0.0
 48
0.0
140
0.18
141
0.09
142
0.0
143
25.4
144
1.0
145
0.0
146
1.0
147
0.09
 71
     0
 72
     0
 73
     1
 74
     1
 75
     0
 76
     0
 77
     0
 78
     0
170
     0
171
     2
172
     0
173
     0
174
     0
175
     0
176
     0
177
     0
178
     0
270
     2
271
     4
272
     4
273
     2
274
     2
340
11
275
     0
280
     0
281
     0
282
     0
283
     1
284
     0
285
     0
286
     0
287
     3
288
     0
  0
ENDTAB
  0
TABLE
  2
BLOCK_RECORD
  5
1
330
0
100
AcDbSymbolTable
 70
     8
  0
BLOCK_RECORD
  5
1F
102
{ACAD_XDICTIONARY
360
9C
102
}
330
1
100
AcDbSymbolTableRecord
100
AcDbBlockTableRecord
  2
*MODEL_SPACE
  0
BLOCK_RECORD
  5
1B
102
{ACAD_XDICTIONARY
360
9A
102
}
330
1
100
AcDbSymbolTableRecord
100
AcDbBlockTableRecord
  2
*PAPER_SPACE
  0
BLOCK_RECORD
  5
48
330
1
100
AcDbSymbolTableRecord
100
AcDbBlockTableRecord
  2
*U0
  0
BLOCK_RECORD
  5
59
330
1
100
AcDbSymbolTableRecord
100
AcDbBlockTableRecord
  2
FRONT
  0
BLOCK_RECORD
  5
5E
330
1
100
AcDbSymbolTableRecord
100
AcDbBlockTableRecord
  2
*U2
  0
BLOCK_RECORD
  5
6D
330
1
100
AcDbSymbolTableRecord
100
AcDbBlockTableRecord
  2
LEFT
  0
BLOCK_RECORD
  5
72
330
1
100
AcDbSymbolTableRecord
100
AcDbBlockTableRecord
  2
*U4
  0
BLOCK_RECORD
  5
81
330
1
100
AcDbSymbolTableRecord
100
AcDbBlockTableRecord
  2
RIGHT
  0
BLOCK_RECORD
  5
86
330
1
100
AcDbSymbolTableRecord
100
AcDbBlockTableRecord
  2
*U6
  0
BLOCK_RECORD
  5
94
330
1
100
AcDbSymbolTableRecord
100
AcDbBlockTableRecord
  2
TOP
  0
ENDTAB
  0
ENDSEC
  0
SECTION
  2
BLOCKS
  0
BLOCK
  5
20
330
1F
100
AcDbEntity
  8
0
100
AcDbBlockBegin
  2
*MODEL_SPACE
 70
     0
 10
0.0
 20
0.0
 30
0.0
  3
*MODEL_SPACE
  1

  0
ENDBLK
  5
21
330
1F
100
AcDbEntity
  8
0
100
AcDbBlockEnd
  0
BLOCK
  5
1C
330
1B
100
AcDbEntity
 67
     1
  8
0
100
AcDbBlockBegin
  2
*PAPER_SPACE
 70
     0
 10
0.0
 20
0.0
 30
0.0
  3
*PAPER_SPACE
  1

  0
ENDBLK
  5
1D
330
1B
100
AcDbEntity
 67
     1
  8
0
100
AcDbBlockEnd
  0
BLOCK
  5
55
330
48
100
AcDbEntity
  8
0
100
AcDbBlockBegin
  2
*U0
 70
     1
 10
0.0
 20
0.0
 30
0.0
  3
*U0
  1
*ANON
  0
ARC
  5
49
330
48
100
AcDbEntity
  8
PV-E4
100
AcDbCircle
 10
0.0000000000000184
 20
0.0
 30
0.0
 40
16.5
210
0.0
220
-1.0
230
0.0
100
AcDbArc
 50
359.9999999999991
 51
180.0
  0
ARC
  5
4A
330
48
100
AcDbEntity
  8
PV-E4
100
AcDbCircle
 10
0.0000000000000184
 20
-137.0
 30
0.0
 40
16.5
210
0.0
220
-1.0
230
0.0
100
AcDbArc
 50
180.0000000000011
 51
0.0000000000007895
  0
LINE
  5
4B
330
48
100
AcDbEntity
  8
PV-E4
100
AcDbLine
 10
38.99999999999986
 20
0.0
 30
48.00000000000006
 11
38.99999999999986
 21
0.0
 31
59.50000000000006
  0
LINE
  5
4C
330
48
100
AcDbEntity
  8
PV-E4
100
AcDbLine
 10
38.99999999999986
 20
0.0
 30
59.50000000000006
 11
-39.0
 21
0.0
 31
59.5
  0
LINE
  5
4D
330
48
100
AcDbEntity
  8
PV-E4
100
AcDbLine
 10
38.99999999999986
 20
0.0
 30
48.00000000000006
 11
38.99999999999999
 21
0.0
 31
-185.0
  0
LINE
  5
4E
330
48
100
AcDbEntity
  8
PV-E4
100
AcDbLine
 10
-39.00000000000003
 20
0.0
 30
59.5
 11
-39.00000000000003
 21
0.0
 31
48.0
  0
LINE
  5
4F
330
48
100
AcDbEntity
  8
PV-E4
100
AcDbLine
 10
-38.99999999999986
 20
0.0
 30
-185.0
 11
-38.99999999999999
 21
0.0
 31
48.0
  0
LINE
  5
50
330
48
100
AcDbEntity
  8
PV-E4
100
AcDbLine
 10
-38.99999999999986
 20
0.0
 30
-185.0
 11
-38.99999999999986
 21
0.0
 31
-196.5
  0
LINE
  5
51
330
48
100
AcDbEntity
  8
PV-E4
100
AcDbLine
 10
39.00000000000003
 20
0.0
 30
-196.5
 11
39.00000000000003
 21
0.0
 31
-185.0
  0
LINE
  5
52
330
48
100
AcDbEntity
  8
PV-E4
100
AcDbLine
 10
-38.99999999999986
 20
0.0
 30
-196.5
 11
39.0
 21
0.0
 31
-196.5
  0
LINE
  5
53
330
48
100
AcDbEntity
  8
PV-E4
100
AcDbLine
 10
16.50000000000001
 20
0.0
 30
-137.0
 11
16.50000000000001
 21
0.0
 31
0.0
  0
LINE
  5
54
330
48
100
AcDbEntity
  8
PV-E4
100
AcDbLine
 10
-16.49999999999998
 20
0.0
 30
0.0
 11
-16.49999999999998
 21
0.0
 31
-137.0
  0
ENDBLK
  5
56
330
48
100
AcDbEntity
  8
0
100
AcDbBlockEnd
  0
BLOCK
  5
5B
330
59
100
AcDbEntity
  8
0
100
AcDbBlockBegin
  2
FRONT
 70
     0
 10
0.0
 20
0.0
 30
0.0
  3
FRONT
  1

  0
INSERT
  5
5A
330
59
100
AcDbEntity
  8
PV-E4
100
AcDbBlockReference
  2
*U0
 10
0.0
 20
0.0
 30
0.0
 50
180.0
210
0.0
220
1.0
230
0.0
  0
ENDBLK
  5
5C
330
59
100
AcDbEntity
  8
0
100
AcDbBlockEnd
  0
BLOCK
  5
6B
330
5E
100
AcDbEntity
  8
0
100
AcDbBlockBegin
  2
*U2
 70
     1
 10
0.0
 20
0.0
 30
0.0
  3
*U2
  1
*ANON
  0
LINE
  5
5F
330
5E
100
AcDbEntity
  8
PV-E4
100
AcDbLine
 10
0.0
 20
0.0000000000000289
 30
-196.5
 11
0.0
 21
-5.000000000000002
 31
-196.5
  0
LINE
  5
60
330
5E
100
AcDbEntity
  8
PV-E4
100
AcDbLine
 10
0.0
 20
0.0000000000000289
 30
-196.5
 11
0.0
 21
-0.0000000000000181
 31
59.5
  0
LINE
  5
61
330
5E
100
AcDbEntity
  8
PV-E4
100
AcDbLine
 10
0.0
 20
-0.0000000000000181
 30
59.5
 11
0.0
 21
-5.000000000000002
 31
59.5
  0
ARC
  5
62
330
5E
100
AcDbEntity
  8
PV-E4
100
AcDbCircle
 10
5.000000000000002
 20
48.0
 30
0.0
 40
11.5
210
-1.0
220
0.0
230
0.0
100
AcDbArc
 50
0.0
 51
90.0
  0
LINE
  5
63
330
5E
100
AcDbEntity
  8
PV-E4
100
AcDbLine
 10
0.0
 20
-16.49999999999997
 30
-185.0
 11
0.0
 21
-16.50000000000001
 31
48.0
  0
ARC
  5
64
330
5E
100
AcDbEntity
  8
PV-E4
100
AcDbCircle
 10
5.000000000000002
 20
-185.0
 30
0.0
 40
11.5
210
-1.0
220
0.0
230
0.0
100
AcDbArc
 50
270.0
 51
0.0
  0
LINE
  5
65
330
5E
100
AcDbEntity
  8
PV-E4
100
AcDbLine
 10
0.0
 20
-615.0
 30
-120.5
 11
0.0
 21
-16.5
 31
-120.5
  0
LINE
  5
66
330
5E
100
AcDbEntity
  8
PV-E4
100
AcDbLine
 10
0.0
 20
-615.0
 30
-153.5
 11
0.0
 21
-16.5
 31
-153.5
  0
LINE
  5
67
330
5E
100
AcDbEntity
  8
PV-E4
100
AcDbLine
 10
0.0
 20
-16.5
 30
-16.5
 11
0.0
 21
-615.0
 31
-16.5
  0
LINE
  5
68
330
5E
100
AcDbEntity
  8
PV-E4
100
AcDbLine
 10
0.0
 20
-16.50000000000001
 30
16.5
 11
0.0
 21
-615.0
 31
16.5
  0
ARC
  5
69
330
5E
100
AcDbEntity
  8
PV-E4
100
AcDbCircle
 10
615.0
 20
-68.5
 30
0.0
 40
52.0
210
-1.0
220
0.0
230
0.0
100
AcDbArc
 50
270.0
 51
90.00000000000111
  0
ARC
  5
6A
330
5E
100
AcDbEntity
  8
PV-E4
100
AcDbCircle
 10
615.0
 20
-68.5
 30
0.0
 40
85.0
210
-1.0
220
0.0
230
0.0
100
AcDbArc
 50
270.0
 51
90.00000000000124
  0
ENDBLK
  5
6C
330
5E
100
AcDbEntity
  8
0
100
AcDbBlockEnd
  0
BLOCK
  5
6F
330
6D
100
AcDbEntity
  8
0
100
AcDbBlockBegin
  2
LEFT
 70
     0
 10
0.0
 20
0.0
 30
0.0
  3
LEFT
  1

  0
INSERT
  5
6E
330
6D
100
AcDbEntity
  8
PV-E4
100
AcDbBlockReference
  2
*U2
 10
0.0
 20
0.0
 30
0.0
 50
270.0
210
0.0
220
1.0
230
0.0
  0
ENDBLK
  5
70
330
6D
100
AcDbEntity
  8
0
100
AcDbBlockEnd
  0
BLOCK
  5
7F
330
72
100
AcDbEntity
  8
0
100
AcDbBlockBegin
  2
*U4
 70
     1
 10
0.0
 20
0.0
 30
0.0
  3
*U4
  1
*ANON
  0
LINE
  5
73
330
72
100
AcDbEntity
  8
PV-E4
100
AcDbLine
 10
0.0
 20
-0.0000000000000038
 30
59.50000000000006
 11
0.0
 21
-5.000000000000002
 31
59.50000000000006
  0
LINE
  5
74
330
72
100
AcDbEntity
  8
PV-E4
100
AcDbLine
 10
0.0
 20
-0.0000000000000038
 30
59.50000000000006
 11
0.0
 21
0.0000000000000433
 31
-196.5
  0
LINE
  5
75
330
72
100
AcDbEntity
  8
PV-E4
100
AcDbLine
 10
0.0
 20
0.0000000000000433
 30
-196.5
 11
0.0
 21
-5.000000000000002
 31
-196.5
  0
ARC
  5
76
330
72
100
AcDbEntity
  8
PV-E4
100
AcDbCircle
 10
-5.000000000000002
 20
48.00000000000006
 30
0.0
 40
11.5
210
1.0
220
0.0
230
0.0
100
AcDbArc
 50
90.0
 51
180.0
  0
LINE
  5
77
330
72
100
AcDbEntity
  8
PV-E4
100
AcDbLine
 10
0.0
 20
-16.5
 30
48.00000000000006
 11
0.0
 21
-16.49999999999995
 31
-185.0
  0
ARC
  5
78
330
72
100
AcDbEntity
  8
PV-E4
100
AcDbCircle
 10
-5.000000000000002
 20
-185.0
 30
0.0
 40
11.5
210
1.0
220
0.0
230
0.0
100
AcDbArc
 50
180.0
 51
270.0
  0
LINE
  5
79
330
72
100
AcDbEntity
  8
PV-E4
100
AcDbLine
 10
0.0
 20
-615.0
 30
-153.5
 11
0.0
 21
-16.5
 31
-153.5
  0
LINE
  5
7A
330
72
100
AcDbEntity
  8
PV-E4
100
AcDbLine
 10
0.0
 20
-615.0
 30
-120.5
 11
0.0
 21
-16.5
 31
-120.5
  0
LINE
  5
7B
330
72
100
AcDbEntity
  8
PV-E4
100
AcDbLine
 10
0.0
 20
-16.5
 30
16.5
 11
0.0
 21
-615.0
 31
16.5
  0
LINE
  5
7C
330
72
100
AcDbEntity
  8
PV-E4
100
AcDbLine
 10
0.0
 20
-16.49999999999998
 30
-16.5
 11
0.0
 21
-615.0
 31
-16.5
  0
ARC
  5
7D
330
72
100
AcDbEntity
  8
PV-E4
100
AcDbCircle
 10
-615.0
 20
-68.5
 30
0.0
 40
85.0
210
1.0
220
0.0
230
0.0
100
AcDbArc
 50
89.99999999999799
 51
270.0
  0
ARC
  5
7E
330
72
100
AcDbEntity
  8
PV-E4
100
AcDbCircle
 10
-615.0
 20
-68.5
 30
0.0
 40
52.0
210
1.0
220
0.0
230
0.0
100
AcDbArc
 50
89.99999999999806
 51
270.0
  0
ENDBLK
  5
80
330
72
100
AcDbEntity
  8
0
100
AcDbBlockEnd
  0
BLOCK
  5
83
330
81
100
AcDbEntity
  8
0
100
AcDbBlockBegin
  2
RIGHT
 70
     0
 10
0.0
 20
0.0
 30
0.0
  3
RIGHT
  1

  0
INSERT
  5
82
330
81
100
AcDbEntity
  8
PV-E4
100
AcDbBlockReference
  2
*U4
 10
0.0
 20
0.0
 30
0.0
 50
90.0
210
0.0
220
1.0
230
0.0
  0
ENDBLK
  5
84
330
81
100
AcDbEntity
  8
0
100
AcDbBlockEnd
  0
BLOCK
  5
92
330
86
100
AcDbEntity
  8
0
100
AcDbBlockBegin
  2
*U6
 70
     1
 10
0.0
 20
0.0
 30
0.0
  3
*U6
  1
*ANON
  0
LINE
  5
87
330
86
100
AcDbEntity
  8
PV-E4
100
AcDbLine
 10
-39.0
 20
-0.0000000000000181
 30
0.0
 11
38.99999999999986
 21
-0.0000000000000038
 31
0.0
  0
LINE
  5
88
330
86
100
AcDbEntity
  8
PV-E4
100
AcDbLine
 10
38.99999999999986
 20
-0.0000000000000038
 30
0.0
 11
38.99999999999986
 21
-5.000000000000002
 31
0.0
  0
LINE
  5
89
330
86
100
AcDbEntity
  8
PV-E4
100
AcDbLine
 10
38.99999999999986
 20
-16.5
 30
0.0
 11
38.99999999999986
 21
-5.000000000000004
 31
0.0
  0
LINE
  5
8A
330
86
100
AcDbEntity
  8
PV-E4
100
AcDbLine
 10
-38.99999999999999
 20
-16.5
 30
0.0
 11
38.99999999999986
 21
-16.5
 31
0.0
  0
LINE
  5
8B
330
86
100
AcDbEntity
  8
PV-E4
100
AcDbLine
 10
-39.0
 20
-0.0000000000000181
 30
0.0
 11
-39.0
 21
-5.000000000000002
 31
0.0
  0
LINE
  5
8C
330
86
100
AcDbEntity
  8
PV-E4
100
AcDbLine
 10
-39.00000000000003
 20
-5.000000000000004
 30
0.0
 11
-39.00000000000003
 21
-16.5
 31
0.0
  0
LINE
  5
8D
330
86
100
AcDbEntity
  8
PV-E4
100
AcDbLine
 10
-16.49999999999998
 20
-16.50000000000001
 30
0.0
 11
-16.49999999999998
 21
-615.0
 31
0.0
  0
LINE
  5
8E
330
86
100
AcDbEntity
  8
PV-E4
100
AcDbLine
 10
16.50000000000001
 20
-16.5
 30
0.0
 11
16.50000000000001
 21
-615.0
 31
0.0
  0
LINE
  5
8F
330
86
100
AcDbEntity
  8
PV-E4
100
AcDbLine
 10
16.50000000000001
 20
-683.4999999999999
 30
0.0
 11
16.50000000000001
 21
-614.9999999999997
 31
0.0
  0
LINE
  5
90
330
86
100
AcDbEntity
  8
PV-E4
100
AcDbLine
 10
-16.49999999999998
 20
-614.9999999999997
 30
0.0
 11
-16.49999999999998
 21
-683.4999999999999
 31
0.0
  0
ARC
  5
91
330
86
100
AcDbEntity
  8
PV-E4
100
AcDbCircle
 10
0.0000000000000184
 20
-683.4999999999999
 30
0.0
 40
16.5
100
AcDbArc
 50
179.9999999999978
 51
0.0
  0
ENDBLK
  5
93
330
86
100
AcDbEntity
  8
0
100
AcDbBlockEnd
  0
BLOCK
  5
96
330
94
100
AcDbEntity
  8
0
100
AcDbBlockBegin
  2
TOP
 70
     0
 10
0.0
 20
0.0
 30
0.0
  3
TOP
  1

  0
INSERT
  5
95
330
94
100
AcDbEntity
  8
PV-E4
100
AcDbBlockReference
  2
*U6
 10
0.0
 20
0.0
 30
0.0
  0
ENDBLK
  5
97
330
94
100
AcDbEntity
  8
0
100
AcDbBlockEnd
  0
ENDSEC
  0
SECTION
  2
ENTITIES
  0
LINE
  5
A9
330
1F
100
AcDbEntity
  8
PV-E4
100
AcDbLine
 10
-179.000000002
 20
128.0
 30
0.0
 11
-184.000000002
 21
128.0
 31
-0.0000000000000003
210
0.0
220
1.0
230
0.0
  0
LINE
  5
AA
330
1F
100
AcDbEntity
  8
PV-E4
100
AcDbLine
 10
-179.000000002
 20
128.0
 30
0.0
 11
-179.0000000019999
 21
-128.0
 31
0.0
210
0.0
220
1.0
230
0.0
  0
LINE
  5
AB
330
1F
100
AcDbEntity
  8
PV-E4
100
AcDbLine
 10
-179.0000000019999
 20
-128.0
 30
0.0
 11
-184.000000002
 21
-128.0
 31
-0.0000000000000003
210
0.0
220
1.0
230
0.0
  0
ARC
  5
AC
330
1F
100
AcDbEntity
  8
PV-E4
100
AcDbCircle
 10
-184.000000002
 20
116.5
 30
-0.0000000000000003
 40
11.5
100
AcDbArc
 50
90.0
 51
180.0
  0
LINE
  5
AD
330
1F
100
AcDbEntity
  8
PV-E4
100
AcDbLine
 10
-195.500000002
 20
116.5
 30
-0.000000000000001
 11
-195.5000000019999
 21
-116.5
 31
-0.000000000000001
210
0.0
220
1.0
230
0.0
  0
ARC
  5
AE
330
1F
100
AcDbEntity
  8
PV-E4
100
AcDbCircle
 10
-184.000000002
 20
-116.5
 30
-0.0000000000000003
 40
11.5
100
AcDbArc
 50
180.0
 51
270.0
  0
LINE
  5
AF
330
1F
100
AcDbEntity
  8
PV-E4
100
AcDbLine
 10
-794.000000002
 20
-85.00000000000003
 30
-0.0000000000000377
 11
-195.500000002
 21
-85.00000000000003
 31
-0.000000000000001
210
0.0
220
1.0
230
0.0
  0
LINE
  5
B0
330
1F
100
AcDbEntity
  8
PV-E4
100
AcDbLine
 10
-794.000000002
 20
-52.00000000000002
 30
-0.0000000000000377
 11
-195.500000002
 21
-52.00000000000002
 31
-0.000000000000001
210
0.0
220
1.0
230
0.0
  0
LINE
  5
B1
330
1F
100
AcDbEntity
  8
PV-E4
100
AcDbLine
 10
-195.500000002
 20
84.99999999999998
 30
-0.000000000000001
 11
-794.000000002
 21
84.99999999999998
 31
-0.0000000000000377
210
0.0
220
1.0
230
0.0
  0
LINE
  5
B2
330
1F
100
AcDbEntity
  8
PV-E4
100
AcDbLine
 10
-195.5000000019999
 20
51.99999999999997
 30
-0.000000000000001
 11
-794.000000002
 21
51.99999999999997
 31
-0.0000000000000377
210
0.0
220
1.0
230
0.0
  0
ARC
  5
B3
330
1F
100
AcDbEntity
  8
PV-E4
100
AcDbCircle
 10
-794.000000002
 20
-0.0000000000000284
 30
-0.0000000000000377
 40
85.0
100
AcDbArc
 50
89.99999999999836
 51
270.0
  0
ARC
  5
B4
330
1F
100
AcDbEntity
  8
PV-E4
100
AcDbCircle
 10
-794.000000002
 20
-0.0000000000000284
 30
-0.0000000000000377
 40
52.0
100
AcDbArc
 50
89.99999999999836
 51
270.0
  0
ARC
  5
B6
330
1F
100
AcDbEntity
  8
PV-E4
100
AcDbCircle
 10
0.0000000000000184
 20
68.5
 30
0.0
 40
16.5
100
AcDbArc
 50
359.9999999999992
 51
180.0
  0
ARC
  5
B7
330
1F
100
AcDbEntity
  8
PV-E4
100
AcDbCircle
 10
0.0000000000000184
 20
-68.5
 30
0.0
 40
16.5
100
AcDbArc
 50
180.0000000000008
 51
0.0000000000008142
  0
LINE
  5
B8
330
1F
100
AcDbEntity
  8
PV-E4
100
AcDbLine
 10
38.99999999999986
 20
116.5
 30
0.0000000000000048
 11
38.99999999999986
 21
128.0
 31
0.0000000000000048
210
0.0
220
1.0
230
0.0
  0
LINE
  5
B9
330
1F
100
AcDbEntity
  8
PV-E4
100
AcDbLine
 10
38.99999999999986
 20
128.0
 30
0.0000000000000048
 11
-39.0
 21
128.0
 31
-0.0000000000000048
210
0.0
220
1.0
230
0.0
  0
LINE
  5
BA
330
1F
100
AcDbEntity
  8
PV-E4
100
AcDbLine
 10
38.99999999999986
 20
116.5
 30
0.0000000000000048
 11
38.99999999999999
 21
-116.5
 31
0.0000000000000048
210
0.0
220
1.0
230
0.0
  0
LINE
  5
BB
330
1F
100
AcDbEntity
  8
PV-E4
100
AcDbLine
 10
-39.00000000000003
 20
128.0
 30
-0.0000000000000048
 11
-39.00000000000003
 21
116.5
 31
-0.0000000000000048
210
0.0
220
1.0
230
0.0
  0
LINE
  5
BC
330
1F
100
AcDbEntity
  8
PV-E4
100
AcDbLine
 10
-38.99999999999986
 20
-116.5
 30
-0.0000000000000048
 11
-38.99999999999999
 21
116.5
 31
-0.0000000000000048
210
0.0
220
1.0
230
0.0
  0
LINE
  5
BD
330
1F
100
AcDbEntity
  8
PV-E4
100
AcDbLine
 10
-38.99999999999986
 20
-116.5
 30
-0.0000000000000048
 11
-38.99999999999986
 21
-128.0
 31
-0.0000000000000048
210
0.0
220
1.0
230
0.0
  0
LINE
  5
BE
330
1F
100
AcDbEntity
  8
PV-E4
100
AcDbLine
 10
39.00000000000003
 20
-128.0
 30
0.0000000000000048
 11
39.00000000000003
 21
-116.5
 31
0.0000000000000048
210
0.0
220
1.0
230
0.0
  0
LINE
  5
BF
330
1F
100
AcDbEntity
  8
PV-E4
100
AcDbLine
 10
-38.99999999999986
 20
-128.0
 30
-0.0000000000000048
 11
39.0
 21
-128.0
 31
0.0000000000000048
210
0.0
220
1.0
230
0.0
  0
LINE
  5
C0
330
1F
100
AcDbEntity
  8
PV-E4
100
AcDbLine
 10
16.50000000000001
 20
-68.5
 30
0.000000000000002
 11
16.50000000000001
 21
68.5
 31
0.000000000000002
210
0.0
220
1.0
230
0.0
  0
LINE
  5
C1
330
1F
100
AcDbEntity
  8
PV-E4
100
AcDbLine
 10
-16.49999999999998
 20
68.5
 30
-0.000000000000002
 11
-16.49999999999998
 21
-68.5
 31
-0.000000000000002
210
0.0
220
1.0
230
0.0
  0
LINE
  5
C3
330
1F
100
AcDbEntity
  8
PV-E4
100
AcDbLine
 10
179.0000000019999
 20
-127.9999999999999
 30
0.0
 11
184.000000002
 21
-127.9999999999999
 31
0.0000000000000009
210
0.0
220
1.0
230
0.0
  0
LINE
  5
C4
330
1F
100
AcDbEntity
  8
PV-E4
100
AcDbLine
 10
179.0000000019999
 20
-127.9999999999999
 30
0.0
 11
179.000000002
 21
128.0
 31
0.0
210
0.0
220
1.0
230
0.0
  0
LINE
  5
C5
330
1F
100
AcDbEntity
  8
PV-E4
100
AcDbLine
 10
179.000000002
 20
128.0
 30
0.0
 11
184.000000002
 21
128.0
 31
0.0000000000000009
210
0.0
220
1.0
230
0.0
  0
ARC
  5
C6
330
1F
100
AcDbEntity
  8
PV-E4
100
AcDbCircle
 10
184.000000002
 20
116.5
 30
0.0000000000000009
 40
11.5
100
AcDbArc
 50
0.0
 51
90.0
  0
LINE
  5
C7
330
1F
100
AcDbEntity
  8
PV-E4
100
AcDbLine
 10
195.5000000019999
 20
-116.4999999999999
 30
0.000000000000003
 11
195.500000002
 21
116.5
 31
0.000000000000003
210
0.0
220
1.0
230
0.0
  0
ARC
  5
C8
330
1F
100
AcDbEntity
  8
PV-E4
100
AcDbCircle
 10
184.000000002
 20
-116.4999999999999
 30
0.0000000000000009
 40
11.5
100
AcDbArc
 50
270.0
 51
0.0
  0
LINE
  5
C9
330
1F
100
AcDbEntity
  8
PV-E4
100
AcDbLine
 10
794.000000002
 20
-51.99999999999997
 30
0.000000000000113
 11
195.500000002
 21
-51.99999999999997
 31
0.000000000000003
210
0.0
220
1.0
230
0.0
  0
LINE
  5
CA
330
1F
100
AcDbEntity
  8
PV-E4
100
AcDbLine
 10
794.000000002
 20
-84.99999999999998
 30
0.000000000000113
 11
195.500000002
 21
-84.99999999999998
 31
0.000000000000003
210
0.0
220
1.0
230
0.0
  0
LINE
  5
CB
330
1F
100
AcDbEntity
  8
PV-E4
100
AcDbLine
 10
195.500000002
 20
52.00000000000002
 30
0.000000000000003
 11
794.000000002
 21
52.00000000000002
 31
0.000000000000113
210
0.0
220
1.0
230
0.0
  0
LINE
  5
CC
330
1F
100
AcDbEntity
  8
PV-E4
100
AcDbLine
 10
195.500000002
 20
85.00000000000003
 30
0.000000000000003
 11
794.000000002
 21
85.00000000000003
 31
0.000000000000113
210
0.0
220
1.0
230
0.0
  0
ARC
  5
CD
330
1F
100
AcDbEntity
  8
PV-E4
100
AcDbCircle
 10
794.000000002
 20
0.0000000000000284
 30
0.000000000000113
 40
52.0
100
AcDbArc
 50
270.0
 51
90.00000000000161
  0
ARC
  5
CE
330
1F
100
AcDbEntity
  8
PV-E4
100
AcDbCircle
 10
794.000000002
 20
0.0000000000000284
 30
0.000000000000113
 40
85.0
100
AcDbArc
 50
270.0
 51
90.00000000000161
  0
LINE
  5
D0
330
1F
100
AcDbEntity
  8
PV-E4
100
AcDbLine
 10
-38.99999999999991
 20
-268.0000000020001
 30
0.0
 11
38.99999999999995
 21
-268.0000000020001
 31
0.0
  0
LINE
  5
D1
330
1F
100
AcDbEntity
  8
PV-E4
100
AcDbLine
 10
38.99999999999995
 20
-268.0000000020001
 30
0.0
 11
38.99999999999995
 21
-273.000000002
 31
0.0
  0
LINE
  5
D2
330
1F
100
AcDbEntity
  8
PV-E4
100
AcDbLine
 10
38.99999999999995
 20
-284.500000002
 30
0.0
 11
38.99999999999995
 21
-273.000000002
 31
0.0
  0
LINE
  5
D3
330
1F
100
AcDbEntity
  8
PV-E4
100
AcDbLine
 10
-38.99999999999991
 20
-284.500000002
 30
0.0
 11
38.99999999999995
 21
-284.500000002
 31
0.0
  0
LINE
  5
D4
330
1F
100
AcDbEntity
  8
PV-E4
100
AcDbLine
 10
-38.99999999999991
 20
-268.0000000020001
 30
0.0
 11
-38.99999999999991
 21
-273.000000002
 31
0.0
  0
LINE
  5
D5
330
1F
100
AcDbEntity
  8
PV-E4
100
AcDbLine
 10
-38.99999999999995
 20
-273.000000002
 30
0.0
 11
-38.99999999999995
 21
-284.500000002
 31
0.0
  0
LINE
  5
D6
330
1F
100
AcDbEntity
  8
PV-E4
100
AcDbLine
 10
-16.49999999999989
 20
-284.500000002
 30
0.0
 11
-16.49999999999989
 21
-883.0000000020001
 31
0.0
  0
LINE
  5
D7
330
1F
100
AcDbEntity
  8
PV-E4
100
AcDbLine
 10
16.50000000000009
 20
-284.500000002
 30
0.0
 11
16.50000000000009
 21
-883.0000000020001
 31
0.0
  0
LINE
  5
D8
330
1F
100
AcDbEntity
  8
PV-E4
100
AcDbLine
 10
16.50000000000009
 20
-951.500000002
 30
0.0
 11
16.50000000000009
 21
-883.0000000019998
 31
0.0
  0
LINE
  5
D9
330
1F
100
AcDbEntity
  8
PV-E4
100
AcDbLine
 10
-16.49999999999989
 20
-883.0000000019998
 30
0.0
 11
-16.49999999999989
 21
-951.500000002
 31
0.0
  0
ARC
  5
DA
330
1F
100
AcDbEntity
  8
PV-E4
100
AcDbCircle
 10
0.0000000000001037
 20
-951.500000002
 30
0.0
 40
16.5
100
AcDbArc
 50
179.9999999999967
 51
0.0
  0
ENDSEC
  0
SECTION
  2
OBJECTS
  0
DICTIONARY
  5
C
330
0
100
AcDbDictionary
  3
ACAD_GROUP
350
D
  3
ACAD_LAYOUT
350
1A
  3
ACAD_MLINESTYLE
350
17
  3
ACAD_PLOTSETTINGS
350
19
  3
ACAD_PLOTSTYLENAME
350
A2
  3
ACDBHEADERROUNDTRIPXREC
350
DC
1001
ACAD
1000
TREAT_AS_HARD
1070
     0
  0
DICTIONARY
  5
9C
330
1F
100
AcDbDictionary
  3
ACAD_LAYOUTSELFREF
350
FD
  0
DICTIONARY
  5
9A
330
1B
100
AcDbDictionary
  3
ACAD_LAYOUTSELFREF
350
FC
  0
DICTIONARY
  5
D
102
{ACAD_REACTORS
330
C
102
}
330
C
100
AcDbDictionary
1001
ACAD
1000
TREAT_AS_HARD
1070
     0
  0
DICTIONARY
  5
1A
102
{ACAD_REACTORS
330
C
102
}
330
C
100
AcDbDictionary
1001
ACAD
1000
TREAT_AS_HARD
1070
     0
  0
DICTIONARY
  5
17
102
{ACAD_REACTORS
330
C
102
}
330
C
100
AcDbDictionary
  3
STANDARD
350
18
1001
ACAD
1000
TREAT_AS_HARD
1070
     0
  0
DICTIONARY
  5
19
102
{ACAD_REACTORS
330
C
102
}
330
C
100
AcDbDictionary
1001
ACAD
1000
TREAT_AS_HARD
1070
     0
  0
ACDBDICTIONARYWDFLT
  5
A2
102
{ACAD_REACTORS
330
C
102
}
330
C
100
AcDbDictionary
281
     1
  3
Normal
350
A3
100
AcDbDictionaryWithDefault
340
A3
  0
DICTIONARY
  5
DC
102
{ACAD_REACTORS
330
C
102
}
330
C
100
AcDbDictionary
  3
TSTACKALIGN
350
DD
  3
TSTACKSIZE
350
DE
  3
HYPERLINKBASE
350
DF
  3
STYLESHEET
350
E0
  3
LAYOUTDICT
350
E1
  3
PLOTSETDICT
350
E2
  3
PLOTSTYLNAMDICT
350
E3
  3
LWETCUNION
350
E4
  3
INSUNITS
350
E5
  3
CEPSNTYPE
350
E6
  3
FINGERPRINTGUID
350
E7
  3
VERSIONGUID
350
E8
  3
PSVPSCALE
350
E9
  3
PUCSORTHOREF
350
EA
  3
PUCSORTHOVIEW
350
EB
  3
PUCSBASE
350
EC
  3
PUCSORGTOP
350
ED
  3
PUCSORGBOTTOM
350
EE
  3
PUCSORGLEFT
350
EF
  3
PUCSORGRIGHT
350
F0
  3
PUCSORGFRONT
350
F1
  3
PUCSORGBACK
350
F2
  3
UCSORTHOREF
350
F3
  3
UCSORTHOVIEW
350
F4
  3
UCSBASE
350
F5
  3
UCSORGTOP
350
F6
  3
UCSORGBOTTOM
350
F7
  3
UCSORGLEFT
350
F8
  3
UCSORGRIGHT
350
F9
  3
UCSORGFRONT
350
FA
  3
UCSORGBACK
350
FB
  0
XRECORD
  5
FD
102
{ACAD_REACTORS
330
9C
102
}
330
9C
100
AcDbXrecord
340
1F
  0
XRECORD
  5
FC
102
{ACAD_REACTORS
330
9A
102
}
330
9A
100
AcDbXrecord
340
1B
  0
MLINESTYLE
  5
18
102
{ACAD_REACTORS
330
17
102
}
330
17
100
AcDbMlineStyle
  2
STANDARD
 70
     0
  3

 62
   256
 51
90.0
 52
90.0
 71
     2
 49
0.5
 62
   256
  6
BYLAYER
 49
-0.5
 62
   256
  6
BYLAYER
  0
ACDBPLACEHOLDER
  5
A3
102
{ACAD_REACTORS
330
A2
102
}
330
A2
100
AcDbPlaceHolder
280
     0
  0
XRECORD
  5
DD
102
{ACAD_REACTORS
330
DC
102
}
330
DC
100
AcDbXrecord
 90
        1
  0
XRECORD
  5
DE
102
{ACAD_REACTORS
330
DC
102
}
330
DC
100
AcDbXrecord
 90
       70
  0
XRECORD
  5
DF
102
{ACAD_REACTORS
330
DC
102
}
330
DC
100
AcDbXrecord
  1

  0
XRECORD
  5
E0
102
{ACAD_REACTORS
330
DC
102
}
330
DC
100
AcDbXrecord
  1

  0
XRECORD
  5
E1
102
{ACAD_REACTORS
330
DC
102
}
330
DC
100
AcDbXrecord
340
1A
  0
XRECORD
  5
E2
102
{ACAD_REACTORS
330
DC
102
}
330
DC
100
AcDbXrecord
340
19
  0
XRECORD
  5
E3
102
{ACAD_REACTORS
330
DC
102
}
330
DC
100
AcDbXrecord
340
A2
  0
XRECORD
  5
E4
102
{ACAD_REACTORS
330
DC
102
}
330
DC
100
AcDbXrecord
 90
    10781
  0
XRECORD
  5
E5
102
{ACAD_REACTORS
330
DC
102
}
330
DC
100
AcDbXrecord
 90
        0
  0
XRECORD
  5
E6
102
{ACAD_REACTORS
330
DC
102
}
330
DC
100
AcDbXrecord
 90
        0
  0
XRECORD
  5
E7
102
{ACAD_REACTORS
330
DC
102
}
330
DC
100
AcDbXrecord
  1
{2B3A1AD7-0448-41A7-A5BF-3FAAFE51A83E}
  0
XRECORD
  5
E8
102
{ACAD_REACTORS
330
DC
102
}
330
DC
100
AcDbXrecord
  1
{FFCDEFF4-9A17-49C8-BB1D-A1DA8884A130}
  0
XRECORD
  5
E9
102
{ACAD_REACTORS
330
DC
102
}
330
DC
100
AcDbXrecord
 40
0.0
  0
XRECORD
  5
EA
102
{ACAD_REACTORS
330
DC
102
}
330
DC
100
AcDbXrecord
340
0
  0
XRECORD
  5
EB
102
{ACAD_REACTORS
330
DC
102
}
330
DC
100
AcDbXrecord
 70
     0
  0
XRECORD
  5
EC
102
{ACAD_REACTORS
330
DC
102
}
330
DC
100
AcDbXrecord
340
0
  0
XRECORD
  5
ED
102
{ACAD_REACTORS
330
DC
102
}
330
DC
100
AcDbXrecord
 10
0.0
 20
0.0
 30
0.0
  0
XRECORD
  5
EE
102
{ACAD_REACTORS
330
DC
102
}
330
DC
100
AcDbXrecord
 10
0.0
 20
0.0
 30
0.0
  0
XRECORD
  5
EF
102
{ACAD_REACTORS
330
DC
102
}
330
DC
100
AcDbXrecord
 10
0.0
 20
0.0
 30
0.0
  0
XRECORD
  5
F0
102
{ACAD_REACTORS
330
DC
102
}
330
DC
100
AcDbXrecord
 10
0.0
 20
0.0
 30
0.0
  0
XRECORD
  5
F1
102
{ACAD_REACTORS
330
DC
102
}
330
DC
100
AcDbXrecord
 10
0.0
 20
0.0
 30
0.0
  0
XRECORD
  5
F2
102
{ACAD_REACTORS
330
DC
102
}
330
DC
100
AcDbXrecord
 10
0.0
 20
0.0
 30
0.0
  0
XRECORD
  5
F3
102
{ACAD_REACTORS
330
DC
102
}
330
DC
100
AcDbXrecord
340
0
  0
XRECORD
  5
F4
102
{ACAD_REACTORS
330
DC
102
}
330
DC
100
AcDbXrecord
 70
     0
  0
XRECORD
  5
F5
102
{ACAD_REACTORS
330
DC
102
}
330
DC
100
AcDbXrecord
340
0
  0
XRECORD
  5
F6
102
{ACAD_REACTORS
330
DC
102
}
330
DC
100
AcDbXrecord
 10
0.0
 20
0.0
 30
0.0
  0
XRECORD
  5
F7
102
{ACAD_REACTORS
330
DC
102
}
330
DC
100
AcDbXrecord
 10
0.0
 20
0.0
 30
0.0
  0
XRECORD
  5
F8
102
{ACAD_REACTORS
330
DC
102
}
330
DC
100
AcDbXrecord
 10
0.0
 20
0.0
 30
0.0
  0
XRECORD
  5
F9
102
{ACAD_REACTORS
330
DC
102
}
330
DC
100
AcDbXrecord
 10
0.0
 20
0.0
 30
0.0
  0
XRECORD
  5
FA
102
{ACAD_REACTORS
330
DC
102
}
330
DC
100
AcDbXrecord
 10
0.0
 20
0.0
 30
0.0
  0
XRECORD
  5
FB
102
{ACAD_REACTORS
330
DC
102
}
330
DC
100
AcDbXrecord
 10
0.0
 20
0.0
 30
0.0
  0
ENDSEC
  0
EOF
