  0
SECTION
  2
HEADER
  9
$ACADVER
  1
AC1015
  9
$ACADMAINTVER
 70
    20
  9
$DWGCODEPAGE
  3
ANSI_1252
  9
$INSBASE
 10
0.0
 20
0.0
 30
0.0
  9
$EXTMIN
 10
108.6314303008939
 20
167.3324194663625
 30
0.0
  9
$EXTMAX
 10
2629.109695121935
 20
2114.819950285612
 30
0.0
  9
$LIMMIN
 10
0.0
 20
0.0
  9
$LIMMAX
 10
420.0
 20
297.0
  9
$ORTHOMODE
 70
     0
  9
$REGENMODE
 70
     1
  9
$FILLMODE
 70
     1
  9
$QTEXTMODE
 70
     0
  9
$MIRRTEXT
 70
     0
  9
$LTSCALE
 40
1.0
  9
$ATTMODE
 70
     1
  9
$TEXTSIZE
 40
2.5
  9
$TRACEWID
 40
1.0
  9
$TEXTSTYLE
  7
Standard
  9
$CLAYER
  8
0
  9
$CELTYPE
  6
ByLayer
  9
$CECOLOR
 62
   256
  9
$CELTSCALE
 40
1.0
  9
$DISPSILH
 70
     0
  9
$DIMSCALE
 40
1.0
  9
$DIMASZ
 40
2.5
  9
$DIMEXO
 40
0.625
  9
$DIMDLI
 40
3.75
  9
$DIMRND
 40
0.0
  9
$DIMDLE
 40
0.0
  9
$DIMEXE
 40
1.25
  9
$DIMTP
 40
0.0
  9
$DIMTM
 40
0.0
  9
$DIMTXT
 40
2.5
  9
$DIMCEN
 40
2.5
  9
$DIMTSZ
 40
0.0
  9
$DIMTOL
 70
     0
  9
$DIMLIM
 70
     0
  9
$DIMTIH
 70
     0
  9
$DIMTOH
 70
     0
  9
$DIMSE1
 70
     0
  9
$DIMSE2
 70
     0
  9
$DIMTAD
 70
     1
  9
$DIMZIN
 70
     8
  9
$DIMBLK
  1

  9
$DIMASO
 70
     1
  9
$DIMSHO
 70
     1
  9
$DIMPOST
  1

  9
$DIMAPOST
  1

  9
$DIMALT
 70
     0
  9
$DIMALTD
 70
     3
  9
$DIMALTF
 40
0.03937007874016
  9
$DIMLFAC
 40
1.0
  9
$DIMTOFL
 70
     1
  9
$DIMTVP
 40
0.0
  9
$DIMTIX
 70
     0
  9
$DIMSOXD
 70
     0
  9
$DIMSAH
 70
     0
  9
$DIMBLK1
  1

  9
$DIMBLK2
  1

  9
$DIMSTYLE
  2
ISO-25
  9
$DIMCLRD
 70
     0
  9
$DIMCLRE
 70
     0
  9
$DIMCLRT
 70
     0
  9
$DIMTFAC
 40
1.0
  9
$DIMGAP
 40
0.625
  9
$DIMJUST
 70
     0
  9
$DIMSD1
 70
     0
  9
$DIMSD2
 70
     0
  9
$DIMTOLJ
 70
     0
  9
$DIMTZIN
 70
     8
  9
$DIMALTZ
 70
     0
  9
$DIMALTTZ
 70
     0
  9
$DIMUPT
 70
     0
  9
$DIMDEC
 70
     2
  9
$DIMTDEC
 70
     2
  9
$DIMALTU
 70
     2
  9
$DIMALTTD
 70
     3
  9
$DIMTXSTY
  7
Standard
  9
$DIMAUNIT
 70
     0
  9
$DIMADEC
 70
     0
  9
$DIMALTRND
 40
0.0
  9
$DIMAZIN
 70
     0
  9
$DIMDSEP
 70
    44
  9
$DIMATFIT
 70
     3
  9
$DIMFRAC
 70
     0
  9
$DIMLDRBLK
  1

  9
$DIMLUNIT
 70
     2
  9
$DIMLWD
 70
    -2
  9
$DIMLWE
 70
    -2
  9
$DIMTMOVE
 70
     0
  9
$LUNITS
 70
     2
  9
$LUPREC
 70
     4
  9
$SKETCHINC
 40
1.0
  9
$FILLETRAD
 40
10.0
  9
$AUNITS
 70
     0
  9
$AUPREC
 70
     0
  9
$MENU
  1
.
  9
$ELEVATION
 40
0.0
  9
$PELEVATION
 40
0.0
  9
$THICKNESS
 40
0.0
  9
$LIMCHECK
 70
     0
  9
$CHAMFERA
 40
10.0
  9
$CHAMFERB
 40
10.0
  9
$CHAMFERC
 40
20.0
  9
$CHAMFERD
 40
0.0
  9
$SKPOLY
 70
     0
  9
$TDCREATE
 40
2453403.440331481
  9
$TDUCREATE
 40
2453403.398664815
  9
$TDUPDATE
 40
2453403.441753658
  9
$TDUUPDATE
 40
2453403.400086990
  9
$TDINDWG
 40
0.0014227546
  9
$TDUSRTIMER
 40
0.0014226389
  9
$USRTIMER
 70
     1
  9
$ANGBASE
 50
0.0
  9
$ANGDIR
 70
     0
  9
$PDMODE
 70
     0
  9
$PDSIZE
 40
0.0
  9
$PLINEWID
 40
0.0
  9
$SPLFRAME
 70
     0
  9
$SPLINETYPE
 70
     6
  9
$SPLINESEGS
 70
     8
  9
$HANDSEED
  5
E4F
  9
$SURFTAB1
 70
     6
  9
$SURFTAB2
 70
     6
  9
$SURFTYPE
 70
     6
  9
$SURFU
 70
     6
  9
$SURFV
 70
     6
  9
$UCSBASE
  2

  9
$UCSNAME
  2

  9
$UCSORG
 10
0.0
 20
0.0
 30
0.0
  9
$UCSXDIR
 10
1.0
 20
0.0
 30
0.0
  9
$UCSYDIR
 10
0.0
 20
1.0
 30
0.0
  9
$UCSORTHOREF
  2

  9
$UCSORTHOVIEW
 70
     0
  9
$UCSORGTOP
 10
0.0
 20
0.0
 30
0.0
  9
$UCSORGBOTTOM
 10
0.0
 20
0.0
 30
0.0
  9
$UCSORGLEFT
 10
0.0
 20
0.0
 30
0.0
  9
$UCSORGRIGHT
 10
0.0
 20
0.0
 30
0.0
  9
$UCSORGFRONT
 10
0.0
 20
0.0
 30
0.0
  9
$UCSORGBACK
 10
0.0
 20
0.0
 30
0.0
  9
$PUCSBASE
  2

  9
$PUCSNAME
  2

  9
$PUCSORG
 10
0.0
 20
0.0
 30
0.0
  9
$PUCSXDIR
 10
1.0
 20
0.0
 30
0.0
  9
$PUCSYDIR
 10
0.0
 20
1.0
 30
0.0
  9
$PUCSORTHOREF
  2

  9
$PUCSORTHOVIEW
 70
     0
  9
$PUCSORGTOP
 10
0.0
 20
0.0
 30
0.0
  9
$PUCSORGBOTTOM
 10
0.0
 20
0.0
 30
0.0
  9
$PUCSORGLEFT
 10
0.0
 20
0.0
 30
0.0
  9
$PUCSORGRIGHT
 10
0.0
 20
0.0
 30
0.0
  9
$PUCSORGFRONT
 10
0.0
 20
0.0
 30
0.0
  9
$PUCSORGBACK
 10
0.0
 20
0.0
 30
0.0
  9
$USERI1
 70
     0
  9
$USERI2
 70
     0
  9
$USERI3
 70
     0
  9
$USERI4
 70
     0
  9
$USERI5
 70
     0
  9
$USERR1
 40
0.0
  9
$USERR2
 40
0.0
  9
$USERR3
 40
0.0
  9
$USERR4
 40
0.0
  9
$USERR5
 40
0.0
  9
$WORLDVIEW
 70
     1
  9
$SHADEDGE
 70
     3
  9
$SHADEDIF
 70
    70
  9
$TILEMODE
 70
     1
  9
$MAXACTVP
 70
    64
  9
$PINSBASE
 10
0.0
 20
0.0
 30
0.0
  9
$PLIMCHECK
 70
     0
  9
$PEXTMIN
 10
0.0
 20
0.0
 30
0.0
  9
$PEXTMAX
 10
0.0
 20
0.0
 30
0.0
  9
$PLIMMIN
 10
0.0
 20
0.0
  9
$PLIMMAX
 10
12.0
 20
9.0
  9
$UNITMODE
 70
     0
  9
$VISRETAIN
 70
     1
  9
$PLINEGEN
 70
     0
  9
$PSLTSCALE
 70
     1
  9
$TREEDEPTH
 70
  3020
  9
$CMLSTYLE
  2
Standard
  9
$CMLJUST
 70
     0
  9
$CMLSCALE
 40
20.0
  9
$PROXYGRAPHICS
 70
     1
  9
$MEASUREMENT
 70
     1
  9
$CELWEIGHT
370
    -1
  9
$ENDCAPS
280
     0
  9
$JOINSTYLE
280
     0
  9
$LWDISPLAY
290
     0
  9
$INSUNITS
 70
     4
  9
$HYPERLINKBASE
  1

  9
$STYLESHEET
  1

  9
$XEDIT
290
     1
  9
$CEPSNTYPE
380
     0
  9
$PSTYLEMODE
290
     1
  9
$FINGERPRINTGUID
  2
{FDEAD578-A652-11D2-9A35-0060089B3A3F}
  9
$VERSIONGUID
  2
{D8FDC878-5A87-4B61-A30A-1CD990417C9D}
  9
$EXTNAMES
290
     1
  9
$PSVPSCALE
 40
0.0
  9
$OLESTARTUP
290
     0
  0
ENDSEC
  0
SECTION
  2
CLASSES
  0
CLASS
  1
ACDBDICTIONARYWDFLT
  2
AcDbDictionaryWithDefault
  3
ObjectDBX Classes
 90
        0
280
     0
281
     0
  0
CLASS
  1
DICTIONARYVAR
  2
AcDbDictionaryVar
  3
ObjectDBX Classes
 90
        0
280
     0
281
     0
  0
CLASS
  1
ACDBPLACEHOLDER
  2
AcDbPlaceHolder
  3
ObjectDBX Classes
 90
        0
280
     0
281
     0
  0
CLASS
  1
LAYOUT
  2
AcDbLayout
  3
ObjectDBX Classes
 90
        0
280
     0
281
     0
  0
ENDSEC
  0
SECTION
  2
TABLES
  0
TABLE
  2
VPORT
  5
8
330
0
100
AcDbSymbolTable
 70
     7
  0
VPORT
  5
E44
330
8
100
AcDbSymbolTableRecord
100
AcDbViewportTableRecord
  2
*Active
 70
     0
 10
0.0
 20
0.0
 11
1.0
 21
1.0
 12
1528.973639457199
 22
1056.13280596475
 13
0.0
 23
0.0
 14
10.0
 24
10.0
 15
10.0
 25
10.0
 16
0.0
 26
0.0
 36
1.0
 17
0.0
 27
0.0
 37
0.0
 40
4092.266729117201
 41
1.571614583333333
 42
50.0
 43
0.0
 44
0.0
 50
0.0
 51
0.0
 71
     0
 72
  1000
 73
     1
 74
     3
 75
     0
 76
     0
 77
     0
 78
     0
281
     0
 65
     1
110
0.0
120
0.0
130
0.0
111
1.0
121
0.0
131
0.0
112
0.0
122
1.0
132
0.0
 79
     0
146
0.0
  0
ENDTAB
  0
TABLE
  2
LTYPE
  5
5
330
0
100
AcDbSymbolTable
 70
     2
  0
LTYPE
  5
14
330
5
100
AcDbSymbolTableRecord
100
AcDbLinetypeTableRecord
  2
ByBlock
 70
     0
  3

 72
    65
 73
     0
 40
0.0
  0
LTYPE
  5
15
330
5
100
AcDbSymbolTableRecord
100
AcDbLinetypeTableRecord
  2
ByLayer
 70
     0
  3

 72
    65
 73
     0
 40
0.0
  0
LTYPE
  5
16
330
5
100
AcDbSymbolTableRecord
100
AcDbLinetypeTableRecord
  2
Continuous
 70
     0
  3
Solid line
 72
    65
 73
     0
 40
0.0
  0
LTYPE
  5
86
330
5
100
AcDbSymbolTableRecord
100
AcDbLinetypeTableRecord
  2
IMPORT
 70
     0
  3

 72
    65
 73
     0
 40
0.0
  0
ENDTAB
  0
TABLE
  2
LAYER
  5
2
330
0
100
AcDbSymbolTable
 70
     2
  0
LAYER
  5
10
330
2
100
AcDbSymbolTableRecord
100
AcDbLayerTableRecord
  2
0
 70
     0
 62
     7
  6
Continuous
370
    -3
390
F
  0
LAYER
  5
87
330
2
100
AcDbSymbolTableRecord
100
AcDbLayerTableRecord
  2
STANDARD
 70
     0
 62
     7
  6
Continuous
370
    -3
390
F
  0
ENDTAB
  0
TABLE
  2
STYLE
  5
3
330
0
100
AcDbSymbolTable
 70
     1
  0
STYLE
  5
11
330
3
100
AcDbSymbolTableRecord
100
AcDbTextStyleTableRecord
  2
Standard
 70
     0
 40
0.0
 41
1.0
 50
0.0
 71
     0
 42
2.5
  3
txt
  4

  0
ENDTAB
  0
TABLE
  2
VIEW
  5
6
330
0
100
AcDbSymbolTable
 70
     0
  0
ENDTAB
  0
TABLE
  2
UCS
  5
7
330
0
100
AcDbSymbolTable
 70
     0
  0
ENDTAB
  0
TABLE
  2
APPID
  5
9
330
0
100
AcDbSymbolTable
 70
     1
  0
APPID
  5
12
330
9
100
AcDbSymbolTableRecord
100
AcDbRegAppTableRecord
  2
ACAD
 70
     0
  0
ENDTAB
  0
TABLE
  2
DIMSTYLE
  5
A
330
0
100
AcDbSymbolTable
 70
     1
100
AcDbDimStyleTable
 71
     0
  0
DIMSTYLE
105
27
330
A
100
AcDbSymbolTableRecord
100
AcDbDimStyleTableRecord
  2
ISO-25
 70
     0
 41
2.5
 42
0.625
 43
3.75
 44
1.25
 73
     0
 74
     0
 77
     1
 78
     8
140
2.5
141
2.5
143
0.03937007874016
147
0.625
171
     3
172
     1
271
     2
272
     2
274
     3
278
    44
283
     0
284
     8
340
11
  0
ENDTAB
  0
TABLE
  2
BLOCK_RECORD
  5
1
330
0
100
AcDbSymbolTable
 70
     4
  0
BLOCK_RECORD
  5
1F
330
1
100
AcDbSymbolTableRecord
100
AcDbBlockTableRecord
  2
*Model_Space
340
22
  0
BLOCK_RECORD
  5
50
330
1
100
AcDbSymbolTableRecord
100
AcDbBlockTableRecord
  2
*Paper_Space
340
51
  0
BLOCK_RECORD
  5
55
330
1
100
AcDbSymbolTableRecord
100
AcDbBlockTableRecord
  2
*Paper_Space0
340
56
  0
ENDTAB
  0
ENDSEC
  0
SECTION
  2
BLOCKS
  0
BLOCK
  5
20
330
1F
100
AcDbEntity
  8
0
100
AcDbBlockBegin
  2
*Model_Space
 70
     0
 10
0.0
 20
0.0
 30
0.0
  3
*Model_Space
  1

  0
ENDBLK
  5
21
330
1F
100
AcDbEntity
  8
0
100
AcDbBlockEnd
  0
BLOCK
  5
52
330
50
100
AcDbEntity
 67
     1
  8
0
100
AcDbBlockBegin
  2
*Paper_Space
 70
     0
 10
0.0
 20
0.0
 30
0.0
  3
*Paper_Space
  1

  0
ENDBLK
  5
53
330
50
100
AcDbEntity
 67
     1
  8
0
100
AcDbBlockEnd
  0
BLOCK
  5
57
330
55
100
AcDbEntity
  8
0
100
AcDbBlockBegin
  2
*Paper_Space0
 70
     0
 10
0.0
 20
0.0
 30
0.0
  3
*Paper_Space0
  1

  0
ENDBLK
  5
58
330
55
100
AcDbEntity
  8
0
100
AcDbBlockEnd
  0
ENDSEC
  0
SECTION
  2
ENTITIES
  0
LINE
  5
BD2
330
1F
100
AcDbEntity
  8
STANDARD
  6
IMPORT
 62
     7
100
AcDbLine
 10
921.0571505829252
 20
1771.890911285611
 30
0.0
 11
921.3227485829252
 21
1772.189220285611
 31
0.0
  0
LINE
  5
BD3
330
1F
100
AcDbEntity
  8
STANDARD
  6
IMPORT
 62
     7
100
AcDbLine
 10
917.3084665829264
 20
1770.128292285611
 30
0.0
 11
918.1052415829258
 21
1771.023144285611
 31
0.0
  0
LINE
  5
BD4
330
1F
100
AcDbEntity
  8
STANDARD
  6
IMPORT
 62
     7
100
AcDbLine
 10
926.5831015829258
 20
1771.310085285611
 30
0.0
 11
926.8758605829257
 21
1771.061367285611
 31
0.0
  0
LINE
  5
BD5
330
1F
100
AcDbEntity
  8
STANDARD
  6
IMPORT
 62
     7
100
AcDbLine
 10
928.3073065829253
 20
1770.604748285611
 30
0.0
 11
929.1856025829252
 21
1769.858516285611
 31
0.0
  0
LINE
  5
BD6
330
1F
100
AcDbEntity
  8
STANDARD
  6
IMPORT
 62
     7
100
AcDbLine
 10
921.3227485829252
 20
1772.189220285611
 30
0.0
 11
921.4560915829265
 21
1772.560009285611
 31
0.0
  0
LINE
  5
BD7
330
1F
100
AcDbEntity
  8
STANDARD
  6
IMPORT
 62
     7
100
AcDbLine
 10
916.9084565829265
 20
1769.015926285611
 30
0.0
 11
917.3084665829264
 21
1770.128292285611
 31
0.0
  0
LINE
  5
BD8
330
1F
100
AcDbEntity
  8
STANDARD
  6
IMPORT
 62
     7
100
AcDbLine
 10
926.8758605829257
 20
1771.061367285611
 30
0.0
 11
928.3073065829253
 21
1770.604748285611
 31
0.0
  0
LINE
  5
BD9
330
1F
100
AcDbEntity
  8
STANDARD
  6
IMPORT
 62
     7
100
AcDbLine
 10
926.3950365829256
 20
1772.040905285611
 30
0.0
 11
930.1296635829253
 21
1796.831325285611
 31
0.0
  0
LINE
  5
BDA
330
1F
100
AcDbEntity
  8
STANDARD
  6
IMPORT
 62
     7
100
AcDbLine
 10
926.7181035829258
 20
1747.542156285611
 30
0.0
 11
929.7497385829251
 21
1767.666286285611
 31
0.0
  0
LINE
  5
BDB
330
1F
100
AcDbEntity
  8
STANDARD
  6
IMPORT
 62
     7
100
AcDbLine
 10
919.1774775829268
 20
1771.564373285611
 30
0.0
 11
920.3619215829261
 21
1771.669506285611
 31
0.0
  0
LINE
  5
BDC
330
1F
100
AcDbEntity
  8
STANDARD
  6
IMPORT
 62
     7
100
AcDbLine
 10
926.4142625829254
 20
1771.654094285611
 30
0.0
 11
926.5831015829258
 21
1771.310085285611
 31
0.0
  0
LINE
  5
BDD
330
1F
100
AcDbEntity
  8
STANDARD
  6
IMPORT
 62
     7
100
AcDbLine
 10
929.1856025829252
 20
1769.858516285611
 30
0.0
 11
929.6921175829252
 21
1768.826717285611
 31
0.0
  0
LINE
  5
BDE
330
1F
100
AcDbEntity
  8
STANDARD
  6
IMPORT
 62
     7
100
AcDbLine
 10
920.6997515829257
 20
1771.710476285611
 30
0.0
 11
921.0571505829252
 21
1771.890911285611
 31
0.0
  0
LINE
  5
BDF
330
1F
100
AcDbEntity
  8
STANDARD
  6
IMPORT
 62
     7
100
AcDbLine
 10
918.1052415829258
 20
1771.023144285611
 30
0.0
 11
919.1774775829268
 21
1771.564373285611
 31
0.0
  0
LINE
  5
BE0
330
1F
100
AcDbEntity
  8
STANDARD
  6
IMPORT
 62
     7
100
AcDbLine
 10
926.3950365829256
 20
1771.654094285611
 30
0.0
 11
926.4142625829254
 21
1772.040905285611
 31
0.0
  0
LINE
  5
BE1
330
1F
100
AcDbEntity
  8
STANDARD
  6
IMPORT
 62
     7
100
AcDbLine
 10
929.6921175829252
 20
1767.666286285611
 30
0.0
 11
929.7497385829251
 21
1768.826717285611
 31
0.0
  0
LINE
  5
BE2
330
1F
100
AcDbEntity
  8
STANDARD
  6
IMPORT
 62
     7
100
AcDbLine
 10
920.3049295829256
 20
1771.675457285611
 30
0.0
 11
922.1532465829254
 21
1771.481212285611
 31
0.0
  0
LINE
  5
BE3
330
1F
100
AcDbEntity
  8
STANDARD
  6
IMPORT
 62
     7
100
AcDbLine
 10
921.2297845829256
 20
1771.578258285611
 30
0.0
 11
923.6048525829255
 21
1771.328625285611
 31
0.0
  0
LINE
  5
BE4
330
1F
100
AcDbEntity
  8
STANDARD
  6
IMPORT
 62
     7
100
AcDbLine
 10
926.1181085829266
 20
1771.064495285611
 30
0.0
 11
927.1992515829255
 21
1770.950817285611
 31
0.0
  0
LINE
  5
BE5
330
1F
100
AcDbEntity
  8
STANDARD
  6
IMPORT
 62
     7
100
AcDbLine
 10
925.1140615829253
 20
1771.170009285611
 30
0.0
 11
926.9619005829259
 21
1770.975765285611
 31
0.0
  0
LINE
  5
BE6
330
1F
100
AcDbEntity
  8
STANDARD
  6
IMPORT
 62
     7
100
AcDbLine
 10
923.9480425829256
 20
1771.292537285611
 30
0.0
 11
925.8886545829254
 21
1771.088604285611
 31
0.0
  0
LINE
  5
BE7
330
1F
100
AcDbEntity
  8
STANDARD
  6
IMPORT
 62
     7
100
AcDbLine
 10
922.7453825829256
 20
1771.418957285611
 30
0.0
 11
924.8075125829254
 21
1771.202205285611
 31
0.0
  0
ARC
  5
BE8
330
1F
100
AcDbEntity
  8
STANDARD
  6
IMPORT
 62
     7
100
AcDbCircle
 10
750.350566582927
 20
1664.351715285611
 30
0.0
 40
2.999969999999999
100
AcDbArc
 50
269.9995889999899
 51
0.0011399999975601
  0
ARC
  5
BE9
330
1F
100
AcDbEntity
  8
STANDARD
  6
IMPORT
 62
     7
100
AcDbCircle
 10
750.350546582927
 20
1727.28829528561
 30
0.0
 40
2.999989999999999
100
AcDbArc
 50
359.9992680000019
 51
90.00000299998466
  0
LINE
  5
BEA
330
1F
100
AcDbEntity
  8
STANDARD
  6
IMPORT
 62
     7
100
AcDbLine
 10
753.3505365829268
 20
1664.35177528561
 30
0.0
 11
753.3505365829268
 21
1727.28825528561
 31
0.0
  0
LINE
  5
BEB
330
1F
100
AcDbEntity
  8
STANDARD
  6
IMPORT
 62
     7
100
AcDbLine
 10
743.3505365829269
 20
1655.819975285611
 30
0.0
 11
743.3505365829269
 21
1735.81997528561
 31
0.0
  0
LINE
  5
BEC
330
1F
100
AcDbEntity
  8
STANDARD
  6
IMPORT
 62
     7
100
AcDbLine
 10
738.3505365829269
 20
1655.819975285611
 30
0.0
 11
738.3505365829269
 21
1735.81997528561
 31
0.0
  0
LINE
  5
BED
330
1F
100
AcDbEntity
  8
STANDARD
  6
IMPORT
 62
     7
100
AcDbLine
 10
743.3505365829269
 20
1661.351745285611
 30
0.0
 11
750.350546582927
 21
1661.351745285611
 31
0.0
  0
LINE
  5
BEE
330
1F
100
AcDbEntity
  8
STANDARD
  6
IMPORT
 62
     7
100
AcDbLine
 10
738.3505365829269
 20
1655.819975285611
 30
0.0
 11
743.3505365829269
 21
1655.819975285611
 31
0.0
  0
LINE
  5
BEF
330
1F
100
AcDbEntity
  8
STANDARD
  6
IMPORT
 62
     7
100
AcDbLine
 10
743.3505365829269
 20
1730.28828528561
 30
0.0
 11
750.350546582927
 21
1730.28828528561
 31
0.0
  0
LINE
  5
BF0
330
1F
100
AcDbEntity
  8
STANDARD
  6
IMPORT
 62
     7
100
AcDbLine
 10
738.3505365829269
 20
1735.81997528561
 30
0.0
 11
743.3505365829269
 21
1735.81997528561
 31
0.0
  0
LINE
  5
BF1
330
1F
100
AcDbEntity
  8
STANDARD
  6
IMPORT
 62
     7
100
AcDbLine
 10
922.7261765829275
 20
1771.418955285611
 30
0.0
 11
924.7883265829269
 21
1771.202205285612
 31
0.0
  0
LINE
  5
BF2
330
1F
100
AcDbEntity
  8
STANDARD
  6
IMPORT
 62
     7
100
AcDbLine
 10
923.9288365829265
 20
1771.292535285612
 30
0.0
 11
925.8694565829269
 21
1771.088605285612
 31
0.0
  0
LINE
  5
BF3
330
1F
100
AcDbEntity
  8
STANDARD
  6
IMPORT
 62
     7
100
AcDbLine
 10
925.0948365829271
 20
1771.170015285612
 30
0.0
 11
926.9427165829274
 21
1770.97576528561
 31
0.0
  0
LINE
  5
BF4
330
1F
100
AcDbEntity
  8
STANDARD
  6
IMPORT
 62
     7
100
AcDbLine
 10
926.0989065829262
 20
1771.06449528561
 30
0.0
 11
927.1800665829259
 21
1770.950815285612
 31
0.0
  0
LINE
  5
BF5
330
1F
100
AcDbEntity
  8
STANDARD
  6
IMPORT
 62
     7
100
AcDbLine
 10
921.2105965829259
 20
1771.578255285612
 30
0.0
 11
923.5856665829278
 21
1771.328625285612
 31
0.0
  0
LINE
  5
BF6
330
1F
100
AcDbEntity
  8
STANDARD
  6
IMPORT
 62
     7
100
AcDbLine
 10
920.2857265829271
 20
1771.675455285612
 30
0.0
 11
922.1340665829261
 21
1771.481215285612
 31
0.0
  0
LINE
  5
BF7
330
1F
100
AcDbEntity
  8
STANDARD
  6
IMPORT
 62
     7
100
AcDbLine
 10
761.1202665829268
 20
1612.162065285612
 30
0.0
 11
761.5374465829286
 21
1612.422685285611
 31
0.0
  0
LINE
  5
BF8
330
1F
100
AcDbEntity
  8
STANDARD
  6
IMPORT
 62
     7
100
AcDbLine
 10
760.6764265829265
 20
1612.230035285611
 30
0.0
 11
761.0610665829272
 21
1612.214775285612
 31
0.0
  0
LINE
  5
BF9
330
1F
100
AcDbEntity
  8
STANDARD
  6
IMPORT
 62
     7
100
AcDbLine
 10
755.6147465829276
 20
1608.721815285612
 30
0.0
 11
755.7204465829268
 21
1608.787885285612
 31
0.0
  0
LINE
  5
BFA
330
1F
100
AcDbEntity
  8
STANDARD
  6
IMPORT
 62
     7
100
AcDbLine
 10
762.0327865829263
 20
1612.48089528561
 30
0.0
 11
763.0986065829261
 21
1612.431225285612
 31
0.0
  0
LINE
  5
BFB
330
1F
100
AcDbEntity
  8
STANDARD
  6
IMPORT
 62
     7
100
AcDbLine
 10
759.5891265829258
 20
1611.205255285612
 30
0.0
 11
760.060086582926
 21
1611.248215285611
 31
0.0
  0
LINE
  5
BFC
330
1F
100
AcDbEntity
  8
STANDARD
  6
IMPORT
 62
     7
100
AcDbLine
 10
758.2064165829279
 20
1610.34122528561
 30
0.0
 11
758.5212765829255
 21
1610.286675285612
 31
0.0
  0
LINE
  5
BFD
330
1F
100
AcDbEntity
  8
STANDARD
  6
IMPORT
 62
     7
100
AcDbLine
 10
755.2114565829261
 20
1608.469815285612
 30
0.0
 11
755.3507265829257
 21
1608.556865285612
 31
0.0
  0
LINE
  5
BFE
330
1F
100
AcDbEntity
  8
STANDARD
  6
IMPORT
 62
     7
100
AcDbLine
 10
738.3505365829269
 20
1660.819975285611
 30
0.0
 11
738.3505365829269
 21
1730.819975285611
 31
0.0
  0
LINE
  5
BFF
330
1F
100
AcDbEntity
  8
STANDARD
  6
IMPORT
 62
     7
100
AcDbLine
 10
929.672896582927
 20
1767.666285285612
 30
0.0
 11
929.7305365829261
 21
1768.82671528561
 31
0.0
  0
LINE
  5
C00
330
1F
100
AcDbEntity
  8
STANDARD
  6
IMPORT
 62
     7
100
AcDbLine
 10
926.3758565829261
 20
1771.654095285612
 30
0.0
 11
926.3950365829256
 21
1772.040905285611
 31
0.0
  0
LINE
  5
C01
330
1F
100
AcDbEntity
  8
STANDARD
  6
IMPORT
 62
     7
100
AcDbLine
 10
755.965166582926
 20
1609.286165285611
 30
0.0
 11
755.9895365829261
 21
1609.683955285612
 31
0.0
  0
LINE
  5
C02
330
1F
100
AcDbEntity
  8
STANDARD
  6
IMPORT
 62
     7
100
AcDbLine
 10
756.0086865829267
 20
1606.991395285612
 30
0.0
 11
756.1072565829268
 21
1607.357605285612
 31
0.0
  0
LINE
  5
C03
330
1F
100
AcDbEntity
  8
STANDARD
  6
IMPORT
 62
     7
100
AcDbLine
 10
754.7722265829265
 20
1606.183665285612
 30
0.0
 11
754.8146465829263
 21
1607.228285285612
 31
0.0
  0
LINE
  5
C04
330
1F
100
AcDbEntity
  8
STANDARD
  6
IMPORT
 62
     7
100
AcDbLine
 10
754.0040665829264
 20
1605.67715528561
 30
0.0
 11
754.1231565829257
 21
1606.82270528561
 31
0.0
  0
LINE
  5
C05
330
1F
100
AcDbEntity
  8
STANDARD
  6
IMPORT
 62
     7
100
AcDbLine
 10
755.8604865829257
 20
1607.908295285612
 30
0.0
 11
755.8899765829259
 21
1608.642465285612
 31
0.0
  0
LINE
  5
C06
330
1F
100
AcDbEntity
  8
STANDARD
  6
IMPORT
 62
     7
100
AcDbLine
 10
757.305226582926
 20
1608.868145285611
 30
0.0
 11
757.3965565829261
 21
1609.526795285612
 31
0.0
  0
LINE
  5
C07
330
1F
100
AcDbEntity
  8
STANDARD
  6
IMPORT
 62
     7
100
AcDbLine
 10
757.1221565829269
 20
1609.412425285612
 30
0.0
 11
757.1222365829266
 21
1609.663735285611
 31
0.0
  0
LINE
  5
C08
330
1F
100
AcDbEntity
  8
STANDARD
  6
IMPORT
 62
     7
100
AcDbLine
 10
754.4871965829266
 20
1607.765925285611
 30
0.0
 11
755.2114565829261
 21
1608.469815285612
 31
0.0
  0
LINE
  5
C09
330
1F
100
AcDbEntity
  8
STANDARD
  6
IMPORT
 62
     7
100
AcDbLine
 10
755.5061365829256
 20
1608.65391528561
 30
0.0
 11
755.7953665829272
 21
1608.924455285612
 31
0.0
  0
LINE
  5
C0A
330
1F
100
AcDbEntity
  8
STANDARD
  6
IMPORT
 62
     7
100
AcDbLine
 10
754.5641365829255
 20
1607.813995285612
 30
0.0
 11
755.3507265829257
 21
1608.556865285612
 31
0.0
  0
LINE
  5
C0B
330
1F
100
AcDbEntity
  8
STANDARD
  6
IMPORT
 62
     7
100
AcDbLine
 10
760.0756565829255
 20
1612.688485285612
 30
0.0
 11
760.3303965829259
 21
1612.396355285612
 31
0.0
  0
LINE
  5
C0C
330
1F
100
AcDbEntity
  8
STANDARD
  6
IMPORT
 62
     7
100
AcDbLine
 10
758.694806582926
 20
1610.395095285611
 30
0.0
 11
759.0553765829277
 21
1609.90467528561
 31
0.0
  0
LINE
  5
C0D
330
1F
100
AcDbEntity
  8
STANDARD
  6
IMPORT
 62
     7
100
AcDbLine
 10
754.4943265829256
 20
1604.484145285612
 30
0.0
 11
758.0310165829273
 21
1599.408615285612
 31
0.0
  0
LINE
  5
C0E
330
1F
100
AcDbEntity
  8
STANDARD
  6
IMPORT
 62
     7
100
AcDbLine
 10
765.4470865829257
 20
1611.32816528561
 30
0.0
 11
768.2805365829262
 21
1607.261855285612
 31
0.0
  0
LINE
  5
C0F
330
1F
100
AcDbEntity
  8
STANDARD
  6
IMPORT
 62
     7
100
AcDbLine
 10
754.388356582926
 20
1604.653745285611
 30
0.0
 11
754.4943265829256
 21
1604.484145285612
 31
0.0
  0
LINE
  5
C10
330
1F
100
AcDbEntity
  8
STANDARD
  6
IMPORT
 62
     7
100
AcDbLine
 10
765.3411165829261
 20
1611.497845285612
 30
0.0
 11
765.4470865829257
 21
1611.32816528561
 31
0.0
  0
LINE
  5
C11
330
1F
100
AcDbEntity
  8
STANDARD
  6
IMPORT
 62
     7
100
AcDbLine
 10
755.3507265829257
 20
1608.556865285612
 30
0.0
 11
761.4648465829277
 21
1612.377365285612
 31
0.0
  0
LINE
  5
C12
330
1F
100
AcDbEntity
  8
STANDARD
  6
IMPORT
 62
     7
100
AcDbLine
 10
754.7542665829273
 20
1612.005425285612
 30
0.0
 11
755.8649165829279
 21
1610.057335285612
 31
0.0
  0
LINE
  5
C13
330
1F
100
AcDbEntity
  8
STANDARD
  6
IMPORT
 62
     7
100
AcDbLine
 10
759.1753865829268
 20
1614.267545285612
 30
0.0
 11
760.0756565829255
 21
1612.688485285612
 31
0.0
  0
LINE
  5
C14
330
1F
100
AcDbEntity
  8
STANDARD
  6
IMPORT
 62
     7
100
AcDbLine
 10
757.3481765829269
 20
1608.83793528561
 30
0.0
 11
757.7656265829268
 21
1608.027615285612
 31
0.0
  0
LINE
  5
C15
330
1F
100
AcDbEntity
  8
STANDARD
  6
IMPORT
 62
     7
100
AcDbLine
 10
918.0860565829261
 20
1771.023145285611
 30
0.0
 11
919.1582565829257
 21
1771.564375285611
 31
0.0
  0
LINE
  5
C16
330
1F
100
AcDbEntity
  8
STANDARD
  6
IMPORT
 62
     7
100
AcDbLine
 10
920.680546582926
 20
1771.71047528561
 30
0.0
 11
921.0379465829278
 21
1771.89091528561
 31
0.0
  0
LINE
  5
C17
330
1F
100
AcDbEntity
  8
STANDARD
  6
IMPORT
 62
     7
100
AcDbLine
 10
929.166416582928
 20
1769.858515285612
 30
0.0
 11
929.672896582927
 21
1768.82671528561
 31
0.0
  0
LINE
  5
C18
330
1F
100
AcDbEntity
  8
STANDARD
  6
IMPORT
 62
     7
100
AcDbLine
 10
926.3950365829256
 20
1771.654095285612
 30
0.0
 11
926.5638765829267
 21
1771.310085285612
 31
0.0
  0
LINE
  5
C19
330
1F
100
AcDbEntity
  8
STANDARD
  6
IMPORT
 62
     7
100
AcDbLine
 10
752.254336582926
 20
1617.48920528561
 30
0.0
 11
754.7542665829273
 21
1612.005425285612
 31
0.0
  0
LINE
  5
C1A
330
1F
100
AcDbEntity
  8
STANDARD
  6
IMPORT
 62
     7
100
AcDbLine
 10
756.861696582926
 20
1619.34292528561
 30
0.0
 11
759.1753865829268
 21
1614.267545285612
 31
0.0
  0
LINE
  5
C1B
330
1F
100
AcDbEntity
  8
STANDARD
  6
IMPORT
 62
     7
100
AcDbLine
 10
757.1222365829266
 20
1609.412425285612
 30
0.0
 11
757.3481765829269
 21
1608.83793528561
 31
0.0
  0
LINE
  5
C1C
330
1F
100
AcDbEntity
  8
STANDARD
  6
IMPORT
 62
     7
100
AcDbLine
 10
754.0026565829266
 20
1605.67623528561
 30
0.0
 11
754.388356582926
 21
1604.653745285611
 31
0.0
  0
LINE
  5
C1D
330
1F
100
AcDbEntity
  8
STANDARD
  6
IMPORT
 62
     7
100
AcDbLine
 10
757.3965565829261
 20
1608.868145285611
 30
0.0
 11
757.7240065829283
 21
1608.001595285611
 31
0.0
  0
LINE
  5
C1E
330
1F
100
AcDbEntity
  8
STANDARD
  6
IMPORT
 62
     7
100
AcDbLine
 10
761.051606582926
 20
1612.119105285612
 30
0.0
 11
762.0327865829263
 21
1612.48089528561
 31
0.0
  0
LINE
  5
C1F
330
1F
100
AcDbEntity
  8
STANDARD
  6
IMPORT
 62
     7
100
AcDbLine
 10
750.2584165829266
 20
1623.180505285612
 30
0.0
 11
752.254336582926
 21
1617.48920528561
 31
0.0
  0
LINE
  5
C20
330
1F
100
AcDbEntity
  8
STANDARD
  6
IMPORT
 62
     7
100
AcDbLine
 10
755.0172065829265
 20
1624.602395285611
 30
0.0
 11
756.861696582926
 21
1619.34292528561
 31
0.0
  0
LINE
  5
C21
330
1F
100
AcDbEntity
  8
STANDARD
  6
IMPORT
 62
     7
100
AcDbLine
 10
761.1471665829258
 20
1612.178845285612
 30
0.0
 11
762.0810365829261
 21
1612.511025285611
 31
0.0
  0
LINE
  5
C22
330
1F
100
AcDbEntity
  8
STANDARD
  6
IMPORT
 62
     7
100
AcDbLine
 10
761.5374465829286
 20
1612.422685285611
 30
0.0
 11
762.2999265829257
 21
1612.697495285612
 31
0.0
  0
LINE
  5
C23
330
1F
100
AcDbEntity
  8
STANDARD
  6
IMPORT
 62
     7
100
AcDbLine
 10
755.8649165829279
 20
1610.057335285612
 30
0.0
 11
755.9895365829261
 21
1609.683955285612
 31
0.0
  0
LINE
  5
C24
330
1F
100
AcDbEntity
  8
STANDARD
  6
IMPORT
 62
     7
100
AcDbLine
 10
760.2984265829259
 20
1611.648525285612
 30
0.0
 11
761.1353765829262
 21
1611.920135285612
 31
0.0
  0
LINE
  5
C25
330
1F
100
AcDbEntity
  8
STANDARD
  6
IMPORT
 62
     7
100
AcDbLine
 10
760.4959565829262
 20
1611.771965285612
 30
0.0
 11
761.2360865829264
 21
1611.983075285612
 31
0.0
  0
LINE
  5
C26
330
1F
100
AcDbEntity
  8
STANDARD
  6
IMPORT
 62
     7
100
AcDbLine
 10
755.8604865829257
 20
1607.908295285612
 30
0.0
 11
756.0086865829267
 21
1607.357605285612
 31
0.0
  0
LINE
  5
C27
330
1F
100
AcDbEntity
  8
STANDARD
  6
IMPORT
 62
     7
100
AcDbLine
 10
747.1180365829259
 20
1635.826615285612
 30
0.0
 11
750.2584165829266
 21
1623.180505285612
 31
0.0
  0
LINE
  5
C28
330
1F
100
AcDbEntity
  8
STANDARD
  6
IMPORT
 62
     7
100
AcDbLine
 10
751.9912365829263
 20
1636.78776528561
 30
0.0
 11
755.0172065829265
 21
1624.602395285611
 31
0.0
  0
LINE
  5
C29
330
1F
100
AcDbEntity
  8
STANDARD
  6
IMPORT
 62
     7
100
AcDbLine
 10
759.3102665829274
 20
1611.031005285611
 30
0.0
 11
759.9157365829269
 21
1611.158035285611
 31
0.0
  0
LINE
  5
C2A
330
1F
100
AcDbEntity
  8
STANDARD
  6
IMPORT
 62
     7
100
AcDbLine
 10
755.9090065829281
 20
1607.938655285611
 30
0.0
 11
756.0749865829275
 21
1606.971245285611
 31
0.0
  0
LINE
  5
C2B
330
1F
100
AcDbEntity
  8
STANDARD
  6
IMPORT
 62
     7
100
AcDbLine
 10
745.2212165829287
 20
1648.722425285611
 30
0.0
 11
747.1180365829259
 21
1635.826615285612
 31
0.0
  0
LINE
  5
C2C
330
1F
100
AcDbEntity
  8
STANDARD
  6
IMPORT
 62
     7
100
AcDbLine
 10
750.1647665829268
 20
1649.205285285612
 30
0.0
 11
751.9912365829263
 21
1636.78776528561
 31
0.0
  0
LINE
  5
C2D
330
1F
100
AcDbEntity
  8
STANDARD
  6
IMPORT
 62
     7
100
AcDbLine
 10
919.1582565829257
 20
1771.564375285611
 30
0.0
 11
920.3427165829266
 21
1771.669505285612
 31
0.0
  0
LINE
  5
C2E
330
1F
100
AcDbEntity
  8
STANDARD
  6
IMPORT
 62
     7
100
AcDbLine
 10
744.6268565829264
 20
1660.921975285611
 30
0.0
 11
745.2212165829287
 21
1648.722425285611
 31
0.0
  0
LINE
  5
C2F
330
1F
100
AcDbEntity
  8
STANDARD
  6
IMPORT
 62
     7
100
AcDbLine
 10
749.5652065829262
 20
1661.510665285612
 30
0.0
 11
750.1647665829268
 21
1649.205285285612
 31
0.0
  0
LINE
  5
C30
330
1F
100
AcDbEntity
  8
STANDARD
  6
IMPORT
 62
     7
100
AcDbLine
 10
761.1353765829262
 20
1611.920135285612
 30
0.0
 11
762.0708165829269
 21
1611.788985285611
 31
0.0
  0
LINE
  5
C31
330
1F
100
AcDbEntity
  8
STANDARD
  6
IMPORT
 62
     7
100
AcDbLine
 10
926.6989165829269
 20
1747.54215528561
 30
0.0
 11
929.7305365829261
 21
1767.666285285612
 31
0.0
  0
LINE
  5
C32
330
1F
100
AcDbEntity
  8
STANDARD
  6
IMPORT
 62
     7
100
AcDbLine
 10
755.9090065829281
 20
1607.938655285611
 30
0.0
 11
756.0593465829261
 21
1608.748285285611
 31
0.0
  0
LINE
  5
C33
330
1F
100
AcDbEntity
  8
STANDARD
  6
IMPORT
 62
     7
100
AcDbLine
 10
761.2360865829264
 20
1611.983075285612
 30
0.0
 11
762.0894265829265
 21
1611.800575285611
 31
0.0
  0
LINE
  5
C34
330
1F
100
AcDbEntity
  8
STANDARD
  6
IMPORT
 62
     7
100
AcDbLine
 10
754.7320665829279
 20
1607.20318528561
 30
0.0
 11
754.9748265829266
 21
1608.07064528561
 31
0.0
  0
LINE
  5
C35
330
1F
100
AcDbEntity
  8
STANDARD
  6
IMPORT
 62
     7
100
AcDbLine
 10
926.8566565829264
 20
1771.061365285612
 30
0.0
 11
928.2881265829264
 21
1770.60474528561
 31
0.0
  0
LINE
  5
C36
330
1F
100
AcDbEntity
  8
STANDARD
  6
IMPORT
 62
     7
100
AcDbLine
 10
759.9157365829269
 20
1611.158035285611
 30
0.0
 11
760.6549565829273
 21
1610.904275285611
 31
0.0
  0
LINE
  5
C37
330
1F
100
AcDbEntity
  8
STANDARD
  6
IMPORT
 62
     7
100
AcDbLine
 10
916.8892365829261
 20
1769.01592528561
 30
0.0
 11
917.2892865829266
 21
1770.12829528561
 31
0.0
  0
LINE
  5
C38
330
1F
100
AcDbEntity
  8
STANDARD
  6
IMPORT
 62
     7
100
AcDbLine
 10
921.3035265829258
 20
1772.189225285612
 30
0.0
 11
921.4368865829255
 21
1772.560005285611
 31
0.0
  0
LINE
  5
C39
330
1F
100
AcDbEntity
  8
STANDARD
  6
IMPORT
 62
     7
100
AcDbLine
 10
754.7722265829265
 20
1607.228285285612
 30
0.0
 11
755.1074665829268
 21
1608.153505285612
 31
0.0
  0
LINE
  5
C3A
330
1F
100
AcDbEntity
  8
STANDARD
  6
IMPORT
 62
     7
100
AcDbLine
 10
754.0991265829261
 20
1606.807675285611
 30
0.0
 11
754.4871965829266
 21
1607.765925285611
 31
0.0
  0
LINE
  5
C3B
330
1F
100
AcDbEntity
  8
STANDARD
  6
IMPORT
 62
     7
100
AcDbLine
 10
754.0367565829269
 20
1606.768765285612
 30
0.0
 11
754.5641365829255
 21
1607.813995285612
 31
0.0
  0
LINE
  5
C3C
330
1F
100
AcDbEntity
  8
STANDARD
  6
IMPORT
 62
     7
100
AcDbLine
 10
757.305226582926
 20
1609.526795285612
 30
0.0
 11
757.4639565829256
 21
1609.877365285611
 31
0.0
  0
LINE
  5
C3D
330
1F
100
AcDbEntity
  8
STANDARD
  6
IMPORT
 62
     7
100
AcDbLine
 10
755.7953665829272
 20
1608.924455285612
 30
0.0
 11
755.965166582926
 21
1609.286165285611
 31
0.0
  0
LINE
  5
C3E
330
1F
100
AcDbEntity
  8
STANDARD
  6
IMPORT
 62
     7
100
AcDbLine
 10
760.3303965829259
 20
1612.396355285612
 30
0.0
 11
760.6764265829265
 21
1612.230035285611
 31
0.0
  0
LINE
  5
C3F
330
1F
100
AcDbEntity
  8
STANDARD
  6
IMPORT
 62
     7
100
AcDbLine
 10
760.060086582926
 20
1611.248215285611
 30
0.0
 11
760.6852365829281
 21
1610.923195285611
 31
0.0
  0
LINE
  5
C40
330
1F
100
AcDbEntity
  8
STANDARD
  6
IMPORT
 62
     7
100
AcDbLine
 10
755.8899765829259
 20
1608.642465285612
 30
0.0
 11
756.1911865829261
 21
1609.08199528561
 31
0.0
  0
LINE
  5
C41
330
1F
100
AcDbEntity
  8
STANDARD
  6
IMPORT
 62
     7
100
AcDbLine
 10
758.5212765829255
 20
1610.286675285612
 30
0.0
 11
759.0141365829272
 21
1609.878965285609
 31
0.0
  0
LINE
  5
C42
330
1F
100
AcDbEntity
  8
STANDARD
  6
IMPORT
 62
     7
100
AcDbLine
 10
756.0593465829261
 20
1608.748285285611
 30
0.0
 11
756.5031165829277
 21
1609.276925285611
 31
0.0
  0
LINE
  5
C43
330
1F
100
AcDbEntity
  8
STANDARD
  6
IMPORT
 62
     7
100
AcDbLine
 10
928.2881265829264
 20
1770.60474528561
 30
0.0
 11
929.166416582928
 21
1769.858515285612
 31
0.0
  0
LINE
  5
C44
330
1F
100
AcDbEntity
  8
STANDARD
  6
IMPORT
 62
     7
100
AcDbLine
 10
926.5638765829267
 20
1771.310085285612
 30
0.0
 11
926.8566565829264
 21
1771.061365285612
 31
0.0
  0
LINE
  5
C45
330
1F
100
AcDbEntity
  8
STANDARD
  6
IMPORT
 62
     7
100
AcDbLine
 10
917.2892865829266
 20
1770.12829528561
 30
0.0
 11
918.0860565829261
 21
1771.023145285611
 31
0.0
  0
LINE
  5
C46
330
1F
100
AcDbEntity
  8
STANDARD
  6
IMPORT
 62
     7
100
AcDbLine
 10
921.0379465829278
 20
1771.89091528561
 30
0.0
 11
921.3035265829258
 21
1772.189225285612
 31
0.0
  0
LINE
  5
C47
330
1F
100
AcDbEntity
  8
STANDARD
  6
IMPORT
 62
     7
100
AcDbLine
 10
754.9748265829266
 20
1608.07064528561
 30
0.0
 11
755.5276165829259
 21
1608.667335285612
 31
0.0
  0
LINE
  5
C48
330
1F
100
AcDbEntity
  8
STANDARD
  6
IMPORT
 62
     7
100
AcDbLine
 10
758.535926582927
 20
1610.54714528561
 30
0.0
 11
758.694806582926
 21
1610.395095285611
 31
0.0
  0
LINE
  5
C49
330
1F
100
AcDbEntity
  8
STANDARD
  6
IMPORT
 62
     7
100
AcDbLine
 10
755.1074665829268
 20
1608.153505285612
 30
0.0
 11
755.7693965829257
 21
1608.818475285612
 31
0.0
  0
ARC
  5
C4A
330
1F
100
AcDbEntity
  8
STANDARD
  6
IMPORT
 62
     7
100
AcDbCircle
 10
762.9649965829258
 20
1610.00714528561
 30
0.0
 40
2.805019999999999
100
AcDbArc
 50
32.10278000000573
 51
121.9423939999997
  0
ARC
  5
C4B
330
1F
100
AcDbEntity
  8
STANDARD
  6
IMPORT
 62
     7
100
AcDbCircle
 10
814.1072065829275
 20
1642.375045285612
 30
0.0
 40
70.64455999999997
100
AcDbArc
 50
217.459889000004
 51
331.4546889999966
  0
ARC
  5
C4C
330
1F
100
AcDbEntity
  8
STANDARD
  6
IMPORT
 62
     7
100
AcDbCircle
 10
814.1065165829282
 20
1642.373535285612
 30
0.0
 40
57.73085
100
AcDbArc
 50
217.4591899999992
 51
331.4291789999974
  0
ARC
  5
C4D
330
1F
100
AcDbEntity
  8
STANDARD
  6
IMPORT
 62
     7
100
AcDbCircle
 10
440.3371065829269
 20
1845.805565285612
 30
0.0
 40
496.18898
100
AcDbArc
 50
331.4438339999927
 51
348.5778520000018
  0
ARC
  5
C4E
330
1F
100
AcDbEntity
  8
STANDARD
  6
IMPORT
 62
     7
100
AcDbCircle
 10
440.2404065829268
 20
1845.835315285611
 30
0.0
 40
483.37456
100
AcDbArc
 50
331.4426809999944
 51
348.5766759999977
  0
LINE
  5
C4F
330
1F
100
AcDbEntity
  8
STANDARD
  6
IMPORT
 62
     7
100
AcDbLine
 10
1708.523609582925
 20
1770.613837285613
 30
0.0
 11
1708.765899582925
 21
1770.411658285613
 31
0.0
  0
LINE
  5
C50
330
1F
100
AcDbEntity
  8
STANDARD
  6
IMPORT
 62
     7
100
AcDbLine
 10
1700.371138582925
 20
1771.615118285614
 30
0.0
 11
1700.590978582925
 21
1771.935095285613
 31
0.0
  0
LINE
  5
C51
330
1F
100
AcDbEntity
  8
STANDARD
  6
IMPORT
 62
     7
100
AcDbLine
 10
1696.904729582925
 20
1769.510168285613
 30
0.0
 11
1697.564249582925
 21
1770.470099285613
 31
0.0
  0
LINE
  5
C52
330
1F
100
AcDbEntity
  8
STANDARD
  6
IMPORT
 62
     7
100
AcDbLine
 10
1705.931568582925
 20
1771.626181285613
 30
0.0
 11
1706.153008582925
 21
1771.482367285613
 31
0.0
  0
LINE
  5
C53
330
1F
100
AcDbEntity
  8
STANDARD
  6
IMPORT
 62
     7
100
AcDbLine
 10
1707.579189582925
 20
1771.227164285613
 30
0.0
 11
1708.523609582925
 21
1770.613837285613
 31
0.0
  0
LINE
  5
C54
330
1F
100
AcDbEntity
  8
STANDARD
  6
IMPORT
 62
     7
100
AcDbLine
 10
1706.846838582925
 20
1771.376623285613
 30
0.0
 11
1707.579189582925
 21
1771.227164285613
 31
0.0
  0
LINE
  5
C55
330
1F
100
AcDbEntity
  8
STANDARD
  6
IMPORT
 62
     7
100
AcDbLine
 10
1696.673138582925
 20
1768.374991285613
 30
0.0
 11
1696.904729582925
 21
1769.510168285613
 31
0.0
  0
LINE
  5
C56
330
1F
100
AcDbEntity
  8
STANDARD
  6
IMPORT
 62
     7
100
AcDbLine
 10
1698.908489582925
 20
1771.272406285613
 30
0.0
 11
1699.885339582925
 21
1771.434988285613
 31
0.0
  0
LINE
  5
C57
330
1F
100
AcDbEntity
  8
STANDARD
  6
IMPORT
 62
     7
100
AcDbLine
 10
1709.425408582925
 20
1769.444784285613
 30
0.0
 11
1709.656998582925
 21
1768.307242285613
 31
0.0
  0
LINE
  5
C58
330
1F
100
AcDbEntity
  8
STANDARD
  6
IMPORT
 62
     7
100
AcDbLine
 10
1698.551278582925
 20
1771.108679285613
 30
0.0
 11
1698.908489582925
 21
1771.272406285613
 31
0.0
  0
LINE
  5
C59
330
1F
100
AcDbEntity
  8
STANDARD
  6
IMPORT
 62
     7
100
AcDbLine
 10
1700.042129582925
 20
1771.402258285613
 30
0.0
 11
1700.371138582925
 21
1771.615118285614
 31
0.0
  0
LINE
  5
C5A
330
1F
100
AcDbEntity
  8
STANDARD
  6
IMPORT
 62
     7
100
AcDbLine
 10
1697.564249582925
 20
1770.470099285613
 30
0.0
 11
1698.551278582925
 21
1771.108679285613
 31
0.0
  0
LINE
  5
C5B
330
1F
100
AcDbEntity
  8
STANDARD
  6
IMPORT
 62
     7
100
AcDbLine
 10
1705.739159582925
 20
1771.908240285613
 30
0.0
 11
1705.958998582925
 21
1771.585974285613
 31
0.0
  0
LINE
  5
C5C
330
1F
100
AcDbEntity
  8
STANDARD
  6
IMPORT
 62
     7
100
AcDbLine
 10
1708.765899582925
 20
1770.411658285613
 30
0.0
 11
1709.425408582925
 21
1769.444784285613
 31
0.0
  0
LINE
  5
C5D
330
1F
100
AcDbEntity
  8
STANDARD
  6
IMPORT
 62
     7
100
AcDbLine
 10
1699.654038582925
 20
1771.328940285613
 30
0.0
 11
1699.783209582925
 21
1771.388144285613
 31
0.0
  0
LINE
  5
C5E
330
1F
100
AcDbEntity
  8
STANDARD
  6
IMPORT
 62
     7
100
AcDbLine
 10
1699.783209582925
 20
1771.388144285613
 30
0.0
 11
1700.188939582925
 21
1771.497244285614
 31
0.0
  0
LINE
  5
C5F
330
1F
100
AcDbEntity
  8
STANDARD
  6
IMPORT
 62
     7
100
AcDbLine
 10
1706.125158582925
 20
1771.500448285613
 30
0.0
 11
1706.846838582925
 21
1771.376623285613
 31
0.0
  0
LINE
  5
C60
330
1F
100
AcDbEntity
  8
STANDARD
  6
IMPORT
 62
     7
100
AcDbLine
 10
1701.845298582925
 20
1770.975775285613
 30
0.0
 11
1706.089119582925
 21
1771.116690285613
 31
0.0
  0
LINE
  5
C61
330
1F
100
AcDbEntity
  8
STANDARD
  6
IMPORT
 62
     7
100
AcDbLine
 10
1700.362588582925
 20
1771.088614285613
 30
0.0
 11
1701.845298582925
 21
1770.975775285613
 31
0.0
  0
LINE
  5
C62
330
1F
100
AcDbEntity
  8
STANDARD
  6
IMPORT
 62
     7
100
AcDbLine
 10
1706.089119582925
 20
1771.116690285613
 30
0.0
 11
1706.546909582925
 21
1771.233038285613
 31
0.0
  0
LINE
  5
C63
330
1F
100
AcDbEntity
  8
STANDARD
  6
IMPORT
 62
     7
100
AcDbLine
 10
1699.805799582925
 20
1771.202215285613
 30
0.0
 11
1700.362588582925
 21
1771.088614285613
 31
0.0
  0
ARC
  5
C64
330
1F
100
AcDbEntity
  8
STANDARD
  6
IMPORT
 62
     7
100
AcDbCircle
 10
1703.165218582924
 20
1695.819935285611
 30
0.0
 40
34.99992999999999
100
AcDbArc
 50
299.999904999997
 51
60.00009500000301
  0
ARC
  5
C65
330
1F
100
AcDbEntity
  8
STANDARD
  6
IMPORT
 62
     7
100
AcDbCircle
 10
1703.165078582924
 20
1695.819935285611
 30
0.0
 40
34.99994999999999
100
AcDbArc
 50
119.9999520000051
 51
240.0000479999949
  0
LINE
  5
C66
330
1F
100
AcDbEntity
  8
STANDARD
  6
IMPORT
 62
     7
100
AcDbLine
 10
1663.165128582925
 20
1655.819895285611
 30
0.0
 11
1663.165128582925
 21
1735.819895285611
 31
0.0
  0
LINE
  5
C67
330
1F
100
AcDbEntity
  8
STANDARD
  6
IMPORT
 62
     7
100
AcDbLine
 10
1743.165128582925
 20
1655.819895285611
 30
0.0
 11
1743.165128582925
 21
1735.819895285611
 31
0.0
  0
LINE
  5
C68
330
1F
100
AcDbEntity
  8
STANDARD
  6
IMPORT
 62
     7
100
AcDbLine
 10
1663.165128582925
 20
1655.819895285611
 30
0.0
 11
1696.753158582924
 21
1655.819895285611
 31
0.0
  0
LINE
  5
C69
330
1F
100
AcDbEntity
  8
STANDARD
  6
IMPORT
 62
     7
100
AcDbLine
 10
1709.577108582925
 20
1655.819895285611
 30
0.0
 11
1743.165128582925
 21
1655.819895285611
 31
0.0
  0
LINE
  5
C6A
330
1F
100
AcDbEntity
  8
STANDARD
  6
IMPORT
 62
     7
100
AcDbLine
 10
1663.165128582925
 20
1735.819895285611
 30
0.0
 11
1696.753158582924
 21
1735.819895285611
 31
0.0
  0
LINE
  5
C6B
330
1F
100
AcDbEntity
  8
STANDARD
  6
IMPORT
 62
     7
100
AcDbLine
 10
1709.577108582925
 20
1735.819895285611
 30
0.0
 11
1743.165128582925
 21
1735.819895285611
 31
0.0
  0
LINE
  5
C6C
330
1F
100
AcDbEntity
  8
STANDARD
  6
IMPORT
 62
     7
100
AcDbLine
 10
1702.382688582925
 20
1770.952115285613
 30
0.0
 11
1705.742438582925
 21
1771.060535285613
 31
0.0
  0
LINE
  5
C6D
330
1F
100
AcDbEntity
  8
STANDARD
  6
IMPORT
 62
     7
100
AcDbLine
 10
1705.742438582925
 20
1771.060535285613
 30
0.0
 11
1706.404598582925
 21
1771.167805285613
 31
0.0
  0
LINE
  5
C6E
330
1F
100
AcDbEntity
  8
STANDARD
  6
IMPORT
 62
     7
100
AcDbLine
 10
1700.830278582925
 20
1771.043215285612
 30
0.0
 11
1702.382688582925
 21
1770.952115285613
 31
0.0
  0
LINE
  5
C6F
330
1F
100
AcDbEntity
  8
STANDARD
  6
IMPORT
 62
     7
100
AcDbLine
 10
1706.404598582925
 20
1771.167805285613
 30
0.0
 11
1706.546898582925
 21
1771.233035285613
 31
0.0
  0
LINE
  5
C70
330
1F
100
AcDbEntity
  8
STANDARD
  6
IMPORT
 62
     7
100
AcDbLine
 10
1699.805788582925
 20
1771.202215285613
 30
0.0
 11
1700.830278582925
 21
1771.043215285612
 31
0.0
  0
LINE
  5
C71
330
1F
100
AcDbEntity
  8
STANDARD
  6
IMPORT
 62
     7
100
AcDbLine
 10
1706.125148582925
 20
1771.500445285613
 30
0.0
 11
1706.846828582925
 21
1771.376615285613
 31
0.0
  0
LINE
  5
C72
330
1F
100
AcDbEntity
  8
STANDARD
  6
IMPORT
 62
     7
100
AcDbLine
 10
1699.783198582925
 20
1771.388135285613
 30
0.0
 11
1700.188938582925
 21
1771.497235285611
 31
0.0
  0
LINE
  5
C73
330
1F
100
AcDbEntity
  8
STANDARD
  6
IMPORT
 62
     7
100
AcDbLine
 10
1699.654038582925
 20
1771.328935285613
 30
0.0
 11
1699.783198582925
 21
1771.388135285613
 31
0.0
  0
LINE
  5
C74
330
1F
100
AcDbEntity
  8
STANDARD
  6
IMPORT
 62
     7
100
AcDbLine
 10
1696.673138582925
 20
1578.515905285611
 30
0.0
 11
1696.673138582925
 21
1768.374985285613
 31
0.0
  0
LINE
  5
C75
330
1F
100
AcDbEntity
  8
STANDARD
  6
IMPORT
 62
     7
100
AcDbLine
 10
1709.656998582925
 20
1577.867635285613
 30
0.0
 11
1709.656998582925
 21
1768.307235285613
 31
0.0
  0
LINE
  5
C76
330
1F
100
AcDbEntity
  8
STANDARD
  6
IMPORT
 62
     7
100
AcDbLine
 10
1708.765888582925
 20
1770.411655285613
 30
0.0
 11
1709.425408582925
 21
1769.444775285613
 31
0.0
  0
LINE
  5
C77
330
1F
100
AcDbEntity
  8
STANDARD
  6
IMPORT
 62
     7
100
AcDbLine
 10
1705.739158582925
 20
1771.908235285611
 30
0.0
 11
1705.958998582925
 21
1771.585965285613
 31
0.0
  0
LINE
  5
C78
330
1F
100
AcDbEntity
  8
STANDARD
  6
IMPORT
 62
     7
100
AcDbLine
 10
1697.564238582925
 20
1770.470095285612
 30
0.0
 11
1698.551268582925
 21
1771.108675285613
 31
0.0
  0
LINE
  5
C79
330
1F
100
AcDbEntity
  8
STANDARD
  6
IMPORT
 62
     7
100
AcDbLine
 10
1700.042128582925
 20
1771.402255285613
 30
0.0
 11
1700.371138582925
 21
1771.615115285613
 31
0.0
  0
LINE
  5
C7A
330
1F
100
AcDbEntity
  8
STANDARD
  6
IMPORT
 62
     7
100
AcDbLine
 10
1698.551268582925
 20
1771.108675285613
 30
0.0
 11
1698.908488582924
 21
1771.272405285613
 31
0.0
  0
LINE
  5
C7B
330
1F
100
AcDbEntity
  8
STANDARD
  6
IMPORT
 62
     7
100
AcDbLine
 10
1709.425408582925
 20
1769.444775285613
 30
0.0
 11
1709.656998582925
 21
1768.307235285613
 31
0.0
  0
LINE
  5
C7C
330
1F
100
AcDbEntity
  8
STANDARD
  6
IMPORT
 62
     7
100
AcDbLine
 10
1694.106398582925
 20
1729.627355285613
 30
0.0
 11
1696.673138582925
 21
1730.137905285613
 31
0.0
  0
LINE
  5
C7D
330
1F
100
AcDbEntity
  8
STANDARD
  6
IMPORT
 62
     7
100
AcDbLine
 10
1698.908488582924
 20
1771.272405285613
 30
0.0
 11
1699.885338582926
 21
1771.434985285611
 31
0.0
  0
LINE
  5
C7E
330
1F
100
AcDbEntity
  8
STANDARD
  6
IMPORT
 62
     7
100
AcDbLine
 10
1696.673138582925
 20
1768.374985285613
 30
0.0
 11
1696.904728582925
 21
1769.510165285613
 31
0.0
  0
LINE
  5
C7F
330
1F
100
AcDbEntity
  8
STANDARD
  6
IMPORT
 62
     7
100
AcDbLine
 10
1706.846828582925
 20
1771.376615285613
 30
0.0
 11
1707.579178582925
 21
1771.227155285612
 31
0.0
  0
LINE
  5
C80
330
1F
100
AcDbEntity
  8
STANDARD
  6
IMPORT
 62
     7
100
AcDbLine
 10
1709.656998582925
 20
1730.137905285613
 30
0.0
 11
1712.223728582926
 21
1729.627355285613
 31
0.0
  0
LINE
  5
C81
330
1F
100
AcDbEntity
  8
STANDARD
  6
IMPORT
 62
     7
100
AcDbLine
 10
1707.579178582925
 20
1771.227155285612
 30
0.0
 11
1708.523608582925
 21
1770.613835285612
 31
0.0
  0
LINE
  5
C82
330
1F
100
AcDbEntity
  8
STANDARD
  6
IMPORT
 62
     7
100
AcDbLine
 10
1705.931568582925
 20
1771.626175285613
 30
0.0
 11
1706.152998582925
 21
1771.482365285613
 31
0.0
  0
LINE
  5
C83
330
1F
100
AcDbEntity
  8
STANDARD
  6
IMPORT
 62
     7
100
AcDbLine
 10
1696.904728582925
 20
1769.510165285613
 30
0.0
 11
1697.564238582925
 21
1770.470095285612
 31
0.0
  0
LINE
  5
C84
330
1F
100
AcDbEntity
  8
STANDARD
  6
IMPORT
 62
     7
100
AcDbLine
 10
1700.371138582925
 20
1771.615115285613
 30
0.0
 11
1700.590978582925
 21
1771.935095285613
 31
0.0
  0
LINE
  5
C85
330
1F
100
AcDbEntity
  8
STANDARD
  6
IMPORT
 62
     7
100
AcDbLine
 10
1708.523608582925
 20
1770.613835285612
 30
0.0
 11
1708.765888582925
 21
1770.411655285613
 31
0.0
  0
ARC
  5
C86
330
1F
100
AcDbEntity
  8
STANDARD
  6
IMPORT
 62
     7
100
AcDbCircle
 10
1703.165058582924
 20
1695.819935285611
 30
0.0
 40
35.00001000000001
100
AcDbArc
 50
284.9999970000017
 51
75.00000299999829
  0
ARC
  5
C87
330
1F
100
AcDbEntity
  8
STANDARD
  6
IMPORT
 62
     7
100
AcDbCircle
 10
1703.165078582924
 20
1695.819935285611
 30
0.0
 40
35.00001000000001
100
AcDbArc
 50
105.0000189999937
 51
254.9999810000062
  0
ARC
  5
C88
330
1F
100
AcDbEntity
  8
STANDARD
  6
IMPORT
 62
     7
100
AcDbCircle
 10
1703.164778582925
 20
1578.185875285613
 30
0.0
 40
6.500020000000001
100
AcDbArc
 50
177.0897030000029
 51
357.1936149999979
  0
LINE
  5
C89
330
1F
100
AcDbEntity
  8
STANDARD
  6
IMPORT
 62
     7
100
AcDbLine
 10
2445.700767437509
 20
1768.105672345533
 30
0.0
 11
2446.058166437509
 21
1767.925237345532
 31
0.0
  0
LINE
  5
C8A
330
1F
100
AcDbEntity
  8
STANDARD
  6
IMPORT
 62
     7
100
AcDbLine
 10
2447.580440437509
 20
1767.779134345532
 30
0.0
 11
2448.652676437509
 21
1767.237905345532
 31
0.0
  0
LINE
  5
C8B
330
1F
100
AcDbEntity
  8
STANDARD
  6
IMPORT
 62
     7
100
AcDbLine
 10
2440.174816437508
 20
1767.524846345532
 30
0.0
 11
2440.343655437509
 21
1767.868856345532
 31
0.0
  0
LINE
  5
C8C
330
1F
100
AcDbEntity
  8
STANDARD
  6
IMPORT
 62
     7
100
AcDbLine
 10
2437.065800437509
 20
1765.041478345532
 30
0.0
 11
2437.572315437509
 21
1766.073278345532
 31
0.0
  0
LINE
  5
C8D
330
1F
100
AcDbEntity
  8
STANDARD
  6
IMPORT
 62
     7
100
AcDbLine
 10
2446.395996437509
 20
1767.884267345532
 30
0.0
 11
2447.580440437509
 21
1767.779134345532
 31
0.0
  0
LINE
  5
C8E
330
1F
100
AcDbEntity
  8
STANDARD
  6
IMPORT
 62
     7
100
AcDbLine
 10
2441.570957437509
 20
1793.540471345532
 30
0.0
 11
2445.301826437509
 21
1768.774770345532
 31
0.0
  0
LINE
  5
C8F
330
1F
100
AcDbEntity
  8
STANDARD
  6
IMPORT
 62
     7
100
AcDbLine
 10
2436.628254437509
 20
1793.046086345533
 30
0.0
 11
2440.362881437509
 21
1768.255666345532
 31
0.0
  0
LINE
  5
C90
330
1F
100
AcDbEntity
  8
STANDARD
  6
IMPORT
 62
     7
100
AcDbLine
 10
2449.849460437508
 20
1765.230687345533
 30
0.0
 11
2452.699116437509
 21
1746.314672345532
 31
0.0
  0
LINE
  5
C91
330
1F
100
AcDbEntity
  8
STANDARD
  6
IMPORT
 62
     7
100
AcDbLine
 10
2437.008179437509
 20
1763.881047345532
 30
0.0
 11
2440.039814437509
 21
1743.756917345532
 31
0.0
  0
LINE
  5
C92
330
1F
100
AcDbEntity
  8
STANDARD
  6
IMPORT
 62
     7
100
AcDbLine
 10
2440.039814437509
 20
1743.756917345532
 30
0.0
 11
2452.234714437509
 21
1695.838826345532
 31
0.0
  0
LINE
  5
C93
330
1F
100
AcDbEntity
  8
STANDARD
  6
IMPORT
 62
     7
100
AcDbLine
 10
2438.450611437509
 20
1766.819509345532
 30
0.0
 11
2439.882057437509
 21
1767.276128345532
 31
0.0
  0
LINE
  5
C94
330
1F
100
AcDbEntity
  8
STANDARD
  6
IMPORT
 62
     7
100
AcDbLine
 10
2445.301826437509
 20
1768.774770345532
 30
0.0
 11
2445.435169437509
 21
1768.403981345532
 31
0.0
  0
LINE
  5
C95
330
1F
100
AcDbEntity
  8
STANDARD
  6
IMPORT
 62
     7
100
AcDbLine
 10
2449.449451437509
 20
1766.343053345532
 30
0.0
 11
2449.849460437508
 21
1765.230687345533
 31
0.0
  0
LINE
  5
C96
330
1F
100
AcDbEntity
  8
STANDARD
  6
IMPORT
 62
     7
100
AcDbLine
 10
2439.882057437509
 20
1767.276128345532
 30
0.0
 11
2440.174816437508
 21
1767.524846345532
 31
0.0
  0
LINE
  5
C97
330
1F
100
AcDbEntity
  8
STANDARD
  6
IMPORT
 62
     7
100
AcDbLine
 10
2437.572315437509
 20
1766.073278345532
 30
0.0
 11
2438.450611437509
 21
1766.819509345532
 31
0.0
  0
LINE
  5
C98
330
1F
100
AcDbEntity
  8
STANDARD
  6
IMPORT
 62
     7
100
AcDbLine
 10
2445.435169437509
 20
1768.403981345532
 30
0.0
 11
2445.700767437509
 21
1768.105672345533
 31
0.0
  0
LINE
  5
C99
330
1F
100
AcDbEntity
  8
STANDARD
  6
IMPORT
 62
     7
100
AcDbLine
 10
2448.652676437509
 20
1767.237905345532
 30
0.0
 11
2449.449451437509
 21
1766.343053345532
 31
0.0
  0
LINE
  5
C9A
330
1F
100
AcDbEntity
  8
STANDARD
  6
IMPORT
 62
     7
100
AcDbLine
 10
2440.343655437509
 20
1767.868856345532
 30
0.0
 11
2440.362881437509
 21
1768.255666345532
 31
0.0
  0
LINE
  5
C9B
330
1F
100
AcDbEntity
  8
STANDARD
  6
IMPORT
 62
     7
100
AcDbLine
 10
2437.008179437509
 20
1763.881047345532
 30
0.0
 11
2437.065800437509
 21
1765.041478345532
 31
0.0
  0
LINE
  5
C9C
330
1F
100
AcDbEntity
  8
STANDARD
  6
IMPORT
 62
     7
100
AcDbLine
 10
2445.323131437509
 20
1767.771505345533
 30
0.0
 11
2446.452988437509
 21
1767.890218345532
 31
0.0
  0
LINE
  5
C9D
330
1F
100
AcDbEntity
  8
STANDARD
  6
IMPORT
 62
     7
100
AcDbLine
 10
2444.319065437509
 20
1767.665914345533
 30
0.0
 11
2446.168545437509
 21
1767.860311345532
 31
0.0
  0
LINE
  5
C9E
330
1F
100
AcDbEntity
  8
STANDARD
  6
IMPORT
 62
     7
100
AcDbLine
 10
2443.153065437508
 20
1767.543386345532
 30
0.0
 11
2445.093677437509
 21
1767.747396345532
 31
0.0
  0
LINE
  5
C9F
330
1F
100
AcDbEntity
  8
STANDARD
  6
IMPORT
 62
     7
100
AcDbLine
 10
2439.509952437509
 20
1767.160466345532
 30
0.0
 11
2441.374157437509
 21
1767.356389345533
 31
0.0
  0
LINE
  5
CA0
330
1F
100
AcDbEntity
  8
STANDARD
  6
IMPORT
 62
     7
100
AcDbLine
 10
2440.437267437509
 20
1767.257970345532
 30
0.0
 11
2442.809875437509
 21
1767.507299345532
 31
0.0
  0
LINE
  5
CA1
330
1F
100
AcDbEntity
  8
STANDARD
  6
IMPORT
 62
     7
100
AcDbLine
 10
2441.950405437509
 20
1767.416967345533
 30
0.0
 11
2444.012535437509
 21
1767.633718345533
 31
0.0
  0
ARC
  5
CA2
330
1F
100
AcDbEntity
  8
STANDARD
  6
IMPORT
 62
     7
100
AcDbCircle
 10
2617.109685121934
 20
1723.133785451637
 30
0.0
 40
2.999989999999999
100
AcDbArc
 50
89.99999699998928
 51
180.0007319999981
  0
ARC
  5
CA3
330
1F
100
AcDbEntity
  8
STANDARD
  6
IMPORT
 62
     7
100
AcDbCircle
 10
2617.109665121934
 20
1660.197205451638
 30
0.0
 40
2.999969999999999
100
AcDbArc
 50
179.9988600000024
 51
270.0004109999841
  0
LINE
  5
CA4
330
1F
100
AcDbEntity
  8
STANDARD
  6
IMPORT
 62
     7
100
AcDbLine
 10
2614.109695121935
 20
1660.197265451637
 30
0.0
 11
2614.109695121935
 21
1723.133745451637
 31
0.0
  0
LINE
  5
CA5
330
1F
100
AcDbEntity
  8
STANDARD
  6
IMPORT
 62
     7
100
AcDbLine
 10
2624.109695121935
 20
1651.665465451638
 30
0.0
 11
2624.109695121935
 21
1731.665465451637
 31
0.0
  0
LINE
  5
CA6
330
1F
100
AcDbEntity
  8
STANDARD
  6
IMPORT
 62
     7
100
AcDbLine
 10
2629.109695121935
 20
1651.665465451638
 30
0.0
 11
2629.109695121935
 21
1731.665465451637
 31
0.0
  0
LINE
  5
CA7
330
1F
100
AcDbEntity
  8
STANDARD
  6
IMPORT
 62
     7
100
AcDbLine
 10
2617.109685121934
 20
1657.197235451638
 30
0.0
 11
2624.109695121935
 21
1657.197235451638
 31
0.0
  0
LINE
  5
CA8
330
1F
100
AcDbEntity
  8
STANDARD
  6
IMPORT
 62
     7
100
AcDbLine
 10
2624.109695121935
 20
1651.665465451638
 30
0.0
 11
2629.109695121935
 21
1651.665465451638
 31
0.0
  0
LINE
  5
CA9
330
1F
100
AcDbEntity
  8
STANDARD
  6
IMPORT
 62
     7
100
AcDbLine
 10
2617.109685121934
 20
1726.133775451637
 30
0.0
 11
2624.109695121935
 21
1726.133775451637
 31
0.0
  0
LINE
  5
CAA
330
1F
100
AcDbEntity
  8
STANDARD
  6
IMPORT
 62
     7
100
AcDbLine
 10
2624.109695121935
 20
1731.665465451637
 30
0.0
 11
2629.109695121935
 21
1731.665465451637
 31
0.0
  0
LINE
  5
CAB
330
1F
100
AcDbEntity
  8
STANDARD
  6
IMPORT
 62
     7
100
AcDbLine
 10
2441.950389437509
 20
1767.416962845533
 30
0.0
 11
2444.01253943751
 21
1767.633722845533
 31
0.0
  0
LINE
  5
CAC
330
1F
100
AcDbEntity
  8
STANDARD
  6
IMPORT
 62
     7
100
AcDbLine
 10
2440.437249437509
 20
1767.257972845533
 30
0.0
 11
2442.809879437509
 21
1767.507302845533
 31
0.0
  0
LINE
  5
CAD
330
1F
100
AcDbEntity
  8
STANDARD
  6
IMPORT
 62
     7
100
AcDbLine
 10
2439.509939437509
 20
1767.160462845532
 30
0.0
 11
2441.374179437509
 21
1767.356392845533
 31
0.0
  0
LINE
  5
CAE
330
1F
100
AcDbEntity
  8
STANDARD
  6
IMPORT
 62
     7
100
AcDbLine
 10
2443.153049437509
 20
1767.543382845533
 30
0.0
 11
2445.093659437509
 21
1767.747392845531
 31
0.0
  0
LINE
  5
CAF
330
1F
100
AcDbEntity
  8
STANDARD
  6
IMPORT
 62
     7
100
AcDbLine
 10
2444.31908943751
 20
1767.665912845532
 30
0.0
 11
2446.168529437509
 21
1767.860312845533
 31
0.0
  0
LINE
  5
CB0
330
1F
100
AcDbEntity
  8
STANDARD
  6
IMPORT
 62
     7
100
AcDbLine
 10
2445.323119437509
 20
1767.771502845533
 30
0.0
 11
2446.452989437509
 21
1767.890222845533
 31
0.0
  0
LINE
  5
CB1
330
1F
100
AcDbEntity
  8
STANDARD
  6
IMPORT
 62
     7
100
AcDbLine
 10
2605.20126943751
 20
1608.637442845533
 30
0.0
 11
2605.618449437509
 21
1608.376822845533
 31
0.0
  0
LINE
  5
CB2
330
1F
100
AcDbEntity
  8
STANDARD
  6
IMPORT
 62
     7
100
AcDbLine
 10
2611.018269437509
 20
1605.002642845532
 30
0.0
 11
2611.123969437509
 21
1604.936572845533
 31
0.0
  0
LINE
  5
CB3
330
1F
100
AcDbEntity
  8
STANDARD
  6
IMPORT
 62
     7
100
AcDbLine
 10
2603.14621943751
 20
1608.954592845532
 30
0.0
 11
2604.43878943751
 21
1608.912252845533
 31
0.0
  0
LINE
  5
CB4
330
1F
100
AcDbEntity
  8
STANDARD
  6
IMPORT
 62
     7
100
AcDbLine
 10
2607.05612943751
 20
1607.227072845533
 30
0.0
 11
2607.440769437509
 21
1607.238062845533
 31
0.0
  0
LINE
  5
CB5
330
1F
100
AcDbEntity
  8
STANDARD
  6
IMPORT
 62
     7
100
AcDbLine
 10
2605.655949437509
 20
1608.102012845533
 30
0.0
 11
2606.183099437509
 21
1608.023962845532
 31
0.0
  0
LINE
  5
CB6
330
1F
100
AcDbEntity
  8
STANDARD
  6
IMPORT
 62
     7
100
AcDbLine
 10
2605.67764943751
 20
1608.429542845533
 30
0.0
 11
2606.06228943751
 21
1608.444802845533
 31
0.0
  0
LINE
  5
CB7
330
1F
100
AcDbEntity
  8
STANDARD
  6
IMPORT
 62
     7
100
AcDbLine
 10
2629.109695121935
 20
1653.763894179681
 30
0.0
 11
2629.109695121935
 21
1723.763894179679
 31
0.0
  0
LINE
  5
CB8
330
1F
100
AcDbEntity
  8
STANDARD
  6
IMPORT
 62
     7
100
AcDbLine
 10
2437.008179437509
 20
1763.881052845533
 30
0.0
 11
2437.065819437509
 21
1765.041482845532
 31
0.0
  0
LINE
  5
CB9
330
1F
100
AcDbEntity
  8
STANDARD
  6
IMPORT
 62
     7
100
AcDbLine
 10
2440.343679437509
 20
1767.868852845533
 30
0.0
 11
2440.36286943751
 21
1768.255662845532
 31
0.0
  0
LINE
  5
CBA
330
1F
100
AcDbEntity
  8
STANDARD
  6
IMPORT
 62
     7
100
AcDbLine
 10
2612.19505943751
 20
1602.226992845533
 30
0.0
 11
2612.19505943751
 21
1603.304642845532
 31
0.0
  0
LINE
  5
CBB
330
1F
100
AcDbEntity
  8
STANDARD
  6
IMPORT
 62
     7
100
AcDbLine
 10
2611.09001943751
 20
1602.919592845533
 30
0.0
 11
2611.16127943751
 21
1603.946202845531
 31
0.0
  0
LINE
  5
CBC
330
1F
100
AcDbEntity
  8
STANDARD
  6
IMPORT
 62
     7
100
AcDbLine
 10
2609.54426943751
 20
1603.885472845532
 30
0.0
 11
2609.62383943751
 21
1604.256952845532
 31
0.0
  0
LINE
  5
CBD
330
1F
100
AcDbEntity
  8
STANDARD
  6
IMPORT
 62
     7
100
AcDbLine
 10
2609.650739437509
 20
1604.830142845531
 30
0.0
 11
2609.746639437509
 21
1605.605822845533
 31
0.0
  0
LINE
  5
CBE
330
1F
100
AcDbEntity
  8
STANDARD
  6
IMPORT
 62
     7
100
AcDbLine
 10
2609.79286943751
 20
1604.801302845533
 30
0.0
 11
2609.811029437509
 21
1605.505652845531
 31
0.0
  0
LINE
  5
CBF
330
1F
100
AcDbEntity
  8
STANDARD
  6
IMPORT
 62
     7
100
AcDbLine
 10
2608.176049437509
 20
1606.471682845533
 30
0.0
 11
2608.265049437509
 21
1606.778612845533
 31
0.0
  0
LINE
  5
CC0
330
1F
100
AcDbEntity
  8
STANDARD
  6
IMPORT
 62
     7
100
AcDbLine
 10
2608.445709437509
 20
1606.358772845533
 30
0.0
 11
2608.51273943751
 21
1606.568272845532
 31
0.0
  0
LINE
  5
CC1
330
1F
100
AcDbEntity
  8
STANDARD
  6
IMPORT
 62
     7
100
AcDbLine
 10
2610.749179437509
 20
1605.500922845532
 30
0.0
 11
2610.77355943751
 21
1605.898712845533
 31
0.0
  0
LINE
  5
CC2
330
1F
100
AcDbEntity
  8
STANDARD
  6
IMPORT
 62
     7
100
AcDbLine
 10
2612.701959437509
 20
1602.228982845532
 30
0.0
 11
2612.72457943751
 21
1602.983522845533
 31
0.0
  0
LINE
  5
CC3
330
1F
100
AcDbEntity
  8
STANDARD
  6
IMPORT
 62
     7
100
AcDbLine
 10
2610.258079437509
 20
1605.477652845532
 30
0.0
 11
2610.86914943751
 21
1604.844492845531
 31
0.0
  0
LINE
  5
CC4
330
1F
100
AcDbEntity
  8
STANDARD
  6
IMPORT
 62
     7
100
AcDbLine
 10
2448.652659437509
 20
1767.237902845531
 30
0.0
 11
2449.449439437509
 21
1766.343052845532
 31
0.0
  0
LINE
  5
CC5
330
1F
100
AcDbEntity
  8
STANDARD
  6
IMPORT
 62
     7
100
AcDbLine
 10
2445.435189437509
 20
1768.403982845533
 30
0.0
 11
2445.70076943751
 21
1768.105672845532
 31
0.0
  0
LINE
  5
CC6
330
1F
100
AcDbEntity
  8
STANDARD
  6
IMPORT
 62
     7
100
AcDbLine
 10
2610.47276943751
 20
1605.343452845533
 30
0.0
 11
2610.98702943751
 21
1604.770792845533
 31
0.0
  0
LINE
  5
CC7
330
1F
100
AcDbEntity
  8
STANDARD
  6
IMPORT
 62
     7
100
AcDbLine
 10
2437.572299437509
 20
1766.073282845533
 30
0.0
 11
2438.45059943751
 21
1766.819512845531
 31
0.0
  0
LINE
  5
CC8
330
1F
100
AcDbEntity
  8
STANDARD
  6
IMPORT
 62
     7
100
AcDbLine
 10
2439.882059437509
 20
1767.276132845532
 30
0.0
 11
2440.174839437509
 21
1767.524842845533
 31
0.0
  0
LINE
  5
CC9
330
1F
100
AcDbEntity
  8
STANDARD
  6
IMPORT
 62
     7
100
AcDbLine
 10
2609.271099437509
 20
1606.094332845532
 30
0.0
 11
2609.650739437509
 21
1605.605822845533
 31
0.0
  0
LINE
  5
CCA
330
1F
100
AcDbEntity
  8
STANDARD
  6
IMPORT
 62
     7
100
AcDbLine
 10
2606.504149437509
 20
1606.856282845533
 30
0.0
 11
2607.05612943751
 21
1607.227072845533
 31
0.0
  0
LINE
  5
CCB
330
1F
100
AcDbEntity
  8
STANDARD
  6
IMPORT
 62
     7
100
AcDbLine
 10
2609.565939437509
 20
1605.910162845533
 30
0.0
 11
2609.811029437509
 21
1605.505652845531
 31
0.0
  0
LINE
  5
CCC
330
1F
100
AcDbEntity
  8
STANDARD
  6
IMPORT
 62
     7
100
AcDbLine
 10
2606.87821943751
 20
1607.338312845533
 30
0.0
 11
2607.104049437509
 21
1607.448472845533
 31
0.0
  0
LINE
  5
CCD
330
1F
100
AcDbEntity
  8
STANDARD
  6
IMPORT
 62
     7
100
AcDbLine
 10
2606.06228943751
 20
1608.444802845533
 30
0.0
 11
2606.408319437509
 21
1608.611122845533
 31
0.0
  0
LINE
  5
CCE
330
1F
100
AcDbEntity
  8
STANDARD
  6
IMPORT
 62
     7
100
AcDbLine
 10
2610.77355943751
 20
1605.500922845532
 30
0.0
 11
2610.943349437509
 21
1605.139212845532
 31
0.0
  0
LINE
  5
CCF
330
1F
100
AcDbEntity
  8
STANDARD
  6
IMPORT
 62
     7
100
AcDbLine
 10
2612.25418943751
 20
1603.979012845533
 30
0.0
 11
2612.701959437509
 21
1602.983522845533
 31
0.0
  0
LINE
  5
CD0
330
1F
100
AcDbEntity
  8
STANDARD
  6
IMPORT
 62
     7
100
AcDbLine
 10
2602.147529437509
 20
1608.507432845533
 30
0.0
 11
2603.147559437509
 21
1608.953752845533
 31
0.0
  0
LINE
  5
CD1
330
1F
100
AcDbEntity
  8
STANDARD
  6
IMPORT
 62
     7
100
AcDbLine
 10
2604.983229437509
 20
1607.806672845533
 30
0.0
 11
2605.655949437509
 21
1608.102012845533
 31
0.0
  0
LINE
  5
CD2
330
1F
100
AcDbEntity
  8
STANDARD
  6
IMPORT
 62
     7
100
AcDbLine
 10
2611.77353943751
 20
1604.279302845533
 30
0.0
 11
2612.187969437509
 21
1603.304642845532
 31
0.0
  0
LINE
  5
CD3
330
1F
100
AcDbEntity
  8
STANDARD
  6
IMPORT
 62
     7
100
AcDbLine
 10
2611.831939437509
 20
1604.242832845533
 30
0.0
 11
2612.206239437509
 21
1603.293282845533
 31
0.0
  0
LINE
  5
CD4
330
1F
100
AcDbEntity
  8
STANDARD
  6
IMPORT
 62
     7
100
AcDbLine
 10
2449.449439437509
 20
1766.343052845532
 30
0.0
 11
2449.849479437509
 21
1765.230692845532
 31
0.0
  0
LINE
  5
CD5
330
1F
100
AcDbEntity
  8
STANDARD
  6
IMPORT
 62
     7
100
AcDbLine
 10
2445.301829437509
 20
1768.774772845533
 30
0.0
 11
2445.435189437509
 21
1768.403982845533
 31
0.0
  0
LINE
  5
CD6
330
1F
100
AcDbEntity
  8
STANDARD
  6
IMPORT
 62
     7
100
AcDbLine
 10
2610.86914943751
 20
1604.844492845531
 30
0.0
 11
2611.16127943751
 21
1603.946202845531
 31
0.0
  0
LINE
  5
CD7
330
1F
100
AcDbEntity
  8
STANDARD
  6
IMPORT
 62
     7
100
AcDbLine
 10
2438.45059943751
 20
1766.819512845531
 30
0.0
 11
2439.882059437509
 21
1767.276132845532
 31
0.0
  0
LINE
  5
CD8
330
1F
100
AcDbEntity
  8
STANDARD
  6
IMPORT
 62
     7
100
AcDbLine
 10
2605.01663943751
 20
1607.785852845533
 30
0.0
 11
2605.810249437509
 21
1608.005652845531
 31
0.0
  0
LINE
  5
CD9
330
1F
100
AcDbEntity
  8
STANDARD
  6
IMPORT
 62
     7
100
AcDbLine
 10
2610.98702943751
 20
1604.770792845533
 30
0.0
 11
2611.197059437509
 21
1603.923852845533
 31
0.0
  0
LINE
  5
CDA
330
1F
100
AcDbEntity
  8
STANDARD
  6
IMPORT
 62
     7
100
AcDbLine
 10
2603.85792943751
 20
1608.509882845531
 30
0.0
 11
2604.743969437509
 21
1608.671922845532
 31
0.0
  0
LINE
  5
CDB
330
1F
100
AcDbEntity
  8
STANDARD
  6
IMPORT
 62
     7
100
AcDbLine
 10
2437.008179437509
 20
1763.881052845533
 30
0.0
 11
2440.039799437509
 21
1743.756912845532
 31
0.0
  0
LINE
  5
CDC
330
1F
100
AcDbEntity
  8
STANDARD
  6
IMPORT
 62
     7
100
AcDbLine
 10
2449.849479437509
 20
1765.230692845532
 30
0.0
 11
2452.69909943751
 21
1746.314672845532
 31
0.0
  0
LINE
  5
CDD
330
1F
100
AcDbEntity
  8
STANDARD
  6
IMPORT
 62
     7
100
AcDbLine
 10
2436.62823943751
 20
1793.046082845533
 30
0.0
 11
2440.36286943751
 21
1768.255662845532
 31
0.0
  0
LINE
  5
CDE
330
1F
100
AcDbEntity
  8
STANDARD
  6
IMPORT
 62
     7
100
AcDbLine
 10
2441.57093943751
 20
1793.540472845533
 30
0.0
 11
2445.301829437509
 21
1768.774772845533
 31
0.0
  0
LINE
  5
CDF
330
1F
100
AcDbEntity
  8
STANDARD
  6
IMPORT
 62
     7
100
AcDbLine
 10
2603.879859437509
 20
1608.496142845531
 30
0.0
 11
2604.858409437509
 21
1608.600442845532
 31
0.0
  0
LINE
  5
CE0
330
1F
100
AcDbEntity
  8
STANDARD
  6
IMPORT
 62
     7
100
AcDbLine
 10
2616.573959437509
 20
1645.420052845533
 30
0.0
 11
2617.17308943751
 21
1657.717412845533
 31
0.0
  0
LINE
  5
CE1
330
1F
100
AcDbEntity
  8
STANDARD
  6
IMPORT
 62
     7
100
AcDbLine
 10
2621.517499437509
 20
1644.937182845532
 30
0.0
 11
2622.112019437509
 21
1657.139412845532
 31
0.0
  0
LINE
  5
CE2
330
1F
100
AcDbEntity
  8
STANDARD
  6
IMPORT
 62
     7
100
AcDbLine
 10
2446.395999437509
 20
1767.884262845533
 30
0.0
 11
2447.58045943751
 21
1767.779132845532
 31
0.0
  0
LINE
  5
CE3
330
1F
100
AcDbEntity
  8
STANDARD
  6
IMPORT
 62
     7
100
AcDbLine
 10
2611.070989437509
 20
1602.931492845533
 30
0.0
 11
2611.197059437509
 21
1603.923852845533
 31
0.0
  0
LINE
  5
CE4
330
1F
100
AcDbEntity
  8
STANDARD
  6
IMPORT
 62
     7
100
AcDbLine
 10
2619.620679437509
 20
1632.041372845533
 30
0.0
 11
2621.517499437509
 21
1644.937182845532
 31
0.0
  0
LINE
  5
CE5
330
1F
100
AcDbEntity
  8
STANDARD
  6
IMPORT
 62
     7
100
AcDbLine
 10
2614.74747943751
 20
1633.002522845533
 30
0.0
 11
2616.573959437509
 21
1645.420052845533
 31
0.0
  0
LINE
  5
CE6
330
1F
100
AcDbEntity
  8
STANDARD
  6
IMPORT
 62
     7
100
AcDbLine
 10
2609.62383943751
 20
1604.256952845532
 30
0.0
 11
2609.746639437509
 21
1604.830142845531
 31
0.0
  0
LINE
  5
CE7
330
1F
100
AcDbEntity
  8
STANDARD
  6
IMPORT
 62
     7
100
AcDbLine
 10
2616.480299437509
 20
1619.395272845533
 30
0.0
 11
2619.620679437509
 21
1632.041372845533
 31
0.0
  0
LINE
  5
CE8
330
1F
100
AcDbEntity
  8
STANDARD
  6
IMPORT
 62
     7
100
AcDbLine
 10
2611.72150943751
 20
1620.817162845532
 30
0.0
 11
2614.74747943751
 21
1633.002522845533
 31
0.0
  0
LINE
  5
CE9
330
1F
100
AcDbEntity
  8
STANDARD
  6
IMPORT
 62
     7
100
AcDbLine
 10
2608.11459943751
 20
1605.849962845533
 30
0.0
 11
2608.265049437509
 21
1606.471682845533
 31
0.0
  0
LINE
  5
CEA
330
1F
100
AcDbEntity
  8
STANDARD
  6
IMPORT
 62
     7
100
AcDbLine
 10
2605.810249437509
 20
1608.005652845531
 30
0.0
 11
2606.47991943751
 21
1607.838492845533
 31
0.0
  0
LINE
  5
CEB
330
1F
100
AcDbEntity
  8
STANDARD
  6
IMPORT
 62
     7
100
AcDbLine
 10
2609.514319437509
 20
1603.904162845532
 30
0.0
 11
2609.79286943751
 21
1604.801302845533
 31
0.0
  0
LINE
  5
CEC
330
1F
100
AcDbEntity
  8
STANDARD
  6
IMPORT
 62
     7
100
AcDbLine
 10
2604.743969437509
 20
1608.671922845532
 30
0.0
 11
2605.52265943751
 21
1608.436632845532
 31
0.0
  0
LINE
  5
CED
330
1F
100
AcDbEntity
  8
STANDARD
  6
IMPORT
 62
     7
100
AcDbLine
 10
2610.749179437509
 20
1605.898712845533
 30
0.0
 11
2610.873809437509
 21
1606.272102845533
 31
0.0
  0
LINE
  5
CEE
330
1F
100
AcDbEntity
  8
STANDARD
  6
IMPORT
 62
     7
100
AcDbLine
 10
2614.48437943751
 20
1613.703972845533
 30
0.0
 11
2616.480299437509
 21
1619.395272845533
 31
0.0
  0
LINE
  5
CEF
330
1F
100
AcDbEntity
  8
STANDARD
  6
IMPORT
 62
     7
100
AcDbLine
 10
2609.87702943751
 20
1615.557682845533
 30
0.0
 11
2611.72150943751
 21
1620.817162845532
 31
0.0
  0
LINE
  5
CF0
330
1F
100
AcDbEntity
  8
STANDARD
  6
IMPORT
 62
     7
100
AcDbLine
 10
2604.858409437509
 20
1608.600442845532
 30
0.0
 11
2605.74619943751
 21
1608.297012845533
 31
0.0
  0
LINE
  5
CF1
330
1F
100
AcDbEntity
  8
STANDARD
  6
IMPORT
 62
     7
100
AcDbLine
 10
2604.25114943751
 20
1608.979852845533
 30
0.0
 11
2605.20126943751
 21
1608.637442845533
 31
0.0
  0
LINE
  5
CF2
330
1F
100
AcDbEntity
  8
STANDARD
  6
IMPORT
 62
     7
100
AcDbLine
 10
2612.350359437509
 20
1600.868502845533
 30
0.0
 11
2612.736059437509
 21
1601.890992845533
 31
0.0
  0
LINE
  5
CF3
330
1F
100
AcDbEntity
  8
STANDARD
  6
IMPORT
 62
     7
100
AcDbLine
 10
2604.31503943751
 20
1608.939942845533
 30
0.0
 11
2605.67764943751
 21
1608.429542845533
 31
0.0
  0
LINE
  5
CF4
330
1F
100
AcDbEntity
  8
STANDARD
  6
IMPORT
 62
     7
100
AcDbLine
 10
2607.747619437509
 20
1605.008142845533
 30
0.0
 11
2608.11459943751
 21
1605.849962845533
 31
0.0
  0
LINE
  5
CF5
330
1F
100
AcDbEntity
  8
STANDARD
  6
IMPORT
 62
     7
100
AcDbLine
 10
2611.984449437509
 20
1608.220192845533
 30
0.0
 11
2614.48437943751
 21
1613.703972845533
 31
0.0
  0
LINE
  5
CF6
330
1F
100
AcDbEntity
  8
STANDARD
  6
IMPORT
 62
     7
100
AcDbLine
 10
2607.56333943751
 20
1610.482302845533
 30
0.0
 11
2609.87702943751
 21
1615.557682845533
 31
0.0
  0
LINE
  5
CF7
330
1F
100
AcDbEntity
  8
STANDARD
  6
IMPORT
 62
     7
100
AcDbLine
 10
2437.065819437509
 20
1765.041482845532
 30
0.0
 11
2437.572299437509
 21
1766.073282845533
 31
0.0
  0
LINE
  5
CF8
330
1F
100
AcDbEntity
  8
STANDARD
  6
IMPORT
 62
     7
100
AcDbLine
 10
2440.174839437509
 20
1767.524842845533
 30
0.0
 11
2440.343679437509
 21
1767.868852845533
 31
0.0
  0
LINE
  5
CF9
330
1F
100
AcDbEntity
  8
STANDARD
  6
IMPORT
 62
     7
100
AcDbLine
 10
2447.58045943751
 20
1767.779132845532
 30
0.0
 11
2448.652659437509
 21
1767.237902845531
 31
0.0
  0
LINE
  5
CFA
330
1F
100
AcDbEntity
  8
STANDARD
  6
IMPORT
 62
     7
100
AcDbLine
 10
2445.70076943751
 20
1768.105672845532
 30
0.0
 11
2446.05816943751
 21
1767.925232845532
 31
0.0
  0
LINE
  5
CFB
330
1F
100
AcDbEntity
  8
STANDARD
  6
IMPORT
 62
     7
100
AcDbLine
 10
2608.16300943751
 20
1605.819752845533
 30
0.0
 11
2608.445709437509
 21
1606.358772845533
 31
0.0
  0
LINE
  5
CFC
330
1F
100
AcDbEntity
  8
STANDARD
  6
IMPORT
 62
     7
100
AcDbLine
 10
2607.707649437509
 20
1605.033162845531
 30
0.0
 11
2608.16300943751
 21
1605.819752845533
 31
0.0
  0
LINE
  5
CFD
330
1F
100
AcDbEntity
  8
STANDARD
  6
IMPORT
 62
     7
100
AcDbLine
 10
2610.873809437509
 20
1606.272102845533
 30
0.0
 11
2611.984449437509
 21
1608.220192845533
 31
0.0
  0
LINE
  5
CFE
330
1F
100
AcDbEntity
  8
STANDARD
  6
IMPORT
 62
     7
100
AcDbLine
 10
2606.663069437509
 20
1608.903252845533
 30
0.0
 11
2607.56333943751
 21
1610.482302845533
 31
0.0
  0
LINE
  5
CFF
330
1F
100
AcDbEntity
  8
STANDARD
  6
IMPORT
 62
     7
100
AcDbLine
 10
2612.244389437509
 20
1600.698902845532
 30
0.0
 11
2612.350359437509
 21
1600.868502845533
 31
0.0
  0
LINE
  5
D00
330
1F
100
AcDbEntity
  8
STANDARD
  6
IMPORT
 62
     7
100
AcDbLine
 10
2601.291629437509
 20
1607.542932845533
 30
0.0
 11
2601.397599437509
 21
1607.712602845533
 31
0.0
  0
LINE
  5
D01
330
1F
100
AcDbEntity
  8
STANDARD
  6
IMPORT
 62
     7
100
AcDbLine
 10
2605.273869437509
 20
1608.592122845533
 30
0.0
 11
2611.527259437509
 21
1604.684572845533
 31
0.0
  0
LINE
  5
D02
330
1F
100
AcDbEntity
  8
STANDARD
  6
IMPORT
 62
     7
100
AcDbLine
 10
2608.70770943751
 20
1595.623372845533
 30
0.0
 11
2612.244389437509
 21
1600.698902845532
 31
0.0
  0
LINE
  5
D03
330
1F
100
AcDbEntity
  8
STANDARD
  6
IMPORT
 62
     7
100
AcDbLine
 10
2598.45818943751
 20
1603.476612845533
 30
0.0
 11
2601.291629437509
 21
1607.542932845533
 31
0.0
  0
LINE
  5
D04
330
1F
100
AcDbEntity
  8
STANDARD
  6
IMPORT
 62
     7
100
AcDbLine
 10
2606.408319437509
 20
1608.611122845533
 30
0.0
 11
2606.663069437509
 21
1608.903252845533
 31
0.0
  0
LINE
  5
D05
330
1F
100
AcDbEntity
  8
STANDARD
  6
IMPORT
 62
     7
100
AcDbLine
 10
2606.460889437509
 20
1606.883362845532
 30
0.0
 11
2606.87821943751
 21
1607.338312845533
 31
0.0
  0
LINE
  5
D06
330
1F
100
AcDbEntity
  8
STANDARD
  6
IMPORT
 62
     7
100
AcDbLine
 10
2601.397599437509
 20
1607.712602845533
 30
0.0
 11
2602.147529437509
 21
1608.507432845533
 31
0.0
  0
LINE
  5
D07
330
1F
100
AcDbEntity
  8
STANDARD
  6
IMPORT
 62
     7
100
AcDbLine
 10
2611.459589437509
 20
1604.726842845533
 30
0.0
 11
2612.25418943751
 21
1603.979012845533
 31
0.0
  0
LINE
  5
D08
330
1F
100
AcDbEntity
  8
STANDARD
  6
IMPORT
 62
     7
100
AcDbLine
 10
2610.943349437509
 20
1605.139212845532
 30
0.0
 11
2611.232579437509
 21
1604.868672845533
 31
0.0
  0
LINE
  5
D09
330
1F
100
AcDbEntity
  8
STANDARD
  6
IMPORT
 62
     7
100
AcDbLine
 10
2611.018269437509
 20
1605.002642845532
 30
0.0
 11
2611.77353943751
 21
1604.279302845533
 31
0.0
  0
LINE
  5
D0A
330
1F
100
AcDbEntity
  8
STANDARD
  6
IMPORT
 62
     7
100
AcDbLine
 10
2611.527259437509
 20
1604.684572845533
 30
0.0
 11
2612.22393943751
 21
1604.007462845533
 31
0.0
  0
LINE
  5
D0B
330
1F
100
AcDbEntity
  8
STANDARD
  6
IMPORT
 62
     7
100
AcDbLine
 10
2611.123969437509
 20
1604.936572845533
 30
0.0
 11
2611.831939437509
 21
1604.242832845533
 31
0.0
  0
ARC
  5
D0C
330
1F
100
AcDbEntity
  8
STANDARD
  6
IMPORT
 62
     7
100
AcDbCircle
 10
2552.63150943751
 20
1638.589812845533
 30
0.0
 40
70.64455999999997
100
AcDbArc
 50
208.5453110000034
 51
322.540110999996
  0
ARC
  5
D0D
330
1F
100
AcDbEntity
  8
STANDARD
  6
IMPORT
 62
     7
100
AcDbCircle
 10
2552.632199437509
 20
1638.588292845533
 30
0.0
 40
57.73085
100
AcDbArc
 50
208.5708210000027
 51
322.5408100000008
  0
ARC
  5
D0E
330
1F
100
AcDbEntity
  8
STANDARD
  6
IMPORT
 62
     7
100
AcDbCircle
 10
2926.42253943751
 20
1842.027942845532
 30
0.0
 40
496.21101
100
AcDbArc
 50
191.4225310000028
 51
208.5557830000027
  0
ARC
  5
D0F
330
1F
100
AcDbEntity
  8
STANDARD
  6
IMPORT
 62
     7
100
AcDbCircle
 10
2926.473749437509
 20
1842.041142845532
 30
0.0
 40
483.34871
100
AcDbArc
 50
191.4228620000018
 51
208.5577799999949
  0
LINE
  5
D10
330
1F
100
AcDbEntity
  8
STANDARD
  6
IMPORT
 62
     7
100
AcDbLine
 10
1673.741367582925
 20
1484.50806128561
 30
0.0
 11
1751.741398582926
 21
1484.50806128561
 31
0.0
  0
LINE
  5
D11
330
1F
100
AcDbEntity
  8
STANDARD
  6
IMPORT
 62
     7
100
AcDbLine
 10
1729.241398582926
 20
1448.00812228561
 30
0.0
 11
1741.741398582926
 21
1448.00812228561
 31
0.0
  0
LINE
  5
D12
330
1F
100
AcDbEntity
  8
STANDARD
  6
IMPORT
 62
     7
100
AcDbLine
 10
1683.741367582926
 20
1448.00812228561
 30
0.0
 11
1696.241367582925
 21
1448.00812228561
 31
0.0
  0
LINE
  5
D13
330
1F
100
AcDbEntity
  8
STANDARD
  6
IMPORT
 62
     7
100
AcDbLine
 10
1673.741367582925
 20
1474.50806128561
 30
0.0
 11
1751.741398582926
 21
1474.50806128561
 31
0.0
  0
LINE
  5
D14
330
1F
100
AcDbEntity
  8
STANDARD
  6
IMPORT
 62
     7
100
AcDbLine
 10
1708.194264582926
 20
1466.508183285611
 30
0.0
 11
1717.288578582925
 21
1466.508183285611
 31
0.0
  0
LINE
  5
D15
330
1F
100
AcDbEntity
  8
STANDARD
  6
IMPORT
 62
     7
100
AcDbLine
 10
1741.741398582926
 20
1443.00812228561
 30
0.0
 11
1751.741398582926
 21
1443.00812228561
 31
0.0
  0
LINE
  5
D16
330
1F
100
AcDbEntity
  8
STANDARD
  6
IMPORT
 62
     7
100
AcDbLine
 10
1673.741367582925
 20
1443.00812228561
 30
0.0
 11
1683.741367582926
 21
1443.00812228561
 31
0.0
  0
LINE
  5
D17
330
1F
100
AcDbEntity
  8
STANDARD
  6
IMPORT
 62
     7
100
AcDbLine
 10
1696.241367582925
 20
891.0081532856112
 30
0.0
 11
1729.241398582926
 21
891.0081532856112
 31
0.0
  0
LINE
  5
D18
330
1F
100
AcDbEntity
  8
STANDARD
  6
IMPORT
 62
     7
100
AcDbLine
 10
1729.241398582926
 20
801.0081532856114
 30
0.0
 11
1729.241398582926
 21
1448.078007285611
 31
0.0
  0
LINE
  5
D19
330
1F
100
AcDbEntity
  8
STANDARD
  6
IMPORT
 62
     7
100
AcDbLine
 10
1696.241367582925
 20
801.0081532856114
 30
0.0
 11
1696.241367582925
 21
1448.078007285611
 31
0.0
  0
LINE
  5
D1A
330
1F
100
AcDbEntity
  8
STANDARD
  6
IMPORT
 62
     7
100
AcDbLine
 10
1673.741367582925
 20
1443.00812228561
 30
0.0
 11
1673.741367582925
 21
1484.50806128561
 31
0.0
  0
LINE
  5
D1B
330
1F
100
AcDbEntity
  8
STANDARD
  6
IMPORT
 62
     7
100
AcDbLine
 10
1751.741398582926
 20
1443.00812228561
 30
0.0
 11
1751.741398582926
 21
1484.50806128561
 31
0.0
  0
LINE
  5
D1C
330
1F
100
AcDbEntity
  8
STANDARD
  6
IMPORT
 62
     7
100
AcDbLine
 10
1741.741398582926
 20
1443.00812228561
 30
0.0
 11
1741.741398582926
 21
1474.50806128561
 31
0.0
  0
LINE
  5
D1D
330
1F
100
AcDbEntity
  8
STANDARD
  6
IMPORT
 62
     7
100
AcDbLine
 10
1683.741367582926
 20
1443.00812228561
 30
0.0
 11
1683.741367582926
 21
1474.50806128561
 31
0.0
  0
LINE
  5
D1E
330
1F
100
AcDbEntity
  8
STANDARD
  6
IMPORT
 62
     7
100
AcDbLine
 10
2007.979608582925
 20
2068.061681285612
 30
0.0
 11
2590.839372582925
 21
2068.061681285612
 31
0.0
  0
LINE
  5
D1F
330
1F
100
AcDbEntity
  8
STANDARD
  6
IMPORT
 62
     7
100
AcDbLine
 10
2453.200002582925
 20
1898.061681285611
 30
0.0
 11
2613.700013582925
 21
1898.061681285611
 31
0.0
  0
LINE
  5
D20
330
1F
100
AcDbEntity
  8
STANDARD
  6
IMPORT
 62
     7
100
AcDbLine
 10
2007.979608582925
 20
1898.061681285611
 30
0.0
 11
2420.199991582925
 21
1898.061681285611
 31
0.0
  0
LINE
  5
D21
330
1F
100
AcDbEntity
  8
STANDARD
  6
IMPORT
 62
     7
100
AcDbLine
 10
2515.199991582925
 20
2035.061651285612
 30
0.0
 11
2589.536157582925
 21
2035.061651285612
 31
0.0
  0
LINE
  5
D22
330
1F
100
AcDbEntity
  8
STANDARD
  6
IMPORT
 62
     7
100
AcDbLine
 10
2009.420400582925
 20
2035.061651285612
 30
0.0
 11
2482.199998582925
 21
2035.061651285612
 31
0.0
  0
LINE
  5
D23
330
1F
100
AcDbEntity
  8
STANDARD
  6
IMPORT
 62
     7
100
AcDbLine
 10
2515.199991582925
 20
1931.061635285611
 30
0.0
 11
2613.700013582925
 21
1931.061635285611
 31
0.0
  0
LINE
  5
D24
330
1F
100
AcDbEntity
  8
STANDARD
  6
IMPORT
 62
     7
100
AcDbLine
 10
2220.199999582925
 20
1931.061635285611
 30
0.0
 11
2482.199998582925
 21
1931.061635285611
 31
0.0
  0
LINE
  5
D25
330
1F
100
AcDbEntity
  8
STANDARD
  6
IMPORT
 62
     7
100
AcDbLine
 10
2009.420400582925
 20
1931.061635285611
 30
0.0
 11
2187.199998582925
 21
1931.061635285611
 31
0.0
  0
LINE
  5
D26
330
1F
100
AcDbEntity
  8
STANDARD
  6
IMPORT
 62
     7
100
AcDbLine
 10
2619.699998582925
 20
2111.061673285612
 30
0.0
 11
2623.700013582925
 21
2111.061673285612
 31
0.0
  0
LINE
  5
D27
330
1F
100
AcDbEntity
  8
STANDARD
  6
IMPORT
 62
     7
100
AcDbLine
 10
2482.199998582925
 20
2023.061681285611
 30
0.0
 11
2515.199991582925
 21
2023.061681285611
 31
0.0
  0
LINE
  5
D28
330
1F
100
AcDbEntity
  8
STANDARD
  6
IMPORT
 62
     7
100
AcDbLine
 10
2482.199998582925
 20
1943.061681285611
 30
0.0
 11
2515.199991582925
 21
1943.061681285611
 31
0.0
  0
LINE
  5
D29
330
1F
100
AcDbEntity
  8
STANDARD
  6
IMPORT
 62
     7
100
AcDbLine
 10
2420.199991582925
 20
1842.061696285611
 30
0.0
 11
2453.200002582925
 21
1842.061696285611
 31
0.0
  0
LINE
  5
D2A
330
1F
100
AcDbEntity
  8
STANDARD
  6
IMPORT
 62
     7
100
AcDbLine
 10
2613.700013582925
 20
1852.061696285611
 30
0.0
 11
2623.700013582925
 21
1852.061696285611
 31
0.0
  0
LINE
  5
D2B
330
1F
100
AcDbEntity
  8
STANDARD
  6
IMPORT
 62
     7
100
AcDbLine
 10
2441.982122582925
 20
1767.44392928561
 30
0.0
 11
2444.044271582925
 21
1767.66068028561
 31
0.0
  0
LINE
  5
D2C
330
1F
100
AcDbEntity
  8
STANDARD
  6
IMPORT
 62
     7
100
AcDbLine
 10
2440.469003582925
 20
1767.284932285611
 30
0.0
 11
2442.841611582925
 21
1767.53426128561
 31
0.0
  0
LINE
  5
D2D
330
1F
100
AcDbEntity
  8
STANDARD
  6
IMPORT
 62
     7
100
AcDbLine
 10
2439.541688582925
 20
1767.18742928561
 30
0.0
 11
2441.405893582925
 21
1767.383352285611
 31
0.0
  0
LINE
  5
D2E
330
1F
100
AcDbEntity
  8
STANDARD
  6
IMPORT
 62
     7
100
AcDbLine
 10
2443.184781582925
 20
1767.570348285611
 30
0.0
 11
2445.125413582925
 21
1767.77435828561
 31
0.0
  0
LINE
  5
D2F
330
1F
100
AcDbEntity
  8
STANDARD
  6
IMPORT
 62
     7
100
AcDbLine
 10
2444.350801582925
 20
1767.692876285611
 30
0.0
 11
2446.200281582925
 21
1767.887273285611
 31
0.0
  0
LINE
  5
D30
330
1F
100
AcDbEntity
  8
STANDARD
  6
IMPORT
 62
     7
100
AcDbLine
 10
2445.354867582925
 20
1767.798467285611
 30
0.0
 11
2446.484723582925
 21
1767.917180285611
 31
0.0
  0
LINE
  5
D31
330
1F
100
AcDbEntity
  8
STANDARD
  6
IMPORT
 62
     7
100
AcDbLine
 10
2434.222493582926
 20
1841.93810028561
 30
0.0
 11
2436.700006582925
 21
1842.061696285611
 31
0.0
  0
LINE
  5
D32
330
1F
100
AcDbEntity
  8
STANDARD
  6
IMPORT
 62
     7
100
AcDbLine
 10
2187.199998582925
 20
1962.561651285611
 30
0.0
 11
2220.199999582925
 21
1962.561651285611
 31
0.0
  0
LINE
  5
D33
330
1F
100
AcDbEntity
  8
STANDARD
  6
IMPORT
 62
     7
100
AcDbLine
 10
2188.712950582925
 20
1964.561696285611
 30
0.0
 11
2218.687059582925
 21
1964.561696285611
 31
0.0
  0
LINE
  5
D34
330
1F
100
AcDbEntity
  8
STANDARD
  6
IMPORT
 62
     7
100
AcDbLine
 10
2195.212949582925
 20
1967.561651285612
 30
0.0
 11
2212.187059582925
 21
1967.561651285612
 31
0.0
  0
LINE
  5
D35
330
1F
100
AcDbEntity
  8
STANDARD
  6
IMPORT
 62
     7
100
AcDbLine
 10
2420.199991582925
 20
1842.061696285611
 30
0.0
 11
2420.199991582925
 21
1898.061681285611
 31
0.0
  0
LINE
  5
D36
330
1F
100
AcDbEntity
  8
STANDARD
  6
IMPORT
 62
     7
100
AcDbLine
 10
2453.200002582925
 20
1842.061696285611
 30
0.0
 11
2453.200002582925
 21
1898.061681285611
 31
0.0
  0
LINE
  5
D37
330
1F
100
AcDbEntity
  8
STANDARD
  6
IMPORT
 62
     7
100
AcDbLine
 10
2613.700013582925
 20
1852.061696285611
 30
0.0
 11
2613.700013582925
 21
2105.061651285611
 31
0.0
  0
LINE
  5
D38
330
1F
100
AcDbEntity
  8
STANDARD
  6
IMPORT
 62
     7
100
AcDbLine
 10
2623.700013582925
 20
1852.061696285611
 30
0.0
 11
2623.700013582925
 21
2111.061673285612
 31
0.0
  0
LINE
  5
D39
330
1F
100
AcDbEntity
  8
STANDARD
  6
IMPORT
 62
     7
100
AcDbLine
 10
2515.199991582925
 20
1931.061635285611
 30
0.0
 11
2515.199991582925
 21
2035.061651285612
 31
0.0
  0
LINE
  5
D3A
330
1F
100
AcDbEntity
  8
STANDARD
  6
IMPORT
 62
     7
100
AcDbLine
 10
2482.199998582925
 20
1931.061635285611
 30
0.0
 11
2482.199998582925
 21
2035.061651285612
 31
0.0
  0
LINE
  5
D3B
330
1F
100
AcDbEntity
  8
STANDARD
  6
IMPORT
 62
     7
100
AcDbLine
 10
2437.039895582925
 20
1763.908010285611
 30
0.0
 11
2437.097535582925
 21
1765.06844128561
 31
0.0
  0
LINE
  5
D3C
330
1F
100
AcDbEntity
  8
STANDARD
  6
IMPORT
 62
     7
100
AcDbLine
 10
2440.375390582925
 20
1767.895818285611
 30
0.0
 11
2440.394616582925
 21
1768.282628285611
 31
0.0
  0
LINE
  5
D3D
330
1F
100
AcDbEntity
  8
STANDARD
  6
IMPORT
 62
     7
100
AcDbLine
 10
2030.199991582925
 20
2035.061651285612
 30
0.0
 11
2030.199991582925
 21
2068.061681285612
 31
0.0
  0
LINE
  5
D3E
330
1F
100
AcDbEntity
  8
STANDARD
  6
IMPORT
 62
     7
100
AcDbLine
 10
2030.199991582925
 20
1898.061681285611
 30
0.0
 11
2030.199991582925
 21
1931.061635285611
 31
0.0
  0
LINE
  5
D3F
330
1F
100
AcDbEntity
  8
STANDARD
  6
IMPORT
 62
     7
100
AcDbLine
 10
2187.199998582925
 20
1931.061635285611
 30
0.0
 11
2187.199998582925
 21
1963.061681285611
 31
0.0
  0
LINE
  5
D40
330
1F
100
AcDbEntity
  8
STANDARD
  6
IMPORT
 62
     7
100
AcDbLine
 10
2220.199999582925
 20
1931.061635285611
 30
0.0
 11
2220.199999582925
 21
1963.061681285611
 31
0.0
  0
LINE
  5
D41
330
1F
100
AcDbEntity
  8
STANDARD
  6
IMPORT
 62
     7
100
AcDbLine
 10
2213.699999582925
 20
1964.561696285611
 30
0.0
 11
2213.699999582925
 21
1966.061635285611
 31
0.0
  0
LINE
  5
D42
330
1F
100
AcDbEntity
  8
STANDARD
  6
IMPORT
 62
     7
100
AcDbLine
 10
2193.699999582925
 20
1964.561696285611
 30
0.0
 11
2193.699999582925
 21
1966.061635285611
 31
0.0
  0
LINE
  5
D43
330
1F
100
AcDbEntity
  8
STANDARD
  6
IMPORT
 62
     7
100
AcDbLine
 10
2436.700006582925
 20
1914.561696285611
 30
0.0
 11
2444.949994582925
 21
1906.311651285611
 31
0.0
  0
LINE
  5
D44
330
1F
100
AcDbEntity
  8
STANDARD
  6
IMPORT
 62
     7
100
AcDbLine
 10
2514.448305582925
 20
2035.813375285611
 30
0.0
 11
2514.637781582925
 21
2035.623861285611
 31
0.0
  0
LINE
  5
D45
330
1F
100
AcDbEntity
  8
STANDARD
  6
IMPORT
 62
     7
100
AcDbLine
 10
2510.083337582925
 20
2040.178380285611
 30
0.0
 11
2512.721067582925
 21
2037.540593285612
 31
0.0
  0
LINE
  5
D46
330
1F
100
AcDbEntity
  8
STANDARD
  6
IMPORT
 62
     7
100
AcDbLine
 10
2502.970510582926
 20
2047.291189285611
 30
0.0
 11
2506.717134582925
 21
2043.544545285612
 31
0.0
  0
LINE
  5
D47
330
1F
100
AcDbEntity
  8
STANDARD
  6
IMPORT
 62
     7
100
AcDbLine
 10
2487.032743582925
 20
1926.22894828561
 30
0.0
 11
2490.450006582925
 21
1922.811666285611
 31
0.0
  0
LINE
  5
D48
330
1F
100
AcDbEntity
  8
STANDARD
  6
IMPORT
 62
     7
100
AcDbLine
 10
2192.032738582925
 20
1926.22894828561
 30
0.0
 11
2199.429489582925
 21
1918.832174285611
 31
0.0
  0
LINE
  5
D49
330
1F
100
AcDbEntity
  8
STANDARD
  6
IMPORT
 62
     7
100
AcDbLine
 10
2428.449998582925
 20
1906.311651285611
 30
0.0
 11
2432.429490582925
 21
1910.29114328561
 31
0.0
  0
LINE
  5
D4A
330
1F
100
AcDbEntity
  8
STANDARD
  6
IMPORT
 62
     7
100
AcDbLine
 10
2420.199991582925
 20
1898.061681285611
 30
0.0
 11
2425.032735582925
 21
1902.894368285611
 31
0.0
  0
LINE
  5
D4B
330
1F
100
AcDbEntity
  8
STANDARD
  6
IMPORT
 62
     7
100
AcDbLine
 10
2494.429498582925
 20
2047.291189285611
 30
0.0
 11
2498.699994582925
 21
2051.561666285611
 31
0.0
  0
LINE
  5
D4C
330
1F
100
AcDbEntity
  8
STANDARD
  6
IMPORT
 62
     7
100
AcDbLine
 10
2490.450006582925
 20
2043.311696285611
 30
0.0
 11
2494.301725582925
 21
2047.163396285611
 31
0.0
  0
LINE
  5
D4D
330
1F
100
AcDbEntity
  8
STANDARD
  6
IMPORT
 62
     7
100
AcDbLine
 10
2484.236551582925
 20
2037.098241285611
 30
0.0
 11
2490.238958582925
 21
2043.10059128561
 31
0.0
  0
LINE
  5
D4E
330
1F
100
AcDbEntity
  8
STANDARD
  6
IMPORT
 62
     7
100
AcDbLine
 10
2510.367265582925
 20
1926.22894828561
 30
0.0
 11
2515.199991582925
 21
1931.061635285611
 31
0.0
  0
LINE
  5
D4F
330
1F
100
AcDbEntity
  8
STANDARD
  6
IMPORT
 62
     7
100
AcDbLine
 10
2498.699994582925
 20
1914.561696285611
 30
0.0
 11
2506.950002582925
 21
1922.811666285611
 31
0.0
  0
LINE
  5
D50
330
1F
100
AcDbEntity
  8
STANDARD
  6
IMPORT
 62
     7
100
AcDbLine
 10
2215.367269582925
 20
1926.22894828561
 30
0.0
 11
2220.199999582925
 21
1931.061635285611
 31
0.0
  0
LINE
  5
D51
330
1F
100
AcDbEntity
  8
STANDARD
  6
IMPORT
 62
     7
100
AcDbLine
 10
2203.699999582925
 20
1914.561696285611
 30
0.0
 11
2207.970519582925
 21
1918.832174285611
 31
0.0
  0
LINE
  5
D52
330
1F
100
AcDbEntity
  8
STANDARD
  6
IMPORT
 62
     7
100
AcDbLine
 10
2448.684392582925
 20
1767.264867285611
 30
0.0
 11
2449.481187582925
 21
1766.370015285611
 31
0.0
  0
LINE
  5
D53
330
1F
100
AcDbEntity
  8
STANDARD
  6
IMPORT
 62
     7
100
AcDbLine
 10
2445.466905582925
 20
1768.430944285611
 30
0.0
 11
2445.732503582925
 21
1768.13263428561
 31
0.0
  0
LINE
  5
D54
330
1F
100
AcDbEntity
  8
STANDARD
  6
IMPORT
 62
     7
100
AcDbLine
 10
2437.604051582925
 20
1766.100240285611
 30
0.0
 11
2438.482328582925
 21
1766.846471285611
 31
0.0
  0
LINE
  5
D55
330
1F
100
AcDbEntity
  8
STANDARD
  6
IMPORT
 62
     7
100
AcDbLine
 10
2439.913793582925
 20
1767.303090285611
 30
0.0
 11
2440.206552582925
 21
1767.55180928561
 31
0.0
  0
LINE
  5
D56
330
1F
100
AcDbEntity
  8
STANDARD
  6
IMPORT
 62
     7
100
AcDbLine
 10
2219.756869582925
 20
1964.122320285611
 30
0.0
 11
2220.084839582925
 21
1963.635717285611
 31
0.0
  0
LINE
  5
D57
330
1F
100
AcDbEntity
  8
STANDARD
  6
IMPORT
 62
     7
100
AcDbLine
 10
2213.256870582926
 20
1967.122350285611
 30
0.0
 11
2213.584838582925
 21
1966.63567128561
 31
0.0
  0
LINE
  5
D58
330
1F
100
AcDbEntity
  8
STANDARD
  6
IMPORT
 62
     7
100
AcDbLine
 10
2187.643128582925
 20
1964.122320285611
 30
0.0
 11
2188.133970582925
 21
1964.447484285611
 31
0.0
  0
LINE
  5
D59
330
1F
100
AcDbEntity
  8
STANDARD
  6
IMPORT
 62
     7
100
AcDbLine
 10
2194.143129582925
 20
1967.122350285611
 30
0.0
 11
2194.633968582925
 21
1967.447515285611
 31
0.0
  0
LINE
  5
D5A
330
1F
100
AcDbEntity
  8
STANDARD
  6
IMPORT
 62
     7
100
AcDbLine
 10
2449.481187582925
 20
1766.370015285611
 30
0.0
 11
2449.881196582925
 21
1765.25765028561
 31
0.0
  0
LINE
  5
D5B
330
1F
100
AcDbEntity
  8
STANDARD
  6
IMPORT
 62
     7
100
AcDbLine
 10
2445.333562582925
 20
1768.80173228561
 30
0.0
 11
2445.466905582925
 21
1768.430944285611
 31
0.0
  0
LINE
  5
D5C
330
1F
100
AcDbEntity
  8
STANDARD
  6
IMPORT
 62
     7
100
AcDbLine
 10
2438.482328582925
 20
1766.846471285611
 30
0.0
 11
2439.913793582925
 21
1767.303090285611
 31
0.0
  0
LINE
  5
D5D
330
1F
100
AcDbEntity
  8
STANDARD
  6
IMPORT
 62
     7
100
AcDbLine
 10
2220.084839582925
 20
1963.635717285611
 30
0.0
 11
2220.199999582925
 21
1963.061681285611
 31
0.0
  0
LINE
  5
D5E
330
1F
100
AcDbEntity
  8
STANDARD
  6
IMPORT
 62
     7
100
AcDbLine
 10
2213.584838582925
 20
1966.63567128561
 30
0.0
 11
2213.699999582925
 21
1966.061635285611
 31
0.0
  0
LINE
  5
D5F
330
1F
100
AcDbEntity
  8
STANDARD
  6
IMPORT
 62
     7
100
AcDbLine
 10
2188.133970582925
 20
1964.447484285611
 30
0.0
 11
2188.712950582925
 21
1964.561696285611
 31
0.0
  0
LINE
  5
D60
330
1F
100
AcDbEntity
  8
STANDARD
  6
IMPORT
 62
     7
100
AcDbLine
 10
2194.633968582925
 20
1967.447515285611
 30
0.0
 11
2195.212949582925
 21
1967.561651285612
 31
0.0
  0
LINE
  5
D61
330
1F
100
AcDbEntity
  8
STANDARD
  6
IMPORT
 62
     7
100
AcDbLine
 10
2437.039895582925
 20
1763.908010285611
 30
0.0
 11
2440.071550582925
 21
1743.78388028561
 31
0.0
  0
LINE
  5
D62
330
1F
100
AcDbEntity
  8
STANDARD
  6
IMPORT
 62
     7
100
AcDbLine
 10
2449.881196582925
 20
1765.25765028561
 30
0.0
 11
2452.730832582925
 21
1746.34163428561
 31
0.0
  0
LINE
  5
D63
330
1F
100
AcDbEntity
  8
STANDARD
  6
IMPORT
 62
     7
100
AcDbLine
 10
2436.659990582926
 20
1793.07304928561
 30
0.0
 11
2440.394616582925
 21
1768.282628285611
 31
0.0
  0
LINE
  5
D64
330
1F
100
AcDbEntity
  8
STANDARD
  6
IMPORT
 62
     7
100
AcDbLine
 10
2441.602674582925
 20
1793.567434285611
 30
0.0
 11
2445.333562582925
 21
1768.80173228561
 31
0.0
  0
LINE
  5
D65
330
1F
100
AcDbEntity
  8
STANDARD
  6
IMPORT
 62
     7
100
AcDbLine
 10
1993.928953582925
 20
2066.832395285611
 30
0.0
 11
2007.979608582925
 21
2068.061681285612
 31
0.0
  0
LINE
  5
D66
330
1F
100
AcDbEntity
  8
STANDARD
  6
IMPORT
 62
     7
100
AcDbLine
 10
1999.681230582925
 20
2034.209600285612
 30
0.0
 11
2009.420400582925
 21
2035.061651285612
 31
0.0
  0
LINE
  5
D67
330
1F
100
AcDbEntity
  8
STANDARD
  6
IMPORT
 62
     7
100
AcDbLine
 10
2434.222493582926
 20
1841.93810028561
 30
0.0
 11
2436.659990582926
 21
1793.07304928561
 31
0.0
  0
LINE
  5
D68
330
1F
100
AcDbEntity
  8
STANDARD
  6
IMPORT
 62
     7
100
AcDbLine
 10
2439.183679582925
 20
1842.061696285611
 30
0.0
 11
2441.602674582925
 21
1793.567434285611
 31
0.0
  0
LINE
  5
D69
330
1F
100
AcDbEntity
  8
STANDARD
  6
IMPORT
 62
     7
100
AcDbLine
 10
2598.135400582926
 20
2071.829076285611
 30
0.0
 11
2613.700013582925
 21
2072.561651285611
 31
0.0
  0
LINE
  5
D6A
330
1F
100
AcDbEntity
  8
STANDARD
  6
IMPORT
 62
     7
100
AcDbLine
 10
2598.135400582926
 20
2030.294271285612
 30
0.0
 11
2613.700013582925
 21
2029.561696285611
 31
0.0
  0
LINE
  5
D6B
330
1F
100
AcDbEntity
  8
STANDARD
  6
IMPORT
 62
     7
100
AcDbLine
 10
2446.427732582925
 20
1767.91122928561
 30
0.0
 11
2447.612176582925
 21
1767.806096285611
 31
0.0
  0
LINE
  5
D6C
330
1F
100
AcDbEntity
  8
STANDARD
  6
IMPORT
 62
     7
100
AcDbLine
 10
1993.928953582925
 20
1899.29092928561
 30
0.0
 11
2007.979608582925
 21
1898.061681285611
 31
0.0
  0
LINE
  5
D6D
330
1F
100
AcDbEntity
  8
STANDARD
  6
IMPORT
 62
     7
100
AcDbLine
 10
1999.681230582925
 20
1931.91376228561
 30
0.0
 11
2009.420400582925
 21
1931.061635285611
 31
0.0
  0
LINE
  5
D6E
330
1F
100
AcDbEntity
  8
STANDARD
  6
IMPORT
 62
     7
100
AcDbLine
 10
2187.199998582925
 20
1963.061681285611
 30
0.0
 11
2187.315169582925
 21
1963.635717285611
 31
0.0
  0
LINE
  5
D6F
330
1F
100
AcDbEntity
  8
STANDARD
  6
IMPORT
 62
     7
100
AcDbLine
 10
2193.699999582925
 20
1966.061635285611
 30
0.0
 11
2193.815170582925
 21
1966.63567128561
 31
0.0
  0
LINE
  5
D70
330
1F
100
AcDbEntity
  8
STANDARD
  6
IMPORT
 62
     7
100
AcDbLine
 10
2218.687059582925
 20
1964.561696285611
 30
0.0
 11
2219.266039582925
 21
1964.447484285611
 31
0.0
  0
LINE
  5
D71
330
1F
100
AcDbEntity
  8
STANDARD
  6
IMPORT
 62
     7
100
AcDbLine
 10
2212.187059582925
 20
1967.561651285612
 30
0.0
 11
2212.766040582925
 21
1967.447515285611
 31
0.0
  0
LINE
  5
D72
330
1F
100
AcDbEntity
  8
STANDARD
  6
IMPORT
 62
     7
100
AcDbLine
 10
2437.097535582925
 20
1765.06844128561
 30
0.0
 11
2437.604051582925
 21
1766.100240285611
 31
0.0
  0
LINE
  5
D73
330
1F
100
AcDbEntity
  8
STANDARD
  6
IMPORT
 62
     7
100
AcDbLine
 10
2440.206552582925
 20
1767.55180928561
 30
0.0
 11
2440.375390582925
 21
1767.895818285611
 31
0.0
  0
LINE
  5
D74
330
1F
100
AcDbEntity
  8
STANDARD
  6
IMPORT
 62
     7
100
AcDbLine
 10
2447.612176582925
 20
1767.806096285611
 30
0.0
 11
2448.684392582925
 21
1767.264867285611
 31
0.0
  0
LINE
  5
D75
330
1F
100
AcDbEntity
  8
STANDARD
  6
IMPORT
 62
     7
100
AcDbLine
 10
2445.732503582925
 20
1768.13263428561
 30
0.0
 11
2446.089902582925
 21
1767.952199285611
 31
0.0
  0
LINE
  5
D76
330
1F
100
AcDbEntity
  8
STANDARD
  6
IMPORT
 62
     7
100
AcDbLine
 10
2187.315169582925
 20
1963.635717285611
 30
0.0
 11
2187.643128582925
 21
1964.122320285611
 31
0.0
  0
LINE
  5
D77
330
1F
100
AcDbEntity
  8
STANDARD
  6
IMPORT
 62
     7
100
AcDbLine
 10
2193.815170582925
 20
1966.63567128561
 30
0.0
 11
2194.143129582925
 21
1967.122350285611
 31
0.0
  0
LINE
  5
D78
330
1F
100
AcDbEntity
  8
STANDARD
  6
IMPORT
 62
     7
100
AcDbLine
 10
2219.266039582925
 20
1964.447484285611
 30
0.0
 11
2219.756869582925
 21
1964.122320285611
 31
0.0
  0
LINE
  5
D79
330
1F
100
AcDbEntity
  8
STANDARD
  6
IMPORT
 62
     7
100
AcDbLine
 10
2212.766040582925
 20
1967.447515285611
 30
0.0
 11
2213.256870582926
 21
1967.122350285611
 31
0.0
  0
LINE
  5
D7A
330
1F
100
AcDbEntity
  8
STANDARD
  6
IMPORT
 62
     7
100
AcDbLine
 10
2432.429490582925
 20
1910.29114328561
 30
0.0
 11
2436.700006582925
 21
1914.561696285611
 31
0.0
  0
LINE
  5
D7B
330
1F
100
AcDbEntity
  8
STANDARD
  6
IMPORT
 62
     7
100
AcDbLine
 10
2425.032735582925
 20
1902.894368285611
 30
0.0
 11
2428.449998582925
 21
1906.311651285611
 31
0.0
  0
LINE
  5
D7C
330
1F
100
AcDbEntity
  8
STANDARD
  6
IMPORT
 62
     7
100
AcDbLine
 10
2494.301725582925
 20
2047.163396285611
 30
0.0
 11
2494.429498582925
 21
2047.291189285611
 31
0.0
  0
LINE
  5
D7D
330
1F
100
AcDbEntity
  8
STANDARD
  6
IMPORT
 62
     7
100
AcDbLine
 10
2490.238958582925
 20
2043.10059128561
 30
0.0
 11
2490.450006582925
 21
2043.311696285611
 31
0.0
  0
LINE
  5
D7E
330
1F
100
AcDbEntity
  8
STANDARD
  6
IMPORT
 62
     7
100
AcDbLine
 10
2482.762227582925
 20
2035.623861285611
 30
0.0
 11
2484.236551582925
 21
2037.098241285611
 31
0.0
  0
LINE
  5
D7F
330
1F
100
AcDbEntity
  8
STANDARD
  6
IMPORT
 62
     7
100
AcDbLine
 10
2482.199998582925
 20
2035.061651285612
 30
0.0
 11
2482.696557582925
 21
2035.558248285612
 31
0.0
  0
LINE
  5
D80
330
1F
100
AcDbEntity
  8
STANDARD
  6
IMPORT
 62
     7
100
AcDbLine
 10
2506.950002582925
 20
1922.811666285611
 30
0.0
 11
2510.367265582925
 21
1926.22894828561
 31
0.0
  0
LINE
  5
D81
330
1F
100
AcDbEntity
  8
STANDARD
  6
IMPORT
 62
     7
100
AcDbLine
 10
2207.970519582925
 20
1918.832174285611
 30
0.0
 11
2215.367269582925
 21
1926.22894828561
 31
0.0
  0
LINE
  5
D82
330
1F
100
AcDbEntity
  8
STANDARD
  6
IMPORT
 62
     7
100
AcDbLine
 10
2444.949994582925
 20
1906.311651285611
 30
0.0
 11
2453.200002582925
 21
1898.061681285611
 31
0.0
  0
LINE
  5
D83
330
1F
100
AcDbEntity
  8
STANDARD
  6
IMPORT
 62
     7
100
AcDbLine
 10
2514.637781582925
 20
2035.623861285611
 30
0.0
 11
2515.132566582925
 21
2035.129094285611
 31
0.0
  0
LINE
  5
D84
330
1F
100
AcDbEntity
  8
STANDARD
  6
IMPORT
 62
     7
100
AcDbLine
 10
2512.721067582925
 20
2037.540593285612
 30
0.0
 11
2514.448305582925
 21
2035.813375285611
 31
0.0
  0
LINE
  5
D85
330
1F
100
AcDbEntity
  8
STANDARD
  6
IMPORT
 62
     7
100
AcDbLine
 10
2506.717134582925
 20
2043.544545285612
 30
0.0
 11
2510.083337582925
 21
2040.178380285611
 31
0.0
  0
LINE
  5
D86
330
1F
100
AcDbEntity
  8
STANDARD
  6
IMPORT
 62
     7
100
AcDbLine
 10
2498.699994582925
 20
2051.561666285611
 30
0.0
 11
2502.970510582926
 21
2047.291189285611
 31
0.0
  0
LINE
  5
D87
330
1F
100
AcDbEntity
  8
STANDARD
  6
IMPORT
 62
     7
100
AcDbLine
 10
2490.450006582925
 20
1922.811666285611
 30
0.0
 11
2498.699994582925
 21
1914.561696285611
 31
0.0
  0
LINE
  5
D88
330
1F
100
AcDbEntity
  8
STANDARD
  6
IMPORT
 62
     7
100
AcDbLine
 10
2482.199998582925
 20
1931.061635285611
 30
0.0
 11
2487.032743582925
 21
1926.22894828561
 31
0.0
  0
LINE
  5
D89
330
1F
100
AcDbEntity
  8
STANDARD
  6
IMPORT
 62
     7
100
AcDbLine
 10
2199.429489582925
 20
1918.832174285611
 30
0.0
 11
2203.699999582925
 21
1914.561696285611
 31
0.0
  0
LINE
  5
D8A
330
1F
100
AcDbEntity
  8
STANDARD
  6
IMPORT
 62
     7
100
AcDbLine
 10
2187.199998582925
 20
1931.061635285611
 30
0.0
 11
2192.032738582925
 21
1926.22894828561
 31
0.0
  0
ARC
  5
D8B
330
1F
100
AcDbEntity
  8
STANDARD
  6
IMPORT
 62
     7
100
AcDbCircle
 10
2008.699981582925
 20
1983.06168128561
 30
0.0
 40
51.936957
100
AcDbArc
 50
99.99999300000023
 51
260.0000069999997
  0
ARC
  5
D8C
330
1F
100
AcDbEntity
  8
STANDARD
  6
IMPORT
 62
     7
100
AcDbCircle
 10
2603.699991582925
 20
2051.061673285611
 30
0.0
 40
21.499993
100
AcDbArc
 50
104.9999529999958
 51
255.0000470000041
  0
ARC
  5
D8D
330
1F
100
AcDbEntity
  8
STANDARD
  6
IMPORT
 62
     7
100
AcDbCircle
 10
2008.700010582925
 20
1983.061662285611
 30
0.0
 40
85.063034
100
AcDbArc
 50
100.0000109999987
 51
259.9999890000013
  0
ARC
  5
D8E
330
1F
100
AcDbEntity
  8
STANDARD
  6
IMPORT
 62
     7
100
AcDbCircle
 10
2619.699998582925
 20
2105.061689285612
 30
0.0
 40
5.999983999999998
100
AcDbArc
 50
89.99999699998928
 51
180.0003679999953
  0
LINE
  5
D8F
330
1F
100
AcDbEntity
  8
STANDARD
  6
IMPORT
 62
     7
100
AcDbLine
 10
775.9502815829246
 20
2071.819958285612
 30
0.0
 11
1358.810045582925
 21
2071.819958285612
 31
0.0
  0
LINE
  5
D90
330
1F
100
AcDbEntity
  8
STANDARD
  6
IMPORT
 62
     7
100
AcDbLine
 10
884.5896555829249
 20
2038.819927285612
 30
0.0
 11
1357.369253582925
 21
2038.819927285612
 31
0.0
  0
LINE
  5
D91
330
1F
100
AcDbEntity
  8
STANDARD
  6
IMPORT
 62
     7
100
AcDbLine
 10
777.2534965829249
 20
2038.819927285612
 30
0.0
 11
851.5896625829251
 21
2038.819927285612
 31
0.0
  0
LINE
  5
D92
330
1F
100
AcDbEntity
  8
STANDARD
  6
IMPORT
 62
     7
100
AcDbLine
 10
946.589662582925
 20
1901.819958285611
 30
0.0
 11
1358.810045582925
 21
1901.819958285611
 31
0.0
  0
LINE
  5
D93
330
1F
100
AcDbEntity
  8
STANDARD
  6
IMPORT
 62
     7
100
AcDbLine
 10
753.0896405829248
 20
1901.819958285611
 30
0.0
 11
913.5896515829259
 21
1901.819958285611
 31
0.0
  0
LINE
  5
D94
330
1F
100
AcDbEntity
  8
STANDARD
  6
IMPORT
 62
     7
100
AcDbLine
 10
1179.589655582925
 20
1934.819912285611
 30
0.0
 11
1357.369253582925
 21
1934.819912285611
 31
0.0
  0
LINE
  5
D95
330
1F
100
AcDbEntity
  8
STANDARD
  6
IMPORT
 62
     7
100
AcDbLine
 10
884.5896555829249
 20
1934.819912285611
 30
0.0
 11
1146.589654582924
 21
1934.819912285611
 31
0.0
  0
LINE
  5
D96
330
1F
100
AcDbEntity
  8
STANDARD
  6
IMPORT
 62
     7
100
AcDbLine
 10
753.0896405829248
 20
1934.819912285611
 30
0.0
 11
851.5896625829251
 21
1934.819912285611
 31
0.0
  0
LINE
  5
D97
330
1F
100
AcDbEntity
  8
STANDARD
  6
IMPORT
 62
     7
100
AcDbLine
 10
1146.589654582924
 20
1966.31992728561
 30
0.0
 11
1179.589655582925
 21
1966.31992728561
 31
0.0
  0
LINE
  5
D98
330
1F
100
AcDbEntity
  8
STANDARD
  6
IMPORT
 62
     7
100
AcDbLine
 10
1148.102594582925
 20
1968.319973285611
 30
0.0
 11
1178.076703582925
 21
1968.319973285611
 31
0.0
  0
LINE
  5
D99
330
1F
100
AcDbEntity
  8
STANDARD
  6
IMPORT
 62
     7
100
AcDbLine
 10
1154.602594582925
 20
1971.31992728561
 30
0.0
 11
1171.576704582925
 21
1971.31992728561
 31
0.0
  0
LINE
  5
D9A
330
1F
100
AcDbEntity
  8
STANDARD
  6
IMPORT
 62
     7
100
AcDbLine
 10
743.0896405829249
 20
2114.819950285612
 30
0.0
 11
747.0896555829249
 21
2114.819950285612
 31
0.0
  0
LINE
  5
D9B
330
1F
100
AcDbEntity
  8
STANDARD
  6
IMPORT
 62
     7
100
AcDbLine
 10
851.5896625829251
 20
2026.819958285611
 30
0.0
 11
884.5896555829249
 21
2026.819958285611
 31
0.0
  0
LINE
  5
D9C
330
1F
100
AcDbEntity
  8
STANDARD
  6
IMPORT
 62
     7
100
AcDbLine
 10
851.5896625829251
 20
1946.819958285611
 30
0.0
 11
884.5896555829249
 21
1946.819958285611
 31
0.0
  0
LINE
  5
D9D
330
1F
100
AcDbEntity
  8
STANDARD
  6
IMPORT
 62
     7
100
AcDbLine
 10
913.5896515829259
 20
1845.819973285611
 30
0.0
 11
946.589662582925
 21
1845.819973285611
 31
0.0
  0
LINE
  5
D9E
330
1F
100
AcDbEntity
  8
STANDARD
  6
IMPORT
 62
     7
100
AcDbLine
 10
743.0896405829249
 20
1855.819973285611
 30
0.0
 11
753.0896405829248
 21
1855.819973285611
 31
0.0
  0
LINE
  5
D9F
330
1F
100
AcDbEntity
  8
STANDARD
  6
IMPORT
 62
     7
100
AcDbLine
 10
922.7453825829252
 20
1771.418957285611
 30
0.0
 11
924.8075315829247
 21
1771.202206285611
 31
0.0
  0
LINE
  5
DA0
330
1F
100
AcDbEntity
  8
STANDARD
  6
IMPORT
 62
     7
100
AcDbLine
 10
923.948042582926
 20
1771.292538285611
 30
0.0
 11
925.8886555829258
 21
1771.088604285611
 31
0.0
  0
LINE
  5
DA1
330
1F
100
AcDbEntity
  8
STANDARD
  6
IMPORT
 62
     7
100
AcDbLine
 10
925.114061582925
 20
1771.170010285611
 30
0.0
 11
926.9619015829247
 21
1770.975765285611
 31
0.0
  0
LINE
  5
DA2
330
1F
100
AcDbEntity
  8
STANDARD
  6
IMPORT
 62
     7
100
AcDbLine
 10
926.1181095829261
 20
1771.064495285611
 30
0.0
 11
927.1992705829248
 21
1770.950817285611
 31
0.0
  0
LINE
  5
DA3
330
1F
100
AcDbEntity
  8
STANDARD
  6
IMPORT
 62
     7
100
AcDbLine
 10
921.2297845829247
 20
1771.578258285612
 30
0.0
 11
923.6048725829251
 21
1771.32862528561
 31
0.0
  0
LINE
  5
DA4
330
1F
100
AcDbEntity
  8
STANDARD
  6
IMPORT
 62
     7
100
AcDbLine
 10
920.3049305829249
 20
1771.675457285611
 30
0.0
 11
922.153246582925
 21
1771.481213285611
 31
0.0
  0
LINE
  5
DA5
330
1F
100
AcDbEntity
  8
STANDARD
  6
IMPORT
 62
     7
100
AcDbLine
 10
930.214044582925
 20
1845.813717285611
 30
0.0
 11
932.5671605829256
 21
1845.696377285611
 31
0.0
  0
LINE
  5
DA6
330
1F
100
AcDbEntity
  8
STANDARD
  6
IMPORT
 62
     7
100
AcDbLine
 10
1336.589662582924
 20
2038.819927285612
 30
0.0
 11
1336.589662582924
 21
2071.819958285612
 31
0.0
  0
LINE
  5
DA7
330
1F
100
AcDbEntity
  8
STANDARD
  6
IMPORT
 62
     7
100
AcDbLine
 10
1336.589662582924
 20
1901.819958285611
 30
0.0
 11
1336.589662582924
 21
1934.819912285611
 31
0.0
  0
LINE
  5
DA8
330
1F
100
AcDbEntity
  8
STANDARD
  6
IMPORT
 62
     7
100
AcDbLine
 10
1179.589655582925
 20
1934.819912285611
 30
0.0
 11
1179.589655582925
 21
1966.819958285611
 31
0.0
  0
LINE
  5
DA9
330
1F
100
AcDbEntity
  8
STANDARD
  6
IMPORT
 62
     7
100
AcDbLine
 10
1146.589654582924
 20
1934.819912285611
 30
0.0
 11
1146.589654582924
 21
1966.819958285611
 31
0.0
  0
LINE
  5
DAA
330
1F
100
AcDbEntity
  8
STANDARD
  6
IMPORT
 62
     7
100
AcDbLine
 10
1153.089654582925
 20
1968.319973285611
 30
0.0
 11
1153.089654582925
 21
1969.819912285611
 31
0.0
  0
LINE
  5
DAB
330
1F
100
AcDbEntity
  8
STANDARD
  6
IMPORT
 62
     7
100
AcDbLine
 10
1173.089654582924
 20
1968.319973285611
 30
0.0
 11
1173.089654582924
 21
1969.819912285611
 31
0.0
  0
LINE
  5
DAC
330
1F
100
AcDbEntity
  8
STANDARD
  6
IMPORT
 62
     7
100
AcDbLine
 10
946.589662582925
 20
1845.819973285611
 30
0.0
 11
946.589662582925
 21
1901.819958285611
 31
0.0
  0
LINE
  5
DAD
330
1F
100
AcDbEntity
  8
STANDARD
  6
IMPORT
 62
     7
100
AcDbLine
 10
913.5896515829259
 20
1845.819973285611
 30
0.0
 11
913.5896515829259
 21
1901.819958285611
 31
0.0
  0
LINE
  5
DAE
330
1F
100
AcDbEntity
  8
STANDARD
  6
IMPORT
 62
     7
100
AcDbLine
 10
753.0896405829248
 20
1855.819973285611
 30
0.0
 11
753.0896405829248
 21
2108.819927285611
 31
0.0
  0
LINE
  5
DAF
330
1F
100
AcDbEntity
  8
STANDARD
  6
IMPORT
 62
     7
100
AcDbLine
 10
743.0896405829249
 20
1855.819973285611
 30
0.0
 11
743.0896405829249
 21
2114.819950285612
 31
0.0
  0
LINE
  5
DB0
330
1F
100
AcDbEntity
  8
STANDARD
  6
IMPORT
 62
     7
100
AcDbLine
 10
851.5896625829251
 20
1934.819912285611
 30
0.0
 11
851.5896625829251
 21
2038.819927285612
 31
0.0
  0
LINE
  5
DB1
330
1F
100
AcDbEntity
  8
STANDARD
  6
IMPORT
 62
     7
100
AcDbLine
 10
884.5896555829249
 20
1934.819912285611
 30
0.0
 11
884.5896555829249
 21
2038.819927285612
 31
0.0
  0
LINE
  5
DB2
330
1F
100
AcDbEntity
  8
STANDARD
  6
IMPORT
 62
     7
100
AcDbLine
 10
929.6921185829251
 20
1767.666286285611
 30
0.0
 11
929.7497585829246
 21
1768.826717285611
 31
0.0
  0
LINE
  5
DB3
330
1F
100
AcDbEntity
  8
STANDARD
  6
IMPORT
 62
     7
100
AcDbLine
 10
926.3950375829258
 20
1771.654095285611
 30
0.0
 11
926.4142635829248
 21
1772.040905285611
 31
0.0
  0
LINE
  5
DB4
330
1F
100
AcDbEntity
  8
STANDARD
  6
IMPORT
 62
     7
100
AcDbLine
 10
1151.422384582925
 20
1929.987224285611
 30
0.0
 11
1158.819134582926
 21
1922.590450285611
 31
0.0
  0
LINE
  5
DB5
330
1F
100
AcDbEntity
  8
STANDARD
  6
IMPORT
 62
     7
100
AcDbLine
 10
938.3396555829259
 20
1910.069927285611
 30
0.0
 11
941.7569185829252
 21
1906.652645285611
 31
0.0
  0
LINE
  5
DB6
330
1F
100
AcDbEntity
  8
STANDARD
  6
IMPORT
 62
     7
100
AcDbLine
 10
930.0896475829249
 20
1918.319973285611
 30
0.0
 11
934.3601635829244
 21
1914.049419285612
 31
0.0
  0
LINE
  5
DB7
330
1F
100
AcDbEntity
  8
STANDARD
  6
IMPORT
 62
     7
100
AcDbLine
 10
882.3790765829258
 20
2041.030544285611
 30
0.0
 11
884.0274265829249
 21
2039.382137285612
 31
0.0
  0
LINE
  5
DB8
330
1F
100
AcDbEntity
  8
STANDARD
  6
IMPORT
 62
     7
100
AcDbLine
 10
879.4729825829248
 20
2043.936657285611
 30
0.0
 11
882.1107125829248
 21
2041.298870285611
 31
0.0
  0
LINE
  5
DB9
330
1F
100
AcDbEntity
  8
STANDARD
  6
IMPORT
 62
     7
100
AcDbLine
 10
872.360155582926
 20
2051.049465285611
 30
0.0
 11
876.1067795829248
 21
2047.302822285611
 31
0.0
  0
LINE
  5
DBA
330
1F
100
AcDbEntity
  8
STANDARD
  6
IMPORT
 62
     7
100
AcDbLine
 10
856.4223885829251
 20
1929.987224285611
 30
0.0
 11
859.8396515829259
 21
1926.569942285611
 31
0.0
  0
LINE
  5
DBB
330
1F
100
AcDbEntity
  8
STANDARD
  6
IMPORT
 62
     7
100
AcDbLine
 10
1174.756915582926
 20
1929.987224285611
 30
0.0
 11
1179.589655582925
 21
1934.819912285611
 31
0.0
  0
LINE
  5
DBC
330
1F
100
AcDbEntity
  8
STANDARD
  6
IMPORT
 62
     7
100
AcDbLine
 10
1163.089654582925
 20
1918.319973285611
 30
0.0
 11
1167.360164582925
 21
1922.590450285611
 31
0.0
  0
LINE
  5
DBD
330
1F
100
AcDbEntity
  8
STANDARD
  6
IMPORT
 62
     7
100
AcDbLine
 10
913.5896515829259
 20
1901.819958285611
 30
0.0
 11
921.8396595829249
 21
1910.069927285611
 31
0.0
  0
LINE
  5
DBE
330
1F
100
AcDbEntity
  8
STANDARD
  6
IMPORT
 62
     7
100
AcDbLine
 10
863.8191435829249
 20
2051.049465285611
 30
0.0
 11
868.0896595829258
 21
2055.319942285612
 31
0.0
  0
LINE
  5
DBF
330
1F
100
AcDbEntity
  8
STANDARD
  6
IMPORT
 62
     7
100
AcDbLine
 10
859.8396515829259
 20
2047.069973285611
 30
0.0
 11
863.6913705829256
 21
2050.921673285611
 31
0.0
  0
LINE
  5
DC0
330
1F
100
AcDbEntity
  8
STANDARD
  6
IMPORT
 62
     7
100
AcDbLine
 10
853.6262155829245
 20
2040.856518285611
 30
0.0
 11
859.6286035829256
 21
2046.858868285612
 31
0.0
  0
LINE
  5
DC1
330
1F
100
AcDbEntity
  8
STANDARD
  6
IMPORT
 62
     7
100
AcDbLine
 10
879.7569105829252
 20
1929.987224285611
 30
0.0
 11
884.5896555829249
 21
1934.819912285611
 31
0.0
  0
LINE
  5
DC2
330
1F
100
AcDbEntity
  8
STANDARD
  6
IMPORT
 62
     7
100
AcDbLine
 10
868.0896595829258
 20
1918.319973285611
 30
0.0
 11
876.3396475829249
 21
1926.569942285611
 31
0.0
  0
LINE
  5
DC3
330
1F
100
AcDbEntity
  8
STANDARD
  6
IMPORT
 62
     7
100
AcDbLine
 10
1179.146525582924
 20
1967.88059628561
 30
0.0
 11
1179.474484582925
 21
1967.393993285611
 31
0.0
  0
LINE
  5
DC4
330
1F
100
AcDbEntity
  8
STANDARD
  6
IMPORT
 62
     7
100
AcDbLine
 10
1172.646524582925
 20
1970.88062728561
 30
0.0
 11
1172.974483582925
 21
1970.393948285611
 31
0.0
  0
LINE
  5
DC5
330
1F
100
AcDbEntity
  8
STANDARD
  6
IMPORT
 62
     7
100
AcDbLine
 10
1147.032784582925
 20
1967.88059628561
 30
0.0
 11
1147.523614582926
 21
1968.205761285611
 31
0.0
  0
LINE
  5
DC6
330
1F
100
AcDbEntity
  8
STANDARD
  6
IMPORT
 62
     7
100
AcDbLine
 10
1153.532783582924
 20
1970.88062728561
 30
0.0
 11
1154.023613582926
 21
1971.205791285611
 31
0.0
  0
LINE
  5
DC7
330
1F
100
AcDbEntity
  8
STANDARD
  6
IMPORT
 62
     7
100
AcDbLine
 10
918.1052615829248
 20
1771.023144285611
 30
0.0
 11
919.1774775829248
 21
1771.564373285611
 31
0.0
  0
LINE
  5
DC8
330
1F
100
AcDbEntity
  8
STANDARD
  6
IMPORT
 62
     7
100
AcDbLine
 10
920.6997515829257
 20
1771.710476285611
 30
0.0
 11
921.0571505829248
 21
1771.890911285611
 31
0.0
  0
LINE
  5
DC9
330
1F
100
AcDbEntity
  8
STANDARD
  6
IMPORT
 62
     7
100
AcDbLine
 10
929.1856025829247
 20
1769.858517285611
 30
0.0
 11
929.6921185829251
 21
1768.826717285611
 31
0.0
  0
LINE
  5
DCA
330
1F
100
AcDbEntity
  8
STANDARD
  6
IMPORT
 62
     7
100
AcDbLine
 10
926.4142635829248
 20
1771.654095285611
 30
0.0
 11
926.5831015829252
 21
1771.310085285611
 31
0.0
  0
LINE
  5
DCB
330
1F
100
AcDbEntity
  8
STANDARD
  6
IMPORT
 62
     7
100
AcDbLine
 10
1179.474484582925
 20
1967.393993285611
 30
0.0
 11
1179.589655582925
 21
1966.819958285611
 31
0.0
  0
LINE
  5
DCC
330
1F
100
AcDbEntity
  8
STANDARD
  6
IMPORT
 62
     7
100
AcDbLine
 10
1172.974483582925
 20
1970.393948285611
 30
0.0
 11
1173.089654582924
 21
1969.819912285611
 31
0.0
  0
LINE
  5
DCD
330
1F
100
AcDbEntity
  8
STANDARD
  6
IMPORT
 62
     7
100
AcDbLine
 10
1147.523614582926
 20
1968.205761285611
 30
0.0
 11
1148.102594582925
 21
1968.319973285611
 31
0.0
  0
LINE
  5
DCE
330
1F
100
AcDbEntity
  8
STANDARD
  6
IMPORT
 62
     7
100
AcDbLine
 10
1154.023613582926
 20
1971.205791285611
 30
0.0
 11
1154.602594582925
 21
1971.31992728561
 31
0.0
  0
LINE
  5
DCF
330
1F
100
AcDbEntity
  8
STANDARD
  6
IMPORT
 62
     7
100
AcDbLine
 10
1358.810045582925
 20
1901.819958285611
 30
0.0
 11
1372.860700582925
 21
1903.049206285611
 31
0.0
  0
LINE
  5
DD0
330
1F
100
AcDbEntity
  8
STANDARD
  6
IMPORT
 62
     7
100
AcDbLine
 10
1357.369253582925
 20
1934.819912285611
 30
0.0
 11
1367.108423582925
 21
1935.672039285611
 31
0.0
  0
LINE
  5
DD1
330
1F
100
AcDbEntity
  8
STANDARD
  6
IMPORT
 62
     7
100
AcDbLine
 10
919.1774775829248
 20
1771.564373285611
 30
0.0
 11
920.3619215829249
 21
1771.66950628561
 31
0.0
  0
LINE
  5
DD2
330
1F
100
AcDbEntity
  8
STANDARD
  6
IMPORT
 62
     7
100
AcDbLine
 10
753.0896405829248
 20
2033.319973285611
 30
0.0
 11
768.6542535829257
 21
2034.052547285611
 31
0.0
  0
LINE
  5
DD3
330
1F
100
AcDbEntity
  8
STANDARD
  6
IMPORT
 62
     7
100
AcDbLine
 10
930.1296635829258
 20
1796.831325285611
 30
0.0
 11
932.5671605829256
 21
1845.696377285611
 31
0.0
  0
LINE
  5
DD4
330
1F
100
AcDbEntity
  8
STANDARD
  6
IMPORT
 62
     7
100
AcDbLine
 10
925.1869795829248
 20
1797.325710285611
 30
0.0
 11
927.6059745829247
 21
1845.819973285611
 31
0.0
  0
LINE
  5
DD5
330
1F
100
AcDbEntity
  8
STANDARD
  6
IMPORT
 62
     7
100
AcDbLine
 10
753.0896405829248
 20
2076.31992728561
 30
0.0
 11
768.6542535829257
 21
2075.587353285611
 31
0.0
  0
LINE
  5
DD6
330
1F
100
AcDbEntity
  8
STANDARD
  6
IMPORT
 62
     7
100
AcDbLine
 10
1358.810045582925
 20
2071.819958285612
 30
0.0
 11
1372.860700582925
 21
2070.590671285611
 31
0.0
  0
LINE
  5
DD7
330
1F
100
AcDbEntity
  8
STANDARD
  6
IMPORT
 62
     7
100
AcDbLine
 10
1357.369253582925
 20
2038.819927285612
 30
0.0
 11
1367.108423582925
 21
2037.967876285611
 31
0.0
  0
LINE
  5
DD8
330
1F
100
AcDbEntity
  8
STANDARD
  6
IMPORT
 62
     7
100
AcDbLine
 10
926.7181035829258
 20
1747.54215628561
 30
0.0
 11
929.7497585829246
 21
1767.666286285611
 31
0.0
  0
LINE
  5
DD9
330
1F
100
AcDbEntity
  8
STANDARD
  6
IMPORT
 62
     7
100
AcDbLine
 10
914.0588215829248
 20
1750.09991128561
 30
0.0
 11
916.9084575829247
 21
1769.01592628561
 31
0.0
  0
LINE
  5
DDA
330
1F
100
AcDbEntity
  8
STANDARD
  6
IMPORT
 62
     7
100
AcDbLine
 10
926.3950375829258
 20
1772.040905285611
 30
0.0
 11
930.1296635829258
 21
1796.831325285611
 31
0.0
  0
LINE
  5
DDB
330
1F
100
AcDbEntity
  8
STANDARD
  6
IMPORT
 62
     7
100
AcDbLine
 10
921.4560915829251
 20
1772.560009285611
 30
0.0
 11
925.1869795829248
 21
1797.325710285611
 31
0.0
  0
LINE
  5
DDC
330
1F
100
AcDbEntity
  8
STANDARD
  6
IMPORT
 62
     7
100
AcDbLine
 10
1146.589654582924
 20
1966.819958285611
 30
0.0
 11
1146.704814582925
 21
1967.393993285611
 31
0.0
  0
LINE
  5
DDD
330
1F
100
AcDbEntity
  8
STANDARD
  6
IMPORT
 62
     7
100
AcDbLine
 10
1153.089654582925
 20
1969.819912285611
 30
0.0
 11
1153.204815582926
 21
1970.393948285611
 31
0.0
  0
LINE
  5
DDE
330
1F
100
AcDbEntity
  8
STANDARD
  6
IMPORT
 62
     7
100
AcDbLine
 10
1178.076703582925
 20
1968.319973285611
 30
0.0
 11
1178.655683582925
 21
1968.205761285611
 31
0.0
  0
LINE
  5
DDF
330
1F
100
AcDbEntity
  8
STANDARD
  6
IMPORT
 62
     7
100
AcDbLine
 10
1171.576704582925
 20
1971.31992728561
 30
0.0
 11
1172.155685582925
 21
1971.205791285611
 31
0.0
  0
LINE
  5
DE0
330
1F
100
AcDbEntity
  8
STANDARD
  6
IMPORT
 62
     7
100
AcDbLine
 10
914.523222582925
 20
1699.624065285611
 30
0.0
 11
926.7181035829258
 21
1747.54215628561
 31
0.0
  0
LINE
  5
DE1
330
1F
100
AcDbEntity
  8
STANDARD
  6
IMPORT
 62
     7
100
AcDbLine
 10
902.1813035829259
 20
1703.428997285611
 30
0.0
 11
914.0588215829248
 21
1750.09991128561
 31
0.0
  0
LINE
  5
DE2
330
1F
100
AcDbEntity
  8
STANDARD
  6
IMPORT
 62
     7
100
AcDbLine
 10
926.8758605829257
 20
1771.061367285611
 30
0.0
 11
928.3073255829249
 21
1770.60474828561
 31
0.0
  0
LINE
  5
DE3
330
1F
100
AcDbEntity
  8
STANDARD
  6
IMPORT
 62
     7
100
AcDbLine
 10
897.6202035829256
 20
1653.157543285611
 30
0.0
 11
914.523222582925
 21
1699.624065285611
 31
0.0
  0
LINE
  5
DE4
330
1F
100
AcDbEntity
  8
STANDARD
  6
IMPORT
 62
     7
100
AcDbLine
 10
885.7181955829245
 20
1658.17181028561
 30
0.0
 11
902.1813035829259
 21
1703.428997285611
 31
0.0
  0
LINE
  5
DE5
330
1F
100
AcDbEntity
  8
STANDARD
  6
IMPORT
 62
     7
100
AcDbLine
 10
916.9084575829247
 20
1769.01592628561
 30
0.0
 11
917.3084665829247
 21
1770.128292285611
 31
0.0
  0
LINE
  5
DE6
330
1F
100
AcDbEntity
  8
STANDARD
  6
IMPORT
 62
     7
100
AcDbLine
 10
921.3227485829257
 20
1772.189220285611
 30
0.0
 11
921.4560915829251
 21
1772.560009285611
 31
0.0
  0
LINE
  5
DE7
330
1F
100
AcDbEntity
  8
STANDARD
  6
IMPORT
 62
     7
100
AcDbLine
 10
876.1833785829249
 20
1608.617290285612
 30
0.0
 11
897.6202035829256
 21
1653.157543285611
 31
0.0
  0
LINE
  5
DE8
330
1F
100
AcDbEntity
  8
STANDARD
  6
IMPORT
 62
     7
100
AcDbLine
 10
864.8264905829247
 20
1614.764065285611
 30
0.0
 11
885.7181955829245
 21
1658.17181028561
 31
0.0
  0
LINE
  5
DE9
330
1F
100
AcDbEntity
  8
STANDARD
  6
IMPORT
 62
     7
100
AcDbLine
 10
872.8725835829246
 20
1603.139156285611
 30
0.0
 11
876.1833785829249
 21
1608.617290285612
 31
0.0
  0
LINE
  5
DEA
330
1F
100
AcDbEntity
  8
STANDARD
  6
IMPORT
 62
     7
100
AcDbLine
 10
862.134897582926
 20
1610.310558285611
 30
0.0
 11
864.8264905829247
 21
1614.764065285611
 31
0.0
  0
LINE
  5
DEB
330
1F
100
AcDbEntity
  8
STANDARD
  6
IMPORT
 62
     7
100
AcDbLine
 10
1178.655683582925
 20
1968.205761285611
 30
0.0
 11
1179.146525582924
 21
1967.88059628561
 31
0.0
  0
LINE
  5
DEC
330
1F
100
AcDbEntity
  8
STANDARD
  6
IMPORT
 62
     7
100
AcDbLine
 10
1172.155685582925
 20
1971.205791285611
 30
0.0
 11
1172.646524582925
 21
1970.88062728561
 31
0.0
  0
LINE
  5
DED
330
1F
100
AcDbEntity
  8
STANDARD
  6
IMPORT
 62
     7
100
AcDbLine
 10
1146.704814582925
 20
1967.393993285611
 30
0.0
 11
1147.032784582925
 21
1967.88059628561
 31
0.0
  0
LINE
  5
DEE
330
1F
100
AcDbEntity
  8
STANDARD
  6
IMPORT
 62
     7
100
AcDbLine
 10
1153.204815582926
 20
1970.393948285611
 30
0.0
 11
1153.532783582924
 21
1970.88062728561
 31
0.0
  0
LINE
  5
DEF
330
1F
100
AcDbEntity
  8
STANDARD
  6
IMPORT
 62
     7
100
AcDbLine
 10
928.3073255829249
 20
1770.60474828561
 30
0.0
 11
929.1856025829247
 21
1769.858517285611
 31
0.0
  0
LINE
  5
DF0
330
1F
100
AcDbEntity
  8
STANDARD
  6
IMPORT
 62
     7
100
AcDbLine
 10
926.5831015829252
 20
1771.310085285611
 30
0.0
 11
926.8758605829257
 21
1771.061367285611
 31
0.0
  0
LINE
  5
DF1
330
1F
100
AcDbEntity
  8
STANDARD
  6
IMPORT
 62
     7
100
AcDbLine
 10
917.3084665829247
 20
1770.128292285611
 30
0.0
 11
918.1052615829248
 21
1771.023144285611
 31
0.0
  0
LINE
  5
DF2
330
1F
100
AcDbEntity
  8
STANDARD
  6
IMPORT
 62
     7
100
AcDbLine
 10
921.0571505829248
 20
1771.890911285611
 30
0.0
 11
921.3227485829257
 21
1772.189220285611
 31
0.0
  0
LINE
  5
DF3
330
1F
100
AcDbEntity
  8
STANDARD
  6
IMPORT
 62
     7
100
AcDbLine
 10
1167.360164582925
 20
1922.590450285611
 30
0.0
 11
1174.756915582926
 21
1929.987224285611
 31
0.0
  0
LINE
  5
DF4
330
1F
100
AcDbEntity
  8
STANDARD
  6
IMPORT
 62
     7
100
AcDbLine
 10
921.8396595829249
 20
1910.069927285611
 30
0.0
 11
930.0896475829249
 21
1918.319973285611
 31
0.0
  0
LINE
  5
DF5
330
1F
100
AcDbEntity
  8
STANDARD
  6
IMPORT
 62
     7
100
AcDbLine
 10
863.6913705829256
 20
2050.921673285611
 30
0.0
 11
863.8191435829249
 21
2051.049465285611
 31
0.0
  0
LINE
  5
DF6
330
1F
100
AcDbEntity
  8
STANDARD
  6
IMPORT
 62
     7
100
AcDbLine
 10
859.6286035829256
 20
2046.858868285612
 30
0.0
 11
859.8396515829259
 21
2047.069973285611
 31
0.0
  0
LINE
  5
DF7
330
1F
100
AcDbEntity
  8
STANDARD
  6
IMPORT
 62
     7
100
AcDbLine
 10
852.1518725829245
 20
2039.382137285612
 30
0.0
 11
853.6262155829245
 21
2040.856518285611
 31
0.0
  0
LINE
  5
DF8
330
1F
100
AcDbEntity
  8
STANDARD
  6
IMPORT
 62
     7
100
AcDbLine
 10
851.5896625829251
 20
2038.819927285612
 30
0.0
 11
852.0862025829247
 21
2039.316524285611
 31
0.0
  0
LINE
  5
DF9
330
1F
100
AcDbEntity
  8
STANDARD
  6
IMPORT
 62
     7
100
AcDbLine
 10
876.3396475829249
 20
1926.569942285611
 30
0.0
 11
879.7569105829252
 21
1929.987224285611
 31
0.0
  0
LINE
  5
DFA
330
1F
100
AcDbEntity
  8
STANDARD
  6
IMPORT
 62
     7
100
AcDbLine
 10
1158.819134582926
 20
1922.590450285611
 30
0.0
 11
1163.089654582925
 21
1918.319973285611
 31
0.0
  0
LINE
  5
DFB
330
1F
100
AcDbEntity
  8
STANDARD
  6
IMPORT
 62
     7
100
AcDbLine
 10
1146.589654582924
 20
1934.819912285611
 30
0.0
 11
1151.422384582925
 21
1929.987224285611
 31
0.0
  0
LINE
  5
DFC
330
1F
100
AcDbEntity
  8
STANDARD
  6
IMPORT
 62
     7
100
AcDbLine
 10
941.7569185829252
 20
1906.652645285611
 30
0.0
 11
946.589662582925
 21
1901.819958285611
 31
0.0
  0
LINE
  5
DFD
330
1F
100
AcDbEntity
  8
STANDARD
  6
IMPORT
 62
     7
100
AcDbLine
 10
934.3601635829244
 20
1914.049419285612
 30
0.0
 11
938.3396555829259
 21
1910.069927285611
 31
0.0
  0
LINE
  5
DFE
330
1F
100
AcDbEntity
  8
STANDARD
  6
IMPORT
 62
     7
100
AcDbLine
 10
884.0274265829249
 20
2039.382137285612
 30
0.0
 11
884.5222115829246
 21
2038.887371285611
 31
0.0
  0
LINE
  5
DFF
330
1F
100
AcDbEntity
  8
STANDARD
  6
IMPORT
 62
     7
100
AcDbLine
 10
882.1107125829248
 20
2041.298870285611
 30
0.0
 11
882.3790765829258
 21
2041.030544285611
 31
0.0
  0
LINE
  5
E00
330
1F
100
AcDbEntity
  8
STANDARD
  6
IMPORT
 62
     7
100
AcDbLine
 10
876.1067795829248
 20
2047.302822285611
 30
0.0
 11
879.4729825829248
 21
2043.936657285611
 31
0.0
  0
LINE
  5
E01
330
1F
100
AcDbEntity
  8
STANDARD
  6
IMPORT
 62
     7
100
AcDbLine
 10
868.0896595829258
 20
2055.319942285612
 30
0.0
 11
872.360155582926
 21
2051.049465285611
 31
0.0
  0
LINE
  5
E02
330
1F
100
AcDbEntity
  8
STANDARD
  6
IMPORT
 62
     7
100
AcDbLine
 10
859.8396515829259
 20
1926.569942285611
 30
0.0
 11
868.0896595829258
 21
1918.319973285611
 31
0.0
  0
LINE
  5
E03
330
1F
100
AcDbEntity
  8
STANDARD
  6
IMPORT
 62
     7
100
AcDbLine
 10
851.5896625829251
 20
1934.819912285611
 30
0.0
 11
856.4223885829251
 21
1929.987224285611
 31
0.0
  0
ARC
  5
E04
330
1F
100
AcDbEntity
  8
STANDARD
  6
IMPORT
 62
     7
100
AcDbCircle
 10
1358.089666582926
 20
1986.81993928561
 30
0.0
 40
85.06303100000002
100
AcDbArc
 50
279.9999959999905
 51
80.00000400000951
  0
ARC
  5
E05
330
1F
100
AcDbEntity
  8
STANDARD
  6
IMPORT
 62
     7
100
AcDbCircle
 10
1358.089641582925
 20
1986.819958285611
 30
0.0
 40
51.936962
100
AcDbArc
 50
280.0000260000069
 51
79.99997399999308
  0
ARC
  5
E06
330
1F
100
AcDbEntity
  8
STANDARD
  6
IMPORT
 62
     7
100
AcDbCircle
 10
814.1260495829246
 20
1642.374290285611
 30
0.0
 40
70.64383199999998
100
AcDbArc
 50
217.4595670000017
 51
326.2621689999918
  0
ARC
  5
E07
330
1F
100
AcDbEntity
  8
STANDARD
  6
IMPORT
 62
     7
100
AcDbCircle
 10
814.1260485829253
 20
1642.374280285611
 30
0.0
 40
57.73155
100
AcDbArc
 50
217.4595880000152
 51
326.2621849999957
  0
ARC
  5
E08
330
1F
100
AcDbEntity
  8
STANDARD
  6
IMPORT
 62
     7
100
AcDbCircle
 10
763.0896835829243
 20
2054.819950285612
 30
0.0
 40
21.499987
100
AcDbArc
 50
284.9999010000128
 51
75.00009899998726
  0
ARC
  5
E09
330
1F
100
AcDbEntity
  8
STANDARD
  6
IMPORT
 62
     7
100
AcDbCircle
 10
747.0896555829249
 20
2108.819966285611
 30
0.0
 40
5.999983999999998
100
AcDbArc
 50
359.9996320000046
 51
90.00000300001072
  0
LINE
  5
E0A
330
1F
100
AcDbEntity
  8
STANDARD
  6
IMPORT
 62
     7
100
AcDbLine
 10
1664.165074582924
 20
2114.819950285612
 30
0.0
 11
1742.165071582926
 21
2114.819950285612
 31
0.0
  0
LINE
  5
E0B
330
1F
100
AcDbEntity
  8
STANDARD
  6
IMPORT
 62
     7
100
AcDbLine
 10
1719.665071582926
 20
2038.395351285611
 30
0.0
 11
1732.165071582926
 21
2038.395351285611
 31
0.0
  0
LINE
  5
E0C
330
1F
100
AcDbEntity
  8
STANDARD
  6
IMPORT
 62
     7
100
AcDbLine
 10
1674.165074582925
 20
2038.395351285611
 30
0.0
 11
1686.665074582925
 21
2038.395351285611
 31
0.0
  0
LINE
  5
E0D
330
1F
100
AcDbEntity
  8
STANDARD
  6
IMPORT
 62
     7
100
AcDbLine
 10
1707.467357582926
 20
2071.244549285612
 30
0.0
 11
1732.165071582926
 21
2071.244549285612
 31
0.0
  0
LINE
  5
E0E
330
1F
100
AcDbEntity
  8
STANDARD
  6
IMPORT
 62
     7
100
AcDbLine
 10
1674.165074582925
 20
2071.244549285612
 30
0.0
 11
1698.862792582925
 21
2071.244549285612
 31
0.0
  0
LINE
  5
E0F
330
1F
100
AcDbEntity
  8
STANDARD
  6
IMPORT
 62
     7
100
AcDbLine
 10
1732.165071582926
 20
2076.31992728561
 30
0.0
 11
1742.165071582926
 21
2076.31992728561
 31
0.0
  0
LINE
  5
E10
330
1F
100
AcDbEntity
  8
STANDARD
  6
IMPORT
 62
     7
100
AcDbLine
 10
1664.165074582924
 20
2076.31992728561
 30
0.0
 11
1674.165074582925
 21
2076.31992728561
 31
0.0
  0
LINE
  5
E11
330
1F
100
AcDbEntity
  8
STANDARD
  6
IMPORT
 62
     7
100
AcDbLine
 10
1732.165071582926
 20
2033.319973285611
 30
0.0
 11
1742.165071582926
 21
2033.319973285611
 31
0.0
  0
LINE
  5
E12
330
1F
100
AcDbEntity
  8
STANDARD
  6
IMPORT
 62
     7
100
AcDbLine
 10
1664.165074582924
 20
2033.319973285611
 30
0.0
 11
1674.165074582925
 21
2033.319973285611
 31
0.0
  0
LINE
  5
E13
330
1F
100
AcDbEntity
  8
STANDARD
  6
IMPORT
 62
     7
100
AcDbLine
 10
1686.665074582925
 20
1845.819973285611
 30
0.0
 11
1719.665071582926
 21
1845.819973285611
 31
0.0
  0
LINE
  5
E14
330
1F
100
AcDbEntity
  8
STANDARD
  6
IMPORT
 62
     7
100
AcDbLine
 10
1719.665071582926
 20
1855.819973285611
 30
0.0
 11
1742.165071582926
 21
1855.819973285611
 31
0.0
  0
LINE
  5
E15
330
1F
100
AcDbEntity
  8
STANDARD
  6
IMPORT
 62
     7
100
AcDbLine
 10
1664.165074582924
 20
1855.819973285611
 30
0.0
 11
1686.665074582925
 21
1855.819973285611
 31
0.0
  0
LINE
  5
E16
330
1F
100
AcDbEntity
  8
STANDARD
  6
IMPORT
 62
     7
100
AcDbLine
 10
1699.805795582926
 20
1771.202206285611
 30
0.0
 11
1700.362598582925
 21
1771.088604285611
 31
0.0
  0
LINE
  5
E17
330
1F
100
AcDbEntity
  8
STANDARD
  6
IMPORT
 62
     7
100
AcDbLine
 10
1706.089116582925
 20
1771.116680285611
 30
0.0
 11
1706.546909582925
 21
1771.233028285611
 31
0.0
  0
LINE
  5
E18
330
1F
100
AcDbEntity
  8
STANDARD
  6
IMPORT
 62
     7
100
AcDbLine
 10
1700.362598582925
 20
1771.088604285611
 30
0.0
 11
1701.845294582925
 21
1770.975765285611
 31
0.0
  0
LINE
  5
E19
330
1F
100
AcDbEntity
  8
STANDARD
  6
IMPORT
 62
     7
100
AcDbLine
 10
1701.845294582925
 20
1770.975765285611
 30
0.0
 11
1706.089116582925
 21
1771.116680285611
 31
0.0
  0
LINE
  5
E1A
330
1F
100
AcDbEntity
  8
STANDARD
  6
IMPORT
 62
     7
100
AcDbLine
 10
1706.125156582926
 20
1771.50043928561
 30
0.0
 11
1706.846830582924
 21
1771.376614285611
 31
0.0
  0
LINE
  5
E1B
330
1F
100
AcDbEntity
  8
STANDARD
  6
IMPORT
 62
     7
100
AcDbLine
 10
1699.783202582924
 20
1771.388134285611
 30
0.0
 11
1700.188934582926
 21
1771.497234285611
 31
0.0
  0
LINE
  5
E1C
330
1F
100
AcDbEntity
  8
STANDARD
  6
IMPORT
 62
     7
100
AcDbLine
 10
1699.654037582924
 20
1771.328930285611
 30
0.0
 11
1699.783202582924
 21
1771.388134285611
 31
0.0
  0
LINE
  5
E1D
330
1F
100
AcDbEntity
  8
STANDARD
  6
IMPORT
 62
     7
100
AcDbLine
 10
1704.305650582925
 20
1845.709118285611
 30
0.0
 11
1705.661966582925
 21
1845.813717285611
 31
0.0
  0
LINE
  5
E1E
330
1F
100
AcDbEntity
  8
STANDARD
  6
IMPORT
 62
     7
100
AcDbLine
 10
1701.808749582925
 20
1845.715298285611
 30
0.0
 11
1703.475992582925
 21
1845.696377285611
 31
0.0
  0
LINE
  5
E1F
330
1F
100
AcDbEntity
  8
STANDARD
  6
IMPORT
 62
     7
100
AcDbLine
 10
1686.665074582925
 20
1845.819973285611
 30
0.0
 11
1686.665074582925
 21
2055.319942285612
 31
0.0
  0
LINE
  5
E20
330
1F
100
AcDbEntity
  8
STANDARD
  6
IMPORT
 62
     7
100
AcDbLine
 10
1719.665071582926
 20
1845.819973285611
 30
0.0
 11
1719.665071582926
 21
2055.319942285612
 31
0.0
  0
LINE
  5
E21
330
1F
100
AcDbEntity
  8
STANDARD
  6
IMPORT
 62
     7
100
AcDbLine
 10
1664.165074582924
 20
1855.819973285611
 30
0.0
 11
1664.165074582924
 21
2114.819950285612
 31
0.0
  0
LINE
  5
E22
330
1F
100
AcDbEntity
  8
STANDARD
  6
IMPORT
 62
     7
100
AcDbLine
 10
1742.165071582926
 20
1855.819973285611
 30
0.0
 11
1742.165071582926
 21
2114.819950285612
 31
0.0
  0
LINE
  5
E23
330
1F
100
AcDbEntity
  8
STANDARD
  6
IMPORT
 62
     7
100
AcDbLine
 10
1674.165074582925
 20
2033.319973285611
 30
0.0
 11
1674.165074582925
 21
2076.31992728561
 31
0.0
  0
LINE
  5
E24
330
1F
100
AcDbEntity
  8
STANDARD
  6
IMPORT
 62
     7
100
AcDbLine
 10
1732.165071582926
 20
2033.319973285611
 30
0.0
 11
1732.165071582926
 21
2076.31992728561
 31
0.0
  0
LINE
  5
E25
330
1F
100
AcDbEntity
  8
STANDARD
  6
IMPORT
 62
     7
100
AcDbLine
 10
1696.673147582926
 20
1578.515896285611
 30
0.0
 11
1696.673147582926
 21
1768.374981285611
 31
0.0
  0
LINE
  5
E26
330
1F
100
AcDbEntity
  8
STANDARD
  6
IMPORT
 62
     7
100
AcDbLine
 10
1709.656993582926
 20
1577.867626285611
 30
0.0
 11
1709.656993582926
 21
1768.307232285611
 31
0.0
  0
LINE
  5
E27
330
1F
100
AcDbEntity
  8
STANDARD
  6
IMPORT
 62
     7
100
AcDbLine
 10
1700.590974582925
 20
1771.935085285611
 30
0.0
 11
1700.668174582925
 21
1845.819973285611
 31
0.0
  0
LINE
  5
E28
330
1F
100
AcDbEntity
  8
STANDARD
  6
IMPORT
 62
     7
100
AcDbLine
 10
1705.661966582925
 20
1771.90823028561
 30
0.0
 11
1705.661966582925
 21
1845.813717285611
 31
0.0
  0
LINE
  5
E29
330
1F
100
AcDbEntity
  8
STANDARD
  6
IMPORT
 62
     7
100
AcDbLine
 10
1708.765889582926
 20
1770.411648285611
 30
0.0
 11
1709.425412582925
 21
1769.44477528561
 31
0.0
  0
LINE
  5
E2A
330
1F
100
AcDbEntity
  8
STANDARD
  6
IMPORT
 62
     7
100
AcDbLine
 10
1705.739166582926
 20
1771.90823028561
 30
0.0
 11
1705.959007582924
 21
1771.585964285611
 31
0.0
  0
LINE
  5
E2B
330
1F
100
AcDbEntity
  8
STANDARD
  6
IMPORT
 62
     7
100
AcDbLine
 10
1697.564241582925
 20
1770.47008928561
 30
0.0
 11
1698.551275582925
 21
1771.108669285611
 31
0.0
  0
LINE
  5
E2C
330
1F
100
AcDbEntity
  8
STANDARD
  6
IMPORT
 62
     7
100
AcDbLine
 10
1700.042135582925
 20
1771.402248285611
 30
0.0
 11
1700.371143582924
 21
1771.615108285611
 31
0.0
  0
LINE
  5
E2D
330
1F
100
AcDbEntity
  8
STANDARD
  6
IMPORT
 62
     7
100
AcDbLine
 10
1698.551275582925
 20
1771.108669285611
 30
0.0
 11
1698.908492582924
 21
1771.272396285611
 31
0.0
  0
LINE
  5
E2E
330
1F
100
AcDbEntity
  8
STANDARD
  6
IMPORT
 62
     7
100
AcDbLine
 10
1709.425412582925
 20
1769.44477528561
 30
0.0
 11
1709.656993582926
 21
1768.307232285611
 31
0.0
  0
LINE
  5
E2F
330
1F
100
AcDbEntity
  8
STANDARD
  6
IMPORT
 62
     7
100
AcDbLine
 10
1694.106408582924
 20
1729.627346285611
 30
0.0
 11
1696.673147582926
 21
1730.137905285611
 31
0.0
  0
LINE
  5
E30
330
1F
100
AcDbEntity
  8
STANDARD
  6
IMPORT
 62
     7
100
AcDbLine
 10
1709.656993582926
 20
1661.501964285611
 30
0.0
 11
1712.223731582925
 21
1662.012524285611
 31
0.0
  0
LINE
  5
E31
330
1F
100
AcDbEntity
  8
STANDARD
  6
IMPORT
 62
     7
100
AcDbLine
 10
1698.908492582924
 20
1771.272396285611
 30
0.0
 11
1699.885341582925
 21
1771.434978285611
 31
0.0
  0
LINE
  5
E32
330
1F
100
AcDbEntity
  8
STANDARD
  6
IMPORT
 62
     7
100
AcDbLine
 10
1696.673147582926
 20
1768.374981285611
 30
0.0
 11
1696.904737582925
 21
1769.510158285611
 31
0.0
  0
LINE
  5
E33
330
1F
100
AcDbEntity
  8
STANDARD
  6
IMPORT
 62
     7
100
AcDbLine
 10
1706.846830582924
 20
1771.376614285611
 30
0.0
 11
1707.579185582925
 21
1771.227154285611
 31
0.0
  0
LINE
  5
E34
330
1F
100
AcDbEntity
  8
STANDARD
  6
IMPORT
 62
     7
100
AcDbLine
 10
1709.656993582926
 20
1730.137905285611
 30
0.0
 11
1712.223731582925
 21
1729.627346285611
 31
0.0
  0
LINE
  5
E35
330
1F
100
AcDbEntity
  8
STANDARD
  6
IMPORT
 62
     7
100
AcDbLine
 10
1694.106408582924
 20
1662.012524285611
 30
0.0
 11
1696.673147582926
 21
1661.501964285611
 31
0.0
  0
LINE
  5
E36
330
1F
100
AcDbEntity
  8
STANDARD
  6
IMPORT
 62
     7
100
AcDbLine
 10
1707.579185582925
 20
1771.227154285611
 30
0.0
 11
1708.523609582925
 21
1770.613827285611
 31
0.0
  0
LINE
  5
E37
330
1F
100
AcDbEntity
  8
STANDARD
  6
IMPORT
 62
     7
100
AcDbLine
 10
1705.931569582924
 20
1771.626171285612
 30
0.0
 11
1706.153003582924
 21
1771.482357285611
 31
0.0
  0
LINE
  5
E38
330
1F
100
AcDbEntity
  8
STANDARD
  6
IMPORT
 62
     7
100
AcDbLine
 10
1696.904737582925
 20
1769.510158285611
 30
0.0
 11
1697.564241582925
 21
1770.47008928561
 31
0.0
  0
LINE
  5
E39
330
1F
100
AcDbEntity
  8
STANDARD
  6
IMPORT
 62
     7
100
AcDbLine
 10
1700.371143582924
 20
1771.615108285611
 30
0.0
 11
1700.590974582925
 21
1771.935085285611
 31
0.0
  0
LINE
  5
E3A
330
1F
100
AcDbEntity
  8
STANDARD
  6
IMPORT
 62
     7
100
AcDbLine
 10
1708.523609582925
 20
1770.613827285611
 30
0.0
 11
1708.765889582926
 21
1770.411648285611
 31
0.0
  0
ARC
  5
E3B
330
1F
100
AcDbEntity
  8
STANDARD
  6
IMPORT
 62
     7
100
AcDbCircle
 10
1703.165084582925
 20
1695.819935285611
 30
0.0
 40
35.00000900000001
100
AcDbArc
 50
105.0000110000047
 51
254.9999889999952
  0
ARC
  5
E3C
330
1F
100
AcDbEntity
  8
STANDARD
  6
IMPORT
 62
     7
100
AcDbCircle
 10
1703.165058582924
 20
1695.819935285611
 30
0.0
 40
35.00000900000001
100
AcDbArc
 50
285.000008000012
 51
74.999991999988
  0
ARC
  5
E3D
330
1F
100
AcDbEntity
  8
STANDARD
  6
IMPORT
 62
     7
100
AcDbCircle
 10
1703.165072582924
 20
2055.31995928561
 30
0.0
 40
16.499999
100
AcDbArc
 50
359.9999419999968
 51
180.0000580000032
  0
ARC
  5
E3E
330
1F
100
AcDbEntity
  8
STANDARD
  6
IMPORT
 62
     7
100
AcDbCircle
 10
1703.165072582924
 20
1918.31991628561
 30
0.0
 40
16.499999
100
AcDbArc
 50
179.9998010000008
 51
0.0001989999991842
  0
ARC
  5
E3F
330
1F
100
AcDbEntity
  8
STANDARD
  6
IMPORT
 62
     7
100
AcDbCircle
 10
1703.164776582925
 20
1578.185869285611
 30
0.0
 40
6.500013
100
AcDbArc
 50
177.0896590000044
 51
357.1936540000041
  0
ARC
  5
E40
330
1F
100
AcDbEntity
  8
STANDARD
  6
IMPORT
 62
     7
100
AcDbCircle
 10
1712.800364582925
 20
800.9924682856102
 30
0.0
 40
16.559004
100
AcDbArc
 50
179.9457299999979
 51
254.8435000000126
  0
ARC
  5
E41
330
1F
100
AcDbEntity
  8
STANDARD
  6
IMPORT
 62
     7
100
AcDbCircle
 10
1712.741421582926
 20
800.9289612856115
 30
0.0
 40
16.483843
100
AcDbArc
 50
194.7890759999954
 51
345.2109240000046
  0
ARC
  5
E42
330
1F
100
AcDbEntity
  8
STANDARD
  6
IMPORT
 62
     7
100
AcDbCircle
 10
1712.652546582925
 20
801.0003052856113
 30
0.0
 40
16.588854
100
AcDbArc
 50
315.127124999987
 51
0.0271040000050161
  0
ENDSEC
  0
SECTION
  2
OBJECTS
  0
DICTIONARY
  5
C
330
0
100
AcDbDictionary
281
     1
  3
ACAD_COLOR
350
6B
  3
ACAD_GROUP
350
D
  3
ACAD_LAYOUT
350
1A
  3
ACAD_MATERIAL
350
6A
  3
ACAD_MLINESTYLE
350
17
  3
ACAD_PLOTSETTINGS
350
19
  3
ACAD_PLOTSTYLENAME
350
E
  3
ACDBHEADERROUNDTRIPXREC
350
E46
  3
AcDbVariableDictionary
350
5E
  3
DWGPROPS
350
E45
  0
DICTIONARY
  5
6B
102
{ACAD_REACTORS
330
C
102
}
330
C
100
AcDbDictionary
281
     1
  0
DICTIONARY
  5
D
102
{ACAD_REACTORS
330
C
102
}
330
C
100
AcDbDictionary
281
     1
  0
DICTIONARY
  5
1A
102
{ACAD_REACTORS
330
C
102
}
330
C
100
AcDbDictionary
281
     1
  3
Layout1
350
51
  3
Layout2
350
56
  3
Model
350
22
  0
DICTIONARY
  5
6A
102
{ACAD_REACTORS
330
C
102
}
330
C
100
AcDbDictionary
281
     1
  0
DICTIONARY
  5
17
102
{ACAD_REACTORS
330
C
102
}
330
C
100
AcDbDictionary
281
     1
  3
Standard
350
18
  0
DICTIONARY
  5
19
102
{ACAD_REACTORS
330
C
102
}
330
C
100
AcDbDictionary
281
     1
  0
ACDBDICTIONARYWDFLT
  5
E
102
{ACAD_REACTORS
330
C
102
}
330
C
100
AcDbDictionary
281
     1
  3
Normal
350
F
100
AcDbDictionaryWithDefault
340
F
  0
DICTIONARY
  5
E46
102
{ACAD_REACTORS
330
C
102
}
330
C
100
AcDbDictionary
281
     1
  3
COLORDICT
350
E48
  3
MATERIALDICT
350
E47
  0
DICTIONARY
  5
5E
102
{ACAD_REACTORS
330
C
102
}
330
C
100
AcDbDictionary
281
     1
  3
DIMASSOC
350
5F
  3
HIDETEXT
350
63
  3
PROJECTNAME
350
4A9
  0
XRECORD
  5
E45
102
{ACAD_REACTORS
330
C
102
}
330
C
100
AcDbXrecord
280
     1
  1
DWGPROPS COOKIE
  2

  3

  4

  6

  7

  8

  9

300
=
301
=
302
=
303
=
304
=
305
=
306
=
307
=
308
=
309
=
 40
0.0014225231481481
 41
2453403.440331481
 42
2453403.441753658
  1

 90
        0
  0
LAYOUT
  5
51
102
{ACAD_XDICTIONARY
360
E4B
102
}
102
{ACAD_REACTORS
330
1A
102
}
330
1A
100
AcDbPlotSettings
  1

  2
None
  4

  6

 40
0.0
 41
0.0
 42
0.0
 43
0.0
 44
0.0
 45
0.0
 46
0.0
 47
0.0
 48
0.0
 49
0.0
140
0.0
141
0.0
142
1.0
143
1.0
 70
   688
 72
     0
 73
     0
 74
     5
  7

 75
    16
147
1.0
148
0.0
149
0.0
100
AcDbLayout
  1
Layout1
 70
     1
 71
     1
 10
0.0
 20
0.0
 11
12.0
 21
9.0
 12
0.0
 22
0.0
 32
0.0
 14
0.0
 24
0.0
 34
0.0
 15
0.0
 25
0.0
 35
0.0
146
0.0
 13
0.0
 23
0.0
 33
0.0
 16
1.0
 26
0.0
 36
0.0
 17
0.0
 27
1.0
 37
0.0
 76
     0
330
50
  0
LAYOUT
  5
56
102
{ACAD_XDICTIONARY
360
E4D
102
}
102
{ACAD_REACTORS
330
1A
102
}
330
1A
100
AcDbPlotSettings
  1

  2
None
  4

  6

 40
0.0
 41
0.0
 42
0.0
 43
0.0
 44
0.0
 45
0.0
 46
0.0
 47
0.0
 48
0.0
 49
0.0
140
0.0
141
0.0
142
1.0
143
1.0
 70
   688
 72
     0
 73
     0
 74
     5
  7

 75
    16
147
1.0
148
0.0
149
0.0
100
AcDbLayout
  1
Layout2
 70
     1
 71
     2
 10
0.0
 20
0.0
 11
12.0
 21
9.0
 12
0.0
 22
0.0
 32
0.0
 14
0.0
 24
0.0
 34
0.0
 15
0.0
 25
0.0
 35
0.0
146
0.0
 13
0.0
 23
0.0
 33
0.0
 16
1.0
 26
0.0
 36
0.0
 17
0.0
 27
1.0
 37
0.0
 76
     0
330
55
  0
LAYOUT
  5
22
102
{ACAD_XDICTIONARY
360
E49
102
}
102
{ACAD_REACTORS
330
1A
102
}
330
1A
100
AcDbPlotSettings
  1

  2
none_device
  4
ANSI_A_(8.50_x_11.00_Inches)
  6

 40
6.349999904632567
 41
19.04999923706055
 42
6.350006103515625
 43
19.04998779296875
 44
215.8999938964844
 45
279.3999938964844
 46
0.0
 47
0.0
 48
0.0
 49
0.0
140
0.0
141
0.0
142
1.0
143
78.436453180766
 70
 11952
 72
     0
 73
     1
 74
     0
  7

 75
     0
147
0.0127491741332998
148
0.0
149
0.0
100
AcDbLayout
  1
Model
 70
     1
 71
     0
 10
0.0
 20
0.0
 11
12.0
 21
9.0
 12
0.0
 22
0.0
 32
0.0
 14
0.0
 24
0.0
 34
0.0
 15
0.0
 25
0.0
 35
0.0
146
0.0
 13
0.0
 23
0.0
 33
0.0
 16
1.0
 26
0.0
 36
0.0
 17
0.0
 27
1.0
 37
0.0
 76
     0
330
1F
  0
MLINESTYLE
  5
18
102
{ACAD_REACTORS
330
17
102
}
330
17
100
AcDbMlineStyle
  2
STANDARD
 70
     0
  3

 62
   256
 51
90.0
 52
90.0
 71
     2
 49
0.5
 62
   256
  6
BYLAYER
 49
-0.5
 62
   256
  6
BYLAYER
  0
ACDBPLACEHOLDER
  5
F
102
{ACAD_REACTORS
330
E
102
}
330
E
  0
XRECORD
  5
E48
102
{ACAD_REACTORS
330
E46
102
}
330
E46
100
AcDbXrecord
280
     1
340
6B
  0
XRECORD
  5
E47
102
{ACAD_REACTORS
330
E46
102
}
330
E46
100
AcDbXrecord
280
     1
340
6A
  0
DICTIONARYVAR
  5
5F
102
{ACAD_REACTORS
330
5E
102
}
330
5E
100
DictionaryVariables
280
     0
  1
2
  0
DICTIONARYVAR
  5
63
102
{ACAD_REACTORS
330
5E
102
}
330
5E
100
DictionaryVariables
280
     0
  1
1
  0
DICTIONARYVAR
  5
4A9
102
{ACAD_REACTORS
330
5E
102
}
330
5E
100
DictionaryVariables
280
     0
  1

  0
DICTIONARY
  5
E4B
330
51
100
AcDbDictionary
280
     1
281
     1
  3
ACAD_XREC_ROUNDTRIP
360
E4C
  0
DICTIONARY
  5
E4D
330
56
100
AcDbDictionary
280
     1
281
     1
  3
ACAD_XREC_ROUNDTRIP
360
E4E
  0
DICTIONARY
  5
E49
330
22
100
AcDbDictionary
280
     1
281
     1
  3
ACAD_XREC_ROUNDTRIP
360
E4A
  0
XRECORD
  5
E4C
102
{ACAD_REACTORS
330
E4B
102
}
330
E4B
100
AcDbXrecord
280
     1
102
SHADEPLOT
 70
     0
102
SHADEPLOTRESLEVEL
 70
     2
102
SHADEPLOTCUSTOMDPI
 70
   300
  0
XRECORD
  5
E4E
102
{ACAD_REACTORS
330
E4D
102
}
330
E4D
100
AcDbXrecord
280
     1
102
SHADEPLOT
 70
     0
102
SHADEPLOTRESLEVEL
 70
     2
102
SHADEPLOTCUSTOMDPI
 70
   300
  0
XRECORD
  5
E4A
102
{ACAD_REACTORS
330
E49
102
}
330
E49
100
AcDbXrecord
280
     1
102
SHADEPLOT
 70
     0
102
SHADEPLOTRESLEVEL
 70
     2
102
SHADEPLOTCUSTOMDPI
 70
   300
  0
ENDSEC
  0
EOF
