  0
SECTION
  2
HEADER
  9
$ACADVER
  1
AC1015
  9
$ACADMAINTVER
 70
     6
  9
$DWGCODEPAGE
  3
ANSI_1252
  9
$INSBASE
 10
0.0
 20
0.0
 30
0.0
  9
$EXTMIN
 10
-345.0884408438414
 20
-104.943706205966
 30
-0.0000000000000122
  9
$EXTMAX
 10
1070.9454507227
 20
793.7063092884555
 30
0.0000000000000031
  9
$LIMMIN
 10
0.0
 20
0.0
  9
$LIMMAX
 10
0.0
 20
0.0
  9
$ORTHOMODE
 70
     0
  9
$REGENMODE
 70
     1
  9
$FILLMODE
 70
     1
  9
$QTEXTMODE
 70
     0
  9
$MIRRTEXT
 70
     1
  9
$LTSCALE
 40
1.0
  9
$ATTMODE
 70
     1
  9
$TEXTSIZE
 40
0.0
  9
$TRACEWID
 40
0.05
  9
$TEXTSTYLE
  7
STANDARD
  9
$CLAYER
  8
0
  9
$CELTYPE
  6
CONTINUOUS
  9
$CECOLOR
 62
   256
  9
$CELTSCALE
 40
1.0
  9
$DISPSILH
 70
     0
  9
$DIMSCALE
 40
1.0
  9
$DIMASZ
 40
0.18
  9
$DIMEXO
 40
0.0625
  9
$DIMDLI
 40
0.38
  9
$DIMRND
 40
0.0
  9
$DIMDLE
 40
0.0
  9
$DIMEXE
 40
0.18
  9
$DIMTP
 40
0.0
  9
$DIMTM
 40
0.0
  9
$DIMTXT
 40
0.18
  9
$DIMCEN
 40
0.09
  9
$DIMTSZ
 40
0.0
  9
$DIMTOL
 70
     0
  9
$DIMLIM
 70
     0
  9
$DIMTIH
 70
     1
  9
$DIMTOH
 70
     1
  9
$DIMSE1
 70
     0
  9
$DIMSE2
 70
     0
  9
$DIMTAD
 70
     0
  9
$DIMZIN
 70
     0
  9
$DIMBLK
  1

  9
$DIMASO
 70
     1
  9
$DIMSHO
 70
     1
  9
$DIMPOST
  1

  9
$DIMAPOST
  1

  9
$DIMALT
 70
     0
  9
$DIMALTD
 70
     2
  9
$DIMALTF
 40
25.4
  9
$DIMLFAC
 40
1.0
  9
$DIMTOFL
 70
     0
  9
$DIMTVP
 40
0.0
  9
$DIMTIX
 70
     0
  9
$DIMSOXD
 70
     0
  9
$DIMSAH
 70
     0
  9
$DIMBLK1
  1

  9
$DIMBLK2
  1

  9
$DIMSTYLE
  2
STANDARD
  9
$DIMCLRD
 70
     0
  9
$DIMCLRE
 70
     0
  9
$DIMCLRT
 70
     0
  9
$DIMTFAC
 40
1.0
  9
$DIMGAP
 40
0.09
  9
$DIMJUST
 70
     0
  9
$DIMSD1
 70
     0
  9
$DIMSD2
 70
     0
  9
$DIMTOLJ
 70
     1
  9
$DIMTZIN
 70
     0
  9
$DIMALTZ
 70
     0
  9
$DIMALTTZ
 70
     0
  9
$DIMUPT
 70
     0
  9
$DIMDEC
 70
     4
  9
$DIMTDEC
 70
     4
  9
$DIMALTU
 70
     2
  9
$DIMALTTD
 70
     2
  9
$DIMTXSTY
  7
STANDARD
  9
$DIMAUNIT
 70
     0
  9
$DIMADEC
 70
     0
  9
$DIMALTRND
 40
0.0
  9
$DIMAZIN
 70
     0
  9
$DIMDSEP
 70
    46
  9
$DIMATFIT
 70
     3
  9
$DIMFRAC
 70
     0
  9
$DIMLDRBLK
  1

  9
$DIMLUNIT
 70
     2
  9
$DIMLWD
 70
    -2
  9
$DIMLWE
 70
    -2
  9
$DIMTMOVE
 70
     0
  9
$LUNITS
 70
     2
  9
$LUPREC
 70
     4
  9
$SKETCHINC
 40
0.1
  9
$FILLETRAD
 40
0.0
  9
$AUNITS
 70
     0
  9
$AUPREC
 70
     0
  9
$MENU
  1
acad
  9
$ELEVATION
 40
0.0
  9
$PELEVATION
 40
0.0
  9
$THICKNESS
 40
0.0
  9
$LIMCHECK
 70
     0
  9
$CHAMFERA
 40
0.0
  9
$CHAMFERB
 40
0.0
  9
$CHAMFERC
 40
0.0
  9
$CHAMFERD
 40
0.0
  9
$SKPOLY
 70
     0
  9
$TDCREATE
 40
2444972.083333333
  9
$TDUCREATE
 40
2444972.000000000
  9
$TDUPDATE
 40
2453193.601252037
  9
$TDUUPDATE
 40
2453193.517918703
  9
$TDINDWG
 40
0.0180328704
  9
$TDUSRTIMER
 40
0.0180328704
  9
$USRTIMER
 70
     1
  9
$ANGBASE
 50
0.0
  9
$ANGDIR
 70
     0
  9
$PDMODE
 70
     0
  9
$PDSIZE
 40
0.0
  9
$PLINEWID
 40
0.0
  9
$SPLFRAME
 70
     0
  9
$SPLINETYPE
 70
     6
  9
$SPLINESEGS
 70
     8
  9
$HANDSEED
  5
4C9
  9
$SURFTAB1
 70
     6
  9
$SURFTAB2
 70
     6
  9
$SURFTYPE
 70
     6
  9
$SURFU
 70
     6
  9
$SURFV
 70
     6
  9
$UCSBASE
  2

  9
$UCSNAME
  2

  9
$UCSORG
 10
0.0
 20
0.0
 30
0.0
  9
$UCSXDIR
 10
1.0
 20
0.0
 30
0.0
  9
$UCSYDIR
 10
0.0
 20
1.0
 30
0.0
  9
$UCSORTHOREF
  2

  9
$UCSORTHOVIEW
 70
     0
  9
$UCSORGTOP
 10
0.0
 20
0.0
 30
0.0
  9
$UCSORGBOTTOM
 10
0.0
 20
0.0
 30
0.0
  9
$UCSORGLEFT
 10
0.0
 20
0.0
 30
0.0
  9
$UCSORGRIGHT
 10
0.0
 20
0.0
 30
0.0
  9
$UCSORGFRONT
 10
0.0
 20
0.0
 30
0.0
  9
$UCSORGBACK
 10
0.0
 20
0.0
 30
0.0
  9
$PUCSBASE
  2

  9
$PUCSNAME
  2

  9
$PUCSORG
 10
0.0
 20
0.0
 30
0.0
  9
$PUCSXDIR
 10
1.0
 20
0.0
 30
0.0
  9
$PUCSYDIR
 10
0.0
 20
1.0
 30
0.0
  9
$PUCSORTHOREF
  2

  9
$PUCSORTHOVIEW
 70
     0
  9
$PUCSORGTOP
 10
0.0
 20
0.0
 30
0.0
  9
$PUCSORGBOTTOM
 10
0.0
 20
0.0
 30
0.0
  9
$PUCSORGLEFT
 10
0.0
 20
0.0
 30
0.0
  9
$PUCSORGRIGHT
 10
0.0
 20
0.0
 30
0.0
  9
$PUCSORGFRONT
 10
0.0
 20
0.0
 30
0.0
  9
$PUCSORGBACK
 10
0.0
 20
0.0
 30
0.0
  9
$USERI1
 70
     0
  9
$USERI2
 70
     0
  9
$USERI3
 70
     0
  9
$USERI4
 70
     0
  9
$USERI5
 70
     0
  9
$USERR1
 40
0.0
  9
$USERR2
 40
0.0
  9
$USERR3
 40
0.0
  9
$USERR4
 40
0.0
  9
$USERR5
 40
0.0
  9
$WORLDVIEW
 70
     1
  9
$SHADEDGE
 70
     3
  9
$SHADEDIF
 70
    70
  9
$TILEMODE
 70
     1
  9
$MAXACTVP
 70
    16
  9
$PINSBASE
 10
0.0
 20
0.0
 30
0.0
  9
$PLIMCHECK
 70
     0
  9
$PEXTMIN
 10
1.000000000000000E+20
 20
1.000000000000000E+20
 30
1.000000000000000E+20
  9
$PEXTMAX
 10
-1.000000000000000E+20
 20
-1.000000000000000E+20
 30
-1.000000000000000E+20
  9
$PLIMMIN
 10
0.0
 20
0.0
  9
$PLIMMAX
 10
12.0
 20
9.0
  9
$UNITMODE
 70
     0
  9
$VISRETAIN
 70
     0
  9
$PLINEGEN
 70
     1
  9
$PSLTSCALE
 70
     0
  9
$TREEDEPTH
 70
  3020
  9
$CMLSTYLE
  2
STANDARD
  9
$CMLJUST
 70
     0
  9
$CMLSCALE
 40
1.0
  9
$PROXYGRAPHICS
 70
     1
  9
$MEASUREMENT
 70
     0
  9
$CELWEIGHT
370
    -1
  9
$ENDCAPS
280
     0
  9
$JOINSTYLE
280
     0
  9
$LWDISPLAY
290
     0
  9
$INSUNITS
 70
     0
  9
$HYPERLINKBASE
  1

  9
$STYLESHEET
  1

  9
$XEDIT
290
     1
  9
$CEPSNTYPE
380
     0
  9
$PSTYLEMODE
290
     1
  9
$FINGERPRINTGUID
  2
{99CAA68E-CB30-40EA-9685-412DD696AB18}
  9
$VERSIONGUID
  2
{0DB3A3FB-68A8-4DD4-AC53-F64898F62FA4}
  9
$EXTNAMES
290
     1
  9
$PSVPSCALE
 40
0.0
  9
$OLESTARTUP
290
     0
  0
ENDSEC
  0
SECTION
  2
CLASSES
  0
CLASS
  1
LWPOLYLINE
  2
AcDbPolyline
  3
AutoCAD 2000
 90
    32768
280
     0
281
     1
  0
CLASS
  1
IMAGE
  2
AcDbRasterImage
  3
ISM
 90
    32895
280
     0
281
     1
  0
CLASS
  1
OLE2FRAME
  2
AcDbOle2Frame
  3
AutoCAD 2000
 90
    32768
280
     0
281
     1
  0
CLASS
  1
HATCH
  2
AcDbHatch
  3
AutoCAD 2000
 90
    32768
280
     0
281
     1
  0
CLASS
  1
DICTIONARYVAR
  2
AcDbDictionaryVar
  3
AutoCAD 2000
 90
        0
280
     0
281
     0
  0
CLASS
  1
RASTERVARIABLES
  2
AcDbRasterVariables
  3
ISM
 90
    32768
280
     0
281
     0
  0
CLASS
  1
IMAGEDEF
  2
AcDbRasterImageDef
  3
ISM
 90
    32768
280
     0
281
     0
  0
CLASS
  1
IMAGEDEF_REACTOR
  2
AcDbRasterImageDefReactor
  3
ISM
 90
    32769
280
     0
281
     0
  0
CLASS
  1
IDBUFFER
  2
AcDbIdBuffer
  3
AutoCAD 2000
 90
    32768
280
     0
281
     0
  0
CLASS
  1
SPATIAL_FILTER
  2
AcDbSpatialFilter
  3
AutoCAD 2000
 90
    32768
280
     0
281
     0
  0
CLASS
  1
XRECORD
  2
AcDbXrecord
  3
AutoCAD 2000
 90
    32768
280
     0
281
     0
  0
CLASS
  1
SORTENTSTABLE
  2
AcDbSortentsTable
  3
AutoCAD 2000
 90
    32768
280
     0
281
     0
  0
CLASS
  1
LAYER_INDEX
  2
AcDbLayerIndex
  3
AutoCAD 2000
 90
    32768
280
     0
281
     0
  0
CLASS
  1
SPATIAL_INDEX
  2
AcDbSpatialIndex
  3
AutoCAD 2000
 90
    32768
280
     0
281
     0
  0
CLASS
  1
OBJECT_PTR
  2
CAseDLPNTableRecord
  3
"ASE-LPNTableRecord"
 90
    32768
280
     0
281
     0
  0
CLASS
  1
LAYOUT
  2
AcDbLayout
  3
AutoCAD 2000
 90
        0
280
     0
281
     0
  0
CLASS
  1
PLOTSETTINGS
  2
AcDbPlotSettings
  3
AutoCAD 2000
 90
    32768
280
     0
281
     0
  0
CLASS
  1
ACDBDICTIONARYWDFLT
  2
AcDbDictionaryWithDefault
  3
AutoCAD 2000
 90
        0
280
     0
281
     0
  0
CLASS
  1
ACDBPLACEHOLDER
  2
AcDbPlaceHolder
  3
AutoCAD 2000
 90
        0
280
     0
281
     0
  0
CLASS
  1
VBA_PROJECT
  2
AcDbVbaProject
  3
acad
 90
    32768
280
     0
281
     0
  0
CLASS
  1
WIPEOUT
  2
AcDbWipeout
  3
"WipeOut|Product Desc: Object Enabler for WipeOut entity^I^I^I^I^I^I|Company: Autodesk, Inc.^I^I^I^I^I^I|WEB Address: www.autodesk.com"
 90
    32895
280
     0
281
     1
  0
CLASS
  1
WIPEOUTVARIABLES
  2
AcDbWipeoutVariables
  3
"WipeOut|Product Desc:     WipeOut Dbx Application|Company:          Autodesk, Inc.|WEB Address:      www.autodesk.com"
 90
    32768
280
     0
281
     0
  0
CLASS
  1
RTEXT
  2
RText
  3
RText|AutoCAD Express Tool|expresstools@autodesk.com
 90
    32768
280
     0
281
     1
  0
CLASS
  1
ARCALIGNEDTEXT
  2
AcDbArcAlignedText
  3
ATEXT|AutoCAD Express Tool|expresstools@autodesk.com
 90
    32768
280
     0
281
     1
  0
ENDSEC
  0
SECTION
  2
TABLES
  0
TABLE
  2
VPORT
  5
7
330
0
100
AcDbSymbolTable
 70
     2
  0
VPORT
  5
4C8
330
7
100
AcDbSymbolTableRecord
100
AcDbViewportTableRecord
  2
*Active
 70
     0
 10
0.0
 20
0.0
 11
1.0
 21
1.0
 12
362.9285049394292
 22
344.3813015412447
 13
0.0
 23
0.0
 14
1.0
 24
1.0
 15
0.0
 25
0.0
 16
0.0
 26
0.0
 36
1.0
 17
0.0
 27
0.0
 37
0.0
 40
932.9708360810156
 41
1.525316455696202
 42
50.0
 43
0.0
 44
0.0
 50
0.0
 51
0.0
 71
     0
 72
 10000
 73
     1
 74
     1
 75
     0
 76
     0
 77
     0
 78
     0
281
     0
 65
     1
110
0.0
120
0.0
130
0.0
111
1.0
121
0.0
131
0.0
112
0.0
122
1.0
132
0.0
 79
     0
146
0.0
  0
ENDTAB
  0
TABLE
  2
LTYPE
  5
4
330
0
100
AcDbSymbolTable
 70
     2
  0
LTYPE
  5
11
330
4
100
AcDbSymbolTableRecord
100
AcDbLinetypeTableRecord
  2
BYBLOCK
 70
     0
  3

 72
    65
 73
     0
 40
0.0
  0
LTYPE
  5
12
330
4
100
AcDbSymbolTableRecord
100
AcDbLinetypeTableRecord
  2
BYLAYER
 70
     0
  3

 72
    65
 73
     0
 40
0.0
  0
LTYPE
  5
13
330
4
100
AcDbSymbolTableRecord
100
AcDbLinetypeTableRecord
  2
CONTINUOUS
 70
     0
  3
Solid line
 72
    65
 73
     0
 40
0.0
  0
LTYPE
  5
1E
330
4
100
AcDbSymbolTableRecord
100
AcDbLinetypeTableRecord
  2
STANDARD
 70
     0
  3

 72
    65
 73
     0
 40
0.0
  0
ENDTAB
  0
TABLE
  2
LAYER
  5
2
330
0
100
AcDbSymbolTable
 70
     4
  0
LAYER
  5
14
330
2
100
AcDbSymbolTableRecord
100
AcDbLayerTableRecord
  2
0
 70
     0
 62
     7
  6
CONTINUOUS
370
    -3
390
17A
  0
LAYER
  5
1D
330
2
100
AcDbSymbolTableRecord
100
AcDbLayerTableRecord
  2
STANDARD
 70
     0
 62
     7
  6
CONTINUOUS
370
    -3
390
17A
  0
LAYER
  5
18F
330
2
100
AcDbSymbolTableRecord
100
AcDbLayerTableRecord
  2
Defpoints
 70
     0
 62
     7
  6
CONTINUOUS
290
     0
370
    -3
390
17A
  0
LAYER
  5
1F4
330
2
100
AcDbSymbolTableRecord
100
AcDbLayerTableRecord
  2
PV-D5
 70
     2
 62
     7
  6
CONTINUOUS
370
    -3
390
17A
  0
ENDTAB
  0
TABLE
  2
STYLE
  5
3
330
0
100
AcDbSymbolTable
 70
     1
  0
STYLE
  5
17
330
3
100
AcDbSymbolTableRecord
100
AcDbTextStyleTableRecord
  2
STANDARD
 70
     0
 40
0.0
 41
1.0
 50
0.0
 71
     0
 42
0.0
  3
txt
  4

  0
ENDTAB
  0
TABLE
  2
VIEW
  5
5
330
0
100
AcDbSymbolTable
 70
     0
  0
ENDTAB
  0
TABLE
  2
UCS
  5
6
330
0
100
AcDbSymbolTable
 70
     0
  0
ENDTAB
  0
TABLE
  2
APPID
  5
8
330
0
100
AcDbSymbolTable
 70
     1
  0
APPID
  5
16
330
8
100
AcDbSymbolTableRecord
100
AcDbRegAppTableRecord
  2
ACAD
 70
     0
  0
ENDTAB
  0
TABLE
  2
DIMSTYLE
  5
9
330
0
100
AcDbSymbolTable
 70
     1
100
AcDbDimStyleTable
 71
     1
340
18
  0
DIMSTYLE
105
18
102
{ACAD_REACTORS
330
498
330
4A6
102
}
330
9
100
AcDbSymbolTableRecord
100
AcDbDimStyleTableRecord
  2
STANDARD
 70
     0
289
     0
340
17
  0
ENDTAB
  0
TABLE
  2
BLOCK_RECORD
  5
1
330
0
100
AcDbSymbolTable
 70
    14
  0
BLOCK_RECORD
  5
A
330
1
100
AcDbSymbolTableRecord
100
AcDbBlockTableRecord
  2
*MODEL_SPACE
340
17F
  0
BLOCK_RECORD
  5
B
330
1
100
AcDbSymbolTableRecord
100
AcDbBlockTableRecord
  2
*PAPER_SPACE
340
180
  0
BLOCK_RECORD
  5
499
330
1
100
AcDbSymbolTableRecord
100
AcDbBlockTableRecord
  2
*D12
340
0
  0
BLOCK_RECORD
  5
4A7
330
1
100
AcDbSymbolTableRecord
100
AcDbBlockTableRecord
  2
*D13
340
0
  0
ENDTAB
  0
ENDSEC
  0
SECTION
  2
BLOCKS
  0
BLOCK
  5
D
330
A
100
AcDbEntity
  8
0
100
AcDbBlockBegin
  2
*MODEL_SPACE
 70
     0
 10
0.0
 20
0.0
 30
0.0
  3
*MODEL_SPACE
  1

  0
ENDBLK
  5
E
330
A
100
AcDbEntity
  8
0
100
AcDbBlockEnd
  0
BLOCK
  5
F
330
B
100
AcDbEntity
 67
     1
  8
0
100
AcDbBlockBegin
  2
*PAPER_SPACE
 70
     0
 10
0.0
 20
0.0
 30
0.0
  3
*PAPER_SPACE
  1

  0
ENDBLK
  5
10
330
B
100
AcDbEntity
 67
     1
  8
0
100
AcDbBlockEnd
  0
BLOCK
  5
4A4
330
499
100
AcDbEntity
  8
0
100
AcDbBlockBegin
  2
*D12
 70
     1
 10
0.0
 20
0.0
 30
0.0
  3
*D12
  1

  0
LINE
  5
4BE
330
499
100
AcDbEntity
  8
0
  6
Continuous
 62
     0
370
    -2
100
AcDbLine
 10
208.8514348966557
 20
305.1611955641831
 30
0.0
 11
88.39931944196759
 21
305.1611955641832
 31
0.0
  0
LINE
  5
4BF
330
499
100
AcDbEntity
  8
0
  6
Continuous
 62
     0
370
    -2
100
AcDbLine
 10
272.8514310819584
 20
-102.8388044358168
 30
0.0
 11
88.39931944196749
 21
-102.8388044358167
 31
0.0
  0
LINE
  5
4C0
330
499
100
AcDbEntity
  8
0
  6
Continuous
 62
     0
370
    -2
100
AcDbLine
 10
88.5793194419676
 20
304.9811955641832
 30
0.0
 11
88.57931944196755
 21
121.2511955641832
 31
0.0
  0
LINE
  5
4C1
330
499
100
AcDbEntity
  8
0
  6
Continuous
 62
     0
370
    -2
100
AcDbLine
 10
88.57931944196749
 20
-102.6588044358167
 30
0.0
 11
88.57931944196755
 21
81.07119556418322
 31
0.0
  0
SOLID
  5
4C2
330
499
100
AcDbEntity
  8
0
  6
Continuous
 62
     0
100
AcDbTrace
 10
88.5493194419676
 20
304.9811955641832
 30
0.0
 11
88.6093194419676
 21
304.9811955641832
 31
0.0
 12
88.5793194419676
 22
305.1611955641832
 32
0.0
 13
88.5793194419676
 23
305.1611955641832
 33
0.0
  0
SOLID
  5
4C3
330
499
100
AcDbEntity
  8
0
  6
Continuous
 62
     0
100
AcDbTrace
 10
88.54931944196749
 20
-102.6588044358167
 30
0.0
 11
88.6093194419675
 21
-102.6588044358167
 31
0.0
 12
88.57931944196749
 22
-102.8388044358167
 32
0.0
 13
88.57931944196749
 23
-102.8388044358167
 33
0.0
  0
MTEXT
  5
4C4
330
499
100
AcDbEntity
  8
0
  6
Continuous
 62
     0
100
AcDbMText
 10
88.57931944196753
 20
101.1611955641832
 30
0.0
 40
40.0
 41
0.0
 71
     5
 72
     1
  1
\A1;408.0000
 73
     1
 44
1.0
  0
POINT
  5
4C5
330
499
100
AcDbEntity
  8
Defpoints
  6
Continuous
 62
     0
100
AcDbPoint
 10
208.9139348966557
 20
305.1611955641831
 30
0.0
  0
POINT
  5
4C6
330
499
100
AcDbEntity
  8
Defpoints
  6
Continuous
 62
     0
100
AcDbPoint
 10
272.9139310819584
 20
-102.8388044358168
 30
0.0
  0
POINT
  5
4C7
330
499
100
AcDbEntity
  8
Defpoints
  6
Continuous
 62
     0
100
AcDbPoint
 10
88.57931944196749
 20
-102.8388044358167
 30
0.0
  0
ENDBLK
  5
4A5
330
499
100
AcDbEntity
  8
0
100
AcDbBlockEnd
  0
BLOCK
  5
4B2
330
4A7
100
AcDbEntity
  8
0
100
AcDbBlockBegin
  2
*D13
 70
     1
 10
0.0
 20
0.0
 30
0.0
  3
*D13
  1

  0
LINE
  5
4B4
330
4A7
100
AcDbEntity
  8
0
  6
Continuous
 62
     0
370
    -2
100
AcDbLine
 10
190.4139406187016
 20
177.7236879347886
 30
0.0
 11
190.4139406187016
 21
395.2790605327042
 31
0.0
  0
LINE
  5
4B5
330
4A7
100
AcDbEntity
  8
0
  6
Continuous
 62
     0
370
    -2
100
AcDbLine
 10
535.4139406187016
 20
177.7236879347886
 30
0.0
 11
535.4139406187016
 21
395.2790605327042
 31
0.0
  0
LINE
  5
4B6
330
4A7
100
AcDbEntity
  8
0
  6
Continuous
 62
     0
370
    -2
100
AcDbLine
 10
190.5939406187016
 20
395.0990605327042
 30
0.0
 11
236.1572739520349
 21
395.0990605327042
 31
0.0
  0
LINE
  5
4B7
330
4A7
100
AcDbEntity
  8
0
  6
Continuous
 62
     0
370
    -2
100
AcDbLine
 10
535.2339406187017
 20
395.0990605327042
 30
0.0
 11
489.6706072853683
 21
395.0990605327042
 31
0.0
  0
SOLID
  5
4B8
330
4A7
100
AcDbEntity
  8
0
  6
Continuous
 62
     0
100
AcDbTrace
 10
190.5939406187016
 20
395.1290605327042
 30
0.0
 11
190.5939406187016
 21
395.0690605327043
 31
0.0
 12
190.4139406187016
 22
395.0990605327042
 32
0.0
 13
190.4139406187016
 23
395.0990605327042
 33
0.0
  0
SOLID
  5
4B9
330
4A7
100
AcDbEntity
  8
0
  6
Continuous
 62
     0
100
AcDbTrace
 10
535.2339406187017
 20
395.1290605327042
 30
0.0
 11
535.2339406187017
 21
395.0690605327043
 31
0.0
 12
535.4139406187016
 22
395.0990605327042
 32
0.0
 13
535.4139406187016
 23
395.0990605327042
 33
0.0
  0
MTEXT
  5
4BA
330
4A7
100
AcDbEntity
  8
0
  6
Continuous
 62
     0
100
AcDbMText
 10
362.9139406187016
 20
395.0990605327042
 30
0.0
 40
40.0
 41
0.0
 71
     5
 72
     1
  1
\A1;345.0000
 73
     1
 44
1.0
  0
POINT
  5
4BB
330
4A7
100
AcDbEntity
  8
Defpoints
  6
Continuous
 62
     0
100
AcDbPoint
 10
190.4139406187016
 20
177.6611879347886
 30
0.0
  0
POINT
  5
4BC
330
4A7
100
AcDbEntity
  8
Defpoints
  6
Continuous
 62
     0
100
AcDbPoint
 10
535.4139406187016
 20
177.6611879347886
 30
0.0
  0
POINT
  5
4BD
330
4A7
100
AcDbEntity
  8
Defpoints
  6
Continuous
 62
     0
100
AcDbPoint
 10
535.4139406187016
 20
395.0990605327042
 30
0.0
  0
ENDBLK
  5
4B3
330
4A7
100
AcDbEntity
  8
0
100
AcDbBlockEnd
  0
ENDSEC
  0
SECTION
  2
ENTITIES
  0
LINE
  5
21
330
A
100
AcDbEntity
  8
STANDARD
  6
STANDARD
 62
     7
100
AcDbLine
 10
190.4139406187016
 20
205.1612260817612
 30
0.0
 11
535.4139406187016
 21
205.1612260817612
 31
0.0
  0
LINE
  5
22
330
A
100
AcDbEntity
  8
STANDARD
  6
STANDARD
 62
     7
100
AcDbLine
 10
500.4139406187016
 20
229.6611650466051
 30
0.0
 11
533.4139329893071
 21
229.6611650466051
 31
0.0
  0
LINE
  5
23
330
A
100
AcDbEntity
  8
STANDARD
  6
STANDARD
 62
     7
100
AcDbLine
 10
192.4139291746098
 20
229.6611650466051
 30
0.0
 11
225.4139406187016
 21
229.6611650466051
 31
0.0
  0
LINE
  5
24
330
A
100
AcDbEntity
  8
STANDARD
  6
STANDARD
 62
     7
100
AcDbLine
 10
516.491668890186
 20
254.2409379958238
 30
0.0
 11
517.3352510435063
 21
254.2410905837144
 31
0.0
  0
LINE
  5
25
330
A
100
AcDbEntity
  8
STANDARD
  6
STANDARD
 62
     7
100
AcDbLine
 10
208.4926301938969
 20
254.2410905837144
 30
0.0
 11
209.3362123472172
 21
254.2409379958238
 31
0.0
  0
LINE
  5
26
330
A
100
AcDbEntity
  8
STANDARD
  6
STANDARD
 62
     7
100
AcDbLine
 10
532.5568849546391
 20
245.5670793532457
 30
0.0
 11
532.8517229062993
 21
245.4733903884019
 31
0.0
  0
LINE
  5
27
330
A
100
AcDbEntity
  8
STANDARD
  6
STANDARD
 62
     7
100
AcDbLine
 10
500.9761507017095
 20
245.4733903884019
 30
0.0
 11
501.2709505063969
 21
245.5670793532457
 31
0.0
  0
LINE
  5
28
330
A
100
AcDbEntity
  8
STANDARD
  6
STANDARD
 62
     7
100
AcDbLine
 10
224.5568925840336
 20
245.5670793532457
 30
0.0
 11
224.8517114622075
 21
245.4733903884019
 31
0.0
  0
LINE
  5
29
330
A
100
AcDbEntity
  8
STANDARD
  6
STANDARD
 62
     7
100
AcDbLine
 10
192.9761583311039
 20
245.4733903884019
 30
0.0
 11
193.2709772092778
 21
245.5670793532457
 31
0.0
  0
LINE
  5
2A
330
A
100
AcDbEntity
  8
STANDARD
  6
STANDARD
 62
     7
100
AcDbLine
 10
533.4139329893071
 20
244.9111040114488
 30
0.0
 11
540.9139329893071
 21
244.9111040114488
 31
0.0
  0
LINE
  5
2B
330
A
100
AcDbEntity
  8
STANDARD
  6
STANDARD
 62
     7
100
AcDbLine
 10
492.9139406187016
 20
244.9111040114488
 30
0.0
 11
500.4139406187016
 21
244.9111040114488
 31
0.0
  0
LINE
  5
2C
330
A
100
AcDbEntity
  8
STANDARD
  6
STANDARD
 62
     7
100
AcDbLine
 10
225.4139406187016
 20
244.9111040114488
 30
0.0
 11
232.9139406187016
 21
244.9111040114488
 31
0.0
  0
LINE
  5
2D
330
A
100
AcDbEntity
  8
STANDARD
  6
STANDARD
 62
     7
100
AcDbLine
 10
184.9139291746098
 20
244.9111040114488
 30
0.0
 11
192.4139291746098
 21
244.9111040114488
 31
0.0
  0
LINE
  5
2E
330
A
100
AcDbEntity
  8
STANDARD
  6
STANDARD
 62
     7
100
AcDbLine
 10
492.9139406187016
 20
283.411165046605
 30
0.0
 11
540.9139329893071
 21
283.411165046605
 31
0.0
  0
LINE
  5
2F
330
A
100
AcDbEntity
  8
STANDARD
  6
STANDARD
 62
     7
100
AcDbLine
 10
184.9139291746098
 20
283.411165046605
 30
0.0
 11
232.9139406187016
 21
283.411165046605
 31
0.0
  0
LINE
  5
30
330
A
100
AcDbEntity
  8
STANDARD
  6
STANDARD
 62
     7
100
AcDbLine
 10
500.4139406187016
 20
287.161165046605
 30
0.0
 11
533.4139329893071
 21
287.161165046605
 31
0.0
  0
LINE
  5
31
330
A
100
AcDbEntity
  8
STANDARD
  6
STANDARD
 62
     7
100
AcDbLine
 10
192.4139291746098
 20
287.161165046605
 30
0.0
 11
225.4139406187016
 21
287.161165046605
 31
0.0
  0
LINE
  5
32
330
A
100
AcDbEntity
  8
STANDARD
  6
STANDARD
 62
     7
100
AcDbLine
 10
477.9139406187016
 20
289.1611345290269
 30
0.0
 11
555.9139329893071
 21
289.1611345290269
 31
0.0
  0
LINE
  5
33
330
A
100
AcDbEntity
  8
STANDARD
  6
STANDARD
 62
     7
100
AcDbLine
 10
169.9139291746098
 20
289.1611345290269
 30
0.0
 11
247.9139406187016
 21
289.1611345290269
 31
0.0
  0
LINE
  5
34
330
A
100
AcDbEntity
  8
STANDARD
  6
STANDARD
 62
     7
100
AcDbLine
 10
540.9139329893071
 20
241.9112260817613
 30
0.0
 11
555.9139329893071
 21
241.9112260817613
 31
0.0
  0
LINE
  5
35
330
A
100
AcDbEntity
  8
STANDARD
  6
STANDARD
 62
     7
100
AcDbLine
 10
477.9139406187016
 20
241.9112260817613
 30
0.0
 11
492.9139406187016
 21
241.9112260817613
 31
0.0
  0
LINE
  5
36
330
A
100
AcDbEntity
  8
STANDARD
  6
STANDARD
 62
     7
100
AcDbLine
 10
232.9139406187016
 20
241.9112260817613
 30
0.0
 11
247.9139406187016
 21
241.9112260817613
 31
0.0
  0
LINE
  5
37
330
A
100
AcDbEntity
  8
STANDARD
  6
STANDARD
 62
     7
100
AcDbLine
 10
169.9139291746098
 20
241.9112260817613
 30
0.0
 11
184.9139291746098
 21
241.9112260817613
 31
0.0
  0
LINE
  5
38
330
A
100
AcDbEntity
  8
STANDARD
  6
STANDARD
 62
     7
100
AcDbLine
 10
260.1894647581058
 20
-69.83885021218402
 30
0.0
 11
461.6383916837651
 21
-69.83885021218402
 31
0.0
  0
LINE
  5
39
330
A
100
AcDbEntity
  8
STANDARD
  6
STANDARD
 62
     7
100
AcDbLine
 10
261.6384107572514
 20
-102.8388044358168
 30
0.0
 11
464.1894704801518
 21
-102.8388044358168
 31
0.0
  0
LINE
  5
3A
330
A
100
AcDbEntity
  8
STANDARD
  6
STANDARD
 62
     7
100
AcDbLine
 10
190.4139406187016
 20
-38.83886547097307
 30
0.0
 11
535.4139406187016
 21
-38.83886547097307
 31
0.0
  0
LINE
  5
3B
330
A
100
AcDbEntity
  8
STANDARD
  6
STANDARD
 62
     7
100
AcDbLine
 10
190.4139406187016
 20
16.16113452902692
 30
0.0
 11
535.4139406187016
 21
16.16113452902692
 31
0.0
  0
LINE
  5
3C
330
A
100
AcDbEntity
  8
STANDARD
  6
STANDARD
 62
     7
100
AcDbLine
 10
190.4139406187016
 20
24.16116504660505
 30
0.0
 11
535.4139406187016
 21
24.16116504660504
 31
0.0
  0
LINE
  5
3D
330
A
100
AcDbEntity
  8
STANDARD
  6
STANDARD
 62
     7
100
AcDbLine
 10
190.4139406187016
 20
79.16116504660505
 30
0.0
 11
535.4139406187016
 21
79.16116504660505
 31
0.0
  0
LINE
  5
3E
330
A
100
AcDbEntity
  8
STANDARD
  6
STANDARD
 62
     7
100
AcDbLine
 10
190.4139406187016
 20
87.16119556418318
 30
0.0
 11
535.4139406187016
 21
87.16119556418316
 31
0.0
  0
LINE
  5
3F
330
A
100
AcDbEntity
  8
STANDARD
  6
STANDARD
 62
     7
100
AcDbLine
 10
190.4139406187016
 20
142.1611955641831
 30
0.0
 11
535.4139406187016
 21
142.1611955641831
 31
0.0
  0
LINE
  5
40
330
A
100
AcDbEntity
  8
STANDARD
  6
STANDARD
 62
     7
100
AcDbLine
 10
190.4139406187016
 20
150.1611497878159
 30
0.0
 11
535.4139406187016
 21
150.1611497878159
 31
0.0
  0
LINE
  5
42
330
A
100
AcDbEntity
  8
STANDARD
  6
STANDARD
 62
     7
100
AcDbLine
 10
516.913917730518
 20
283.411165046605
 30
0.0
 11
516.913917730518
 21
284.0761430739488
 31
0.0
  0
LINE
  5
49
330
A
100
AcDbEntity
  8
STANDARD
  6
STANDARD
 62
     7
100
AcDbLine
 10
208.9139444333989
 20
283.411165046605
 30
0.0
 11
208.9139444333989
 21
284.0761430739488
 31
0.0
  0
LINE
  5
50
330
A
100
AcDbEntity
  8
STANDARD
  6
STANDARD
 62
     7
100
AcDbLine
 10
190.4139406187016
 20
150.1611497878159
 30
0.0
 11
190.4139406187016
 21
205.1612260817612
 31
0.0
  0
LINE
  5
51
330
A
100
AcDbEntity
  8
STANDARD
  6
STANDARD
 62
     7
100
AcDbLine
 10
190.4139406187016
 20
87.16119556418318
 30
0.0
 11
190.4139406187016
 21
142.1611955641831
 31
0.0
  0
LINE
  5
52
330
A
100
AcDbEntity
  8
STANDARD
  6
STANDARD
 62
     7
100
AcDbLine
 10
190.4139406187016
 20
24.16116504660505
 30
0.0
 11
190.4139406187016
 21
79.16116504660505
 31
0.0
  0
LINE
  5
53
330
A
100
AcDbEntity
  8
STANDARD
  6
STANDARD
 62
     7
100
AcDbLine
 10
190.4139406187016
 20
-38.83886547097307
 30
0.0
 11
190.4139406187016
 21
16.16113452902692
 31
0.0
  0
LINE
  5
54
330
A
100
AcDbEntity
  8
STANDARD
  6
STANDARD
 62
     7
100
AcDbLine
 10
535.4139406187016
 20
150.1611497878159
 30
0.0
 11
535.4139406187016
 21
205.1612260817612
 31
0.0
  0
LINE
  5
55
330
A
100
AcDbEntity
  8
STANDARD
  6
STANDARD
 62
     7
100
AcDbLine
 10
535.4139406187016
 20
87.16119556418318
 30
0.0
 11
535.4139406187016
 21
142.1611955641831
 31
0.0
  0
LINE
  5
56
330
A
100
AcDbEntity
  8
STANDARD
  6
STANDARD
 62
     7
100
AcDbLine
 10
535.4139406187016
 20
24.16116504660505
 30
0.0
 11
535.4139406187016
 21
79.16116504660505
 31
0.0
  0
LINE
  5
57
330
A
100
AcDbEntity
  8
STANDARD
  6
STANDARD
 62
     7
100
AcDbLine
 10
535.4139406187016
 20
-38.83886547097307
 30
0.0
 11
535.4139406187016
 21
16.16113452902692
 31
0.0
  0
LINE
  5
58
330
A
100
AcDbEntity
  8
STANDARD
  6
STANDARD
 62
     7
100
AcDbLine
 10
500.4139406187016
 20
283.411165046605
 30
0.0
 11
500.4139406187016
 21
287.161165046605
 31
0.0
  0
LINE
  5
59
330
A
100
AcDbEntity
  8
STANDARD
  6
STANDARD
 62
     7
100
AcDbLine
 10
500.4139406187016
 20
205.1612260817612
 30
0.0
 11
500.4139406187016
 21
244.9111040114488
 31
0.0
  0
LINE
  5
5A
330
A
100
AcDbEntity
  8
STANDARD
  6
STANDARD
 62
     7
100
AcDbLine
 10
500.4139406187016
 20
142.1611955641831
 30
0.0
 11
500.4139406187016
 21
150.1611497878159
 31
0.0
  0
LINE
  5
5B
330
A
100
AcDbEntity
  8
STANDARD
  6
STANDARD
 62
     7
100
AcDbLine
 10
500.4139406187016
 20
79.16116504660505
 30
0.0
 11
500.4139406187016
 21
87.16119556418318
 31
0.0
  0
LINE
  5
5C
330
A
100
AcDbEntity
  8
STANDARD
  6
STANDARD
 62
     7
100
AcDbLine
 10
500.4139406187016
 20
16.16113452902692
 30
0.0
 11
500.4139406187016
 21
24.16116504660505
 31
0.0
  0
LINE
  5
5D
330
A
100
AcDbEntity
  8
STANDARD
  6
STANDARD
 62
     7
100
AcDbLine
 10
533.4139329893071
 20
283.411165046605
 30
0.0
 11
533.4139329893071
 21
287.161165046605
 31
0.0
  0
LINE
  5
5E
330
A
100
AcDbEntity
  8
STANDARD
  6
STANDARD
 62
     7
100
AcDbLine
 10
533.4139329893071
 20
205.1612260817612
 30
0.0
 11
533.4139329893072
 21
244.9111040114488
 31
0.0
  0
LINE
  5
5F
330
A
100
AcDbEntity
  8
STANDARD
  6
STANDARD
 62
     7
100
AcDbLine
 10
533.4139329893071
 20
142.1611955641831
 30
0.0
 11
533.4139329893071
 21
150.1611497878159
 31
0.0
  0
LINE
  5
60
330
A
100
AcDbEntity
  8
STANDARD
  6
STANDARD
 62
     7
100
AcDbLine
 10
533.4139329893071
 20
79.16116504660505
 30
0.0
 11
533.4139329893071
 21
87.16119556418318
 31
0.0
  0
LINE
  5
61
330
A
100
AcDbEntity
  8
STANDARD
  6
STANDARD
 62
     7
100
AcDbLine
 10
533.4139329893071
 20
16.16113452902692
 30
0.0
 11
533.4139329893071
 21
24.16116504660505
 31
0.0
  0
LINE
  5
62
330
A
100
AcDbEntity
  8
STANDARD
  6
STANDARD
 62
     7
100
AcDbLine
 10
533.4139329893071
 20
-39.36742992409807
 30
0.0
 11
533.4139329893071
 21
-38.83886547097307
 31
0.0
  0
LINE
  5
63
330
A
100
AcDbEntity
  8
STANDARD
  6
STANDARD
 62
     7
100
AcDbLine
 10
225.4139406187016
 20
283.411165046605
 30
0.0
 11
225.4139406187016
 21
287.161165046605
 31
0.0
  0
LINE
  5
64
330
A
100
AcDbEntity
  8
STANDARD
  6
STANDARD
 62
     7
100
AcDbLine
 10
225.4139406187016
 20
205.1612260817612
 30
0.0
 11
225.4139406187016
 21
244.9111040114488
 31
0.0
  0
LINE
  5
65
330
A
100
AcDbEntity
  8
STANDARD
  6
STANDARD
 62
     7
100
AcDbLine
 10
225.4139406187016
 20
142.1611955641831
 30
0.0
 11
225.4139406187016
 21
150.1611497878159
 31
0.0
  0
LINE
  5
66
330
A
100
AcDbEntity
  8
STANDARD
  6
STANDARD
 62
     7
100
AcDbLine
 10
225.4139406187016
 20
79.16116504660505
 30
0.0
 11
225.4139406187016
 21
87.16119556418318
 31
0.0
  0
LINE
  5
67
330
A
100
AcDbEntity
  8
STANDARD
  6
STANDARD
 62
     7
100
AcDbLine
 10
225.4139406187016
 20
16.16113452902692
 30
0.0
 11
225.4139406187016
 21
24.16116504660505
 31
0.0
  0
LINE
  5
68
330
A
100
AcDbEntity
  8
STANDARD
  6
STANDARD
 62
     7
100
AcDbLine
 10
192.4139291746098
 20
283.411165046605
 30
0.0
 11
192.4139291746098
 21
287.161165046605
 31
0.0
  0
LINE
  5
69
330
A
100
AcDbEntity
  8
STANDARD
  6
STANDARD
 62
     7
100
AcDbLine
 10
192.4139291746098
 20
205.1612260817612
 30
0.0
 11
192.4139291746098
 21
244.9111040114488
 31
0.0
  0
LINE
  5
6A
330
A
100
AcDbEntity
  8
STANDARD
  6
STANDARD
 62
     7
100
AcDbLine
 10
192.4139291746098
 20
142.1611955641831
 30
0.0
 11
192.4139291746098
 21
150.1611497878159
 31
0.0
  0
LINE
  5
6B
330
A
100
AcDbEntity
  8
STANDARD
  6
STANDARD
 62
     7
100
AcDbLine
 10
192.4139291746098
 20
79.16116504660505
 30
0.0
 11
192.4139291746098
 21
87.16119556418318
 31
0.0
  0
LINE
  5
6C
330
A
100
AcDbEntity
  8
STANDARD
  6
STANDARD
 62
     7
100
AcDbLine
 10
192.4139291746098
 20
16.16113452902692
 30
0.0
 11
192.4139291746098
 21
24.16116504660505
 31
0.0
  0
LINE
  5
6D
330
A
100
AcDbEntity
  8
STANDARD
  6
STANDARD
 62
     7
100
AcDbLine
 10
192.4139291746098
 20
-39.36742992409807
 30
0.0
 11
192.4139291746098
 21
-38.83886547097307
 31
0.0
  0
LINE
  5
6F
330
A
100
AcDbEntity
  8
STANDARD
  6
STANDARD
 62
     7
100
AcDbLine
 10
492.9139406187016
 20
241.9112260817613
 30
0.0
 11
492.9139406187016
 21
289.1611345290269
 31
0.0
  0
LINE
  5
70
330
A
100
AcDbEntity
  8
STANDARD
  6
STANDARD
 62
     7
100
AcDbLine
 10
540.9139329893071
 20
241.9112260817613
 30
0.0
 11
540.9139329893071
 21
289.1611345290269
 31
0.0
  0
LINE
  5
71
330
A
100
AcDbEntity
  8
STANDARD
  6
STANDARD
 62
     7
100
AcDbLine
 10
232.9139406187016
 20
241.9112260817613
 30
0.0
 11
232.9139406187016
 21
289.1611345290269
 31
0.0
  0
LINE
  5
72
330
A
100
AcDbEntity
  8
STANDARD
  6
STANDARD
 62
     7
100
AcDbLine
 10
184.9139291746098
 20
241.9112260817613
 30
0.0
 11
184.9139291746098
 21
289.1611345290269
 31
0.0
  0
LINE
  5
73
330
A
100
AcDbEntity
  8
STANDARD
  6
STANDARD
 62
     7
100
AcDbLine
 10
169.9139291746098
 20
241.9112260817613
 30
0.0
 11
169.9139291746098
 21
305.1611955641831
 31
0.0
  0
LINE
  5
74
330
A
100
AcDbEntity
  8
STANDARD
  6
STANDARD
 62
     7
100
AcDbLine
 10
247.9139406187016
 20
241.9112260817613
 30
0.0
 11
247.9139406187016
 21
305.1611955641831
 31
0.0
  0
LINE
  5
75
330
A
100
AcDbEntity
  8
STANDARD
  6
STANDARD
 62
     7
100
AcDbLine
 10
477.9139406187016
 20
241.9112260817613
 30
0.0
 11
477.9139406187016
 21
305.1611955641831
 31
0.0
  0
LINE
  5
76
330
A
100
AcDbEntity
  8
STANDARD
  6
STANDARD
 62
     7
100
AcDbLine
 10
555.9139329893071
 20
241.9112260817613
 30
0.0
 11
555.9139329893071
 21
305.1611955641831
 31
0.0
  0
LINE
  5
77
330
A
100
AcDbEntity
  8
STANDARD
  6
STANDARD
 62
     7
100
AcDbLine
 10
272.9139310819584
 20
-102.8388044358168
 30
0.0
 11
272.9139310819584
 21
-69.83885021218402
 31
0.0
  0
LINE
  5
78
330
A
100
AcDbEntity
  8
STANDARD
  6
STANDARD
 62
     7
100
AcDbLine
 10
456.9139177305181
 20
-102.8388044358168
 30
0.0
 11
456.9139177305181
 21
-69.83885021218402
 31
0.0
  0
LINE
  5
7A
330
A
100
AcDbEntity
  8
STANDARD
  6
STANDARD
 62
     7
100
AcDbLine
 10
531.20335407085
 20
246.92068653098
 30
0.0
 11
532.5568849546391
 21
245.5670793532457
 31
0.0
  0
LINE
  5
7B
330
A
100
AcDbEntity
  8
STANDARD
  6
STANDARD
 62
     7
100
AcDbLine
 10
532.8517229062993
 20
245.4733903884019
 30
0.0
 11
533.4139329893071
 21
244.9111040114488
 31
0.0
  0
LINE
  5
7C
330
A
100
AcDbEntity
  8
STANDARD
  6
STANDARD
 62
     7
100
AcDbLine
 10
223.2033617002446
 20
246.92068653098
 30
0.0
 11
224.5568925840336
 21
245.5670793532457
 31
0.0
  0
LINE
  5
7D
330
A
100
AcDbEntity
  8
STANDARD
  6
STANDARD
 62
     7
100
AcDbLine
 10
224.8517114622075
 20
245.4733903884019
 30
0.0
 11
225.4139406187016
 21
244.9111040114488
 31
0.0
  0
LINE
  5
7E
330
A
100
AcDbEntity
  8
STANDARD
  6
STANDARD
 62
     7
100
AcDbLine
 10
507.7808458311039
 20
250.5493791579332
 30
0.0
 11
508.6639101011235
 21
251.4324052809801
 31
0.0
  0
LINE
  5
7F
330
A
100
AcDbEntity
  8
STANDARD
  6
STANDARD
 62
     7
100
AcDbLine
 10
503.6795885068852
 20
247.4901445387926
 30
0.0
 11
505.246666143604
 21
249.0572221755113
 31
0.0
  0
LINE
  5
80
330
A
100
AcDbEntity
  8
STANDARD
  6
STANDARD
 62
     7
100
AcDbLine
 10
199.7808534604985
 20
250.5493791579332
 30
0.0
 11
200.6639368040043
 21
251.4324052809801
 31
0.0
  0
LINE
  5
81
330
A
100
AcDbEntity
  8
STANDARD
  6
STANDARD
 62
     7
100
AcDbLine
 10
195.6795961362797
 20
247.4901445387926
 30
0.0
 11
197.2466737729985
 21
249.0572221755113
 31
0.0
  0
LINE
  5
82
330
A
100
AcDbEntity
  8
STANDARD
  6
STANDARD
 62
     7
100
AcDbLine
 10
505.246666143604
 20
249.0572221755113
 30
0.0
 11
507.7808458311039
 21
250.5493791579332
 31
0.0
  0
LINE
  5
83
330
A
100
AcDbEntity
  8
STANDARD
  6
STANDARD
 62
     7
100
AcDbLine
 10
197.2466737729985
 20
249.0572221755113
 30
0.0
 11
199.7808534604985
 21
250.5493791579332
 31
0.0
  0
LINE
  5
84
330
A
100
AcDbEntity
  8
STANDARD
  6
STANDARD
 62
     7
100
AcDbLine
 10
508.6639101011235
 20
251.4324052809801
 30
0.0
 11
512.6434022886235
 21
253.5806901930894
 31
0.0
  0
LINE
  5
85
330
A
100
AcDbEntity
  8
STANDARD
  6
STANDARD
 62
     7
100
AcDbLine
 10
502.6245195371586
 20
246.92068653098
 30
0.0
 11
503.6795885068852
 21
247.4901445387926
 31
0.0
  0
LINE
  5
86
330
A
100
AcDbEntity
  8
STANDARD
  6
STANDARD
 62
     7
100
AcDbLine
 10
200.6639368040043
 20
251.4324052809801
 30
0.0
 11
204.6434289915043
 21
253.5806901930894
 31
0.0
  0
LINE
  5
87
330
A
100
AcDbEntity
  8
STANDARD
  6
STANDARD
 62
     7
100
AcDbLine
 10
194.6245080930668
 20
246.92068653098
 30
0.0
 11
195.6795961362797
 21
247.4901445387926
 31
0.0
  0
LINE
  5
88
330
A
100
AcDbEntity
  8
STANDARD
  6
STANDARD
 62
     7
100
AcDbLine
 10
225.8865053159672
 20
-38.83886547097307
 30
0.0
 11
227.4823076230962
 21
-47.37768383034807
 31
0.0
  0
LINE
  5
89
330
A
100
AcDbEntity
  8
STANDARD
  6
STANDARD
 62
     7
100
AcDbLine
 10
192.4139291746098
 20
-39.36742992409807
 30
0.0
 11
195.9847909910161
 21
-58.47433300026995
 31
0.0
  0
LINE
  5
8A
330
A
100
AcDbEntity
  8
STANDARD
  6
STANDARD
 62
     7
100
AcDbLine
 10
209.1008264524418
 20
-38.83886547097307
 30
0.0
 11
211.7335397703129
 21
-52.92600841530902
 31
0.0
  0
LINE
  5
8B
330
A
100
AcDbEntity
  8
STANDARD
  6
STANDARD
 62
     7
100
AcDbLine
 10
512.6434022886235
 20
253.5806901930894
 30
0.0
 11
516.913917730518
 21
254.3132646559801
 31
0.0
  0
LINE
  5
8C
330
A
100
AcDbEntity
  8
STANDARD
  6
STANDARD
 62
     7
100
AcDbLine
 10
204.6434289915043
 20
253.5806901930894
 30
0.0
 11
208.9139444333989
 21
254.3132646559801
 31
0.0
  0
LINE
  5
8D
330
A
100
AcDbEntity
  8
STANDARD
  6
STANDARD
 62
     7
100
AcDbLine
 10
456.913917730518
 20
-71.19586406304631
 30
0.0
 11
477.0137483579595
 21
-68.06951732644183
 31
0.0
  0
LINE
  5
8E
330
A
100
AcDbEntity
  8
STANDARD
  6
STANDARD
 62
     7
100
AcDbLine
 10
468.1894762021977
 20
-102.8388044358168
 30
0.0
 11
487.1461565000493
 21
-99.89034862526995
 31
0.0
  0
LINE
  5
8F
330
A
100
AcDbEntity
  8
STANDARD
  6
STANDARD
 62
     7
100
AcDbLine
 10
248.8141138059575
 20
-68.06951732644183
 30
0.0
 11
260.1894647581059
 21
-69.83885021218402
 31
0.0
  0
LINE
  5
90
330
A
100
AcDbEntity
  8
STANDARD
  6
STANDARD
 62
     7
100
AcDbLine
 10
238.681724737354
 20
-99.89034862526995
 30
0.0
 11
257.6384241086918
 21
-102.8388044358168
 31
0.0
  0
LINE
  5
91
330
A
100
AcDbEntity
  8
STANDARD
  6
STANDARD
 62
     7
100
AcDbLine
 10
516.913917730518
 20
254.3132646559801
 30
0.0
 11
521.1844331724125
 21
253.5806901930894
 31
0.0
  0
LINE
  5
92
330
A
100
AcDbEntity
  8
STANDARD
  6
STANDARD
 62
     7
100
AcDbLine
 10
208.9139444333989
 20
254.3132646559801
 30
0.0
 11
213.1844598752934
 21
253.5806901930894
 31
0.0
  0
LINE
  5
93
330
A
100
AcDbEntity
  8
STANDARD
  6
STANDARD
 62
     7
100
AcDbLine
 10
498.3455736143071
 20
-47.37768383034807
 30
0.0
 11
499.941375921436
 21
-38.83886547097307
 31
0.0
  0
LINE
  5
94
330
A
100
AcDbEntity
  8
STANDARD
  6
STANDARD
 62
     7
100
AcDbLine
 10
529.8430711729008
 20
-58.47433300026995
 30
0.0
 11
533.4139329893071
 21
-39.36742992409807
 31
0.0
  0
LINE
  5
95
330
A
100
AcDbEntity
  8
STANDARD
  6
STANDARD
 62
     7
100
AcDbLine
 10
514.094322393604
 20
-52.92600841530902
 30
0.0
 11
516.7270357114751
 21
-38.83886547097307
 31
0.0
  0
LINE
  5
96
330
A
100
AcDbEntity
  8
STANDARD
  6
STANDARD
 62
     7
100
AcDbLine
 10
521.1844331724125
 20
253.5806901930894
 30
0.0
 11
525.1639253599125
 21
251.4324052809801
 31
0.0
  0
LINE
  5
97
330
A
100
AcDbEntity
  8
STANDARD
  6
STANDARD
 62
     7
100
AcDbLine
 10
530.1482851011235
 20
247.4901445387926
 30
0.0
 11
531.20335407085
 21
246.92068653098
 31
0.0
  0
LINE
  5
98
330
A
100
AcDbEntity
  8
STANDARD
  6
STANDARD
 62
     7
100
AcDbLine
 10
213.1844598752934
 20
253.5806901930894
 30
0.0
 11
217.1639329893071
 21
251.4324052809801
 31
0.0
  0
LINE
  5
99
330
A
100
AcDbEntity
  8
STANDARD
  6
STANDARD
 62
     7
100
AcDbLine
 10
222.148292730518
 20
247.4901445387926
 30
0.0
 11
223.2033617002446
 21
246.92068653098
 31
0.0
  0
LINE
  5
9A
330
A
100
AcDbEntity
  8
STANDARD
  6
STANDARD
 62
     7
100
AcDbLine
 10
526.0469896299321
 20
250.5493791579332
 30
0.0
 11
528.5812074644048
 21
249.0572221755113
 31
0.0
  0
LINE
  5
9B
330
A
100
AcDbEntity
  8
STANDARD
  6
STANDARD
 62
     7
100
AcDbLine
 10
218.0470163328129
 20
250.5493791579332
 30
0.0
 11
220.5811960203129
 21
249.0572221755113
 31
0.0
  0
LINE
  5
9C
330
A
100
AcDbEntity
  8
STANDARD
  6
STANDARD
 62
     7
100
AcDbLine
 10
501.2709505063969
 20
245.5670793532457
 30
0.0
 11
502.6245195371586
 21
246.92068653098
 31
0.0
  0
LINE
  5
9D
330
A
100
AcDbEntity
  8
STANDARD
  6
STANDARD
 62
     7
100
AcDbLine
 10
500.4139406187016
 20
244.9111040114488
 30
0.0
 11
500.9761507017095
 21
245.4733903884019
 31
0.0
  0
LINE
  5
9E
330
A
100
AcDbEntity
  8
STANDARD
  6
STANDARD
 62
     7
100
AcDbLine
 10
193.2709772092778
 20
245.5670793532457
 30
0.0
 11
194.6245080930668
 21
246.92068653098
 31
0.0
  0
LINE
  5
9F
330
A
100
AcDbEntity
  8
STANDARD
  6
STANDARD
 62
     7
100
AcDbLine
 10
192.4139291746098
 20
244.9111040114488
 30
0.0
 11
192.9761583311039
 21
245.4733903884019
 31
0.0
  0
LINE
  5
A0
330
A
100
AcDbEntity
  8
STANDARD
  6
STANDARD
 62
     7
100
AcDbLine
 10
525.1639253599125
 20
251.4324052809801
 30
0.0
 11
526.0469896299321
 21
250.5493791579332
 31
0.0
  0
LINE
  5
A1
330
A
100
AcDbEntity
  8
STANDARD
  6
STANDARD
 62
     7
100
AcDbLine
 10
528.5812074644048
 20
249.0572221755113
 30
0.0
 11
530.1482851011235
 21
247.4901445387926
 31
0.0
  0
LINE
  5
A2
330
A
100
AcDbEntity
  8
STANDARD
  6
STANDARD
 62
     7
100
AcDbLine
 10
217.1639329893071
 20
251.4324052809801
 30
0.0
 11
218.0470163328129
 21
250.5493791579332
 31
0.0
  0
LINE
  5
A3
330
A
100
AcDbEntity
  8
STANDARD
  6
STANDARD
 62
     7
100
AcDbLine
 10
220.5811960203129
 20
249.0572221755113
 30
0.0
 11
222.148292730518
 21
247.4901445387926
 31
0.0
  0
ARC
  5
A4
330
A
100
AcDbEntity
  8
STANDARD
  6
STANDARD
 62
     7
100
AcDbCircle
 10
466.8971161968835
 20
-36.29825835774613
 30
0.0
 40
33.34305239084216
100
AcDbArc
 50
287.6625612451399
 51
340.5924220963977
  0
ARC
  5
A5
330
A
100
AcDbEntity
  8
STANDARD
  6
STANDARD
 62
     7
100
AcDbCircle
 10
466.8969311542404
 20
-36.29814055185391
 30
0.0
 40
66.73829526409841
100
AcDbArc
 50
287.6626746644183
 51
340.5924226945249
  0
ARC
  5
A6
330
A
100
AcDbEntity
  8
STANDARD
  6
STANDARD
 62
     7
100
AcDbCircle
 10
466.8970349791838
 20
-36.29820798838483
 30
0.0
 40
50.04066033054527
100
AcDbArc
 50
270.0193304886462
 51
340.5924274102843
  0
ARC
  5
A7
330
A
100
AcDbEntity
  8
STANDARD
  6
STANDARD
 62
     7
100
AcDbCircle
 10
258.930716269874
 20
-36.2983179622073
 30
0.0
 40
33.34298658571032
100
AcDbArc
 50
199.4075091481881
 51
252.3374563039687
  0
ARC
  5
A8
330
A
100
AcDbEntity
  8
STANDARD
  6
STANDARD
 62
     7
100
AcDbCircle
 10
258.930897219647
 20
-36.29816606149052
 30
0.0
 40
66.73825491757111
100
AcDbArc
 50
199.4075662888439
 51
252.3373619354027
  0
ARC
  5
A9
330
A
100
AcDbEntity
  8
STANDARD
  6
STANDARD
 62
     7
100
AcDbCircle
 10
258.9308271847331
 20
-36.29820798838483
 30
0.0
 40
50.04066033054527
100
AcDbArc
 50
199.4075725897156
 51
269.9806695113536
  0
LINE
  5
AA
330
A
100
AcDbEntity
  8
STANDARD
  6
STANDARD
 62
     7
100
AcDbLine
 10
-114.0860717790644
 20
750.5340776999465
 30
0.0
 11
-59.08607177906446
 21
750.5340776999465
 31
0.0
  0
LINE
  5
AB
330
A
100
AcDbEntity
  8
STANDARD
  6
STANDARD
 62
     7
100
AcDbLine
 10
-177.0860641496699
 20
750.5340776999465
 30
0.0
 11
-122.0860641496699
 21
750.5340776999465
 31
0.0
  0
LINE
  5
AC
330
A
100
AcDbEntity
  8
STANDARD
  6
STANDARD
 62
     7
100
AcDbLine
 10
-240.0860565202754
 20
750.5340776999465
 30
0.0
 11
-185.0860565202754
 21
750.5340776999465
 31
0.0
  0
LINE
  5
AD
330
A
100
AcDbEntity
  8
STANDARD
  6
STANDARD
 62
     7
100
AcDbLine
 10
-303.0860679643672
 20
750.5340776999465
 30
0.0
 11
-248.0860679643672
 21
750.5340776999465
 31
0.0
  0
LINE
  5
AE
330
A
100
AcDbEntity
  8
STANDARD
  6
STANDARD
 62
     7
100
AcDbLine
 10
-114.0860717790644
 20
713.5341082175245
 30
0.0
 11
-59.08607177906446
 21
713.5341082175245
 31
0.0
  0
LINE
  5
AF
330
A
100
AcDbEntity
  8
STANDARD
  6
STANDARD
 62
     7
100
AcDbLine
 10
-177.0860641496699
 20
713.5341082175245
 30
0.0
 11
-122.0860641496699
 21
713.5341082175245
 31
0.0
  0
LINE
  5
B0
330
A
100
AcDbEntity
  8
STANDARD
  6
STANDARD
 62
     7
100
AcDbLine
 10
-240.0860565202754
 20
713.5341082175245
 30
0.0
 11
-185.0860565202754
 21
713.5341082175245
 31
0.0
  0
LINE
  5
B1
330
A
100
AcDbEntity
  8
STANDARD
  6
STANDARD
 62
     7
100
AcDbLine
 10
-303.0860679643672
 20
713.5341082175245
 30
0.0
 11
-248.0860679643672
 21
713.5341082175245
 31
0.0
  0
LINE
  5
B2
330
A
100
AcDbEntity
  8
STANDARD
  6
STANDARD
 62
     7
100
AcDbLine
 10
-25.53619079761915
 20
715.5340776999464
 30
0.0
 11
7.18021697825975
 21
715.5340776999464
 31
0.0
  0
LINE
  5
B3
330
A
100
AcDbEntity
  8
STANDARD
  6
STANDARD
 62
     7
100
AcDbLine
 10
-59.08607177906446
 20
715.5340776999464
 30
0.0
 11
-58.58607940845899
 21
715.5340776999464
 31
0.0
  0
LINE
  5
B4
330
A
100
AcDbEntity
  8
STANDARD
  6
STANDARD
 62
     7
100
AcDbLine
 10
-122.0860641496699
 20
715.5340776999464
 30
0.0
 11
-114.0860717790644
 21
715.5340776999464
 31
0.0
  0
LINE
  5
B5
330
A
100
AcDbEntity
  8
STANDARD
  6
STANDARD
 62
     7
100
AcDbLine
 10
-185.0860565202754
 20
715.5340776999464
 30
0.0
 11
-177.0860641496699
 21
715.5340776999464
 31
0.0
  0
LINE
  5
B6
330
A
100
AcDbEntity
  8
STANDARD
  6
STANDARD
 62
     7
100
AcDbLine
 10
-248.0860679643672
 20
715.5340776999464
 30
0.0
 11
-240.0860565202754
 21
715.5340776999464
 31
0.0
  0
LINE
  5
B7
330
A
100
AcDbEntity
  8
STANDARD
  6
STANDARD
 62
     7
100
AcDbLine
 10
-329.7874327512038
 20
715.5340776999464
 30
0.0
 11
-303.0860679643672
 21
715.5340776999464
 31
0.0
  0
LINE
  5
B8
330
A
100
AcDbEntity
  8
STANDARD
  6
STANDARD
 62
     7
100
AcDbLine
 10
-59.08607177906446
 20
748.5341082175246
 30
0.0
 11
7.18021697825975
 21
748.5341082175246
 31
0.0
  0
LINE
  5
B9
330
A
100
AcDbEntity
  8
STANDARD
  6
STANDARD
 62
     7
100
AcDbLine
 10
-122.0860641496699
 20
748.5341082175246
 30
0.0
 11
-114.0860717790644
 21
748.5341082175246
 31
0.0
  0
LINE
  5
BA
330
A
100
AcDbEntity
  8
STANDARD
  6
STANDARD
 62
     7
100
AcDbLine
 10
-185.0860565202754
 20
748.5341082175246
 30
0.0
 11
-177.0860641496699
 21
748.5341082175246
 31
0.0
  0
LINE
  5
BB
330
A
100
AcDbEntity
  8
STANDARD
  6
STANDARD
 62
     7
100
AcDbLine
 10
-248.0860679643672
 20
748.5341082175246
 30
0.0
 11
-240.0860565202754
 21
748.5341082175246
 31
0.0
  0
LINE
  5
BC
330
A
100
AcDbEntity
  8
STANDARD
  6
STANDARD
 62
     7
100
AcDbLine
 10
-329.7874327512038
 20
748.5341082175246
 30
0.0
 11
-303.0860679643672
 21
748.5341082175246
 31
0.0
  0
LINE
  5
BD
330
A
100
AcDbEntity
  8
STANDARD
  6
STANDARD
 62
     7
100
AcDbLine
 10
-58.40079956226759
 20
712.5341234763136
 30
0.0
 11
-25.23612671070509
 21
712.5341234763136
 31
0.0
  0
LINE
  5
BE
330
A
100
AcDbEntity
  8
STANDARD
  6
STANDARD
 62
     7
100
AcDbLine
 10
21.91395110911912
 20
709.7841082175246
 30
0.0
 11
46.91395110911912
 21
709.7841082175246
 31
0.0
  0
LINE
  5
BF
330
A
100
AcDbEntity
  8
STANDARD
  6
STANDARD
 62
     7
100
AcDbLine
 10
21.91395110911912
 20
754.2840776999464
 30
0.0
 11
46.91395110911912
 21
754.2840776999464
 31
0.0
  0
LINE
  5
C0
330
A
100
AcDbEntity
  8
STANDARD
  6
STANDARD
 62
     7
100
AcDbLine
 10
56.91395110911912
 20
791.5340624411574
 30
0.0
 11
62.91393585033006
 21
791.5340624411574
 31
0.0
  0
LINE
  5
C1
330
A
100
AcDbEntity
  8
STANDARD
  6
STANDARD
 62
     7
100
AcDbLine
 10
43.15552062816209
 20
642.5341234763136
 30
0.0
 11
44.91394347972459
 21
642.5341234763136
 31
0.0
  0
LINE
  5
C2
330
A
100
AcDbEntity
  8
STANDARD
  6
STANDARD
 62
     7
100
AcDbLine
 10
40.50220794505662
 20
609.5340929587355
 30
0.0
 11
44.91394347972459
 21
609.5340929587355
 31
0.0
  0
LINE
  5
C3
330
A
100
AcDbEntity
  8
STANDARD
  6
STANDARD
 62
     7
100
AcDbLine
 10
56.91395110911912
 20
532.5341234763136
 30
0.0
 11
62.91393585033006
 21
532.5341234763136
 31
0.0
  0
LINE
  5
C8
330
A
100
AcDbEntity
  8
STANDARD
  6
STANDARD
 62
     7
100
AcDbLine
 10
46.91395110911912
 20
542.5341234763136
 30
0.0
 11
46.91395110911912
 21
781.5340624411573
 31
0.0
  0
LINE
  5
C9
330
A
100
AcDbEntity
  8
STANDARD
  6
STANDARD
 62
     7
100
AcDbLine
 10
-122.0860641496699
 20
713.5341082175245
 30
0.0
 11
-122.0860641496699
 21
750.5340776999465
 31
0.0
  0
LINE
  5
CA
330
A
100
AcDbEntity
  8
STANDARD
  6
STANDARD
 62
     7
100
AcDbLine
 10
-59.08607177906446
 20
713.5341082175245
 30
0.0
 11
-59.08607177906446
 21
750.5340776999465
 31
0.0
  0
LINE
  5
CB
330
A
100
AcDbEntity
  8
STANDARD
  6
STANDARD
 62
     7
100
AcDbLine
 10
-114.0860717790644
 20
713.5341082175245
 30
0.0
 11
-114.0860717790644
 21
750.5340776999465
 31
0.0
  0
LINE
  5
CC
330
A
100
AcDbEntity
  8
STANDARD
  6
STANDARD
 62
     7
100
AcDbLine
 10
-12.5860565202754
 20
715.5340776999464
 30
0.0
 11
-12.5860565202754
 21
748.5341082175246
 31
0.0
  0
LINE
  5
CD
330
A
100
AcDbEntity
  8
STANDARD
  6
STANDARD
 62
     7
100
AcDbLine
 10
-58.58607940845899
 20
714.3861589987746
 30
0.0
 11
-58.58607940845899
 21
715.5340776999464
 31
0.0
  0
LINE
  5
CE
330
A
100
AcDbEntity
  8
STANDARD
  6
STANDARD
 62
     7
100
AcDbLine
 10
44.91394347972459
 20
609.5340929587355
 30
0.0
 11
44.91394347972459
 21
642.5341234763136
 31
0.0
  0
LINE
  5
D0
330
A
100
AcDbEntity
  8
STANDARD
  6
STANDARD
 62
     7
100
AcDbLine
 10
-248.0860679643672
 20
713.5341082175245
 30
0.0
 11
-248.0860679643672
 21
750.5340776999465
 31
0.0
  0
LINE
  5
D1
330
A
100
AcDbEntity
  8
STANDARD
  6
STANDARD
 62
     7
100
AcDbLine
 10
-303.0860679643672
 20
713.5341082175245
 30
0.0
 11
-303.0860679643672
 21
750.5340776999465
 31
0.0
  0
LINE
  5
D2
330
A
100
AcDbEntity
  8
STANDARD
  6
STANDARD
 62
     7
100
AcDbLine
 10
-185.0860565202754
 20
713.5341082175245
 30
0.0
 11
-185.0860565202754
 21
750.5340776999465
 31
0.0
  0
LINE
  5
D3
330
A
100
AcDbEntity
  8
STANDARD
  6
STANDARD
 62
     7
100
AcDbLine
 10
-240.0860565202754
 20
713.5341082175245
 30
0.0
 11
-240.0860565202754
 21
750.5340776999465
 31
0.0
  0
LINE
  5
D4
330
A
100
AcDbEntity
  8
STANDARD
  6
STANDARD
 62
     7
100
AcDbLine
 10
-177.0860641496699
 20
713.5341082175245
 30
0.0
 11
-177.0860641496699
 21
750.5340776999465
 31
0.0
  0
LINE
  5
D5
330
A
100
AcDbEntity
  8
STANDARD
  6
STANDARD
 62
     7
100
AcDbLine
 10
-27.7966278093379
 20
717.7446947653761
 30
0.0
 11
-26.14829712086134
 21
716.0962877829542
 31
0.0
  0
LINE
  5
D6
330
A
100
AcDbEntity
  8
STANDARD
  6
STANDARD
 62
     7
100
AcDbLine
 10
-32.42934875660353
 20
722.3774157126418
 30
0.0
 11
-30.41881256275587
 21
720.3668413718214
 31
0.0
  0
LINE
  5
D7
330
A
100
AcDbEntity
  8
STANDARD
  6
STANDARD
 62
     7
100
AcDbLine
 10
-37.8155487077754
 20
727.7636156638136
 30
0.0
 11
-35.43048553638868
 21
725.3785143454543
 31
0.0
  0
LINE
  5
D8
330
A
100
AcDbEntity
  8
STANDARD
  6
STANDARD
 62
     7
100
AcDbLine
 10
-50.33607177906446
 20
723.7841234763136
 30
0.0
 11
-47.63850860767774
 21
726.4816485007277
 31
0.0
  0
LINE
  5
D9
330
A
100
AcDbEntity
  8
STANDARD
  6
STANDARD
 62
     7
100
AcDbLine
 10
-56.37550049000196
 20
717.7446947653761
 30
0.0
 11
-51.82288818531446
 21
722.2972307761183
 31
0.0
  0
LINE
  5
DA
330
A
100
AcDbEntity
  8
STANDARD
  6
STANDARD
 62
     7
100
AcDbLine
 10
-58.54827575855665
 20
715.5718432028761
 30
0.0
 11
-58.02383117847853
 21
716.0962877829542
 31
0.0
  0
LINE
  5
DB
330
A
100
AcDbEntity
  8
STANDARD
  6
STANDARD
 62
     7
100
AcDbLine
 10
-25.53619079761915
 20
715.5340776999464
 30
0.0
 11
-23.63410644703321
 21
696.5189562399855
 31
0.0
  0
LINE
  5
DC
330
A
100
AcDbEntity
  8
STANDARD
  6
STANDARD
 62
     7
100
AcDbLine
 10
-58.58607940845899
 20
714.3861589987746
 30
0.0
 11
-56.03728943043165
 21
688.9059649069777
 31
0.0
  0
LINE
  5
DD
330
A
100
AcDbEntity
  8
STANDARD
  6
STANDARD
 62
     7
100
AcDbLine
 10
24.29348296947068
 20
645.586949404048
 30
0.0
 11
43.15552062816209
 21
642.5341234763136
 31
0.0
  0
LINE
  5
DE
330
A
100
AcDbEntity
  8
STANDARD
  6
STANDARD
 62
     7
100
AcDbLine
 10
14.72679443187303
 20
613.7059221823683
 30
0.0
 11
40.50220794505662
 21
609.5340929587355
 31
0.0
  0
LINE
  5
DF
330
A
100
AcDbEntity
  8
STANDARD
  6
STANDARD
 62
     7
100
AcDbLine
 10
-26.06082611256056
 20
716.0088549216261
 30
0.0
 11
-25.53619079761915
 21
715.5340776999464
 31
0.0
  0
LINE
  5
E0
330
A
100
AcDbEntity
  8
STANDARD
  6
STANDARD
 62
     7
100
AcDbLine
 10
-48.77399139576368
 20
725.3461657126417
 30
0.0
 11
-46.35657959156446
 21
727.7636156638136
 31
0.0
  0
LINE
  5
E1
330
A
100
AcDbEntity
  8
STANDARD
  6
STANDARD
 62
     7
100
AcDbLine
 10
-52.35130005054884
 20
721.7688189108839
 30
0.0
 11
-50.33607177906446
 21
723.7841234763136
 31
0.0
  0
LINE
  5
E2
330
A
100
AcDbEntity
  8
STANDARD
  6
STANDARD
 62
     7
100
AcDbLine
 10
-55.8044403093379
 20
718.3156786520949
 30
0.0
 11
-53.75331573658399
 21
720.3668413718214
 31
0.0
  0
LINE
  5
E3
330
A
100
AcDbEntity
  8
STANDARD
  6
STANDARD
 62
     7
100
AcDbLine
 10
-58.02383117847853
 20
716.0962877829542
 30
0.0
 11
-56.37550049000196
 21
717.7446947653761
 31
0.0
  0
LINE
  5
E4
330
A
100
AcDbEntity
  8
STANDARD
  6
STANDARD
 62
     7
100
AcDbLine
 10
-58.58607940845899
 20
715.5340776999464
 30
0.0
 11
-58.07586364918165
 21
716.0443316061964
 31
0.0
  0
LINE
  5
E5
330
A
100
AcDbEntity
  8
STANDARD
  6
STANDARD
 62
     7
100
AcDbLine
 10
-30.41881256275587
 20
720.3668413718214
 30
0.0
 11
-27.7966278093379
 21
717.7446947653761
 31
0.0
  0
LINE
  5
E6
330
A
100
AcDbEntity
  8
STANDARD
  6
STANDARD
 62
     7
100
AcDbLine
 10
-37.8155487077754
 20
727.7636156638136
 30
0.0
 11
-31.63787536793165
 21
721.5859423239699
 31
0.0
  0
ARC
  5
E7
330
A
100
AcDbEntity
  8
STANDARD
  6
STANDARD
 62
     7
100
AcDbCircle
 10
21.91391296217898
 20
732.0340929587355
 30
0.0
 40
22.24998474124364
100
AcDbArc
 50
89.99990176808267
 51
270.0000982319173
  0
ARC
  5
E8
330
A
100
AcDbEntity
  8
STANDARD
  6
STANDARD
 62
     7
100
AcDbCircle
 10
-328.5860488908698
 20
732.0340929587355
 30
0.0
 40
16.50001525880008
100
AcDbArc
 50
90.00006623211445
 51
269.9999337678856
  0
ARC
  5
E9
330
A
100
AcDbEntity
  8
STANDARD
  6
STANDARD
 62
     7
100
AcDbCircle
 10
44.371361623967
 20
712.4966611947287
 30
0.0
 40
69.85721682959198
100
AcDbArc
 50
193.221692766353
 51
253.2968552001292
  0
ARC
  5
EA
330
A
100
AcDbEntity
  8
STANDARD
  6
STANDARD
 62
     7
100
AcDbCircle
 10
44.37148816894387
 20
712.4968240486332
 30
0.0
 40
86.50009400047983
100
AcDbArc
 50
178.2029735512271
 51
268.3155660177593
  0
ARC
  5
EB
330
A
100
AcDbEntity
  8
STANDARD
  6
STANDARD
 62
     7
100
AcDbCircle
 10
44.37151490110181
 20
712.4968564893124
 30
0.0
 40
103.1429016119755
100
AcDbArc
 50
193.2217514022303
 51
253.2967970594085
  0
ARC
  5
EC
330
A
100
AcDbEntity
  8
STANDARD
  6
STANDARD
 62
     7
100
AcDbCircle
 10
56.91389877878646
 20
542.5340711459809
 30
0.0
 40
9.999947669804287
100
AcDbArc
 50
179.9997001677108
 51
270.000299832289
  0
ARC
  5
ED
330
A
100
AcDbEntity
  8
STANDARD
  6
STANDARD
 62
     7
100
AcDbCircle
 10
56.91392506698775
 20
781.5340884832887
 30
0.0
 40
9.999973957902541
100
AcDbArc
 50
89.99985078918973
 51
180.0001492108101
  0
LINE
  5
134
330
A
100
AcDbEntity
  8
STANDARD
  6
STANDARD
 62
     7
100
AcDbLine
 10
516.9139307353847
 20
748.5341082175246
 30
0.0
 11
517.6361006114833
 21
748.4390459616652
 31
0.0
  0
LINE
  5
135
330
A
100
AcDbEntity
  8
STANDARD
  6
STANDARD
 62
     7
100
AcDbLine
 10
208.9139348966635
 20
748.5341082175246
 30
0.0
 11
516.9139307339066
 21
748.5341082175246
 31
0.0
  0
LINE
  5
136
330
A
100
AcDbEntity
  8
STANDARD
  6
STANDARD
 62
     7
100
AcDbLine
 10
208.1917554838209
 20
748.4390459616652
 30
0.0
 11
208.9139348966627
 21
748.5341082175246
 31
0.0
  0
LINE
  5
137
330
A
100
AcDbEntity
  8
STANDARD
  6
STANDARD
 62
     7
100
AcDbLine
 10
213.100817869373
 20
715.5340776999464
 30
0.0
 11
512.7270442945439
 21
715.5340776999464
 31
0.0
  0
LINE
  5
138
330
A
100
AcDbEntity
  8
STANDARD
  6
STANDARD
 62
     7
100
AcDbLine
 10
208.9139318320025
 20
750.5340776999465
 30
0.0
 11
516.9139307353847
 21
750.5340776999465
 31
0.0
  0
LINE
  5
13A
330
A
100
AcDbEntity
  8
STANDARD
  6
STANDARD
 62
     7
100
AcDbLine
 10
492.9139297817104
 20
751.2841234763136
 30
0.0
 11
540.9139269206874
 21
751.2841234763136
 31
0.0
  0
LINE
  5
13B
330
A
100
AcDbEntity
  8
STANDARD
  6
STANDARD
 62
     7
100
AcDbLine
 10
184.91393871136
 20
751.2841234763136
 30
0.0
 11
232.9139310819654
 21
751.2841234763136
 31
0.0
  0
LINE
  5
13C
330
A
100
AcDbEntity
  8
STANDARD
  6
STANDARD
 62
     7
100
AcDbLine
 10
540.9139269206874
 20
754.2840776999464
 30
0.0
 11
555.9139269206874
 21
754.2840776999464
 31
0.0
  0
LINE
  5
13D
330
A
100
AcDbEntity
  8
STANDARD
  6
STANDARD
 62
     7
100
AcDbLine
 10
477.9139297817104
 20
754.2840776999464
 30
0.0
 11
492.9139297817104
 21
754.2840776999464
 31
0.0
  0
LINE
  5
13E
330
A
100
AcDbEntity
  8
STANDARD
  6
STANDARD
 62
     7
100
AcDbLine
 10
232.9139310819654
 20
754.2840776999464
 30
0.0
 11
247.9139310819654
 21
754.2840776999464
 31
0.0
  0
LINE
  5
13F
330
A
100
AcDbEntity
  8
STANDARD
  6
STANDARD
 62
     7
100
AcDbLine
 10
169.91393871136
 20
754.2840776999464
 30
0.0
 11
184.91393871136
 21
754.2840776999464
 31
0.0
  0
LINE
  5
140
330
A
100
AcDbEntity
  8
STANDARD
  6
STANDARD
 62
     7
100
AcDbLine
 10
477.9139297817104
 20
791.5340624411574
 30
0.0
 11
555.9139269206874
 21
791.5340624411574
 31
0.0
  0
LINE
  5
141
330
A
100
AcDbEntity
  8
STANDARD
  6
STANDARD
 62
     7
100
AcDbLine
 10
169.91393871136
 20
791.5340624411574
 30
0.0
 11
247.9139310819654
 21
791.5340624411574
 31
0.0
  0
LINE
  5
142
330
A
100
AcDbEntity
  8
STANDARD
  6
STANDARD
 62
     7
100
AcDbLine
 10
520.5200785014979
 20
716.0088549216261
 30
0.0
 11
521.1844366405361
 21
716.0962877829542
 31
0.0
  0
LINE
  5
143
330
A
100
AcDbEntity
  8
STANDARD
  6
STANDARD
 62
     7
100
AcDbLine
 10
204.6434194547682
 20
716.0962877829542
 30
0.0
 11
205.3077871305494
 21
716.0088549216261
 31
0.0
  0
LINE
  5
144
330
A
100
AcDbEntity
  8
STANDARD
  6
STANDARD
 62
     7
100
AcDbLine
 10
500.413934550082
 20
712.5341234763136
 30
0.0
 11
533.4139269206874
 21
712.5341234763136
 31
0.0
  0
LINE
  5
145
330
A
100
AcDbEntity
  8
STANDARD
  6
STANDARD
 62
     7
100
AcDbLine
 10
192.41393871136
 20
712.5341234763136
 30
0.0
 11
225.4139310819655
 21
712.5341234763136
 31
0.0
  0
LINE
  5
146
330
A
100
AcDbEntity
  8
STANDARD
  6
STANDARD
 62
     7
100
AcDbLine
 10
533.4139269206874
 20
712.7840624411573
 30
0.0
 11
540.9139269206874
 21
712.7840624411573
 31
0.0
  0
LINE
  5
147
330
A
100
AcDbEntity
  8
STANDARD
  6
STANDARD
 62
     7
100
AcDbLine
 10
492.9139297817104
 20
712.7840624411573
 30
0.0
 11
500.413934550082
 21
712.7840624411573
 31
0.0
  0
LINE
  5
148
330
A
100
AcDbEntity
  8
STANDARD
  6
STANDARD
 62
     7
100
AcDbLine
 10
225.4139310819655
 20
712.7840624411573
 30
0.0
 11
232.9139310819654
 21
712.7840624411573
 31
0.0
  0
LINE
  5
149
330
A
100
AcDbEntity
  8
STANDARD
  6
STANDARD
 62
     7
100
AcDbLine
 10
184.91393871136
 20
712.7840624411573
 30
0.0
 11
192.41393871136
 21
712.7840624411573
 31
0.0
  0
LINE
  5
14A
330
A
100
AcDbEntity
  8
STANDARD
  6
STANDARD
 62
     7
100
AcDbLine
 10
540.9139269206874
 20
709.7841082175246
 30
0.0
 11
555.9139269206874
 21
709.7841082175246
 31
0.0
  0
LINE
  5
14B
330
A
100
AcDbEntity
  8
STANDARD
  6
STANDARD
 62
     7
100
AcDbLine
 10
477.9139297817104
 20
709.7841082175246
 30
0.0
 11
492.9139297817104
 21
709.7841082175246
 31
0.0
  0
LINE
  5
14C
330
A
100
AcDbEntity
  8
STANDARD
  6
STANDARD
 62
     7
100
AcDbLine
 10
232.9139310819654
 20
709.7841082175246
 30
0.0
 11
247.9139310819654
 21
709.7841082175246
 31
0.0
  0
LINE
  5
14D
330
A
100
AcDbEntity
  8
STANDARD
  6
STANDARD
 62
     7
100
AcDbLine
 10
169.91393871136
 20
709.7841082175246
 30
0.0
 11
184.91393871136
 21
709.7841082175246
 31
0.0
  0
LINE
  5
14E
330
A
100
AcDbEntity
  8
STANDARD
  6
STANDARD
 62
     7
100
AcDbLine
 10
477.9139297817104
 20
532.5341234763136
 30
0.0
 11
555.9139269206874
 21
532.5341234763136
 31
0.0
  0
LINE
  5
14F
330
A
100
AcDbEntity
  8
STANDARD
  6
STANDARD
 62
     7
100
AcDbLine
 10
169.91393871136
 20
532.5341234763136
 30
0.0
 11
247.9139310819654
 21
532.5341234763136
 31
0.0
  0
LINE
  5
153
330
A
100
AcDbEntity
  8
STANDARD
  6
STANDARD
 62
     7
100
AcDbLine
 10
477.9139297817104
 20
750.5340776999465
 30
0.0
 11
477.9139297817104
 21
791.5340624411574
 31
0.0
  0
LINE
  5
154
330
A
100
AcDbEntity
  8
STANDARD
  6
STANDARD
 62
     7
100
AcDbLine
 10
477.9139297817104
 20
532.5341234763136
 30
0.0
 11
477.9139297817104
 21
715.5340776999464
 31
0.0
  0
LINE
  5
155
330
A
100
AcDbEntity
  8
STANDARD
  6
STANDARD
 62
     7
100
AcDbLine
 10
555.9139269206874
 20
532.5341234763136
 30
0.0
 11
555.9139269206874
 21
791.5340624411574
 31
0.0
  0
LINE
  5
156
330
A
100
AcDbEntity
  8
STANDARD
  6
STANDARD
 62
     7
100
AcDbLine
 10
452.91393585033
 20
715.5340776999464
 30
0.0
 11
452.91393585033
 21
748.5341082175246
 31
0.0
  0
LINE
  5
157
330
A
100
AcDbEntity
  8
STANDARD
  6
STANDARD
 62
     7
100
AcDbLine
 10
540.9139269206874
 20
709.7841082175246
 30
0.0
 11
540.9139269206874
 21
754.2840776999464
 31
0.0
  0
LINE
  5
158
330
A
100
AcDbEntity
  8
STANDARD
  6
STANDARD
 62
     7
100
AcDbLine
 10
492.9139297817104
 20
750.5340776999465
 30
0.0
 11
492.9139297817104
 21
754.2840776999464
 31
0.0
  0
LINE
  5
159
330
A
100
AcDbEntity
  8
STANDARD
  6
STANDARD
 62
     7
100
AcDbLine
 10
492.9139297817104
 20
709.7841082175246
 30
0.0
 11
492.9139297817104
 21
715.5340776999464
 31
0.0
  0
LINE
  5
15A
330
A
100
AcDbEntity
  8
STANDARD
  6
STANDARD
 62
     7
100
AcDbLine
 10
500.413934550082
 20
625.4092608054151
 30
0.0
 11
500.413934550082
 21
715.5340776999464
 31
0.0
  0
LINE
  5
15B
330
A
100
AcDbEntity
  8
STANDARD
  6
STANDARD
 62
     7
100
AcDbLine
 10
533.4139269206874
 20
626.0341082175245
 30
0.0
 11
533.4139269206874
 21
723.9393816550245
 31
0.0
  0
LINE
  5
15C
330
A
100
AcDbEntity
  8
STANDARD
  6
STANDARD
 62
     7
100
AcDbLine
 10
532.8517073009364
 20
621.7635546286573
 30
0.0
 11
532.9416578624599
 21
622.4468432028761
 31
0.0
  0
LINE
  5
15E
330
A
100
AcDbEntity
  8
STANDARD
  6
STANDARD
 62
     7
100
AcDbLine
 10
169.91393871136
 20
532.5341234763136
 30
0.0
 11
169.91393871136
 21
791.5340624411574
 31
0.0
  0
LINE
  5
15F
330
A
100
AcDbEntity
  8
STANDARD
  6
STANDARD
 62
     7
100
AcDbLine
 10
247.9139310819654
 20
750.5340776999465
 30
0.0
 11
247.9139310819654
 21
791.5340624411574
 31
0.0
  0
LINE
  5
160
330
A
100
AcDbEntity
  8
STANDARD
  6
STANDARD
 62
     7
100
AcDbLine
 10
247.9139310819654
 20
532.5341234763136
 30
0.0
 11
247.9139310819654
 21
715.5340776999464
 31
0.0
  0
LINE
  5
161
330
A
100
AcDbEntity
  8
STANDARD
  6
STANDARD
 62
     7
100
AcDbLine
 10
268.9139348966627
 20
715.5340776999464
 30
0.0
 11
268.9139348966627
 21
748.5341082175246
 31
0.0
  0
LINE
  5
162
330
A
100
AcDbEntity
  8
STANDARD
  6
STANDARD
 62
     7
100
AcDbLine
 10
184.91393871136
 20
709.7841082175246
 30
0.0
 11
184.91393871136
 21
754.2840776999464
 31
0.0
  0
LINE
  5
163
330
A
100
AcDbEntity
  8
STANDARD
  6
STANDARD
 62
     7
100
AcDbLine
 10
232.9139310819654
 20
750.5340776999465
 30
0.0
 11
232.9139310819654
 21
754.2840776999464
 31
0.0
  0
LINE
  5
164
330
A
100
AcDbEntity
  8
STANDARD
  6
STANDARD
 62
     7
100
AcDbLine
 10
232.9139310819654
 20
709.7841082175246
 30
0.0
 11
232.9139310819654
 21
715.5340776999464
 31
0.0
  0
LINE
  5
165
330
A
100
AcDbEntity
  8
STANDARD
  6
STANDARD
 62
     7
100
AcDbLine
 10
225.3316671354323
 20
625.4092608054151
 30
0.0
 11
225.4139310819655
 21
715.5340776999464
 31
0.0
  0
LINE
  5
166
330
A
100
AcDbEntity
  8
STANDARD
  6
STANDARD
 62
     7
100
AcDbLine
 10
192.41393871136
 20
626.0341082175245
 30
0.0
 11
192.41393871136
 21
723.9393816550245
 31
0.0
  0
LINE
  5
167
330
A
100
AcDbEntity
  8
STANDARD
  6
STANDARD
 62
     7
100
AcDbLine
 10
192.8861982328444
 20
621.7635546286573
 30
0.0
 11
192.9761487943678
 21
622.4468432028761
 31
0.0
  0
LINE
  5
16B
330
A
100
AcDbEntity
  8
STANDARD
  6
STANDARD
 62
     7
100
AcDbLine
 10
213.7020856840162
 20
714.1644487936964
 30
0.0
 11
217.00866527386
 21
715.5340776999464
 31
0.0
  0
LINE
  5
16C
330
A
100
AcDbEntity
  8
STANDARD
  6
STANDARD
 62
     7
100
AcDbLine
 10
516.9139307353847
 20
715.5340776999464
 30
0.0
 11
521.1844366405361
 21
716.0962877829542
 31
0.0
  0
LINE
  5
16D
330
A
100
AcDbEntity
  8
STANDARD
  6
STANDARD
 62
     7
100
AcDbLine
 10
532.8517073009364
 20
621.7635546286573
 30
0.0
 11
533.4139269206874
 21
626.0341082175245
 31
0.0
  0
LINE
  5
16E
330
A
100
AcDbEntity
  8
STANDARD
  6
STANDARD
 62
     7
100
AcDbLine
 10
204.6434194547682
 20
716.0962877829542
 30
0.0
 11
208.9139348966627
 21
715.5340776999464
 31
0.0
  0
LINE
  5
16F
330
A
100
AcDbEntity
  8
STANDARD
  6
STANDARD
 62
     7
100
AcDbLine
 10
508.8192003581874
 20
715.5340776999464
 30
0.0
 11
512.1257799480312
 21
714.1644487936964
 31
0.0
  0
ARC
  5
170
330
A
100
AcDbEntity
  8
STANDARD
  6
STANDARD
 62
     7
100
AcDbCircle
 10
516.9139307353847
 20
732.0340773533724
 30
0.0
 40
18.50000034657372
100
AcDbArc
 50
255.0000052479247
 51
90.0
  0
ARC
  5
171
330
A
100
AcDbEntity
  8
STANDARD
  6
STANDARD
 62
     7
100
AcDbCircle
 10
516.9137558978057
 20
732.0340645311683
 30
0.0
 40
16.50004368728265
100
AcDbArc
 50
285.0005579073508
 51
89.99939288310034
  0
ARC
  5
172
330
A
100
AcDbEntity
  8
STANDARD
  6
STANDARD
 62
     7
100
AcDbCircle
 10
516.9139432464228
 20
626.034147552775
 30
0.0
 40
16.50000869638773
100
AcDbArc
 50
180.0001365904637
 51
344.9997252397476
  0
ARC
  5
173
330
A
100
AcDbEntity
  8
STANDARD
  6
STANDARD
 62
     7
100
AcDbCircle
 10
208.9139318320025
 20
732.0340769499027
 30
0.0
 40
18.50000075004411
100
AcDbArc
 50
89.99999050853599
 51
285.000004243539
  0
ARC
  5
174
330
A
100
AcDbEntity
  8
STANDARD
  6
STANDARD
 62
     7
100
AcDbCircle
 10
208.9139645378816
 20
732.0340823910259
 30
0.0
 40
16.50002582652501
100
AcDbArc
 50
90.00010292812621
 51
254.9999131653966
  0
ARC
  5
175
330
A
100
AcDbEntity
  8
STANDARD
  6
STANDARD
 62
     7
100
AcDbCircle
 10
208.9139348966627
 20
626.0341203769435
 30
0.0
 40
16.49999618530721
100
AcDbArc
 50
180.0000422232447
 51
359.9999577767551
  0
LINE
  5
183
330
A
100
AcDbEntity
  8
0
  6
Continuous
100
AcDbLine
 10
169.9139291746098
 20
305.1611955641831
 30
0.0
 11
247.9139406187016
 21
305.1611955641831
 31
0.0
  0
LINE
  5
184
330
A
100
AcDbEntity
  8
0
  6
Continuous
100
AcDbLine
 10
477.9139406187016
 20
305.1611955641831
 30
0.0
 11
555.9139329893071
 21
305.1611955641831
 31
0.0
  0
LINE
  5
186
330
A
100
AcDbEntity
  8
0
  6
Continuous
100
AcDbLine
 10
62.91393585033006
 20
791.5340624411574
 30
0.0
 11
62.91393585033006
 21
532.5341234763136
 31
0.0
  0
LINE
  5
44A
330
A
100
AcDbEntity
  8
0
  6
Continuous
100
AcDbLine
 10
662.9139297802403
 20
791.5340624411563
 30
0.0
 11
662.9139297802394
 21
532.5341234763126
 31
0.0
  0
ARC
  5
44B
330
A
100
AcDbEntity
  8
STANDARD
  6
STANDARD
 62
     7
100
AcDbCircle
 10
668.9139405635826
 20
781.5340884832878
 30
0.0
 40
9.999973957902541
100
AcDbArc
 50
359.9998507891895
 51
90.00014921081003
  0
ARC
  5
44C
330
A
100
AcDbEntity
  8
STANDARD
  6
STANDARD
 62
     7
100
AcDbCircle
 10
668.913966851783
 20
542.5340711459799
 30
0.0
 40
9.999947669804287
100
AcDbArc
 50
269.9997001677107
 51
0.0002998322888971
  0
ARC
  5
44D
330
A
100
AcDbEntity
  8
STANDARD
  6
STANDARD
 62
     7
100
AcDbCircle
 10
681.4563507294683
 20
712.4968564893113
 30
0.0
 40
103.1429016119755
100
AcDbArc
 50
286.7032029405912
 51
346.7782485977695
  0
ARC
  5
44E
330
A
100
AcDbEntity
  8
STANDARD
  6
STANDARD
 62
     7
100
AcDbCircle
 10
681.4563774616263
 20
712.4968240486321
 30
0.0
 40
86.50009400047983
100
AcDbArc
 50
271.6844339822404
 51
1.797026448772702
  0
ARC
  5
44F
330
A
100
AcDbEntity
  8
STANDARD
  6
STANDARD
 62
     7
100
AcDbCircle
 10
681.4565040066031
 20
712.4966611947276
 30
0.0
 40
69.85721682959198
100
AcDbArc
 50
286.7031447998706
 51
346.7783072336467
  0
ARC
  5
450
330
A
100
AcDbEntity
  8
STANDARD
  6
STANDARD
 62
     7
100
AcDbCircle
 10
1054.413914521439
 20
732.0340929587331
 30
0.0
 40
16.50001525880008
100
AcDbArc
 50
270.0000662321142
 51
89.99993376788534
  0
ARC
  5
451
330
A
100
AcDbEntity
  8
STANDARD
  6
STANDARD
 62
     7
100
AcDbCircle
 10
703.9139526683912
 20
732.0340929587343
 30
0.0
 40
22.24998474124364
100
AcDbArc
 50
269.9999017680824
 51
90.00009823191712
  0
LINE
  5
452
330
A
100
AcDbEntity
  8
STANDARD
  6
STANDARD
 62
     7
100
AcDbLine
 10
763.6434143383455
 20
727.7636156638123
 30
0.0
 11
757.4657409985018
 21
721.5859423239685
 31
0.0
  0
LINE
  5
453
330
A
100
AcDbEntity
  8
STANDARD
  6
STANDARD
 62
     7
100
AcDbLine
 10
756.246678193326
 20
720.3668413718201
 30
0.0
 11
753.624493439908
 21
717.7446947653748
 31
0.0
  0
LINE
  5
454
330
A
100
AcDbEntity
  8
STANDARD
  6
STANDARD
 62
     7
100
AcDbLine
 10
784.4139450390291
 20
715.534077699945
 30
0.0
 11
783.9037292797518
 21
716.0443316061949
 31
0.0
  0
LINE
  5
455
330
A
100
AcDbEntity
  8
STANDARD
  6
STANDARD
 62
     7
100
AcDbLine
 10
783.8516968090487
 20
716.0962877829527
 30
0.0
 11
782.2033661205721
 21
717.7446947653747
 31
0.0
  0
LINE
  5
456
330
A
100
AcDbEntity
  8
STANDARD
  6
STANDARD
 62
     7
100
AcDbLine
 10
781.632305939908
 20
718.3156786520934
 30
0.0
 11
779.5811813671542
 21
720.3668413718199
 31
0.0
  0
LINE
  5
457
330
A
100
AcDbEntity
  8
STANDARD
  6
STANDARD
 62
     7
100
AcDbLine
 10
778.179165681119
 20
721.7688189108825
 30
0.0
 11
776.1639374096346
 21
723.7841234763122
 31
0.0
  0
LINE
  5
458
330
A
100
AcDbEntity
  8
STANDARD
  6
STANDARD
 62
     7
100
AcDbLine
 10
774.6018570263339
 20
725.3461657126404
 30
0.0
 11
772.1844452221346
 21
727.7636156638123
 31
0.0
  0
LINE
  5
459
330
A
100
AcDbEntity
  8
STANDARD
  6
STANDARD
 62
     7
100
AcDbLine
 10
751.8886917431307
 20
716.0088549216247
 30
0.0
 11
751.3640564281892
 21
715.5340776999451
 31
0.0
  0
LINE
  5
45A
330
A
100
AcDbEntity
  8
STANDARD
  6
STANDARD
 62
     7
100
AcDbLine
 10
711.1010711986968
 20
613.7059221823671
 30
0.0
 11
685.325657685513
 21
609.5340929587344
 31
0.0
  0
LINE
  5
45B
330
A
100
AcDbEntity
  8
STANDARD
  6
STANDARD
 62
     7
100
AcDbLine
 10
701.5343826610992
 20
645.5869494040468
 30
0.0
 11
682.6723450024078
 21
642.5341234763124
 31
0.0
  0
LINE
  5
45C
330
A
100
AcDbEntity
  8
STANDARD
  6
STANDARD
 62
     7
100
AcDbLine
 10
784.4139450390291
 20
714.386158998773
 30
0.0
 11
781.8651550610017
 21
688.9059649069762
 31
0.0
  0
LINE
  5
45D
330
A
100
AcDbEntity
  8
STANDARD
  6
STANDARD
 62
     7
100
AcDbLine
 10
751.3640564281892
 20
715.5340776999451
 30
0.0
 11
749.4619720776032
 21
696.5189562399841
 31
0.0
  0
LINE
  5
45E
330
A
100
AcDbEntity
  8
STANDARD
  6
STANDARD
 62
     7
100
AcDbLine
 10
784.3761413891268
 20
715.5718432028747
 30
0.0
 11
783.8516968090487
 21
716.0962877829527
 31
0.0
  0
LINE
  5
45F
330
A
100
AcDbEntity
  8
STANDARD
  6
STANDARD
 62
     7
100
AcDbLine
 10
782.2033661205721
 20
717.7446947653747
 30
0.0
 11
777.6507538158846
 21
722.2972307761168
 31
0.0
  0
LINE
  5
460
330
A
100
AcDbEntity
  8
STANDARD
  6
STANDARD
 62
     7
100
AcDbLine
 10
776.1639374096346
 20
723.7841234763122
 30
0.0
 11
773.4663742382479
 21
726.4816485007263
 31
0.0
  0
LINE
  5
461
330
A
100
AcDbEntity
  8
STANDARD
  6
STANDARD
 62
     7
100
AcDbLine
 10
763.6434143383455
 20
727.7636156638123
 30
0.0
 11
761.2583511669588
 21
725.3785143454528
 31
0.0
  0
LINE
  5
462
330
A
100
AcDbEntity
  8
STANDARD
  6
STANDARD
 62
     7
100
AcDbLine
 10
758.2572143871736
 20
722.3774157126404
 30
0.0
 11
756.246678193326
 21
720.3668413718201
 31
0.0
  0
LINE
  5
463
330
A
100
AcDbEntity
  8
STANDARD
  6
STANDARD
 62
     7
100
AcDbLine
 10
753.624493439908
 20
717.7446947653748
 30
0.0
 11
751.9761627514315
 21
716.0962877829529
 31
0.0
  0
LINE
  5
464
330
A
100
AcDbEntity
  8
STANDARD
  6
STANDARD
 62
     7
100
AcDbLine
 10
902.91392978024
 20
713.5341082175227
 30
0.0
 11
902.9139297802402
 21
750.5340776999446
 31
0.0
  0
LINE
  5
465
330
A
100
AcDbEntity
  8
STANDARD
  6
STANDARD
 62
     7
100
AcDbLine
 10
965.9139221508455
 20
713.5341082175225
 30
0.0
 11
965.9139221508457
 21
750.5340776999444
 31
0.0
  0
LINE
  5
466
330
A
100
AcDbEntity
  8
STANDARD
  6
STANDARD
 62
     7
100
AcDbLine
 10
910.9139221508455
 20
713.5341082175227
 30
0.0
 11
910.9139221508456
 21
750.5340776999445
 31
0.0
  0
LINE
  5
467
330
A
100
AcDbEntity
  8
STANDARD
  6
STANDARD
 62
     7
100
AcDbLine
 10
1028.913933594937
 20
713.5341082175223
 30
0.0
 11
1028.913933594937
 21
750.5340776999442
 31
0.0
  0
LINE
  5
468
330
A
100
AcDbEntity
  8
STANDARD
  6
STANDARD
 62
     7
100
AcDbLine
 10
973.9139335949372
 20
713.5341082175224
 30
0.0
 11
973.9139335949374
 21
750.5340776999442
 31
0.0
  0
LINE
  5
469
330
A
100
AcDbEntity
  8
STANDARD
  6
STANDARD
 62
     7
100
AcDbLine
 10
680.9139221508451
 20
609.5340929587344
 30
0.0
 11
680.9139221508453
 21
642.5341234763124
 31
0.0
  0
LINE
  5
46A
330
A
100
AcDbEntity
  8
STANDARD
  6
STANDARD
 62
     7
100
AcDbLine
 10
784.4139450390291
 20
714.386158998773
 30
0.0
 11
784.4139450390291
 21
715.534077699945
 31
0.0
  0
LINE
  5
46B
330
A
100
AcDbEntity
  8
STANDARD
  6
STANDARD
 62
     7
100
AcDbLine
 10
738.4139221508455
 20
715.5340776999452
 30
0.0
 11
738.4139221508457
 21
748.5341082175233
 31
0.0
  0
LINE
  5
46C
330
A
100
AcDbEntity
  8
STANDARD
  6
STANDARD
 62
     7
100
AcDbLine
 10
839.9139374096346
 20
713.534108217523
 30
0.0
 11
839.9139374096346
 21
750.5340776999449
 31
0.0
  0
LINE
  5
46D
330
A
100
AcDbEntity
  8
STANDARD
  6
STANDARD
 62
     7
100
AcDbLine
 10
784.9139374096346
 20
713.5341082175231
 30
0.0
 11
784.9139374096347
 21
750.534077699945
 31
0.0
  0
LINE
  5
46E
330
A
100
AcDbEntity
  8
STANDARD
  6
STANDARD
 62
     7
100
AcDbLine
 10
847.9139297802401
 20
713.5341082175228
 30
0.0
 11
847.9139297802401
 21
750.5340776999447
 31
0.0
  0
LINE
  5
46F
330
A
100
AcDbEntity
  8
STANDARD
  6
STANDARD
 62
     7
100
AcDbLine
 10
678.9139145214504
 20
542.5341234763124
 30
0.0
 11
678.9139145214512
 21
781.5340624411562
 31
0.0
  0
LINE
  5
470
330
A
100
AcDbEntity
  8
STANDARD
  6
STANDARD
 62
     7
100
AcDbLine
 10
668.9139145214503
 20
532.5341234763126
 30
0.0
 11
662.9139297802394
 21
532.5341234763126
 31
0.0
  0
LINE
  5
471
330
A
100
AcDbEntity
  8
STANDARD
  6
STANDARD
 62
     7
100
AcDbLine
 10
685.325657685513
 20
609.5340929587344
 30
0.0
 11
680.9139221508451
 21
609.5340929587344
 31
0.0
  0
LINE
  5
472
330
A
100
AcDbEntity
  8
STANDARD
  6
STANDARD
 62
     7
100
AcDbLine
 10
682.6723450024078
 20
642.5341234763124
 30
0.0
 11
680.9139221508453
 21
642.5341234763124
 31
0.0
  0
LINE
  5
473
330
A
100
AcDbEntity
  8
STANDARD
  6
STANDARD
 62
     7
100
AcDbLine
 10
668.9139145214512
 20
791.5340624411563
 30
0.0
 11
662.9139297802403
 21
791.5340624411563
 31
0.0
  0
LINE
  5
474
330
A
100
AcDbEntity
  8
STANDARD
  6
STANDARD
 62
     7
100
AcDbLine
 10
703.9139145214512
 20
754.2840776999453
 30
0.0
 11
678.9139145214512
 21
754.2840776999453
 31
0.0
  0
LINE
  5
475
330
A
100
AcDbEntity
  8
STANDARD
  6
STANDARD
 62
     7
100
AcDbLine
 10
703.913914521451
 20
709.7841082175234
 30
0.0
 11
678.913914521451
 21
709.7841082175234
 31
0.0
  0
LINE
  5
476
330
A
100
AcDbEntity
  8
STANDARD
  6
STANDARD
 62
     7
100
AcDbLine
 10
784.2286651928377
 20
712.5341234763121
 30
0.0
 11
751.0639923412752
 21
712.5341234763123
 31
0.0
  0
LINE
  5
477
330
A
100
AcDbEntity
  8
STANDARD
  6
STANDARD
 62
     7
100
AcDbLine
 10
1055.615298381773
 20
748.5341082175222
 30
0.0
 11
1028.913933594937
 21
748.5341082175223
 31
0.0
  0
LINE
  5
478
330
A
100
AcDbEntity
  8
STANDARD
  6
STANDARD
 62
     7
100
AcDbLine
 10
973.9139335949374
 20
748.5341082175224
 30
0.0
 11
965.9139221508457
 21
748.5341082175225
 31
0.0
  0
LINE
  5
479
330
A
100
AcDbEntity
  8
STANDARD
  6
STANDARD
 62
     7
100
AcDbLine
 10
910.9139221508456
 20
748.5341082175226
 30
0.0
 11
902.9139297802402
 21
748.5341082175227
 31
0.0
  0
LINE
  5
47A
330
A
100
AcDbEntity
  8
STANDARD
  6
STANDARD
 62
     7
100
AcDbLine
 10
847.9139297802401
 20
748.5341082175229
 30
0.0
 11
839.9139374096346
 21
748.534108217523
 31
0.0
  0
LINE
  5
47B
330
A
100
AcDbEntity
  8
STANDARD
  6
STANDARD
 62
     7
100
AcDbLine
 10
784.9139374096347
 20
748.5341082175231
 30
0.0
 11
718.6476486523105
 21
748.5341082175233
 31
0.0
  0
LINE
  5
47C
330
A
100
AcDbEntity
  8
STANDARD
  6
STANDARD
 62
     7
100
AcDbLine
 10
1055.615298381773
 20
715.534077699944
 30
0.0
 11
1028.913933594937
 21
715.5340776999442
 31
0.0
  0
LINE
  5
47D
330
A
100
AcDbEntity
  8
STANDARD
  6
STANDARD
 62
     7
100
AcDbLine
 10
973.9139335949372
 20
715.5340776999443
 30
0.0
 11
965.9139221508455
 21
715.5340776999444
 31
0.0
  0
LINE
  5
47E
330
A
100
AcDbEntity
  8
STANDARD
  6
STANDARD
 62
     7
100
AcDbLine
 10
910.9139221508455
 20
715.5340776999445
 30
0.0
 11
902.91392978024
 21
715.5340776999446
 31
0.0
  0
LINE
  5
47F
330
A
100
AcDbEntity
  8
STANDARD
  6
STANDARD
 62
     7
100
AcDbLine
 10
847.9139297802401
 20
715.5340776999447
 30
0.0
 11
839.9139374096346
 21
715.5340776999448
 31
0.0
  0
LINE
  5
480
330
A
100
AcDbEntity
  8
STANDARD
  6
STANDARD
 62
     7
100
AcDbLine
 10
784.9139374096346
 20
715.534077699945
 30
0.0
 11
784.4139450390291
 21
715.534077699945
 31
0.0
  0
LINE
  5
481
330
A
100
AcDbEntity
  8
STANDARD
  6
STANDARD
 62
     7
100
AcDbLine
 10
751.3640564281892
 20
715.5340776999451
 30
0.0
 11
718.6476486523104
 21
715.5340776999452
 31
0.0
  0
LINE
  5
482
330
A
100
AcDbEntity
  8
STANDARD
  6
STANDARD
 62
     7
100
AcDbLine
 10
1028.913933594937
 20
713.5341082175223
 30
0.0
 11
973.9139335949372
 21
713.5341082175224
 31
0.0
  0
LINE
  5
483
330
A
100
AcDbEntity
  8
STANDARD
  6
STANDARD
 62
     7
100
AcDbLine
 10
965.9139221508455
 20
713.5341082175225
 30
0.0
 11
910.9139221508455
 21
713.5341082175227
 31
0.0
  0
LINE
  5
484
330
A
100
AcDbEntity
  8
STANDARD
  6
STANDARD
 62
     7
100
AcDbLine
 10
902.91392978024
 20
713.5341082175227
 30
0.0
 11
847.9139297802401
 21
713.5341082175228
 31
0.0
  0
LINE
  5
485
330
A
100
AcDbEntity
  8
STANDARD
  6
STANDARD
 62
     7
100
AcDbLine
 10
839.9139374096346
 20
713.534108217523
 30
0.0
 11
784.9139374096346
 21
713.5341082175231
 31
0.0
  0
LINE
  5
486
330
A
100
AcDbEntity
  8
STANDARD
  6
STANDARD
 62
     7
100
AcDbLine
 10
1028.913933594937
 20
750.5340776999442
 30
0.0
 11
973.9139335949374
 21
750.5340776999442
 31
0.0
  0
LINE
  5
487
330
A
100
AcDbEntity
  8
STANDARD
  6
STANDARD
 62
     7
100
AcDbLine
 10
965.9139221508457
 20
750.5340776999444
 30
0.0
 11
910.9139221508456
 21
750.5340776999445
 31
0.0
  0
LINE
  5
488
330
A
100
AcDbEntity
  8
STANDARD
  6
STANDARD
 62
     7
100
AcDbLine
 10
902.9139297802402
 20
750.5340776999446
 30
0.0
 11
847.9139297802401
 21
750.5340776999447
 31
0.0
  0
LINE
  5
489
330
A
100
AcDbEntity
  8
STANDARD
  6
STANDARD
 62
     7
100
AcDbLine
 10
839.9139374096346
 20
750.5340776999449
 30
0.0
 11
784.9139374096347
 21
750.534077699945
 31
0.0
  0
ENDSEC
  0
SECTION
  2
OBJECTS
  0
DICTIONARY
  5
19
330
0
100
AcDbDictionary
281
     1
  3
ACAD_COLOR
350
17C
  3
ACAD_GROUP
350
1A
  3
ACAD_LAYOUT
350
17D
  3
ACAD_MATERIAL
350
17B
  3
ACAD_MLINESTYLE
350
1B
  3
ACAD_PLOTSETTINGS
350
17E
  3
ACAD_PLOTSTYLENAME
350
179
  3
AcDbVariableDictionary
350
492
  0
DICTIONARY
  5
17C
102
{ACAD_REACTORS
330
19
102
}
330
19
100
AcDbDictionary
281
     1
  0
DICTIONARY
  5
1A
102
{ACAD_REACTORS
330
19
102
}
330
19
100
AcDbDictionary
281
     1
  0
DICTIONARY
  5
17D
102
{ACAD_REACTORS
330
19
102
}
330
19
100
AcDbDictionary
281
     1
  3
Layout1
350
180
  3
Model
350
17F
  0
DICTIONARY
  5
17B
102
{ACAD_REACTORS
330
19
102
}
330
19
100
AcDbDictionary
281
     1
  0
DICTIONARY
  5
1B
102
{ACAD_REACTORS
330
19
102
}
330
19
100
AcDbDictionary
281
     1
  3
STANDARD
350
1C
  0
DICTIONARY
  5
17E
102
{ACAD_REACTORS
330
19
102
}
330
19
100
AcDbDictionary
281
     1
  0
ACDBDICTIONARYWDFLT
  5
179
102
{ACAD_REACTORS
330
19
102
}
330
19
100
AcDbDictionary
281
     1
  3
Normal
350
17A
100
AcDbDictionaryWithDefault
340
17A
  0
DICTIONARY
  5
492
102
{ACAD_REACTORS
330
19
102
}
330
19
100
AcDbDictionary
281
     1
  3
DIMASSOC
350
493
  3
PROJECTNAME
350
494
  0
LAYOUT
  5
180
102
{ACAD_XDICTIONARY
360
490
102
}
102
{ACAD_REACTORS
330
17D
102
}
330
17D
100
AcDbPlotSettings
  1

  2
\\PCDRUCK1\AROSCB06
  4

  6

 40
0.0
 41
0.0
 42
0.0
 43
0.0
 44
0.0
 45
0.0
 46
0.0
 47
0.0
 48
0.0
 49
0.0
140
0.0
141
0.0
142
1.0
143
1.0
 70
   688
 72
     0
 73
     0
 74
     5
  7

 75
    16
147
1.0
148
0.0
149
0.0
100
AcDbLayout
  1
Layout1
 70
     0
 71
     1
 10
0.0
 20
0.0
 11
12.0
 21
9.0
 12
0.0
 22
0.0
 32
0.0
 14
1.000000000000000E+20
 24
1.000000000000000E+20
 34
1.000000000000000E+20
 15
-1.000000000000000E+20
 25
-1.000000000000000E+20
 35
-1.000000000000000E+20
146
0.0
 13
0.0
 23
0.0
 33
0.0
 16
1.0
 26
0.0
 36
0.0
 17
0.0
 27
1.0
 37
0.0
 76
     0
330
B
  0
LAYOUT
  5
17F
102
{ACAD_XDICTIONARY
360
48E
102
}
102
{ACAD_REACTORS
330
17D
102
}
330
17D
100
AcDbPlotSettings
  1

  2
\\PCDRUCK1\AROSCB06
  4

  6

 40
0.0
 41
0.0
 42
0.0
 43
0.0
 44
0.0
 45
0.0
 46
0.0
 47
0.0
 48
0.0
 49
0.0
140
0.0
141
0.0
142
1.0
143
1.0
 70
  1712
 72
     0
 73
     0
 74
     0
  7

 75
     0
147
1.0
148
0.0
149
0.0
100
AcDbLayout
  1
Model
 70
     1
 71
     0
 10
0.0
 20
0.0
 11
12.0
 21
9.0
 12
0.0
 22
0.0
 32
0.0
 14
0.0
 24
0.0
 34
0.0
 15
0.0
 25
0.0
 35
0.0
146
0.0
 13
0.0
 23
0.0
 33
0.0
 16
1.0
 26
0.0
 36
0.0
 17
0.0
 27
1.0
 37
0.0
 76
     0
330
A
  0
MLINESTYLE
  5
1C
102
{ACAD_REACTORS
330
1B
102
}
330
1B
100
AcDbMlineStyle
  2
STANDARD
 70
     0
  3

 62
     0
 51
90.00000000000019
 52
90.00000000000019
 71
     2
 49
0.5
 62
   256
  6
BYLAYER
 49
-0.5
 62
   256
  6
BYLAYER
  0
ACDBPLACEHOLDER
  5
17A
102
{ACAD_REACTORS
330
179
102
}
330
179
  0
DICTIONARYVAR
  5
493
102
{ACAD_REACTORS
330
492
102
}
330
492
100
DictionaryVariables
280
     0
  1
1
  0
DICTIONARYVAR
  5
494
102
{ACAD_REACTORS
330
492
102
}
330
492
100
DictionaryVariables
280
     0
  1

  0
DICTIONARY
  5
490
330
180
100
AcDbDictionary
280
     1
281
     1
  3
ACAD_XREC_ROUNDTRIP
360
491
  0
DICTIONARY
  5
48E
330
17F
100
AcDbDictionary
280
     1
281
     1
  3
ACAD_XREC_ROUNDTRIP
360
48F
  0
XRECORD
  5
491
102
{ACAD_REACTORS
330
490
102
}
330
490
100
AcDbXrecord
280
     1
102
SHADEPLOT
 70
     0
102
SHADEPLOTRESLEVEL
 70
     2
102
SHADEPLOTCUSTOMDPI
 70
   300
  0
XRECORD
  5
48F
102
{ACAD_REACTORS
330
48E
102
}
330
48E
100
AcDbXrecord
280
     1
102
SHADEPLOT
 70
     0
102
SHADEPLOTRESLEVEL
 70
     2
102
SHADEPLOTCUSTOMDPI
 70
   300
  0
ENDSEC
  0
EOF
