  0
SECTION
  2
HEADER
  9
$ACADVER
  1
AC1024
  9
$ACADMAINTVER
 70
   205
  9
$DWGCODEPAGE
  3
ANSI_1252
  9
$LASTSAVEDBY
  1
kaschu
  9
$INSBASE
 10
0.0
 20
0.0
 30
0.0
  9
$EXTMIN
 10
-253.0807490046791
 20
-450.3268514008149
 30
-0.0000000000000263
  9
$EXTMAX
 10
610.3319222128996
 20
333.2661870264974
 30
0.0000000000000214
  9
$LIMMIN
 10
0.0
 20
0.0
  9
$LIMMAX
 10
12.0
 20
9.0
  9
$ORTHOMODE
 70
     1
  9
$REGENMODE
 70
     1
  9
$FILLMODE
 70
     1
  9
$QTEXTMODE
 70
     0
  9
$MIRRTEXT
 70
     1
  9
$LTSCALE
 40
1.0
  9
$ATTMODE
 70
     1
  9
$TEXTSIZE
 40
0.2
  9
$TRACEWID
 40
0.05
  9
$TEXTSTYLE
  7
STANDARD
  9
$CLAYER
  8
0
  9
$CELTYPE
  6
BYLAYER
  9
$CECOLOR
 62
   256
  9
$CELTSCALE
 40
1.0
  9
$DISPSILH
 70
     0
  9
$DIMSCALE
 40
1.0
  9
$DIMASZ
 40
0.18
  9
$DIMEXO
 40
0.0625
  9
$DIMDLI
 40
0.38
  9
$DIMRND
 40
0.0
  9
$DIMDLE
 40
0.0
  9
$DIMEXE
 40
0.18
  9
$DIMTP
 40
0.0
  9
$DIMTM
 40
0.0
  9
$DIMTXT
 40
0.18
  9
$DIMCEN
 40
0.09
  9
$DIMTSZ
 40
0.0
  9
$DIMTOL
 70
     0
  9
$DIMLIM
 70
     0
  9
$DIMTIH
 70
     1
  9
$DIMTOH
 70
     1
  9
$DIMSE1
 70
     0
  9
$DIMSE2
 70
     0
  9
$DIMTAD
 70
     0
  9
$DIMZIN
 70
     0
  9
$DIMBLK
  1

  9
$DIMASO
 70
     1
  9
$DIMSHO
 70
     1
  9
$DIMPOST
  1

  9
$DIMAPOST
  1

  9
$DIMALT
 70
     0
  9
$DIMALTD
 70
     2
  9
$DIMALTF
 40
25.4
  9
$DIMLFAC
 40
1.0
  9
$DIMTOFL
 70
     0
  9
$DIMTVP
 40
0.0
  9
$DIMTIX
 70
     0
  9
$DIMSOXD
 70
     0
  9
$DIMSAH
 70
     0
  9
$DIMBLK1
  1

  9
$DIMBLK2
  1

  9
$DIMSTYLE
  2
STANDARD
  9
$DIMCLRD
 70
     0
  9
$DIMCLRE
 70
     0
  9
$DIMCLRT
 70
     0
  9
$DIMTFAC
 40
1.0
  9
$DIMGAP
 40
0.09
  9
$DIMJUST
 70
     0
  9
$DIMSD1
 70
     0
  9
$DIMSD2
 70
     0
  9
$DIMTOLJ
 70
     1
  9
$DIMTZIN
 70
     0
  9
$DIMALTZ
 70
     0
  9
$DIMALTTZ
 70
     0
  9
$DIMUPT
 70
     0
  9
$DIMDEC
 70
     4
  9
$DIMTDEC
 70
     4
  9
$DIMALTU
 70
     2
  9
$DIMALTTD
 70
     2
  9
$DIMTXSTY
  7
STANDARD
  9
$DIMAUNIT
 70
     0
  9
$DIMADEC
 70
     0
  9
$DIMALTRND
 40
0.0
  9
$DIMAZIN
 70
     0
  9
$DIMDSEP
 70
    46
  9
$DIMATFIT
 70
     3
  9
$DIMFRAC
 70
     0
  9
$DIMLDRBLK
  1

  9
$DIMLUNIT
 70
     2
  9
$DIMLWD
 70
    -2
  9
$DIMLWE
 70
    -2
  9
$DIMTMOVE
 70
     0
  9
$DIMFXL
 40
1.0
  9
$DIMFXLON
 70
     0
  9
$DIMJOGANG
 40
0.7853981633974483
  9
$DIMTFILL
 70
     0
  9
$DIMTFILLCLR
 70
     0
  9
$DIMARCSYM
 70
     0
  9
$DIMLTYPE
  6

  9
$DIMLTEX1
  6

  9
$DIMLTEX2
  6

  9
$DIMTXTDIRECTION
 70
     0
  9
$LUNITS
 70
     2
  9
$LUPREC
 70
     4
  9
$SKETCHINC
 40
0.1
  9
$FILLETRAD
 40
0.5
  9
$AUNITS
 70
     0
  9
$AUPREC
 70
     0
  9
$MENU
  1
.
  9
$ELEVATION
 40
0.0
  9
$PELEVATION
 40
0.0
  9
$THICKNESS
 40
0.0
  9
$LIMCHECK
 70
     0
  9
$CHAMFERA
 40
0.5
  9
$CHAMFERB
 40
0.5
  9
$CHAMFERC
 40
1.0
  9
$CHAMFERD
 40
0.0
  9
$SKPOLY
 70
     0
  9
$TDCREATE
 40
2451762.468371991
  9
$TDUCREATE
 40
2451762.385038658
  9
$TDUPDATE
 40
2458418.573511470
  9
$TDUUPDATE
 40
2458418.490178137
  9
$TDINDWG
 40
0.0177364352
  9
$TDUSRTIMER
 40
0.0177363773
  9
$USRTIMER
 70
     1
  9
$ANGBASE
 50
0.0
  9
$ANGDIR
 70
     0
  9
$PDMODE
 70
     0
  9
$PDSIZE
 40
0.0
  9
$PLINEWID
 40
0.0
  9
$SPLFRAME
 70
     0
  9
$SPLINETYPE
 70
     6
  9
$SPLINESEGS
 70
     8
  9
$HANDSEED
  5
3AD
  9
$SURFTAB1
 70
     6
  9
$SURFTAB2
 70
     6
  9
$SURFTYPE
 70
     6
  9
$SURFU
 70
     6
  9
$SURFV
 70
     6
  9
$UCSBASE
  2

  9
$UCSNAME
  2

  9
$UCSORG
 10
0.0
 20
0.0
 30
0.0
  9
$UCSXDIR
 10
1.0
 20
0.0
 30
0.0
  9
$UCSYDIR
 10
0.0
 20
1.0
 30
0.0
  9
$UCSORTHOREF
  2

  9
$UCSORTHOVIEW
 70
     0
  9
$UCSORGTOP
 10
0.0
 20
0.0
 30
0.0
  9
$UCSORGBOTTOM
 10
0.0
 20
0.0
 30
0.0
  9
$UCSORGLEFT
 10
0.0
 20
0.0
 30
0.0
  9
$UCSORGRIGHT
 10
0.0
 20
0.0
 30
0.0
  9
$UCSORGFRONT
 10
0.0
 20
0.0
 30
0.0
  9
$UCSORGBACK
 10
0.0
 20
0.0
 30
0.0
  9
$PUCSBASE
  2

  9
$PUCSNAME
  2

  9
$PUCSORG
 10
0.0
 20
0.0
 30
0.0
  9
$PUCSXDIR
 10
1.0
 20
0.0
 30
0.0
  9
$PUCSYDIR
 10
0.0
 20
1.0
 30
0.0
  9
$PUCSORTHOREF
  2

  9
$PUCSORTHOVIEW
 70
     0
  9
$PUCSORGTOP
 10
0.0
 20
0.0
 30
0.0
  9
$PUCSORGBOTTOM
 10
0.0
 20
0.0
 30
0.0
  9
$PUCSORGLEFT
 10
0.0
 20
0.0
 30
0.0
  9
$PUCSORGRIGHT
 10
0.0
 20
0.0
 30
0.0
  9
$PUCSORGFRONT
 10
0.0
 20
0.0
 30
0.0
  9
$PUCSORGBACK
 10
0.0
 20
0.0
 30
0.0
  9
$USERI1
 70
     0
  9
$USERI2
 70
     0
  9
$USERI3
 70
     0
  9
$USERI4
 70
     0
  9
$USERI5
 70
     0
  9
$USERR1
 40
0.0
  9
$USERR2
 40
0.0
  9
$USERR3
 40
0.0
  9
$USERR4
 40
0.0
  9
$USERR5
 40
0.0
  9
$WORLDVIEW
 70
     1
  9
$SHADEDGE
 70
     3
  9
$SHADEDIF
 70
    70
  9
$TILEMODE
 70
     1
  9
$MAXACTVP
 70
    64
  9
$PINSBASE
 10
0.0
 20
0.0
 30
0.0
  9
$PLIMCHECK
 70
     0
  9
$PEXTMIN
 10
1.000000000000000E+20
 20
1.000000000000000E+20
 30
1.000000000000000E+20
  9
$PEXTMAX
 10
-1.000000000000000E+20
 20
-1.000000000000000E+20
 30
-1.000000000000000E+20
  9
$PLIMMIN
 10
0.0
 20
0.0
  9
$PLIMMAX
 10
12.0
 20
9.0
  9
$UNITMODE
 70
     0
  9
$VISRETAIN
 70
     1
  9
$PLINEGEN
 70
     0
  9
$PSLTSCALE
 70
     1
  9
$TREEDEPTH
 70
  3020
  9
$CMLSTYLE
  2
STANDARD
  9
$CMLJUST
 70
     0
  9
$CMLSCALE
 40
1.0
  9
$PROXYGRAPHICS
 70
     1
  9
$MEASUREMENT
 70
     0
  9
$CELWEIGHT
370
    -1
  9
$ENDCAPS
280
     0
  9
$JOINSTYLE
280
     0
  9
$LWDISPLAY
290
     0
  9
$INSUNITS
 70
     0
  9
$HYPERLINKBASE
  1

  9
$STYLESHEET
  1

  9
$XEDIT
290
     1
  9
$CEPSNTYPE
380
     0
  9
$PSTYLEMODE
290
     1
  9
$FINGERPRINTGUID
  2
{07D082D4-8E9D-48F0-9949-F8C76B91C45A}
  9
$VERSIONGUID
  2
{CAE9B5CD-E739-49CE-BA0F-0646985B0630}
  9
$EXTNAMES
290
     1
  9
$PSVPSCALE
 40
0.0
  9
$OLESTARTUP
290
     0
  9
$SORTENTS
280
   127
  9
$INDEXCTL
280
     0
  9
$HIDETEXT
280
     0
  9
$XCLIPFRAME
280
     2
  9
$HALOGAP
280
     0
  9
$OBSCOLOR
 70
   257
  9
$OBSLTYPE
280
     0
  9
$INTERSECTIONDISPLAY
280
     0
  9
$INTERSECTIONCOLOR
 70
   257
  9
$DIMASSOC
280
     1
  9
$PROJECTNAME
  1

  9
$CAMERADISPLAY
290
     0
  9
$LENSLENGTH
 40
50.0
  9
$CAMERAHEIGHT
 40
0.0
  9
$STEPSPERSEC
 40
2.0
  9
$STEPSIZE
 40
6.0
  9
$3DDWFPREC
 40
2.0
  9
$PSOLWIDTH
 40
0.25
  9
$PSOLHEIGHT
 40
4.0
  9
$LOFTANG1
 40
1.570796326794896
  9
$LOFTANG2
 40
1.570796326794896
  9
$LOFTMAG1
 40
0.0
  9
$LOFTMAG2
 40
0.0
  9
$LOFTPARAM
 70
     7
  9
$LOFTNORMALS
280
     1
  9
$LATITUDE
 40
37.795
  9
$LONGITUDE
 40
-122.394
  9
$NORTHDIRECTION
 40
0.0
  9
$TIMEZONE
 70
 -8000
  9
$LIGHTGLYPHDISPLAY
280
     1
  9
$TILEMODELIGHTSYNCH
280
     1
  9
$CMATERIAL
347
1D7
  9
$SOLIDHIST
280
     0
  9
$SHOWHIST
280
     1
  9
$DWFFRAME
280
     2
  9
$DGNFRAME
280
     0
  9
$REALWORLDSCALE
290
     1
  9
$INTERFERECOLOR
 62
     1
  9
$INTERFEREOBJVS
345
1F9
  9
$INTERFEREVPVS
346
1F6
  9
$CSHADOW
280
     0
  9
$SHADOWPLANELOCATION
 40
0.0
  0
ENDSEC
  0
SECTION
  2
CLASSES
  0
CLASS
  1
ACDBDICTIONARYWDFLT
  2
AcDbDictionaryWithDefault
  3
ObjectDBX Classes
 90
        0
 91
        1
280
     0
281
     0
  0
CLASS
  1
MATERIAL
  2
AcDbMaterial
  3
ObjectDBX Classes
 90
     1153
 91
        3
280
     0
281
     0
  0
CLASS
  1
VISUALSTYLE
  2
AcDbVisualStyle
  3
ObjectDBX Classes
 90
     4095
 91
       24
280
     0
281
     0
  0
CLASS
  1
TABLESTYLE
  2
AcDbTableStyle
  3
ObjectDBX Classes
 90
     4095
 91
        1
280
     0
281
     0
  0
CLASS
  1
SCALE
  2
AcDbScale
  3
ObjectDBX Classes
 90
     1153
 91
       17
280
     0
281
     0
  0
CLASS
  1
MLEADERSTYLE
  2
AcDbMLeaderStyle
  3
ACDB_MLEADERSTYLE_CLASS
 90
     4095
 91
        1
280
     0
281
     0
  0
CLASS
  1
ACDBSECTIONVIEWSTYLE
  2
AcDbSectionViewStyle
  3
ObjectDBX Classes
 90
     1025
 91
        1
280
     0
281
     0
  0
CLASS
  1
ACDBDETAILVIEWSTYLE
  2
AcDbDetailViewStyle
  3
ObjectDBX Classes
 90
     1025
 91
        1
280
     0
281
     0
  0
CLASS
  1
DICTIONARYVAR
  2
AcDbDictionaryVar
  3
ObjectDBX Classes
 90
        0
 91
        9
280
     0
281
     0
  0
CLASS
  1
SORTENTSTABLE
  2
AcDbSortentsTable
  3
ObjectDBX Classes
 90
        0
 91
        1
280
     0
281
     0
  0
CLASS
  1
CELLSTYLEMAP
  2
AcDbCellStyleMap
  3
ObjectDBX Classes
 90
     1152
 91
        2
280
     0
281
     0
  0
ENDSEC
  0
SECTION
  2
TABLES
  0
TABLE
  2
VPORT
  5
8
330
0
100
AcDbSymbolTable
 70
     1
  0
VPORT
  5
1B1
330
8
100
AcDbSymbolTableRecord
100
AcDbViewportTableRecord
  2
*ACTIVE
 70
     0
 10
0.0
 20
0.0
 11
1.0
 21
1.0
 12
902.9347577273037
 22
-56.46589226843196
 13
0.0
 23
0.0
 14
0.5
 24
0.5
 15
0.5
 25
0.5
 16
0.0
 26
0.0
 36
1.0
 17
0.0
 27
0.0
 37
0.0
 40
1854.229217272163
 41
2.250340136054421
 42
50.0
 43
0.0
 44
0.0
 50
0.0
 51
0.0
 71
     0
 72
 10000
 73
     1
 74
     3
 75
     0
 76
     0
 77
     0
 78
     0
281
     0
 65
     1
110
0.0
120
0.0
130
0.0
111
1.0
121
0.0
131
0.0
112
0.0
122
1.0
132
0.0
 79
     0
146
0.0
348
1F5
 60
     3
 61
     5
292
     1
282
     1
141
0.0
142
0.0
 63
   250
421
  3355443
1001
ACAD_NAV_VCDISPLAY
1070
     3
  0
ENDTAB
  0
TABLE
  2
LTYPE
  5
5
330
0
100
AcDbSymbolTable
 70
     3
  0
LTYPE
  5
14
330
5
100
AcDbSymbolTableRecord
100
AcDbLinetypeTableRecord
  2
BYBLOCK
 70
     0
  3

 72
    65
 73
     0
 40
0.0
  0
LTYPE
  5
15
330
5
100
AcDbSymbolTableRecord
100
AcDbLinetypeTableRecord
  2
BYLAYER
 70
     0
  3

 72
    65
 73
     0
 40
0.0
  0
LTYPE
  5
16
330
5
100
AcDbSymbolTableRecord
100
AcDbLinetypeTableRecord
  2
CONTINUOUS
 70
     0
  3
Solid line
 72
    65
 73
     0
 40
0.0
  0
LTYPE
  5
220
330
5
100
AcDbSymbolTableRecord
100
AcDbLinetypeTableRecord
  2
PHANTOM2
 70
     0
  3
___ _ _ ___ _ _ ___ _ _ ___ _ _
 72
    65
 73
     6
 40
1.25
 49
0.625
 74
     0
 49
-0.125
 74
     0
 49
0.125
 74
     0
 49
-0.125
 74
     0
 49
0.125
 74
     0
 49
-0.125
 74
     0
  0
LTYPE
  5
283
330
5
100
AcDbSymbolTableRecord
100
AcDbLinetypeTableRecord
  2
VOLLINIE_SCHMAL_0_18
 70
     0
  3

 72
    65
 73
     0
 40
0.0
  0
ENDTAB
  0
TABLE
  2
LAYER
  5
2
102
{ACAD_XDICTIONARY
360
2BF
102
}
330
0
100
AcDbSymbolTable
 70
     5
  0
LAYER
  5
10
102
{ACAD_XDICTIONARY
360
229
102
}
330
2
100
AcDbSymbolTableRecord
100
AcDbLayerTableRecord
  2
0
 70
     0
 62
     7
  6
CONTINUOUS
370
    -3
390
10E
347
1E7
  0
LAYER
  5
72
102
{ACAD_XDICTIONARY
360
22B
102
}
330
2
100
AcDbSymbolTableRecord
100
AcDbLayerTableRecord
  2
PV-18B
 70
     2
 62
     7
  6
CONTINUOUS
370
    -3
390
10E
347
1E7
  0
LAYER
  5
239
330
2
100
AcDbSymbolTableRecord
100
AcDbLayerTableRecord
  2
Defpoints
 70
     0
 62
     7
  6
CONTINUOUS
290
     0
370
    -3
390
10E
347
1E7
  0
LAYER
  5
284
330
2
100
AcDbSymbolTableRecord
100
AcDbLayerTableRecord
  2
STANDARD
 70
     0
 62
     7
  6
CONTINUOUS
370
    -3
390
10E
347
1E7
  0
LAYER
  5
2B9
330
2
100
AcDbSymbolTableRecord
100
AcDbLayerTableRecord
  2
HEWI
 70
     0
 62
     7
  6
CONTINUOUS
370
    15
390
10E
347
1E7
1001
AcAecLayerStandard
1000

1000

1001
AcCmTransparency
1071
        0
  0
ENDTAB
  0
TABLE
  2
STYLE
  5
3
330
0
100
AcDbSymbolTable
 70
     1
  0
STYLE
  5
11
330
3
100
AcDbSymbolTableRecord
100
AcDbTextStyleTableRecord
  2
STANDARD
 70
     0
 40
0.0
 41
1.0
 50
0.0
 71
     0
 42
0.2
  3
txt
  4

  0
ENDTAB
  0
TABLE
  2
VIEW
  5
6
330
0
100
AcDbSymbolTable
 70
     0
  0
ENDTAB
  0
TABLE
  2
UCS
  5
7
330
0
100
AcDbSymbolTable
 70
     0
  0
ENDTAB
  0
TABLE
  2
APPID
  5
9
330
0
100
AcDbSymbolTable
 70
     4
  0
APPID
  5
12
330
9
100
AcDbSymbolTableRecord
100
AcDbRegAppTableRecord
  2
ACAD
 70
     0
  0
APPID
  5
22D
330
9
100
AcDbSymbolTableRecord
100
AcDbRegAppTableRecord
  2
ACAD_NAV_VCDISPLAY
 70
     0
  0
APPID
  5
2BA
330
9
100
AcDbSymbolTableRecord
100
AcDbRegAppTableRecord
  2
AcAecLayerStandard
 70
     0
  0
APPID
  5
2BB
330
9
100
AcDbSymbolTableRecord
100
AcDbRegAppTableRecord
  2
AcCmTransparency
 70
     0
  0
ENDTAB
  0
TABLE
  2
DIMSTYLE
  5
A
330
0
100
AcDbSymbolTable
 70
     1
100
AcDbDimStyleTable
 71
     1
340
27
  0
DIMSTYLE
105
27
330
A
100
AcDbSymbolTableRecord
100
AcDbDimStyleTableRecord
  2
STANDARD
 70
     0
340
11
  0
ENDTAB
  0
TABLE
  2
BLOCK_RECORD
  5
1
330
0
100
AcDbSymbolTable
 70
    18
  0
BLOCK_RECORD
  5
1F
102
{ACAD_XDICTIONARY
360
107
102
}
330
1
100
AcDbSymbolTableRecord
100
AcDbBlockTableRecord
  2
*MODEL_SPACE
340
224
 70
     0
280
     1
281
     0
  0
BLOCK_RECORD
  5
1B
102
{ACAD_XDICTIONARY
360
105
102
}
330
1
100
AcDbSymbolTableRecord
100
AcDbBlockTableRecord
  2
*PAPER_SPACE
340
225
 70
     0
280
     1
281
     0
  0
BLOCK_RECORD
  5
48
330
1
100
AcDbSymbolTableRecord
100
AcDbBlockTableRecord
  2
*U0
340
0
102
{BLKREFS
331
74
102
}
 70
     0
280
     1
281
     0
  0
BLOCK_RECORD
  5
73
330
1
100
AcDbSymbolTableRecord
100
AcDbBlockTableRecord
  2
FRONT
340
0
 70
     0
280
     1
281
     0
  0
BLOCK_RECORD
  5
78
330
1
100
AcDbSymbolTableRecord
100
AcDbBlockTableRecord
  2
*U2
340
0
102
{BLKREFS
331
9B
102
}
 70
     0
280
     1
281
     0
  0
BLOCK_RECORD
  5
9A
330
1
100
AcDbSymbolTableRecord
100
AcDbBlockTableRecord
  2
LEFT
340
0
 70
     0
280
     1
281
     0
  0
BLOCK_RECORD
  5
9F
330
1
100
AcDbSymbolTableRecord
100
AcDbBlockTableRecord
  2
*U4
340
0
102
{BLKREFS
331
C2
102
}
 70
     0
280
     1
281
     0
  0
BLOCK_RECORD
  5
C1
330
1
100
AcDbSymbolTableRecord
100
AcDbBlockTableRecord
  2
RIGHT
340
0
 70
     0
280
     1
281
     0
  0
BLOCK_RECORD
  5
C6
330
1
100
AcDbSymbolTableRecord
100
AcDbBlockTableRecord
  2
*U6
340
0
102
{BLKREFS
331
100
102
}
 70
     0
280
     1
281
     0
  0
BLOCK_RECORD
  5
FF
330
1
100
AcDbSymbolTableRecord
100
AcDbBlockTableRecord
  2
TOP
340
0
 70
     0
280
     1
281
     0
  0
BLOCK_RECORD
  5
23A
330
1
100
AcDbSymbolTableRecord
100
AcDbBlockTableRecord
  2
*D8
340
0
 70
     0
280
     1
281
     0
  0
BLOCK_RECORD
  5
248
330
1
100
AcDbSymbolTableRecord
100
AcDbBlockTableRecord
  2
*D9
340
0
 70
     0
280
     1
281
     0
  0
BLOCK_RECORD
  5
256
330
1
100
AcDbSymbolTableRecord
100
AcDbBlockTableRecord
  2
*D10
340
0
 70
     0
280
     1
281
     0
  0
BLOCK_RECORD
  5
26B
330
1
100
AcDbSymbolTableRecord
100
AcDbBlockTableRecord
  2
*D11
340
0
 70
     0
280
     1
281
     0
  0
BLOCK_RECORD
  5
319
330
1
100
AcDbSymbolTableRecord
100
AcDbBlockTableRecord
  2
*D12
340
0
 70
     0
280
     1
281
     0
  0
BLOCK_RECORD
  5
32C
330
1
100
AcDbSymbolTableRecord
100
AcDbBlockTableRecord
  2
*D13
340
0
 70
     0
280
     1
281
     0
  0
BLOCK_RECORD
  5
33A
330
1
100
AcDbSymbolTableRecord
100
AcDbBlockTableRecord
  2
*D14
340
0
 70
     0
280
     1
281
     0
  0
BLOCK_RECORD
  5
349
330
1
100
AcDbSymbolTableRecord
100
AcDbBlockTableRecord
  2
*D15
340
0
 70
     0
280
     1
281
     0
  0
BLOCK_RECORD
  5
357
330
1
100
AcDbSymbolTableRecord
100
AcDbBlockTableRecord
  2
*D16
340
0
 70
     0
280
     1
281
     0
  0
BLOCK_RECORD
  5
365
330
1
100
AcDbSymbolTableRecord
100
AcDbBlockTableRecord
  2
*D17
340
0
 70
     0
280
     1
281
     0
  0
ENDTAB
  0
ENDSEC
  0
SECTION
  2
BLOCKS
  0
BLOCK
  5
20
330
1F
100
AcDbEntity
  8
0
100
AcDbBlockBegin
  2
*MODEL_SPACE
 70
     0
 10
0.0
 20
0.0
 30
0.0
  3
*MODEL_SPACE
  1

  0
ENDBLK
  5
21
330
1F
100
AcDbEntity
  8
0
100
AcDbBlockEnd
  0
BLOCK
  5
1C
330
1B
100
AcDbEntity
 67
     1
  8
0
100
AcDbBlockBegin
  2
*PAPER_SPACE
 70
     0
 10
0.0
 20
0.0
 30
0.0
  3
*PAPER_SPACE
  1

  0
ENDBLK
  5
1D
330
1B
100
AcDbEntity
 67
     1
  8
0
100
AcDbBlockEnd
  0
BLOCK
  5
6F
330
48
100
AcDbEntity
  8
0
100
AcDbBlockBegin
  2
*U0
 70
     1
 10
0.0
 20
0.0
 30
0.0
  3
*U0
  1
*ANON
  0
LINE
  5
49
330
48
100
AcDbEntity
  8
PV-18B
100
AcDbLine
 10
-175.0
 20
0.0
 30
151.0769096943413
 11
-175.0
 21
0.0
 31
10.0
  0
SPLINE
  5
4A
330
48
100
AcDbEntity
  8
PV-18B
100
AcDbSpline
210
0.0
220
1.0
230
0.0
 70
     8
 71
     3
 72
    42
 73
    38
 74
     0
 42
0.000000001
 43
0.0000000001
 40
60.51354121548342
 40
60.51354121548342
 40
60.51354121548342
 40
60.51354121548342
 40
61.46082082917963
 40
61.46082082917963
 40
62.40810044287586
 40
62.40810044287586
 40
63.38499014799821
 40
63.38499014799821
 40
64.36187985312057
 40
64.36187985312057
 40
65.36144482065886
 40
65.36144482065886
 40
66.36100978819714
 40
66.36100978819714
 40
67.37731493076896
 40
67.37731493076896
 40
68.3936200733408
 40
68.3936200733408
 40
69.42059214515372
 40
69.42059214515372
 40
70.44756421696668
 40
70.44756421696668
 40
71.47523872954579
 40
71.47523872954579
 40
72.50291324212489
 40
72.50291324212489
 40
73.5275559613646
 40
73.5275559613646
 40
74.55219868060432
 40
74.55219868060432
 40
75.62284745251872
 40
75.62284745251872
 40
76.69349622443316
 40
76.69349622443316
 40
77.85805876772167
 40
77.85805876772167
 40
79.0226213110102
 40
79.0226213110102
 40
79.0226213110102
 40
79.0226213110102
 10
-175.0
 20
0.0
 30
151.0769096943413
 10
-175.0
 20
0.0
 30
151.3845803015153
 10
-174.9924272456301
 20
0.0
 30
151.7228660637256
 10
-174.9591515381301
 20
0.0
 30
152.3985286564204
 10
-174.9334487151679
 20
0.0
 30
152.7359054934448
 10
-174.8720471750822
 20
0.0
 30
153.3577856450865
 10
-174.8297611375579
 20
0.0
 30
153.7041121132328
 10
-174.7261132836663
 20
0.0
 30
154.3938471436158
 10
-174.6647518881631
 20
0.0
 30
154.7372557703776
 10
-174.537333174095
 20
0.0
 30
155.3661913437466
 10
-174.458231910035
 20
0.0
 30
155.7141981077768
 10
-174.2804990276008
 20
0.0
 30
156.4050979549765
 10
-174.1818681281239
 20
0.0
 30
156.7479912269257
 10
-173.9862362473381
 20
0.0
 30
157.3722744971834
 10
-173.8695096274406
 20
0.0
 30
157.7156589883929
 10
-173.6165608796466
 20
0.0
 30
158.3950410667448
 10
-173.4803397304131
 20
0.0
 30
158.7310390260622
 10
-173.2166960205649
 20
0.0
 30
159.3390481117112
 10
-173.0628908685847
 20
0.0
 30
159.6714397328417
 10
-172.7363206475357
 20
0.0
 30
160.3266071489007
 10
-172.5635567365064
 20
0.0
 30
160.6493835339643
 10
-172.2351992713568
 20
0.0
 30
161.2286996016119
 10
-172.0469470204406
 20
0.0
 30
161.5428325997505
 10
-171.6526252776348
 20
0.0
 30
162.1595094048046
 10
-171.4465570019825
 20
0.0
 30
162.4620540078508
 10
-171.0592447814578
 20
0.0
 30
163.0021246955134
 10
-170.8395314568597
 20
0.0
 30
163.2933810803649
 10
-170.3837481059738
 20
0.0
 30
163.8625744838753
 10
-170.1476792505502
 20
0.0
 30
164.1405124640584
 10
-169.6964882117594
 20
0.0
 30
164.6464796617443
 10
-169.4359147177567
 20
0.0
 30
164.9242641405326
 10
-168.8986185196654
 20
0.0
 30
165.4634750294592
 10
-168.6218970181583
 20
0.0
 30
165.7249026717092
 10
-168.0843594224963
 20
0.0
 30
166.2077143507534
 10
-167.7689875837544
 20
0.0
 30
166.4757402473707
 10
-167.1215215660378
 20
0.0
 30
166.9904178317405
 10
-166.7894286552652
 20
0.0
 30
167.237071166534
 10
-166.4814814814812
 20
0.0
 30
167.4529770791075
  0
SPLINE
  5
4B
330
48
100
AcDbEntity
  8
PV-18B
100
AcDbSpline
210
0.0
220
1.0
230
0.0
 70
     8
 71
     3
 72
    70
 73
    66
 74
     0
 42
0.000000001
 43
0.0000000001
 40
39.62778323717639
 40
39.62778323717639
 40
39.62778323717639
 40
39.62778323717639
 40
50.02619892778175
 40
50.02619892778175
 40
60.42461461838712
 40
60.42461461838712
 40
70.82303030899248
 40
70.82303030899248
 40
81.22144599959787
 40
81.22144599959787
 40
92.03651776576299
 40
92.03651776576299
 40
102.8515895319281
 40
102.8515895319281
 40
113.6666612980933
 40
113.6666612980933
 40
124.4817330642584
 40
124.4817330642584
 40
135.213537418722
 40
135.213537418722
 40
145.9453417731855
 40
145.9453417731855
 40
156.6771461276492
 40
156.6771461276492
 40
167.4089504821127
 40
167.4089504821127
 40
177.8320782282138
 40
177.8320782282138
 40
188.2552059743149
 40
188.2552059743149
 40
198.6783337204161
 40
198.6783337204161
 40
209.1014614665172
 40
209.1014614665172
 40
219.5245892126253
 40
219.5245892126253
 40
229.9477169587333
 40
229.9477169587333
 40
240.3708447048412
 40
240.3708447048412
 40
250.793972450949
 40
250.793972450949
 40
261.5257768054156
 40
261.5257768054156
 40
272.2575811598825
 40
272.2575811598825
 40
282.9893855143491
 40
282.9893855143491
 40
293.7211898688159
 40
293.7211898688159
 40
304.5362616349811
 40
304.5362616349811
 40
315.3513334011463
 40
315.3513334011463
 40
326.1664051673113
 40
326.1664051673113
 40
336.9814769334764
 40
336.9814769334764
 40
347.3798926240776
 40
347.3798926240776
 40
357.7783083146787
 40
357.7783083146787
 40
368.1767240052796
 40
368.1767240052796
 40
378.5751396958808
 40
378.5751396958808
 40
378.5751396958808
 40
378.5751396958808
 10
-166.4814814814812
 20
0.0
 30
167.4529770791075
 10
-163.7042957039283
 20
0.0
 30
169.4000994453278
 10
-160.7545959552943
 20
0.0
 30
171.3943648488549
 10
-154.6381300516079
 20
0.0
 30
175.3575518211615
 10
-151.4713108789659
 20
0.0
 30
177.3263972006494
 10
-145.0618836489641
 20
0.0
 30
181.1393132981377
 10
-141.8190710117444
 20
0.0
 30
182.9835025680175
 10
-135.412045195947
 20
0.0
 30
186.4700362421837
 10
-132.2478735075766
 20
0.0
 30
188.1124585023413
 10
-126.0431532476612
 20
0.0
 30
191.2003220333506
 10
-122.6935734603967
 20
0.0
 30
192.7940260003601
 10
-115.7721143288855
 20
0.0
 30
195.9158337026572
 10
-112.200190820674
 20
0.0
 30
197.4438466498871
 10
-104.9953911697748
 20
0.0
 30
200.3535865569199
 10
-101.3622611285009
 20
0.0
 30
201.7354121803422
 10
-94.20678897629548
 20
0.0
 30
204.2982375529938
 10
-90.68447891342643
 20
0.0
 30
205.4793266101879
 10
-83.9582800483655
 20
0.0
 30
207.6028621151463
 10
-80.42236108754893
 20
0.0
 30
208.6511988855754
 10
-73.1427796660958
 20
0.0
 30
210.6499253268768
 10
-69.39908902013911
 20
0.0
 30
211.600219409938
 10
-61.87500415223778
 20
0.0
 30
213.3485503575251
 10
-58.09434391210781
 20
0.0
 30
214.1466461816853
 10
-50.67342462376402
 20
0.0
 30
215.5634314259755
 10
-47.03318384620922
 20
0.0
 30
216.1822140465107
 10
-40.17600645934422
 20
0.0
 30
217.2238962873556
 10
-36.62075731967882
 20
0.0
 30
217.7019227468466
 10
-29.32637687269295
 20
0.0
 30
218.5367218196327
 10
-25.58723427455734
 20
0.0
 30
218.8934016126891
 10
-18.09749659756649
 20
0.0
 30
219.4591243510433
 10
-14.34664900851631
 20
0.0
 30
219.668185409453
 10
-7.007521476594551
 20
0.0
 30
219.9385773210146
 10
-3.41924507816318
 20
0.0
 30
219.9999999999997
 10
3.419245078146147
 20
0.0
 30
220.0
 10
7.007521476579872
 20
0.0
 30
219.9385773210149
 10
14.34664900850642
 20
0.0
 30
219.6681854094535
 10
18.09749659755904
 20
0.0
 30
219.4591243510437
 10
25.58723427455474
 20
0.0
 30
218.8934016126895
 10
29.32637687269277
 20
0.0
 30
218.5367218196327
 10
36.62075731968332
 20
0.0
 30
217.701922746846
 10
40.17600645935099
 20
0.0
 30
217.2238962873548
 10
47.0331838462191
 20
0.0
 30
216.1822140465091
 10
50.67342462377485
 20
0.0
 30
215.5634314259736
 10
58.09434391212054
 20
0.0
 30
214.1466461816827
 10
61.87500415225152
 20
0.0
 30
213.348550357522
 10
69.3990890201548
 20
0.0
 30
211.600219409934
 10
73.14277966611242
 20
0.0
 30
210.6499253268725
 10
80.42236108756737
 20
0.0
 30
208.6511988855701
 10
83.95828004838483
 20
0.0
 30
207.6028621151404
 10
90.68447891344645
 20
0.0
 30
205.4793266101813
 10
94.2067889763153
 20
0.0
 30
204.2982375529869
 10
101.3622611285203
 20
0.0
 30
201.7354121803348
 10
104.995391169794
 20
0.0
 30
200.3535865569124
 10
112.2001908206927
 20
0.0
 30
197.4438466498791
 10
115.7721143289039
 20
0.0
 30
195.9158337026491
 10
122.6935734604148
 20
0.0
 30
192.7940260003518
 10
126.043153247679
 20
0.0
 30
191.2003220333421
 10
132.2478735075926
 20
0.0
 30
188.1124585023331
 10
135.4120451959617
 20
0.0
 30
186.4700362421761
 10
141.8190710117559
 20
0.0
 30
182.983502568011
 10
145.061883648974
 20
0.0
 30
181.1393132981319
 10
151.4713108789728
 20
0.0
 30
177.326397200645
 10
154.6381300516135
 20
0.0
 30
175.3575518211581
 10
160.7545959552971
 20
0.0
 30
171.3943648488529
 10
163.7042957039296
 20
0.0
 30
169.4000994453267
 10
166.4814814814814
 20
0.0
 30
167.4529770791074
  0
SPLINE
  5
4C
330
48
100
AcDbEntity
  8
PV-18B
100
AcDbSpline
210
0.0
220
1.0
230
0.0
 70
     8
 71
     3
 72
    42
 73
    38
 74
     0
 42
0.000000001
 43
0.0000000001
 40
-18.5090800955268
 40
-18.5090800955268
 40
-18.5090800955268
 40
-18.5090800955268
 40
-17.39023921816369
 40
-17.39023921816369
 40
-16.27139834080058
 40
-16.27139834080058
 40
-15.15255746343747
 40
-15.15255746343747
 40
-14.03371658607436
 40
-14.03371658607436
 40
-13.00943448790905
 40
-13.00943448790905
 40
-11.98515238974376
 40
-11.98515238974376
 40
-10.95783956527315
 40
-10.95783956527315
 40
-9.930526740802564
 40
-9.930526740802564
 40
-8.903916109875456
 40
-8.903916109875456
 40
-7.87730547894835
 40
-7.87730547894835
 40
-6.861358023056821
 40
-6.861358023056821
 40
-5.845410567165286
 40
-5.845410567165286
 40
-4.846197394634281
 40
-4.846197394634281
 40
-3.846984222103277
 40
-3.846984222103277
 40
-2.870438331472341
 40
-2.870438331472341
 40
-1.893892440841405
 40
-1.893892440841405
 40
-0.9469462204207026
 40
-0.9469462204207026
 40
0.0
 40
0.0
 40
0.0
 40
0.0
 10
166.4814814814814
 20
0.0
 30
167.4529770791074
 10
166.777442563476
 20
0.0
 30
167.2454747769783
 10
167.0821763701874
 20
0.0
 30
167.019666183095
 10
167.6912847130423
 20
0.0
 30
166.5391786944755
 10
167.9956508718982
 20
0.0
 30
166.2844891278194
 10
168.5885560062152
 20
0.0
 30
165.7571194842512
 10
168.8771388709315
 20
0.0
 30
165.4843997293544
 10
169.4258693218093
 20
0.0
 30
164.934941540971
 10
169.686025908054
 20
0.0
 30
164.6582121254507
 10
170.147679250555
 20
0.0
 30
164.1405124640527
 10
170.3837481059786
 20
0.0
 30
163.8625744838696
 10
170.839531456864
 20
0.0
 30
163.2933810803591
 10
171.0592447814621
 20
0.0
 30
163.0021246955078
 10
171.4465570019864
 20
0.0
 30
162.4620540078452
 10
171.6526252776384
 20
0.0
 30
162.1595094047993
 10
172.046947020444
 20
0.0
 30
161.5428325997451
 10
172.2351992713601
 20
0.0
 30
161.2286996016067
 10
172.5635567365092
 20
0.0
 30
160.6493835339591
 10
172.7363206475382
 20
0.0
 30
160.3266071488957
 10
173.062890868587
 20
0.0
 30
159.6714397328367
 10
173.2166960205671
 20
0.0
 30
159.3390481117066
 10
173.480339730415
 20
0.0
 30
158.7310390260576
 10
173.6165608796484
 20
0.0
 30
158.3950410667405
 10
173.8695096274421
 20
0.0
 30
157.7156589883891
 10
173.9862362473392
 20
0.0
 30
157.3722744971796
 10
174.1818681281251
 20
0.0
 30
156.7479912269222
 10
174.2804990276017
 20
0.0
 30
156.4050979549731
 10
174.4582319100356
 20
0.0
 30
155.714198107774
 10
174.5373331740956
 20
0.0
 30
155.3661913437439
 10
174.6647518881636
 20
0.0
 30
154.7372557703754
 10
174.7261132836666
 20
0.0
 30
154.3938471436137
 10
174.8297611375583
 20
0.0
 30
153.7041121132313
 10
174.8720471750825
 20
0.0
 30
153.3577856450849
 10
174.933448715168
 20
0.0
 30
152.7359054934438
 10
174.9591515381301
 20
0.0
 30
152.3985286564196
 10
174.9924272456301
 20
0.0
 30
151.7228660637251
 10
175.0
 20
0.0
 30
151.3845803015152
 10
175.0
 20
0.0
 30
151.0769096943413
  0
LINE
  5
4D
330
48
100
AcDbEntity
  8
PV-18B
100
AcDbLine
 10
175.0
 20
0.0
 30
10.0
 11
175.0
 21
0.0
 31
151.0769096943413
  0
LINE
  5
4E
330
48
100
AcDbEntity
  8
PV-18B
100
AcDbLine
 10
-164.9999999999998
 20
0.0
 30
0.0000000000000029
 11
164.9999999999998
 21
0.0
 31
0.0000000000000029
  0
ARC
  5
4F
330
48
100
AcDbEntity
  8
PV-18B
100
AcDbCircle
 10
-165.0
 20
10.0
 30
0.0
 40
10.0
210
0.0
220
-1.0
230
0.0
100
AcDbArc
 50
180.0
 51
270.0
  0
ARC
  5
50
330
48
100
AcDbEntity
  8
PV-18B
100
AcDbCircle
 10
165.0
 20
10.0
 30
0.0
 40
10.0
210
0.0
220
-1.0
230
0.0
100
AcDbArc
 50
270.0
 51
0.0
  0
LINE
  5
51
330
48
100
AcDbEntity
  8
PV-18B
100
AcDbLine
 10
-235.0
 20
0.0
 30
60.0
 11
-235.0
 21
0.0
 31
43.5
  0
LINE
  5
52
330
48
100
AcDbEntity
  8
PV-18B
100
AcDbLine
 10
-235.0
 20
0.0
 30
76.5
 11
-235.0
 21
0.0
 31
59.99999999999978
  0
LINE
  5
53
330
48
100
AcDbEntity
  8
PV-18B
100
AcDbLine
 10
235.0
 20
0.0
 30
59.99999999999996
 11
235.0
 21
0.0
 31
43.49999999999996
  0
LINE
  5
54
330
48
100
AcDbEntity
  8
PV-18B
100
AcDbLine
 10
235.0
 20
0.0
 30
76.49999999999997
 11
235.0
 21
0.0
 31
59.99999999999975
  0
LINE
  5
55
330
48
100
AcDbEntity
  8
PV-18B
100
AcDbLine
 10
-235.0
 20
0.0
 30
60.0
 11
-235.0
 21
0.0
 31
76.5
  0
LINE
  5
56
330
48
100
AcDbEntity
  8
PV-18B
100
AcDbLine
 10
-235.0
 20
0.0
 30
43.5
 11
-235.0
 21
0.0
 31
60.00000000000023
  0
ARC
  5
57
330
48
100
AcDbEntity
  8
PV-18B
100
AcDbCircle
 10
-365.0
 20
60.0
 30
0.0
 40
16.5
210
0.0
220
-1.0
230
0.0
100
AcDbArc
 50
180.0
 51
270.0000000000002
  0
ARC
  5
58
330
48
100
AcDbEntity
  8
PV-18B
100
AcDbCircle
 10
-365.0
 20
60.0
 30
0.0
 40
16.5
210
0.0
220
-1.0
230
0.0
100
AcDbArc
 50
90.00000000000079
 51
180.0000000000008
  0
LINE
  5
59
330
48
100
AcDbEntity
  8
PV-18B
100
AcDbLine
 10
235.0
 20
0.0
 30
59.9999999999997
 11
235.0
 21
0.0
 31
76.4999999999997
  0
LINE
  5
5A
330
48
100
AcDbEntity
  8
PV-18B
100
AcDbLine
 10
235.0
 20
0.0
 30
43.4999999999997
 11
235.0
 21
0.0
 31
59.99999999999992
  0
ARC
  5
5B
330
48
100
AcDbEntity
  8
PV-18B
100
AcDbCircle
 10
365.0
 20
59.99999999999953
 30
0.0
 40
16.5
210
0.0
220
-1.0
230
0.0
100
AcDbArc
 50
270.0000000000002
 51
360.0
  0
ARC
  5
5C
330
48
100
AcDbEntity
  8
PV-18B
100
AcDbCircle
 10
365.0
 20
59.99999999999953
 30
0.0
 40
16.5
210
0.0
220
-1.0
230
0.0
100
AcDbArc
 50
359.9999999999992
 51
89.99999999999909
  0
ARC
  5
5D
330
48
100
AcDbEntity
  8
PV-18B
100
AcDbCircle
 10
-365.0
 20
60.0
 30
0.0
 40
35.0
210
0.0
220
-1.0
230
0.0
100
AcDbArc
 50
28.1270682186047
 51
331.8729317813952
  0
ARC
  5
5E
330
48
100
AcDbEntity
  8
PV-18B
100
AcDbCircle
 10
-365.0
 20
60.0
 30
0.0
 40
16.8
210
0.0
220
-1.0
230
0.0
100
AcDbArc
 50
79.15593743630306
 51
180.0000000000012
  0
ARC
  5
5F
330
48
100
AcDbEntity
  8
PV-18B
100
AcDbCircle
 10
-365.0
 20
60.0
 30
0.0
 40
16.8
210
0.0
220
-1.0
230
0.0
100
AcDbArc
 50
180.0000000000004
 51
280.8440625636969
  0
ARC
  5
60
330
48
100
AcDbEntity
  8
PV-18B
100
AcDbCircle
 10
365.0
 20
59.99999999999968
 30
0.0
 40
35.0
210
0.0
220
-1.0
230
0.0
100
AcDbArc
 50
208.1270682186049
 51
151.8729317813954
  0
ARC
  5
61
330
48
100
AcDbEntity
  8
PV-18B
100
AcDbCircle
 10
365.0
 20
59.99999999999968
 30
0.0
 40
16.8
210
0.0
220
-1.0
230
0.0
100
AcDbArc
 50
359.9999999999987
 51
100.8440625636998
  0
ARC
  5
62
330
48
100
AcDbEntity
  8
PV-18B
100
AcDbCircle
 10
365.0
 20
59.99999999999968
 30
0.0
 40
16.8
210
0.0
220
-1.0
230
0.0
100
AcDbArc
 50
259.1559374363059
 51
359.9999999999994
  0
LINE
  5
63
330
48
100
AcDbEntity
  8
PV-18B
100
AcDbLine
 10
245.0000000000001
 20
0.0
 30
76.49999999999969
 11
235.0
 21
0.0
 31
76.4999999999997
  0
LINE
  5
64
330
48
100
AcDbEntity
  8
PV-18B
100
AcDbLine
 10
245.0000000000001
 20
0.0
 30
43.49999999999967
 11
235.0
 21
0.0
 31
43.4999999999997
  0
LINE
  5
65
330
48
100
AcDbEntity
  8
PV-18B
100
AcDbLine
 10
-235.0
 20
0.0
 30
76.5
 11
-245.0
 21
0.0
 31
76.5
  0
LINE
  5
66
330
48
100
AcDbEntity
  8
PV-18B
100
AcDbLine
 10
-235.0
 20
0.0
 30
43.5
 11
-245.0
 21
0.0
 31
43.5
  0
LINE
  5
67
330
48
100
AcDbEntity
  8
PV-18B
100
AcDbLine
 10
235.0
 20
0.0
 30
76.49999999999995
 11
175.0
 21
0.0
 31
76.49999999999997
  0
LINE
  5
68
330
48
100
AcDbEntity
  8
PV-18B
100
AcDbLine
 10
235.0
 20
0.0
 30
43.49999999999996
 11
175.0
 21
0.0
 31
43.49999999999996
  0
LINE
  5
69
330
48
100
AcDbEntity
  8
PV-18B
100
AcDbLine
 10
-175.0
 20
0.0
 30
76.5
 11
-235.0
 21
0.0
 31
76.5
  0
LINE
  5
6A
330
48
100
AcDbEntity
  8
PV-18B
100
AcDbLine
 10
-175.0
 20
0.0
 30
43.5
 11
-235.0
 21
0.0
 31
43.5
  0
LINE
  5
6B
330
48
100
AcDbEntity
  8
PV-18B
100
AcDbLine
 10
245.0000000000001
 20
0.0
 30
43.49999999999967
 11
365.0000000000002
 21
0.0
 31
43.4999999999995
  0
LINE
  5
6C
330
48
100
AcDbEntity
  8
PV-18B
100
AcDbLine
 10
365.0000000000002
 20
0.0
 30
76.49999999999953
 11
245.0000000000001
 21
0.0
 31
76.49999999999969
  0
LINE
  5
6D
330
48
100
AcDbEntity
  8
PV-18B
100
AcDbLine
 10
-365.0
 20
0.0
 30
43.5
 11
-245.0
 21
0.0
 31
43.5
  0
LINE
  5
6E
330
48
100
AcDbEntity
  8
PV-18B
100
AcDbLine
 10
-245.0
 20
0.0
 30
76.5
 11
-365.0
 21
0.0
 31
76.5
  0
ENDBLK
  5
70
330
48
100
AcDbEntity
  8
0
100
AcDbBlockEnd
  0
BLOCK
  5
75
330
73
100
AcDbEntity
  8
0
100
AcDbBlockBegin
  2
FRONT
 70
     0
 10
0.0
 20
0.0
 30
0.0
  3
FRONT
  1

  0
INSERT
  5
74
330
73
100
AcDbEntity
  8
PV-18B
100
AcDbBlockReference
  2
*U0
 10
0.0
 20
0.0
 30
0.0
 50
180.0
210
0.0
220
1.0
230
0.0
  0
ENDBLK
  5
76
330
73
100
AcDbEntity
  8
0
100
AcDbBlockEnd
  0
BLOCK
  5
98
330
78
100
AcDbEntity
  8
0
100
AcDbBlockBegin
  2
*U2
 70
     1
 10
0.0
 20
0.0
 30
0.0
  3
*U2
  1
*ANON
  0
ARC
  5
79
330
78
100
AcDbEntity
  8
PV-18B
100
AcDbCircle
 10
1.999999999999998
 20
2.0
 30
0.0
 40
2.0
210
-1.0
220
0.0
230
0.0
100
AcDbArc
 50
180.0
 51
270.0
  0
LINE
  5
7A
330
78
100
AcDbEntity
  8
PV-18B
100
AcDbLine
 10
0.0
 20
0.0000000000000004
 30
10.0
 11
0.0
 21
0.0
 31
2.0
  0
LINE
  5
7B
330
78
100
AcDbEntity
  8
PV-18B
100
AcDbLine
 10
0.0
 20
0.0000000000000092
 30
151.0769096943413
 11
0.0
 21
0.0000000000000047
 31
76.5
  0
LINE
  5
7C
330
78
100
AcDbEntity
  8
PV-18B
100
AcDbLine
 10
0.0
 20
0.0000000000000026
 30
43.5
 11
0.0
 21
0.0000000000000006
 31
10.0
  0
LINE
  5
7D
330
78
100
AcDbEntity
  8
PV-18B
100
AcDbLine
 10
0.0
 20
0.0000000000000102
 30
165.8153703406308
 11
0.0
 21
0.0000000000000093
 31
151.0769096943413
  0
LINE
  5
7E
330
78
100
AcDbEntity
  8
PV-18B
100
AcDbLine
 10
0.0
 20
0.0000000000000136
 30
217.9999999999998
 11
0.0
 21
0.0000000000000104
 31
165.8153703406308
  0
LINE
  5
7F
330
78
100
AcDbEntity
  8
PV-18B
100
AcDbLine
 10
0.0
 20
-2.0
 30
0.0000000000000001
 11
0.0
 21
-46.02685139174647
 31
0.0000000000000028
  0
ARC
  5
80
330
78
100
AcDbEntity
  8
PV-18B
100
AcDbCircle
 10
22.0
 20
60.0
 30
0.0
 40
16.5
210
-1.0
220
0.0
230
0.0
100
AcDbArc
 50
269.9999999999997
 51
0.0
  0
ARC
  5
81
330
78
100
AcDbEntity
  8
PV-18B
100
AcDbCircle
 10
22.0
 20
60.0
 30
0.0
 40
16.5
210
-1.0
220
0.0
230
0.0
100
AcDbArc
 50
359.9999999999992
 51
89.99999999999941
  0
LINE
  5
82
330
78
100
AcDbEntity
  8
PV-18B
100
AcDbLine
 10
0.0
 20
107.9999999999964
 30
60.0
 11
0.0
 21
108.0
 31
43.5
  0
LINE
  5
83
330
78
100
AcDbEntity
  8
PV-18B
100
AcDbLine
 10
0.0
 20
108.0
 30
76.5
 11
0.0
 21
107.9999999999964
 31
59.99999999999978
  0
LINE
  5
84
330
78
100
AcDbEntity
  8
PV-18B
100
AcDbLine
 10
0.0
 20
108.0
 30
76.5
 11
0.0
 21
108.0
 31
43.5
  0
LINE
  5
85
330
78
100
AcDbEntity
  8
PV-18B
100
AcDbLine
 10
0.0
 20
124.3
 30
95.0
 11
0.0
 21
124.3
 31
25.0
  0
LINE
  5
86
330
78
100
AcDbEntity
  8
PV-18B
100
AcDbLine
 10
0.0
 20
112.2999999999999
 30
27.0
 11
0.0
 21
112.2999999999999
 31
93.0
  0
LINE
  5
87
330
78
100
AcDbEntity
  8
PV-18B
100
AcDbLine
 10
0.0
 20
124.3
 30
25.0
 11
0.0
 21
114.3
 31
25.0
  0
LINE
  5
88
330
78
100
AcDbEntity
  8
PV-18B
100
AcDbLine
 10
0.0
 20
124.3
 30
95.0
 11
0.0
 21
114.3
 31
95.0
  0
LINE
  5
89
330
78
100
AcDbEntity
  8
PV-18B
100
AcDbLine
 10
0.0
 20
108.0
 30
76.5
 11
0.0
 21
112.2999999999999
 31
76.5
  0
LINE
  5
8A
330
78
100
AcDbEntity
  8
PV-18B
100
AcDbLine
 10
0.0
 20
108.0
 30
43.5
 11
0.0
 21
112.2999999999999
 31
43.5
  0
LINE
  5
8B
330
78
100
AcDbEntity
  8
PV-18B
100
AcDbLine
 10
0.0
 20
97.9999999999752
 30
76.5
 11
0.0
 21
108.0
 31
76.5
  0
LINE
  5
8C
330
78
100
AcDbEntity
  8
PV-18B
100
AcDbLine
 10
0.0
 20
97.9999999999752
 30
43.5
 11
0.0
 21
108.0
 31
43.5
  0
ARC
  5
8D
330
78
100
AcDbEntity
  8
PV-18B
100
AcDbCircle
 10
46.02685139174647
 20
10.0
 30
0.0
 40
10.0
210
-1.0
220
0.0
230
0.0
100
AcDbArc
 50
269.9999999999997
 51
0.0
  0
LINE
  5
8E
330
78
100
AcDbEntity
  8
PV-18B
100
AcDbLine
 10
0.0
 20
-56.02685139174649
 30
10.0
 11
0.0
 21
-56.02685139174649
 31
151.0769096943413
  0
LINE
  5
8F
330
78
100
AcDbEntity
  8
PV-18B
100
AcDbLine
 10
0.0
 20
-1.999999999999985
 30
219.9999999999998
 11
0.0
 21
-35.0
 31
219.9999999999998
  0
ARC
  5
90
330
78
100
AcDbEntity
  8
PV-18B
100
AcDbCircle
 10
-114.3
 20
27.0
 30
0.0
 40
2.0
210
-1.0
220
0.0
230
0.0
100
AcDbArc
 50
270.0000000000004
 51
0.0000000000012468
  0
ARC
  5
91
330
78
100
AcDbEntity
  8
PV-18B
100
AcDbCircle
 10
-114.3
 20
93.0
 30
0.0
 40
2.0
210
-1.0
220
0.0
230
0.0
100
AcDbArc
 50
359.999999999998
 51
90.00000000000044
  0
LINE
  5
92
330
78
100
AcDbEntity
  8
PV-18B
100
AcDbLine
 10
0.0
 20
97.9999999999752
 30
43.5
 11
0.0
 21
-22.0
 31
43.5
  0
LINE
  5
93
330
78
100
AcDbEntity
  8
PV-18B
100
AcDbLine
 10
0.0
 20
-22.0
 30
76.5
 11
0.0
 21
97.9999999999752
 31
76.5
  0
SPLINE
  5
94
330
78
100
AcDbEntity
  8
PV-18B
100
AcDbSpline
210
1.0
220
0.0
230
0.0
 70
     8
 71
     3
 72
    16
 73
    12
 74
     0
 42
0.000000001
 43
0.0000000001
 40
-0.1936408705407412
 40
-0.1936408705407412
 40
-0.1936408705407412
 40
-0.1936408705407412
 40
0.0
 40
0.0
 40
32.46195476316743
 40
32.46195476316743
 40
64.42507095731454
 40
64.42507095731454
 40
128.8555692693452
 40
128.8555692693452
 40
171.7002331170188
 40
171.7002331170188
 40
171.7002331170188
 40
171.7002331170188
 10
0.0
 20
-44.75441002067706
 30
212.2026087143463
 10
0.0
 20
-44.75441002067706
 30
212.2026087143463
 10
0.0
 20
-44.75441509843907
 30
212.2025862271169
 10
0.0
 20
-44.75612709638009
 30
212.1950045202189
 10
0.0
 20
-44.90089980390568
 30
211.555867317302
 10
0.0
 20
-45.46499650340307
 30
209.0415235608325
 10
0.0
 20
-45.87940707865924
 30
207.1882534879075
 10
0.0
 20
-47.50469717304745
 30
199.8047355524589
 10
0.0
 20
-49.0941355092672
 30
192.4824786013591
 10
0.0
 20
-52.32590774386776
 30
176.5936425718886
 10
0.0
 20
-53.7655732719523
 30
169.2899484518075
 10
0.0
 20
-55.29308119184674
 30
161.0979928458552
  0
SPLINE
  5
95
330
78
100
AcDbEntity
  8
PV-18B
100
AcDbSpline
210
1.0
220
0.0
230
0.0
 70
     8
 71
     3
 72
    16
 73
    12
 74
     0
 42
0.000000001
 43
0.0000000001
 40
0.4701890350314119
 40
0.4701890350314119
 40
0.4701890350314119
 40
0.4701890350314119
 40
3.906444733869268
 40
3.906444733869268
 40
7.812889467738544
 40
7.812889467738544
 40
10.8981949613966
 40
10.8981949613966
 40
13.98363613685651
 40
13.98363613685651
 40
13.99363535444767
 40
13.99363535444767
 40
13.99363535444767
 40
13.99363535444767
 10
0.0
 20
-35.00000000000387
 30
219.9999996751246
 10
0.0
 20
-36.14311814096122
 30
219.9999976257318
 10
0.0
 20
-37.27903832015403
 30
219.8039771535456
 10
0.0
 20
-39.58448753553427
 30
218.9820968647361
 10
0.0
 20
-40.71389479986001
 30
218.3094522242507
 10
0.0
 20
-42.4476807619367
 30
216.7520167473107
 10
0.0
 20
-43.10218308682492
 30
215.9508241542877
 10
0.0
 20
-44.14380640601179
 30
214.1771493061339
 10
0.0
 20
-44.52468559244834
 30
213.2152680375504
 10
0.0
 20
-44.75293983935098
 30
212.2091119476841
 10
0.0
 20
-44.75367594036606
 30
212.2058596414376
 10
0.0
 20
-44.75441002067706
 30
212.2026087143463
  0
SPLINE
  5
96
330
78
100
AcDbEntity
  8
PV-18B
100
AcDbSpline
210
1.0
220
0.0
230
0.0
 70
     8
 71
     3
 72
    12
 73
     8
 74
     0
 42
0.000000001
 43
0.0000000001
 40
0.0
 40
0.0
 40
0.0
 40
0.0
 40
1.69743596530351
 40
1.69743596530351
 40
5.618528910870818
 40
5.618528910870818
 40
9.327267464330523
 40
9.327267464330523
 40
9.327267464330523
 40
9.327267464330523
 10
0.0
 20
-55.29308119184674
 30
161.0979928458552
 10
0.0
 20
-55.37192309873256
 30
160.6751672796598
 10
0.0
 20
-55.44091605687428
 30
160.2475967162749
 10
0.0
 20
-55.65025455374301
 30
158.7683626538614
 10
0.0
 20
-55.78821604845582
 30
157.4623578702126
 10
0.0
 20
-55.98023187618021
 30
154.3185527086945
 10
0.0
 20
-56.02685139174653
 30
152.7142063678307
 10
0.0
 20
-56.02685139174653
 30
151.0769096943413
  0
ARC
  5
97
330
78
100
AcDbEntity
  8
PV-18B
100
AcDbCircle
 10
1.999999999999985
 20
217.9999999999998
 30
0.0
 40
2.0
210
-1.0
220
0.0
230
0.0
100
AcDbArc
 50
90.0
 51
179.9999999999992
  0
ENDBLK
  5
99
330
78
100
AcDbEntity
  8
0
100
AcDbBlockEnd
  0
BLOCK
  5
9C
330
9A
100
AcDbEntity
  8
0
100
AcDbBlockBegin
  2
LEFT
 70
     0
 10
0.0
 20
0.0
 30
0.0
  3
LEFT
  1

  0
INSERT
  5
9B
330
9A
100
AcDbEntity
  8
PV-18B
100
AcDbBlockReference
  2
*U2
 10
0.0
 20
0.0
 30
0.0
 50
270.0
210
0.0
220
1.0
230
0.0
  0
ENDBLK
  5
9D
330
9A
100
AcDbEntity
  8
0
100
AcDbBlockEnd
  0
BLOCK
  5
BF
330
9F
100
AcDbEntity
  8
0
100
AcDbBlockBegin
  2
*U4
 70
     1
 10
0.0
 20
0.0
 30
0.0
  3
*U4
  1
*ANON
  0
LINE
  5
A0
330
9F
100
AcDbEntity
  8
PV-18B
100
AcDbLine
 10
0.0
 20
0.0
 30
2.0
 11
0.0
 21
0.0000000000000004
 31
10.0
  0
ARC
  5
A1
330
9F
100
AcDbEntity
  8
PV-18B
100
AcDbCircle
 10
-1.999999999999998
 20
2.0
 30
0.0
 40
2.0
210
1.0
220
0.0
230
0.0
100
AcDbArc
 50
270.0
 51
360.0
  0
LINE
  5
A2
330
9F
100
AcDbEntity
  8
PV-18B
100
AcDbLine
 10
0.0
 20
0.0000000000000007
 30
10.0
 11
0.0
 21
0.0000000000000028
 31
43.49999999999957
  0
LINE
  5
A3
330
9F
100
AcDbEntity
  8
PV-18B
100
AcDbLine
 10
0.0
 20
0.0000000000000048
 30
76.49999999999959
 11
0.0
 21
0.0000000000000093
 31
151.0769096943413
  0
LINE
  5
A4
330
9F
100
AcDbEntity
  8
PV-18B
100
AcDbLine
 10
0.0
 20
0.0000000000000093
 30
151.0769096943413
 11
0.0
 21
0.0000000000000102
 31
165.8153703406308
  0
LINE
  5
A5
330
9F
100
AcDbEntity
  8
PV-18B
100
AcDbLine
 10
0.0
 20
0.0000000000000104
 30
165.8153703406308
 11
0.0
 21
0.0000000000000136
 31
217.9999999999998
  0
LINE
  5
A6
330
9F
100
AcDbEntity
  8
PV-18B
100
AcDbLine
 10
0.0
 20
-2.0
 30
0.0000000000000001
 11
0.0
 21
-46.02685139181494
 31
0.0000000000000028
  0
ARC
  5
A7
330
9F
100
AcDbEntity
  8
PV-18B
100
AcDbCircle
 10
-22.0
 20
59.99999999999968
 30
0.0
 40
16.5
210
1.0
220
0.0
230
0.0
100
AcDbArc
 50
180.0
 51
270.0000000000002
  0
ARC
  5
A8
330
9F
100
AcDbEntity
  8
PV-18B
100
AcDbCircle
 10
-22.0
 20
59.99999999999968
 30
0.0
 40
16.5
210
1.0
220
0.0
230
0.0
100
AcDbArc
 50
90.0000000000006
 51
180.0000000000008
  0
LINE
  5
A9
330
9F
100
AcDbEntity
  8
PV-18B
100
AcDbLine
 10
0.0
 20
107.9999999999964
 30
59.9999999999995
 11
0.0
 21
108.0
 31
43.49999999999953
  0
LINE
  5
AA
330
9F
100
AcDbEntity
  8
PV-18B
100
AcDbLine
 10
0.0
 20
108.0
 30
76.49999999999953
 11
0.0
 21
107.9999999999964
 31
59.99999999999928
  0
LINE
  5
AB
330
9F
100
AcDbEntity
  8
PV-18B
100
AcDbLine
 10
0.0
 20
124.3
 30
94.99999999999969
 11
0.0
 21
124.3
 31
24.99999999999969
  0
LINE
  5
AC
330
9F
100
AcDbEntity
  8
PV-18B
100
AcDbLine
 10
0.0
 20
112.2999999999999
 30
26.99999999999969
 11
0.0
 21
112.2999999999999
 31
92.99999999999966
  0
LINE
  5
AD
330
9F
100
AcDbEntity
  8
PV-18B
100
AcDbLine
 10
0.0
 20
108.0
 30
76.49999999999969
 11
0.0
 21
108.0
 31
43.49999999999967
  0
LINE
  5
AE
330
9F
100
AcDbEntity
  8
PV-18B
100
AcDbLine
 10
0.0
 20
112.2999999999999
 30
76.49999999999969
 11
0.0
 21
108.0
 31
76.49999999999969
  0
LINE
  5
AF
330
9F
100
AcDbEntity
  8
PV-18B
100
AcDbLine
 10
0.0
 20
112.2999999999999
 30
43.49999999999967
 11
0.0
 21
108.0
 31
43.49999999999967
  0
LINE
  5
B0
330
9F
100
AcDbEntity
  8
PV-18B
100
AcDbLine
 10
0.0
 20
114.3
 30
24.99999999999968
 11
0.0
 21
124.3
 31
24.99999999999969
  0
LINE
  5
B1
330
9F
100
AcDbEntity
  8
PV-18B
100
AcDbLine
 10
0.0
 20
114.3
 30
94.99999999999969
 11
0.0
 21
124.3
 31
94.99999999999969
  0
LINE
  5
B2
330
9F
100
AcDbEntity
  8
PV-18B
100
AcDbLine
 10
0.0
 20
108.0
 30
76.49999999999953
 11
0.0
 21
97.9999999999752
 31
76.49999999999953
  0
LINE
  5
B3
330
9F
100
AcDbEntity
  8
PV-18B
100
AcDbLine
 10
0.0
 20
108.0
 30
43.49999999999953
 11
0.0
 21
97.9999999999752
 31
43.49999999999953
  0
ARC
  5
B4
330
9F
100
AcDbEntity
  8
PV-18B
100
AcDbCircle
 10
-46.02685139181494
 20
10.0
 30
0.0
 40
10.0
210
1.0
220
0.0
230
0.0
100
AcDbArc
 50
179.9999999999998
 51
270.0
  0
LINE
  5
B5
330
9F
100
AcDbEntity
  8
PV-18B
100
AcDbLine
 10
0.0
 20
-56.02685139181494
 30
151.0769096943413
 11
0.0
 21
-56.02685139181494
 31
10.0
  0
LINE
  5
B6
330
9F
100
AcDbEntity
  8
PV-18B
100
AcDbLine
 10
0.0
 20
-1.999999999999985
 30
219.9999999999998
 11
0.0
 21
-35.0
 31
219.9999999999998
  0
ARC
  5
B7
330
9F
100
AcDbEntity
  8
PV-18B
100
AcDbCircle
 10
114.3
 20
92.99999999999966
 30
0.0
 40
2.0
210
1.0
220
0.0
230
0.0
100
AcDbArc
 50
89.99999999999955
 51
180.0000000000011
  0
ARC
  5
B8
330
9F
100
AcDbEntity
  8
PV-18B
100
AcDbCircle
 10
114.3
 20
26.99999999999969
 30
0.0
 40
2.0
210
1.0
220
0.0
230
0.0
100
AcDbArc
 50
179.9999999999978
 51
269.9999999999994
  0
LINE
  5
B9
330
9F
100
AcDbEntity
  8
PV-18B
100
AcDbLine
 10
0.0
 20
-22.0
 30
43.49999999999967
 11
0.0
 21
97.9999999999752
 31
43.4999999999995
  0
LINE
  5
BA
330
9F
100
AcDbEntity
  8
PV-18B
100
AcDbLine
 10
0.0
 20
97.9999999999752
 30
76.49999999999953
 11
0.0
 21
-22.0
 31
76.49999999999969
  0
SPLINE
  5
BB
330
9F
100
AcDbEntity
  8
PV-18B
100
AcDbSpline
210
1.0
220
0.0
230
0.0
 70
     8
 71
     3
 72
    12
 73
     8
 74
     0
 42
0.000000001
 43
0.0000000001
 40
0.0
 40
0.0
 40
0.0
 40
0.0
 40
5.202270134973216
 40
5.202270134973216
 40
8.128215909642747
 40
8.128215909642747
 40
11.21776431338785
 40
11.21776431338785
 40
11.21776431338785
 40
11.21776431338785
 10
0.0
 20
-56.02685139181506
 30
151.0769096943413
 10
0.0
 20
-56.02685139181506
 30
152.8109997393324
 10
0.0
 20
-55.97476078019623
 30
154.5051721616202
 10
0.0
 20
-55.81137892816107
 30
157.01499005168
 10
0.0
 20
-55.73771406996467
 30
157.8654617221529
 10
0.0
 20
-55.5485822318201
 30
159.5437339032091
 10
0.0
 20
-55.43737087386761
 30
160.3241738341376
 10
0.0
 20
-55.29308119191217
 30
161.0979928458608
  0
SPLINE
  5
BC
330
9F
100
AcDbEntity
  8
PV-18B
100
AcDbSpline
210
1.0
220
0.0
230
0.0
 70
     8
 71
     3
 72
    16
 73
    12
 74
     0
 42
0.000000001
 43
0.0000000001
 40
-0.00999833024637
 40
-0.00999833024637
 40
-0.00999833024637
 40
-0.00999833024637
 40
0.0
 40
0.0
 40
3.085168277855299
 40
3.085168277855299
 40
6.170201778532092
 40
6.170201778532092
 40
10.07630212979436
 40
10.07630212979436
 40
13.51225489673979
 40
13.51225489673979
 40
13.51225489673979
 40
13.51225489673979
 10
0.0
 20
-44.75441002067706
 30
212.2026087143463
 10
0.0
 20
-44.75367594036606
 30
212.2058596414376
 10
0.0
 20
-44.75293983935098
 30
212.2091119476841
 10
0.0
 20
-44.52468552542604
 30
213.2152683329882
 10
0.0
 20
-44.14380625531697
 30
214.1771495627367
 10
0.0
 20
-43.10218308682492
 30
215.9508241542877
 10
0.0
 20
-42.4476807619367
 30
216.7520167473107
 10
0.0
 20
-40.71389479986001
 30
218.3094522242507
 10
0.0
 20
-39.58448753553427
 30
218.9820968647361
 10
0.0
 20
-37.27903832015403
 30
219.8039771535456
 10
0.0
 20
-36.14311814096122
 30
219.9999976257318
 10
0.0
 20
-35.00000000000385
 30
219.9999996751246
  0
SPLINE
  5
BD
330
9F
100
AcDbEntity
  8
PV-18B
100
AcDbSpline
210
1.0
220
0.0
230
0.0
 70
     8
 71
     3
 72
    16
 73
    12
 74
     0
 42
0.000000001
 43
0.0000000001
 40
0.0
 40
0.0
 40
0.0
 40
0.0
 40
42.843144418275
 40
42.843144418275
 40
107.2713577875858
 40
107.2713577875858
 40
139.2333404508979
 40
139.2333404508979
 40
171.6931728096011
 40
171.6931728096011
 40
171.886818886589
 40
171.886818886589
 40
171.886818886589
 40
171.886818886589
 10
0.0
 20
-55.29308119191219
 30
161.0979928458608
 10
0.0
 20
-53.76557327197318
 30
169.2899484520256
 10
0.0
 20
-52.32590774384846
 30
176.5936425722729
 10
0.0
 20
-49.09413550917651
 30
192.4824786019989
 10
0.0
 20
-47.50469717293593
 30
199.804735553134
 10
0.0
 20
-45.87940707857304
 30
207.1882534883938
 10
0.0
 20
-45.46499650333596
 30
209.0415235612121
 10
0.0
 20
-44.90090830770824
 30
211.555829413409
 10
0.0
 20
-44.75612721600817
 30
212.1950039904571
 10
0.0
 20
-44.7544150955379
 30
212.2025862399651
 10
0.0
 20
-44.75441002067706
 30
212.2026087143463
 10
0.0
 20
-44.75441002067706
 30
212.2026087143463
  0
ARC
  5
BE
330
9F
100
AcDbEntity
  8
PV-18B
100
AcDbCircle
 10
-1.999999999999985
 20
217.9999999999998
 30
0.0
 40
2.0
210
1.0
220
0.0
230
0.0
100
AcDbArc
 50
0.0
 51
90.0
  0
ENDBLK
  5
C0
330
9F
100
AcDbEntity
  8
0
100
AcDbBlockEnd
  0
BLOCK
  5
C3
330
C1
100
AcDbEntity
  8
0
100
AcDbBlockBegin
  2
RIGHT
 70
     0
 10
0.0
 20
0.0
 30
0.0
  3
RIGHT
  1

  0
INSERT
  5
C2
330
C1
100
AcDbEntity
  8
PV-18B
100
AcDbBlockReference
  2
*U4
 10
0.0
 20
0.0
 30
0.0
 50
90.0
210
0.0
220
1.0
230
0.0
  0
ENDBLK
  5
C4
330
C1
100
AcDbEntity
  8
0
100
AcDbBlockEnd
  0
BLOCK
  5
FD
330
C6
100
AcDbEntity
  8
0
100
AcDbBlockBegin
  2
*U6
 70
     1
 10
0.0
 20
0.0
 30
0.0
  3
*U6
  1
*ANON
  0
LINE
  5
C7
330
C6
100
AcDbEntity
  8
PV-18B
100
AcDbLine
 10
-175.0
 20
-1.999999999999988
 30
0.0
 11
-175.0
 21
-46.02685139174647
 31
0.0
  0
ARC
  5
C8
330
C6
100
AcDbEntity
  8
PV-18B
100
AcDbCircle
 10
-173.0
 20
-1.999999999999988
 30
0.0
 40
1.999999999999998
100
AcDbArc
 50
90.0
 51
180.0
  0
LINE
  5
C9
330
C6
100
AcDbEntity
  8
PV-18B
100
AcDbLine
 10
-165.333333333333
 20
0.0000000000000102
 30
0.0
 11
-172.9999999999998
 21
0.0000000000000093
 31
0.0
  0
LINE
  5
CA
330
C6
100
AcDbEntity
  8
PV-18B
100
AcDbLine
 10
173.0
 20
0.0000000000000093
 30
0.0
 11
165.3333333333332
 21
0.0000000000000102
 31
0.0
  0
ARC
  5
CB
330
C6
100
AcDbEntity
  8
PV-18B
100
AcDbCircle
 10
173.0
 20
-1.999999999999988
 30
0.0
 40
1.999999999999998
100
AcDbArc
 50
0.0000000000000127
 51
90.0
  0
LINE
  5
CC
330
C6
100
AcDbEntity
  8
PV-18B
100
AcDbLine
 10
165.3333333333332
 20
0.0000000000000104
 30
0.0
 11
-165.333333333333
 21
0.0000000000000104
 31
0.0
  0
LINE
  5
CD
330
C6
100
AcDbEntity
  8
PV-18B
100
AcDbLine
 10
175.0
 20
-1.999999999999988
 30
0.0
 11
175.0
 21
-46.02685139181504
 31
0.0
  0
SPLINE
  5
CE
330
C6
100
AcDbEntity
  8
PV-18B
100
AcDbSpline
210
0.0
220
0.0
230
1.0
 70
     8
 71
     3
 72
    42
 73
    38
 74
     0
 42
0.000000001
 43
0.0000000001
 40
60.51354121548342
 40
60.51354121548342
 40
60.51354121548342
 40
60.51354121548342
 40
61.46082082917963
 40
61.46082082917963
 40
62.40810044287586
 40
62.40810044287586
 40
63.38499014799821
 40
63.38499014799821
 40
64.36187985312057
 40
64.36187985312057
 40
65.36144482065886
 40
65.36144482065886
 40
66.36100978819714
 40
66.36100978819714
 40
67.37731493076896
 40
67.37731493076896
 40
68.3936200733408
 40
68.3936200733408
 40
69.42059214515372
 40
69.42059214515372
 40
70.44756421696668
 40
70.44756421696668
 40
71.47523872954579
 40
71.47523872954579
 40
72.50291324212489
 40
72.50291324212489
 40
73.5275559613646
 40
73.5275559613646
 40
74.55219868060432
 40
74.55219868060432
 40
75.62284745251872
 40
75.62284745251872
 40
76.69349622443316
 40
76.69349622443316
 40
77.85805876772167
 40
77.85805876772167
 40
79.0226213110102
 40
79.0226213110102
 40
79.0226213110102
 40
79.0226213110102
 10
-163.6693548387117
 20
-55.93792517084533
 30
0.0
 10
-163.6693548387117
 20
-55.93792517084533
 30
0.0
 10
-163.6655989967945
 20
-55.9374208948813
 30
0.0
 10
-163.6490953192871
 20
-55.93520530261304
 30
0.0
 10
-163.6363475486892
 20
-55.93349402511051
 30
0.0
 10
-163.6058943655015
 20
-55.92940664935515
 30
0.0
 10
-163.5849218544348
 20
-55.92659203208867
 30
0.0
 10
-163.5335158624795
 20
-55.91969507243895
 30
0.0
 10
-163.5030825902773
 20
-55.91561285662193
 30
0.0
 10
-163.4398870183805
 20
-55.90713874154368
 30
0.0
 10
-163.4006553421972
 20
-55.90187933403033
 30
0.0
 10
-163.3125055663223
 20
-55.89006750695014
 30
0.0
 10
-163.2635878216118
 20
-55.88351530798224
 30
0.0
 10
-163.1665607194478
 20
-55.87052537526857
 30
0.0
 10
-163.1086680806286
 20
-55.86277786209633
 30
0.0
 10
-162.9832136627411
 20
-55.84599985509373
 30
0.0
 10
-162.9156523662955
 20
-55.8369696715824
 30
0.0
 10
-162.7848935908468
 20
-55.81950359474075
 30
0.0
 10
-162.7086111954729
 20
-55.8093198691002
 30
0.0
 10
-162.5466429031886
 20
-55.78771513894725
 30
0.0
 10
-162.4609575749628
 20
-55.77629451879679
 30
0.0
 10
-162.298102864425
 20
-55.75460527450583
 30
0.0
 10
-162.2047358182551
 20
-55.74217927083697
 30
0.0
 10
-162.0091649585621
 20
-55.71617733994064
 30
0.0
 10
-161.9069617388884
 20
-55.70260184159947
 30
0.0
 10
-161.7148673714509
 20
-55.67710960922006
 30
0.0
 10
-161.6058966466129
 20
-55.6626606355832
 30
0.0
 10
-161.3798428139448
 20
-55.63272172302532
 30
0.0
 10
-161.2627602734604
 20
-55.61723223039931
 30
0.0
 10
-161.0389840727698
 20
-55.58765837310424
 30
0.0
 10
-160.9097480203631
 20
-55.57059611726163
 30
0.0
 10
-160.6432664481575
 20
-55.53546217749588
 30
0.0
 10
-160.5060215049757
 20
-55.51739100139645
 30
0.0
 10
-160.2394201974497
 20
-55.48232983603583
 30
0.0
 10
-160.0830059310913
 20
-55.46178516812454
 30
0.0
 10
-159.7618836875136
 20
-55.41967597707259
 30
0.0
 10
-159.5971763088631
 20
-55.39811207098225
 30
0.0
 10
-159.444444444446
 20
-55.3781450236786
 30
0.0
  0
ARC
  5
CF
330
C6
100
AcDbEntity
  8
PV-18B
100
AcDbCircle
 10
-165.0
 20
-46.02685139174647
 30
0.0
 40
10.0
100
AcDbArc
 50
179.9999999999998
 51
277.6467150924551
  0
SPLINE
  5
D0
330
C6
100
AcDbEntity
  8
PV-18B
100
AcDbSpline
210
0.0
220
0.0
230
1.0
 70
     8
 71
     3
 72
    70
 73
    66
 74
     0
 42
0.000000001
 43
0.0000000001
 40
39.62778323717639
 40
39.62778323717639
 40
39.62778323717639
 40
39.62778323717639
 40
50.02619892778175
 40
50.02619892778175
 40
60.42461461838712
 40
60.42461461838712
 40
70.82303030899248
 40
70.82303030899248
 40
81.22144599959787
 40
81.22144599959787
 40
92.03651776576299
 40
92.03651776576299
 40
102.8515895319281
 40
102.8515895319281
 40
113.6666612980933
 40
113.6666612980933
 40
124.4817330642584
 40
124.4817330642584
 40
135.213537418722
 40
135.213537418722
 40
145.9453417731855
 40
145.9453417731855
 40
156.6771461276492
 40
156.6771461276492
 40
167.4089504821127
 40
167.4089504821127
 40
177.8320782282138
 40
177.8320782282138
 40
188.2552059743149
 40
188.2552059743149
 40
198.6783337204161
 40
198.6783337204161
 40
209.1014614665172
 40
209.1014614665172
 40
219.5245892126253
 40
219.5245892126253
 40
229.9477169587333
 40
229.9477169587333
 40
240.3708447048412
 40
240.3708447048412
 40
250.793972450949
 40
250.793972450949
 40
261.5257768054156
 40
261.5257768054156
 40
272.2575811598825
 40
272.2575811598825
 40
282.9893855143491
 40
282.9893855143491
 40
293.7211898688159
 40
293.7211898688159
 40
304.5362616349811
 40
304.5362616349811
 40
315.3513334011463
 40
315.3513334011463
 40
326.1664051673113
 40
326.1664051673113
 40
336.9814769334764
 40
336.9814769334764
 40
347.3798926240776
 40
347.3798926240776
 40
357.7783083146787
 40
357.7783083146787
 40
368.1767240052796
 40
368.1767240052796
 40
378.5751396958808
 40
378.5751396958808
 40
378.5751396958808
 40
378.5751396958808
 10
-159.4444444444462
 20
-55.3781450236786
 30
0.0
 10
-156.7846480545985
 20
-55.03042268992117
 30
0.0
 10
-153.9596296721379
 20
-54.67006814335118
 30
0.0
 10
-148.1017019093162
 20
-53.94529359017004
 30
0.0
 10
-145.0687409985555
 20
-53.58090405255747
 30
0.0
 10
-138.9302361303888
 20
-52.86746338675481
 30
0.0
 10
-135.8244942907907
 20
-52.51841283438262
 30
0.0
 10
-129.6882877500071
 20
-51.85222796720744
 30
0.0
 10
-126.6578632814562
 20
-51.5351017602985
 30
0.0
 10
-120.7154115086118
 20
-50.93420860946463
 30
0.0
 10
-117.5074156703119
 20
-50.62134601523435
 30
0.0
 10
-110.8785211333195
 20
-50.0032511788668
 30
0.0
 10
-107.4575794044803
 20
-49.69805446068757
 30
0.0
 10
-100.5573216755382
 20
-49.11247898865813
 30
0.0
 10
-97.07776088186195
 20
-48.8321005006227
 30
0.0
 10
-90.22474427961986
 20
-48.30879805053435
 30
0.0
 10
-86.85131962676555
 20
-48.06587314567186
 30
0.0
 10
-80.40943172596746
 20
-47.62692487660809
 30
0.0
 10
-77.02297311077396
 20
-47.40900256667024
 30
0.0
 10
-70.05109384013036
 20
-46.99143341018254
 30
0.0
 10
-66.46564568034955
 20
-46.79181987666964
 30
0.0
 10
-59.25959816450089
 20
-46.42305255106342
 30
0.0
 10
-55.63874329284667
 20
-46.25389882340638
 30
0.0
 10
-48.53149998788647
 20
-45.95266794935471
 30
0.0
 10
-45.0451293566051
 20
-45.82057920250871
 30
0.0
 10
-38.47779928976331
 20
-45.59773015072464
 30
0.0
 10
-35.07282759741755
 20
-45.49517851859522
 30
0.0
 10
-28.08677478259776
 20
-45.31575501513102
 30
0.0
 10
-24.50568263661915
 20
-45.23890988143249
 30
0.0
 10
-17.33253013394969
 20
-45.11689553427628
 30
0.0
 10
-13.74022782616234
 20
-45.07172632624164
 30
0.0
 10
-6.711319212418378
 20
-45.01328851192389
 30
0.0
 10
-3.274716365183917
 20
-44.99999999999935
 30
0.0
 10
3.274716365163504
 20
-45.00000000000063
 30
0.0
 10
6.711319212400223
 20
-45.01328851192655
 30
0.0
 10
13.74022782614876
 20
-45.07172632624715
 30
0.0
 10
17.33253013393845
 20
-45.11689553428321
 30
0.0
 10
24.50568263661256
 20
-45.23890988144239
 30
0.0
 10
28.08677478259346
 20
-45.31575501514248
 30
0.0
 10
35.07282759741775
 20
-45.49517851860968
 30
0.0
 10
38.47779928976571
 20
-45.59773015074074
 30
0.0
 10
45.04512935661046
 20
-45.82057920252764
 30
0.0
 10
48.53149998789271
 20
-45.95266794937502
 30
0.0
 10
55.63874329285479
 20
-46.25389882342974
 30
0.0
 10
59.25959816450999
 20
-46.42305255108822
 30
0.0
 10
66.46564568036049
 20
-46.7918198766976
 30
0.0
 10
70.05109384014217
 20
-46.99143341021215
 30
0.0
 10
77.02297311078756
 20
-47.40900256670292
 30
0.0
 10
80.4094317259819
 20
-47.62692487664259
 30
0.0
 10
86.85131962678058
 20
-48.06587314570919
 30
0.0
 10
90.22474427963471
 20
-48.30879805057293
 30
0.0
 10
97.0777608818765
 20
-48.83210050066419
 30
0.0
 10
100.5573216755525
 20
-49.112478988701
 30
0.0
 10
107.4575794044942
 20
-49.6980544607334
 30
0.0
 10
110.8785211333332
 20
-50.00325117891405
 30
0.0
 10
117.507415670325
 20
-50.62134601528443
 30
0.0
 10
120.7154115086247
 20
-50.93420860951585
 30
0.0
 10
126.6578632814675
 20
-51.53510176035214
 30
0.0
 10
129.6882877500169
 20
-51.85222796726245
 30
0.0
 10
135.8244942907977
 20
-52.51841283443994
 30
0.0
 10
138.9302361303943
 20
-52.86746338681324
 30
0.0
 10
145.0687409985581
 20
-53.58090405261818
 30
0.0
 10
148.1017019093175
 20
-53.94529359023171
 30
0.0
 10
153.9596296721366
 20
-54.67006814341502
 30
0.0
 10
156.7846480545956
 20
-55.03042268998616
 30
0.0
 10
159.4444444444422
 20
-55.37814502374454
 30
0.0
  0
SPLINE
  5
D1
330
C6
100
AcDbEntity
  8
PV-18B
100
AcDbSpline
210
0.0
220
0.0
230
1.0
 70
     8
 71
     3
 72
    38
 73
    34
 74
     0
 42
0.000000001
 43
0.0000000001
 40
-18.5090800955268
 40
-18.5090800955268
 40
-18.5090800955268
 40
-18.5090800955268
 40
-16.27139834080058
 40
-16.27139834080058
 40
-14.03371658607436
 40
-14.03371658607436
 40
-13.00943448790905
 40
-13.00943448790905
 40
-11.98515238974376
 40
-11.98515238974376
 40
-10.95783956527315
 40
-10.95783956527315
 40
-9.930526740802564
 40
-9.930526740802564
 40
-8.903916109875456
 40
-8.903916109875456
 40
-7.87730547894835
 40
-7.87730547894835
 40
-6.861358023056821
 40
-6.861358023056821
 40
-5.845410567165286
 40
-5.845410567165286
 40
-4.846197394634281
 40
-4.846197394634281
 40
-3.846984222103277
 40
-3.846984222103277
 40
-2.870438331472341
 40
-2.870438331472341
 40
-1.893892440841405
 40
-1.893892440841405
 40
-0.9469462204207026
 40
-0.9469462204207026
 40
0.0
 40
0.0
 40
0.0
 40
0.0
 10
159.4444444444423
 20
-55.37814502374477
 30
0.0
 10
159.7380187435176
 20
-55.41652478123133
 30
0.0
 10
160.0483927574605
 20
-55.45721684605037
 30
0.0
 10
160.6365162983138
 20
-55.53454431924595
 30
0.0
 10
160.9142613291327
 20
-55.5711752413174
 30
0.0
 10
161.2627602734586
 20
-55.61723223046642
 30
0.0
 10
161.3798428139431
 20
-55.63272172309235
 30
0.0
 10
161.605896646611
 20
-55.66266063565033
 30
0.0
 10
161.7148673714488
 20
-55.6771096092871
 30
0.0
 10
161.9069617388863
 20
-55.70260184166658
 30
0.0
 10
162.0091649585598
 20
-55.71617734000789
 30
0.0
 10
162.2047358182526
 20
-55.74217927090431
 30
0.0
 10
162.2981028644223
 20
-55.75460527457334
 30
0.0
 10
162.4609575749601
 20
-55.77629451886433
 30
0.0
 10
162.5466429031858
 20
-55.78771513901475
 30
0.0
 10
162.70861119547
 20
-55.80931986916773
 30
0.0
 10
162.7848935908436
 20
-55.81950359480828
 30
0.0
 10
162.9156523662925
 20
-55.83696967164996
 30
0.0
 10
162.983213662738
 20
-55.84599985516145
 30
0.0
 10
163.1086680806252
 20
-55.8627778621641
 30
0.0
 10
163.1665607194443
 20
-55.87052537533629
 30
0.0
 10
163.2635878216083
 20
-55.88351530805002
 30
0.0
 10
163.3125055663185
 20
-55.89006750701788
 30
0.0
 10
163.4006553421935
 20
-55.90187933409811
 30
0.0
 10
163.4398870183769
 20
-55.90713874161146
 30
0.0
 10
163.5030825902735
 20
-55.91561285668969
 30
0.0
 10
163.5335158624755
 20
-55.91969507250645
 30
0.0
 10
163.584921854431
 20
-55.92659203215621
 30
0.0
 10
163.6058943654975
 20
-55.9294066494229
 30
0.0
 10
163.6363475486851
 20
-55.93349402517826
 30
0.0
 10
163.6490953192831
 20
-55.93520530268079
 30
0.0
 10
163.6655989967904
 20
-55.93742089494906
 30
0.0
 10
163.6693548387075
 20
-55.93792517091332
 30
0.0
 10
163.6693548387075
 20
-55.93792517091332
 30
0.0
  0
ARC
  5
D2
330
C6
100
AcDbEntity
  8
PV-18B
100
AcDbCircle
 10
165.0
 20
-46.02685139181504
 30
0.0
 40
10.0
100
AcDbArc
 50
262.3532849075207
 51
0.0
  0
LINE
  5
D3
330
C6
100
AcDbEntity
  8
PV-18B
100
AcDbLine
 10
-235.0
 20
-5.5
 30
0.0
 11
-235.0
 21
-38.5
 31
0.0
  0
LINE
  5
D4
330
C6
100
AcDbEntity
  8
PV-18B
100
AcDbLine
 10
235.0
 20
-5.49999999999992
 30
0.0
 11
235.0
 21
-38.49999999999992
 31
0.0
  0
LINE
  5
D5
330
C6
100
AcDbEntity
  8
PV-18B
100
AcDbLine
 10
-235.0
 20
-38.5
 30
0.0
 11
-235.0
 21
-5.5
 31
0.0
  0
LINE
  5
D6
330
C6
100
AcDbEntity
  8
PV-18B
100
AcDbLine
 10
-348.4999999999998
 20
108.0000000000034
 30
0.0
 11
-381.4999999999998
 21
107.9999999999964
 31
0.0
  0
LINE
  5
D7
330
C6
100
AcDbEntity
  8
PV-18B
100
AcDbLine
 10
235.0
 20
-38.5
 30
0.0
 11
235.0
 21
-5.5
 31
0.0
  0
LINE
  5
D8
330
C6
100
AcDbEntity
  8
PV-18B
100
AcDbLine
 10
348.4999999999998
 20
108.0000000000034
 30
0.0
 11
381.4999999999998
 21
107.9999999999964
 31
0.0
  0
LINE
  5
D9
330
C6
100
AcDbEntity
  8
PV-18B
100
AcDbLine
 10
-348.4999999999998
 20
108.0
 30
0.0
 11
-381.4999999999998
 21
108.0
 31
0.0
  0
LINE
  5
DA
330
C6
100
AcDbEntity
  8
PV-18B
100
AcDbLine
 10
-330.0
 20
124.3
 30
0.0
 11
-400.0
 21
124.3
 31
0.0
  0
LINE
  5
DB
330
C6
100
AcDbEntity
  8
PV-18B
100
AcDbLine
 10
-398.0
 20
112.2999999999999
 30
0.0
 11
-332.0
 21
112.2999999999999
 31
0.0
  0
LINE
  5
DC
330
C6
100
AcDbEntity
  8
PV-18B
100
AcDbLine
 10
330.0
 20
124.3
 30
0.0
 11
400.0
 21
124.3
 31
0.0
  0
LINE
  5
DD
330
C6
100
AcDbEntity
  8
PV-18B
100
AcDbLine
 10
398.0
 20
112.2999999999999
 30
0.0
 11
332.0
 21
112.2999999999999
 31
0.0
  0
LINE
  5
DE
330
C6
100
AcDbEntity
  8
PV-18B
100
AcDbLine
 10
348.4999999999998
 20
108.0
 30
0.0
 11
381.4999999999998
 21
108.0
 31
0.0
  0
LINE
  5
DF
330
C6
100
AcDbEntity
  8
PV-18B
100
AcDbLine
 10
348.4999999999998
 20
112.2999999999999
 30
0.0
 11
348.4999999999998
 21
108.0
 31
0.0
  0
LINE
  5
E0
330
C6
100
AcDbEntity
  8
PV-18B
100
AcDbLine
 10
381.4999999999998
 20
112.2999999999999
 30
0.0
 11
381.4999999999998
 21
108.0
 31
0.0
  0
LINE
  5
E1
330
C6
100
AcDbEntity
  8
PV-18B
100
AcDbLine
 10
400.0
 20
114.3
 30
0.0
 11
400.0
 21
124.3
 31
0.0
  0
LINE
  5
E2
330
C6
100
AcDbEntity
  8
PV-18B
100
AcDbLine
 10
330.0
 20
114.3
 30
0.0
 11
330.0
 21
124.3
 31
0.0
  0
LINE
  5
E3
330
C6
100
AcDbEntity
  8
PV-18B
100
AcDbLine
 10
-400.0
 20
124.3
 30
0.0
 11
-400.0
 21
114.3
 31
0.0
  0
LINE
  5
E4
330
C6
100
AcDbEntity
  8
PV-18B
100
AcDbLine
 10
-330.0
 20
124.3
 30
0.0
 11
-330.0
 21
114.3
 31
0.0
  0
LINE
  5
E5
330
C6
100
AcDbEntity
  8
PV-18B
100
AcDbLine
 10
-348.4999999999998
 20
108.0
 30
0.0
 11
-348.4999999999998
 21
112.2999999999999
 31
0.0
  0
LINE
  5
E6
330
C6
100
AcDbEntity
  8
PV-18B
100
AcDbLine
 10
-381.4999999999998
 20
108.0
 30
0.0
 11
-381.4999999999998
 21
112.2999999999999
 31
0.0
  0
LINE
  5
E7
330
C6
100
AcDbEntity
  8
PV-18B
100
AcDbLine
 10
348.4999999999998
 20
108.0000000000034
 30
0.0
 11
348.4999999999998
 21
97.9999999999786
 31
0.0
  0
LINE
  5
E8
330
C6
100
AcDbEntity
  8
PV-18B
100
AcDbLine
 10
381.4999999999998
 20
107.9999999999964
 30
0.0
 11
381.4999999999998
 21
97.99999999997179
 31
0.0
  0
LINE
  5
E9
330
C6
100
AcDbEntity
  8
PV-18B
100
AcDbLine
 10
245.0000000000001
 20
-5.5
 30
0.0
 11
235.0
 21
-5.5
 31
0.0
  0
LINE
  5
EA
330
C6
100
AcDbEntity
  8
PV-18B
100
AcDbLine
 10
245.0000000000001
 20
-38.5
 30
0.0
 11
235.0
 21
-38.5
 31
0.0
  0
LINE
  5
EB
330
C6
100
AcDbEntity
  8
PV-18B
100
AcDbLine
 10
-348.4999999999998
 20
97.9999999999786
 30
0.0
 11
-348.4999999999998
 21
108.0000000000034
 31
0.0
  0
LINE
  5
EC
330
C6
100
AcDbEntity
  8
PV-18B
100
AcDbLine
 10
-381.4999999999998
 20
97.99999999997179
 30
0.0
 11
-381.4999999999998
 21
107.9999999999964
 31
0.0
  0
LINE
  5
ED
330
C6
100
AcDbEntity
  8
PV-18B
100
AcDbLine
 10
-235.0
 20
-5.5
 30
0.0
 11
-245.0
 21
-5.5
 31
0.0
  0
LINE
  5
EE
330
C6
100
AcDbEntity
  8
PV-18B
100
AcDbLine
 10
-235.0
 20
-38.5
 30
0.0
 11
-245.0
 21
-38.5
 31
0.0
  0
LINE
  5
EF
330
C6
100
AcDbEntity
  8
PV-18B
100
AcDbLine
 10
235.0
 20
-5.49999999999992
 30
0.0
 11
175.0
 21
-5.499999999999943
 31
0.0
  0
LINE
  5
F0
330
C6
100
AcDbEntity
  8
PV-18B
100
AcDbLine
 10
235.0
 20
-38.49999999999992
 30
0.0
 11
174.9999999999998
 21
-38.49999999999994
 31
0.0
  0
LINE
  5
F1
330
C6
100
AcDbEntity
  8
PV-18B
100
AcDbLine
 10
-175.0
 20
-5.5
 30
0.0
 11
-235.0
 21
-5.5
 31
0.0
  0
LINE
  5
F2
330
C6
100
AcDbEntity
  8
PV-18B
100
AcDbLine
 10
-174.9999999999998
 20
-38.5
 30
0.0
 11
-235.0
 21
-38.5
 31
0.0
  0
ARC
  5
F3
330
C6
100
AcDbEntity
  8
PV-18B
100
AcDbCircle
 10
332.0
 20
114.3
 30
0.0
 40
2.0
100
AcDbArc
 50
180.0
 51
270.0
  0
ARC
  5
F4
330
C6
100
AcDbEntity
  8
PV-18B
100
AcDbCircle
 10
398.0
 20
114.3
 30
0.0
 40
2.0
100
AcDbArc
 50
270.0
 51
0.0
  0
ARC
  5
F5
330
C6
100
AcDbEntity
  8
PV-18B
100
AcDbCircle
 10
-398.0
 20
114.3
 30
0.0
 40
2.0
100
AcDbArc
 50
180.0000000000002
 51
269.9999999999996
  0
ARC
  5
F6
330
C6
100
AcDbEntity
  8
PV-18B
100
AcDbCircle
 10
-332.0
 20
114.3
 30
0.0
 40
2.0
100
AcDbArc
 50
269.9999999999996
 51
359.9999999999997
  0
ARC
  5
F7
330
C6
100
AcDbEntity
  8
PV-18B
100
AcDbCircle
 10
245.0000000000001
 20
98.0
 30
0.0
 40
103.4999999999999
100
AcDbArc
 50
270.0000000000002
 51
359.9999999999873
  0
ARC
  5
F8
330
C6
100
AcDbEntity
  8
PV-18B
100
AcDbCircle
 10
245.0000000000001
 20
98.0
 30
0.0
 40
136.4999999999998
100
AcDbArc
 50
270.0
 51
359.999999999988
  0
ARC
  5
F9
330
C6
100
AcDbEntity
  8
PV-18B
100
AcDbCircle
 10
-245.0
 20
98.0
 30
0.0
 40
103.4999999999999
100
AcDbArc
 50
180.0000000000117
 51
270.0000000000002
  0
ARC
  5
FA
330
C6
100
AcDbEntity
  8
PV-18B
100
AcDbCircle
 10
-245.0
 20
98.0
 30
0.0
 40
136.4999999999998
100
AcDbArc
 50
180.0000000000111
 51
270.0
  0
ARC
  5
FB
330
C6
100
AcDbEntity
  8
PV-18B
100
AcDbCircle
 10
165.0
 20
-46.02685139181504
 30
0.0
 40
10.0
100
AcDbArc
 50
262.3532849075207
 51
0.0
  0
ARC
  5
FC
330
C6
100
AcDbEntity
  8
PV-18B
100
AcDbCircle
 10
-165.0
 20
-46.02685139174653
 30
0.0
 40
10.0
100
AcDbArc
 50
179.9999999999998
 51
277.6467150924553
  0
ENDBLK
  5
FE
330
C6
100
AcDbEntity
  8
0
100
AcDbBlockEnd
  0
BLOCK
  5
101
330
FF
100
AcDbEntity
  8
0
100
AcDbBlockBegin
  2
TOP
 70
     0
 10
0.0
 20
0.0
 30
0.0
  3
TOP
  1

  0
INSERT
  5
100
330
FF
100
AcDbEntity
  8
PV-18B
100
AcDbBlockReference
  2
*U6
 10
0.0
 20
0.0
 30
0.0
  0
ENDBLK
  5
102
330
FF
100
AcDbEntity
  8
0
100
AcDbBlockEnd
  0
BLOCK
  5
23B
330
23A
100
AcDbEntity
  8
0
100
AcDbBlockBegin
  2
*D8
 70
     1
 10
0.0
 20
0.0
 30
0.0
  3
*D8
  1

  0
LINE
  5
23D
330
23A
100
AcDbEntity
  8
0
 62
     0
440
 16777216
370
    -2
100
AcDbLine
 10
560.0000000140002
 20
-50.06249999999989
 30
0.0
 11
560.0000000140002
 21
-165.7946684988016
 31
0.0
  0
LINE
  5
23E
330
23A
100
AcDbEntity
  8
0
 62
     0
440
 16777216
370
    -2
100
AcDbLine
 10
740.3268514057466
 20
-50.06249999999989
 30
0.0
 11
740.3268514057466
 21
-165.7946684988016
 31
0.0
  0
LINE
  5
23F
330
23A
100
AcDbEntity
  8
0
 62
     0
440
 16777216
370
    -2
100
AcDbLine
 10
560.1800000140001
 20
-165.6146684988016
 30
0.0
 11
649.4884257098735
 21
-165.6146684988016
 31
0.0
  0
LINE
  5
240
330
23A
100
AcDbEntity
  8
0
 62
     0
440
 16777216
370
    -2
100
AcDbLine
 10
740.1468514057468
 20
-165.6146684988016
 30
0.0
 11
650.8384257098732
 21
-165.6146684988016
 31
0.0
  0
SOLID
  5
241
330
23A
100
AcDbEntity
  8
0
 62
     0
440
 16777216
100
AcDbTrace
 10
560.1800000140001
 20
-165.5846684988016
 30
0.0
 11
560.1800000140001
 21
-165.6446684988016
 31
0.0
 12
560.0000000140002
 22
-165.6146684988016
 32
0.0
 13
560.0000000140002
 23
-165.6146684988016
 33
0.0
  0
SOLID
  5
242
330
23A
100
AcDbEntity
  8
0
 62
     0
440
 16777216
100
AcDbTrace
 10
740.1468514057468
 20
-165.5846684988016
 30
0.0
 11
740.1468514057468
 21
-165.6446684988016
 31
0.0
 12
740.3268514057466
 22
-165.6146684988016
 32
0.0
 13
740.3268514057466
 23
-165.6146684988016
 33
0.0
  0
MTEXT
  5
243
330
23A
100
AcDbEntity
  8
0
 62
     0
440
 16777216
100
AcDbMText
 10
650.1634257098733
 20
-165.6146684988016
 30
0.0
 40
0.18
 41
0.0
 46
0.0
 71
     5
 72
     1
  1
\A1;180.3269
 73
     1
 44
1.0
  0
POINT
  5
244
330
23A
100
AcDbEntity
  8
Defpoints
 62
     0
440
 16777216
100
AcDbPoint
 10
560.0000000140002
 20
-49.99999999999989
 30
-0.0000000000000228
  0
POINT
  5
245
330
23A
100
AcDbEntity
  8
Defpoints
 62
     0
440
 16777216
100
AcDbPoint
 10
740.3268514057466
 20
-49.99999999999989
 30
0.0000000000000103
  0
POINT
  5
246
330
23A
100
AcDbEntity
  8
Defpoints
 62
     0
440
 16777216
100
AcDbPoint
 10
740.3268514057466
 20
-165.6146684988016
 30
0.0
  0
ENDBLK
  5
23C
330
23A
100
AcDbEntity
  8
0
100
AcDbBlockEnd
  0
BLOCK
  5
249
330
248
100
AcDbEntity
  8
0
100
AcDbBlockBegin
  2
*D9
 70
     1
 10
0.0
 20
0.0
 30
0.0
  3
*D9
  1

  0
LINE
  5
24B
330
248
100
AcDbEntity
  8
0
 62
     0
440
 16777216
370
    -2
100
AcDbLine
 10
-175.0
 20
-54.84996859019792
 30
0.0
 11
-175.0
 21
-161.7276161138936
 31
0.0
  0
LINE
  5
24C
330
248
100
AcDbEntity
  8
0
 62
     0
440
 16777216
370
    -2
100
AcDbLine
 10
175.0
 20
-54.84996859019792
 30
0.0
 11
175.0
 21
-161.7276161138936
 31
0.0
  0
LINE
  5
24D
330
248
100
AcDbEntity
  8
0
 62
     0
440
 16777216
370
    -2
100
AcDbLine
 10
-174.82
 20
-161.5476161138936
 30
0.0
 11
-0.6450000000000001
 21
-161.5476161138936
 31
0.0
  0
LINE
  5
24E
330
248
100
AcDbEntity
  8
0
 62
     0
440
 16777216
370
    -2
100
AcDbLine
 10
174.82
 20
-161.5476161138936
 30
0.0
 11
0.6450000000000001
 21
-161.5476161138936
 31
0.0
  0
SOLID
  5
24F
330
248
100
AcDbEntity
  8
0
 62
     0
440
 16777216
100
AcDbTrace
 10
-174.82
 20
-161.5176161138936
 30
0.0
 11
-174.82
 21
-161.5776161138936
 31
0.0
 12
-175.0
 22
-161.5476161138936
 32
0.0
 13
-175.0
 23
-161.5476161138936
 33
0.0
  0
SOLID
  5
250
330
248
100
AcDbEntity
  8
0
 62
     0
440
 16777216
100
AcDbTrace
 10
174.82
 20
-161.5176161138936
 30
0.0
 11
174.82
 21
-161.5776161138936
 31
0.0
 12
175.0
 22
-161.5476161138936
 32
0.0
 13
175.0
 23
-161.5476161138936
 33
0.0
  0
MTEXT
  5
251
330
248
100
AcDbEntity
  8
0
 62
     0
440
 16777216
100
AcDbMText
 10
0.0
 20
-161.5476161138936
 30
0.0
 40
0.18
 41
0.0
 46
0.0
 71
     5
 72
     1
  1
\A1;350.0000
 73
     1
 44
1.0
  0
POINT
  5
252
330
248
100
AcDbEntity
  8
Defpoints
 62
     0
440
 16777216
100
AcDbPoint
 10
-175.0
 20
-54.78746859019793
 30
-0.0000000000000214
  0
POINT
  5
253
330
248
100
AcDbEntity
  8
Defpoints
 62
     0
440
 16777216
100
AcDbPoint
 10
175.0
 20
-54.78746859019793
 30
0.0000000000000214
  0
POINT
  5
254
330
248
100
AcDbEntity
  8
Defpoints
 62
     0
440
 16777216
100
AcDbPoint
 10
175.0
 20
-161.5476161138936
 30
0.0
  0
ENDBLK
  5
24A
330
248
100
AcDbEntity
  8
0
100
AcDbBlockEnd
  0
BLOCK
  5
257
330
256
100
AcDbEntity
  8
0
100
AcDbBlockBegin
  2
*D10
 70
     1
 10
0.0
 20
0.0
 30
0.0
  3
*D10
  1

  0
LINE
  5
259
330
256
100
AcDbEntity
  8
0
 62
     0
440
 16777216
370
    -2
100
AcDbLine
 10
-0.0624991728073652
 20
110.0000000049998
 30
0.0
 11
-54.08269320385274
 21
110.0000000049998
 31
0.0
  0
LINE
  5
25A
330
256
100
AcDbEntity
  8
0
 62
     0
440
 16777216
370
    -2
100
AcDbLine
 10
-0.0625
 20
-109.999999995
 30
0.0
 11
-54.08269320385278
 21
-109.999999995
 31
0.0
  0
LINE
  5
25B
330
256
100
AcDbEntity
  8
0
 62
     0
440
 16777216
370
    -2
100
AcDbLine
 10
-53.90269320385274
 20
109.8200000049998
 30
0.0
 11
-53.90269320385275
 21
0.1800000049999164
 31
0.0
  0
LINE
  5
25C
330
256
100
AcDbEntity
  8
0
 62
     0
440
 16777216
370
    -2
100
AcDbLine
 10
-53.90269320385279
 20
-109.819999995
 30
0.0
 11
-53.90269320385275
 21
-0.1799999950000835
 31
0.0
  0
SOLID
  5
25D
330
256
100
AcDbEntity
  8
0
 62
     0
440
 16777216
100
AcDbTrace
 10
-53.93269320385273
 20
109.8200000049998
 30
0.0
 11
-53.87269320385274
 21
109.8200000049998
 31
0.0
 12
-53.90269320385274
 22
110.0000000049998
 32
0.0
 13
-53.90269320385274
 23
110.0000000049998
 33
0.0
  0
SOLID
  5
25E
330
256
100
AcDbEntity
  8
0
 62
     0
440
 16777216
100
AcDbTrace
 10
-53.93269320385279
 20
-109.819999995
 30
0.0
 11
-53.87269320385279
 21
-109.819999995
 31
0.0
 12
-53.90269320385279
 22
-109.999999995
 32
0.0
 13
-53.90269320385279
 23
-109.999999995
 33
0.0
  0
MTEXT
  5
25F
330
256
100
AcDbEntity
  8
0
 62
     0
440
 16777216
100
AcDbMText
 10
-53.90269320385275
 20
0.0000000049999078
 30
0.0
 40
0.18
 41
0.0
 46
0.0
 71
     5
 72
     1
  1
\A1;220.0000
 73
     1
 44
1.0
  0
POINT
  5
260
330
256
100
AcDbEntity
  8
Defpoints
 62
     0
440
 16777216
100
AcDbPoint
 10
0.0000008271926348
 20
110.0000000049998
 30
0.0
  0
POINT
  5
261
330
256
100
AcDbEntity
  8
Defpoints
 62
     0
440
 16777216
100
AcDbPoint
 10
0.0
 20
-109.999999995
 30
0.0
  0
POINT
  5
262
330
256
100
AcDbEntity
  8
Defpoints
 62
     0
440
 16777216
100
AcDbPoint
 10
-53.90269320385279
 20
-109.999999995
 30
0.0
  0
ENDBLK
  5
258
330
256
100
AcDbEntity
  8
0
100
AcDbBlockEnd
  0
BLOCK
  5
26C
330
26B
100
AcDbEntity
  8
0
100
AcDbBlockBegin
  2
*D11
 70
     1
 10
0.0
 20
0.0
 30
0.0
  3
*D11
  1

  0
LINE
  5
26E
330
26B
100
AcDbEntity
  8
0
 62
     0
440
 16777216
370
    -2
100
AcDbLine
 10
0.0624291741041816
 20
-439.3000000089998
 30
0.0
 11
613.9012464973132
 21
-439.300000009
 31
0.0
  0
LINE
  5
26F
330
26B
100
AcDbEntity
  8
0
 62
     0
440
 16777216
370
    -2
100
AcDbLine
 10
365.0625
 20
-270.0000000089999
 30
0.0
 11
613.9012464973132
 21
-270.000000009
 31
0.0
  0
LINE
  5
270
330
26B
100
AcDbEntity
  8
0
 62
     0
440
 16777216
370
    -2
100
AcDbLine
 10
613.7212464973131
 20
-439.1200000090001
 30
0.0
 11
613.7212464973131
 21
-354.830000009
 31
0.0
  0
LINE
  5
271
330
26B
100
AcDbEntity
  8
0
 62
     0
440
 16777216
370
    -2
100
AcDbLine
 10
613.7212464973131
 20
-270.1800000089999
 30
0.0
 11
613.7212464973131
 21
-354.470000009
 31
0.0
  0
SOLID
  5
272
330
26B
100
AcDbEntity
  8
0
 62
     0
440
 16777216
100
AcDbTrace
 10
613.6912464973131
 20
-439.1200000090001
 30
0.0
 11
613.7512464973131
 21
-439.1200000090001
 31
0.0
 12
613.7212464973131
 22
-439.300000009
 32
0.0
 13
613.7212464973131
 23
-439.300000009
 33
0.0
  0
SOLID
  5
273
330
26B
100
AcDbEntity
  8
0
 62
     0
440
 16777216
100
AcDbTrace
 10
613.6912464973131
 20
-270.1800000089999
 30
0.0
 11
613.7512464973131
 21
-270.1800000089999
 31
0.0
 12
613.7212464973131
 22
-270.000000009
 32
0.0
 13
613.7212464973131
 23
-270.000000009
 33
0.0
  0
MTEXT
  5
274
330
26B
100
AcDbEntity
  8
0
 62
     0
440
 16777216
100
AcDbMText
 10
613.7212464973132
 20
-354.6500000089999
 30
0.0
 40
0.18
 41
0.0
 46
0.0
 71
     5
 72
     1
  1
\A1;169.3000
 73
     1
 44
1.0
  0
POINT
  5
275
330
26B
100
AcDbEntity
  8
Defpoints
 62
     0
440
 16777216
100
AcDbPoint
 10
-0.0000708258958184
 20
-439.3000000089998
 30
0.0
  0
POINT
  5
276
330
26B
100
AcDbEntity
  8
Defpoints
 62
     0
440
 16777216
100
AcDbPoint
 10
365.0
 20
-270.0000000089999
 30
0.0
  0
POINT
  5
277
330
26B
100
AcDbEntity
  8
Defpoints
 62
     0
440
 16777216
100
AcDbPoint
 10
613.7212464973131
 20
-270.000000009
 30
0.0
  0
ENDBLK
  5
26D
330
26B
100
AcDbEntity
  8
0
100
AcDbBlockEnd
  0
BLOCK
  5
31A
330
319
100
AcDbEntity
  8
0
100
AcDbBlockBegin
  2
*D12
 70
     1
 10
0.0
 20
0.0
 30
0.0
  3
*D12
  1

  0
LINE
  5
31C
330
319
100
AcDbEntity
  8
0
 62
     0
440
 16777216
370
    -2
100
AcDbLine
 10
-215.0000000014515
 20
-289.2375000089998
 30
0.0
 11
-215.0000000014515
 21
-203.0914920286426
 31
0.0
  0
LINE
  5
31D
330
319
100
AcDbEntity
  8
0
 62
     0
440
 16777216
370
    -2
100
AcDbLine
 10
214.9999999985485
 20
-289.2375000089998
 30
0.0
 11
214.9999999985485
 21
-203.0914920286426
 31
0.0
  0
LINE
  5
31E
330
319
100
AcDbEntity
  8
0
 62
     0
440
 16777216
370
    -2
100
AcDbLine
 10
-214.8200000014515
 20
-203.2714920286426
 30
0.0
 11
-0.6450000014514968
 21
-203.2714920286426
 31
0.0
  0
LINE
  5
31F
330
319
100
AcDbEntity
  8
0
 62
     0
440
 16777216
370
    -2
100
AcDbLine
 10
214.8199999985485
 20
-203.2714920286426
 30
0.0
 11
0.6449999985485034
 21
-203.2714920286426
 31
0.0
  0
SOLID
  5
320
330
319
100
AcDbEntity
  8
0
 62
     0
440
 16777216
100
AcDbTrace
 10
-214.8200000014515
 20
-203.2414920286426
 30
0.0
 11
-214.8200000014515
 21
-203.3014920286426
 31
0.0
 12
-215.0000000014515
 22
-203.2714920286426
 32
0.0
 13
-215.0000000014515
 23
-203.2714920286426
 33
0.0
  0
SOLID
  5
321
330
319
100
AcDbEntity
  8
0
 62
     0
440
 16777216
100
AcDbTrace
 10
214.8199999985485
 20
-203.2414920286426
 30
0.0
 11
214.8199999985485
 21
-203.3014920286426
 31
0.0
 12
214.9999999985485
 22
-203.2714920286426
 32
0.0
 13
214.9999999985485
 23
-203.2714920286426
 33
0.0
  0
MTEXT
  5
322
330
319
100
AcDbEntity
  8
0
 62
     0
440
 16777216
100
AcDbMText
 10
-0.0000000014514967
 20
-203.2714920286426
 30
0.0
 40
0.18
 41
0.0
 46
0.0
 71
     5
 72
     1
  1
\A1;430.0000
 73
     1
 44
1.0
  0
POINT
  5
323
330
319
100
AcDbEntity
  8
Defpoints
 62
     0
440
 16777216
100
AcDbPoint
 10
-215.0000000014515
 20
-289.3000000089998
 30
0.0
  0
POINT
  5
324
330
319
100
AcDbEntity
  8
Defpoints
 62
     0
440
 16777216
100
AcDbPoint
 10
214.9999999985485
 20
-289.3000000089998
 30
0.0
  0
POINT
  5
325
330
319
100
AcDbEntity
  8
Defpoints
 62
     0
440
 16777216
100
AcDbPoint
 10
214.9999999985485
 20
-203.2714920286426
 30
0.0
  0
ENDBLK
  5
31B
330
319
100
AcDbEntity
  8
0
100
AcDbBlockEnd
  0
BLOCK
  5
32D
330
32C
100
AcDbEntity
  8
0
100
AcDbBlockBegin
  2
*D13
 70
     1
 10
0.0
 20
0.0
 30
0.0
  3
*D13
  1

  0
LINE
  5
32F
330
32C
100
AcDbEntity
  8
0
 62
     0
440
 16777216
370
    -2
100
AcDbLine
 10
-175.0
 20
-81.30078190689891
 30
0.0
 11
-175.0
 21
-180.1077425207829
 31
0.0
  0
LINE
  5
330
330
32C
100
AcDbEntity
  8
0
 62
     0
440
 16777216
370
    -2
100
AcDbLine
 10
175.0
 20
-81.30078190689891
 30
0.0
 11
175.0
 21
-180.1077425207829
 31
0.0
  0
LINE
  5
331
330
32C
100
AcDbEntity
  8
0
 62
     0
440
 16777216
370
    -2
100
AcDbLine
 10
-174.82
 20
-179.9277425207829
 30
0.0
 11
-0.6450000000000001
 21
-179.9277425207829
 31
0.0
  0
LINE
  5
332
330
32C
100
AcDbEntity
  8
0
 62
     0
440
 16777216
370
    -2
100
AcDbLine
 10
174.82
 20
-179.9277425207829
 30
0.0
 11
0.6450000000000001
 21
-179.9277425207829
 31
0.0
  0
SOLID
  5
333
330
32C
100
AcDbEntity
  8
0
 62
     0
440
 16777216
100
AcDbTrace
 10
-174.82
 20
-179.8977425207828
 30
0.0
 11
-174.82
 21
-179.9577425207829
 31
0.0
 12
-175.0
 22
-179.9277425207829
 32
0.0
 13
-175.0
 23
-179.9277425207829
 33
0.0
  0
SOLID
  5
334
330
32C
100
AcDbEntity
  8
0
 62
     0
440
 16777216
100
AcDbTrace
 10
174.82
 20
-179.8977425207828
 30
0.0
 11
174.82
 21
-179.9577425207829
 31
0.0
 12
175.0
 22
-179.9277425207829
 32
0.0
 13
175.0
 23
-179.9277425207829
 33
0.0
  0
MTEXT
  5
335
330
32C
100
AcDbEntity
  8
0
 62
     0
440
 16777216
100
AcDbMText
 10
0.0
 20
-179.9277425207829
 30
0.0
 40
0.18
 41
0.0
 46
0.0
 71
     5
 72
     1
  1
\A1;350.0000
 73
     1
 44
1.0
  0
POINT
  5
336
330
32C
100
AcDbEntity
  8
Defpoints
 62
     0
440
 16777216
100
AcDbPoint
 10
-175.0
 20
-81.23828190689891
 30
-0.0000000000000214
  0
POINT
  5
337
330
32C
100
AcDbEntity
  8
Defpoints
 62
     0
440
 16777216
100
AcDbPoint
 10
175.0
 20
-81.23828190689891
 30
0.0000000000000214
  0
POINT
  5
338
330
32C
100
AcDbEntity
  8
Defpoints
 62
     0
440
 16777216
100
AcDbPoint
 10
175.0
 20
-179.9277425207829
 30
0.0
  0
ENDBLK
  5
32E
330
32C
100
AcDbEntity
  8
0
100
AcDbBlockEnd
  0
BLOCK
  5
33B
330
33A
100
AcDbEntity
  8
0
100
AcDbBlockBegin
  2
*D14
 70
     1
 10
0.0
 20
0.0
 30
0.0
  3
*D14
  1

  0
LINE
  5
33D
330
33A
100
AcDbEntity
  8
0
 62
     0
440
 16777216
370
    -2
100
AcDbLine
 10
0.0625008271926343
 20
110.0000000049998
 30
0.0
 11
74.07527980656571
 21
110.0000000049998
 31
0.0
  0
LINE
  5
33E
330
33A
100
AcDbEntity
  8
0
 62
     0
440
 16777216
370
    -2
100
AcDbLine
 10
0.0625
 20
-109.999999995
 30
0.0
 11
74.07527980656566
 21
-109.999999995
 31
0.0
  0
LINE
  5
33F
330
33A
100
AcDbEntity
  8
0
 62
     0
440
 16777216
370
    -2
100
AcDbLine
 10
73.89527980656571
 20
109.8200000049998
 30
0.0
 11
73.89527980656568
 21
0.1800000049998881
 31
0.0
  0
LINE
  5
340
330
33A
100
AcDbEntity
  8
0
 62
     0
440
 16777216
370
    -2
100
AcDbLine
 10
73.89527980656565
 20
-109.819999995
 30
0.0
 11
73.89527980656568
 21
-0.1799999950001119
 31
0.0
  0
SOLID
  5
341
330
33A
100
AcDbEntity
  8
0
 62
     0
440
 16777216
100
AcDbTrace
 10
73.86527980656571
 20
109.8200000049998
 30
0.0
 11
73.92527980656571
 21
109.8200000049998
 31
0.0
 12
73.89527980656571
 22
110.0000000049998
 32
0.0
 13
73.89527980656571
 23
110.0000000049998
 33
0.0
  0
SOLID
  5
342
330
33A
100
AcDbEntity
  8
0
 62
     0
440
 16777216
100
AcDbTrace
 10
73.86527980656565
 20
-109.819999995
 30
0.0
 11
73.92527980656566
 21
-109.819999995
 31
0.0
 12
73.89527980656565
 22
-109.999999995
 32
0.0
 13
73.89527980656565
 23
-109.999999995
 33
0.0
  0
MTEXT
  5
343
330
33A
100
AcDbEntity
  8
0
 62
     0
440
 16777216
100
AcDbMText
 10
73.89527980656568
 20
0.0000000049999
 30
0.0
 40
0.18
 41
0.0
 46
0.0
 71
     5
 72
     1
  1
\A1;220.0000
 73
     1
 44
1.0
  0
POINT
  5
344
330
33A
100
AcDbEntity
  8
Defpoints
 62
     0
440
 16777216
100
AcDbPoint
 10
0.0000008271926343
 20
110.0000000049998
 30
0.0
  0
POINT
  5
345
330
33A
100
AcDbEntity
  8
Defpoints
 62
     0
440
 16777216
100
AcDbPoint
 10
0.0
 20
-109.999999995
 30
0.0
  0
POINT
  5
346
330
33A
100
AcDbEntity
  8
Defpoints
 62
     0
440
 16777216
100
AcDbPoint
 10
73.89527980656565
 20
-109.999999995
 30
0.0
  0
ENDBLK
  5
33C
330
33A
100
AcDbEntity
  8
0
100
AcDbBlockEnd
  0
BLOCK
  5
34A
330
349
100
AcDbEntity
  8
0
100
AcDbBlockBegin
  2
*D15
 70
     1
 10
0.0
 20
0.0
 30
0.0
  3
*D15
  1

  0
LINE
  5
34C
330
349
100
AcDbEntity
  8
0
 62
     0
440
 16777216
370
    -2
100
AcDbLine
 10
-217.5
 20
-289.2375000089998
 30
0.0
 11
-217.5
 21
-211.2248846937567
 31
0.0
  0
LINE
  5
34D
330
349
100
AcDbEntity
  8
0
 62
     0
440
 16777216
370
    -2
100
AcDbLine
 10
217.5
 20
-289.2375000089998
 30
0.0
 11
217.5
 21
-211.2248846937567
 31
0.0
  0
LINE
  5
34E
330
349
100
AcDbEntity
  8
0
 62
     0
440
 16777216
370
    -2
100
AcDbLine
 10
-217.32
 20
-211.4048846937567
 30
0.0
 11
-0.6600000000000002
 21
-211.4048846937567
 31
0.0
  0
LINE
  5
34F
330
349
100
AcDbEntity
  8
0
 62
     0
440
 16777216
370
    -2
100
AcDbLine
 10
217.32
 20
-211.4048846937567
 30
0.0
 11
0.6600000000000002
 21
-211.4048846937567
 31
0.0
  0
SOLID
  5
350
330
349
100
AcDbEntity
  8
0
 62
     0
440
 16777216
100
AcDbTrace
 10
-217.32
 20
-211.3748846937567
 30
0.0
 11
-217.32
 21
-211.4348846937567
 31
0.0
 12
-217.5
 22
-211.4048846937567
 32
0.0
 13
-217.5
 23
-211.4048846937567
 33
0.0
  0
SOLID
  5
351
330
349
100
AcDbEntity
  8
0
 62
     0
440
 16777216
100
AcDbTrace
 10
217.32
 20
-211.3748846937567
 30
0.0
 11
217.32
 21
-211.4348846937567
 31
0.0
 12
217.5
 22
-211.4048846937567
 32
0.0
 13
217.5
 23
-211.4048846937567
 33
0.0
  0
MTEXT
  5
352
330
349
100
AcDbEntity
  8
0
 62
     0
440
 16777216
100
AcDbMText
 10
0.0
 20
-211.4048846937567
 30
0.0
 40
0.18
 41
0.0
 46
0.0
 71
     5
 72
     1
  1
\A1;435.0000
 73
     1
 44
1.0
  0
POINT
  5
353
330
349
100
AcDbEntity
  8
Defpoints
 62
     0
440
 16777216
100
AcDbPoint
 10
-217.5
 20
-289.3000000089998
 30
0.0
  0
POINT
  5
354
330
349
100
AcDbEntity
  8
Defpoints
 62
     0
440
 16777216
100
AcDbPoint
 10
217.5
 20
-289.3000000089998
 30
0.0
  0
POINT
  5
355
330
349
100
AcDbEntity
  8
Defpoints
 62
     0
440
 16777216
100
AcDbPoint
 10
217.5
 20
-211.4048846937567
 30
0.0
  0
ENDBLK
  5
34B
330
349
100
AcDbEntity
  8
0
100
AcDbBlockEnd
  0
BLOCK
  5
358
330
357
100
AcDbEntity
  8
0
100
AcDbBlockBegin
  2
*D16
 70
     1
 10
0.0
 20
0.0
 30
0.0
  3
*D16
  1

  0
LINE
  5
35A
330
357
100
AcDbEntity
  8
0
 62
     0
440
 16777216
370
    -2
100
AcDbLine
 10
449.3050708211531
 20
-50.06249999499999
 30
0.0
 11
449.3050708211531
 21
-244.3362125921764
 31
0.0
  0
LINE
  5
35B
330
357
100
AcDbEntity
  8
0
 62
     0
440
 16777216
370
    -2
100
AcDbLine
 10
610.3319222128995
 20
-50.06249999500024
 30
0.0
 11
610.3319222128995
 21
-244.3362125921764
 31
0.0
  0
LINE
  5
35C
330
357
100
AcDbEntity
  8
0
 62
     0
440
 16777216
370
    -2
100
AcDbLine
 10
449.485070821153
 20
-244.1562125921764
 30
0.0
 11
529.1734965170263
 21
-244.1562125921764
 31
0.0
  0
LINE
  5
35D
330
357
100
AcDbEntity
  8
0
 62
     0
440
 16777216
370
    -2
100
AcDbLine
 10
610.1519222128995
 20
-244.1562125921764
 30
0.0
 11
530.4634965170263
 21
-244.1562125921764
 31
0.0
  0
SOLID
  5
35E
330
357
100
AcDbEntity
  8
0
 62
     0
440
 16777216
100
AcDbTrace
 10
449.485070821153
 20
-244.1262125921764
 30
0.0
 11
449.485070821153
 21
-244.1862125921764
 31
0.0
 12
449.3050708211531
 22
-244.1562125921764
 32
0.0
 13
449.3050708211531
 23
-244.1562125921764
 33
0.0
  0
SOLID
  5
35F
330
357
100
AcDbEntity
  8
0
 62
     0
440
 16777216
100
AcDbTrace
 10
610.1519222128995
 20
-244.1262125921764
 30
0.0
 11
610.1519222128995
 21
-244.1862125921764
 31
0.0
 12
610.3319222128995
 22
-244.1562125921764
 32
0.0
 13
610.3319222128995
 23
-244.1562125921764
 33
0.0
  0
MTEXT
  5
360
330
357
100
AcDbEntity
  8
0
 62
     0
440
 16777216
100
AcDbMText
 10
529.8184965170263
 20
-244.1562125921764
 30
0.0
 40
0.18
 41
0.0
 46
0.0
 71
     5
 72
     1
  1
\A1;161.0269
 73
     1
 44
1.0
  0
POINT
  5
361
330
357
100
AcDbEntity
  8
Defpoints
 62
     0
440
 16777216
100
AcDbPoint
 10
449.3050708211531
 20
-49.99999999499999
 30
0.0
  0
POINT
  5
362
330
357
100
AcDbEntity
  8
Defpoints
 62
     0
440
 16777216
100
AcDbPoint
 10
610.3319222128995
 20
-49.99999999500024
 30
0.0000000000000103
  0
POINT
  5
363
330
357
100
AcDbEntity
  8
Defpoints
 62
     0
440
 16777216
100
AcDbPoint
 10
610.3319222128995
 20
-244.1562125921764
 30
0.0
  0
ENDBLK
  5
359
330
357
100
AcDbEntity
  8
0
100
AcDbBlockEnd
  0
BLOCK
  5
366
330
365
100
AcDbEntity
  8
0
100
AcDbBlockBegin
  2
*D17
 70
     1
 10
0.0
 20
0.0
 30
0.0
  3
*D17
  1

  0
LINE
  5
368
330
365
100
AcDbEntity
  8
0
 62
     0
440
 16777216
370
    -2
100
AcDbLine
 10
217.5625
 20
-289.3000000089998
 30
0.0
 11
570.31154160699
 21
-289.3000000089999
 31
0.0
  0
LINE
  5
369
330
365
100
AcDbEntity
  8
0
 62
     0
440
 16777216
370
    -2
100
AcDbLine
 10
0.0624999985484069
 20
-439.3000000089998
 30
0.0
 11
570.31154160699
 21
-439.300000009
 31
0.0
  0
LINE
  5
36A
330
365
100
AcDbEntity
  8
0
 62
     0
440
 16777216
370
    -2
100
AcDbLine
 10
570.1315416069901
 20
-289.4800000089999
 30
0.0
 11
570.1315416069901
 21
-364.1200000089999
 31
0.0
  0
LINE
  5
36B
330
365
100
AcDbEntity
  8
0
 62
     0
440
 16777216
370
    -2
100
AcDbLine
 10
570.1315416069901
 20
-439.1200000090001
 30
0.0
 11
570.1315416069901
 21
-364.480000009
 31
0.0
  0
SOLID
  5
36C
330
365
100
AcDbEntity
  8
0
 62
     0
440
 16777216
100
AcDbTrace
 10
570.1015416069902
 20
-289.4800000089999
 30
0.0
 11
570.1615416069901
 21
-289.4800000089999
 31
0.0
 12
570.1315416069901
 22
-289.3000000089999
 32
0.0
 13
570.1315416069901
 23
-289.3000000089999
 33
0.0
  0
SOLID
  5
36D
330
365
100
AcDbEntity
  8
0
 62
     0
440
 16777216
100
AcDbTrace
 10
570.1015416069902
 20
-439.1200000090001
 30
0.0
 11
570.1615416069901
 21
-439.1200000090001
 31
0.0
 12
570.1315416069901
 22
-439.300000009
 32
0.0
 13
570.1315416069901
 23
-439.300000009
 33
0.0
  0
MTEXT
  5
36E
330
365
100
AcDbEntity
  8
0
 62
     0
440
 16777216
100
AcDbMText
 10
570.1315416069902
 20
-364.3000000089999
 30
0.0
 40
0.18
 41
0.0
 46
0.0
 71
     5
 72
     1
  1
\A1;150.0000
 73
     1
 44
1.0
  0
POINT
  5
36F
330
365
100
AcDbEntity
  8
Defpoints
 62
     0
440
 16777216
100
AcDbPoint
 10
217.5
 20
-289.3000000089998
 30
0.0
  0
POINT
  5
370
330
365
100
AcDbEntity
  8
Defpoints
 62
     0
440
 16777216
100
AcDbPoint
 10
-0.0000000014515931
 20
-439.3000000089998
 30
0.0
  0
POINT
  5
371
330
365
100
AcDbEntity
  8
Defpoints
 62
     0
440
 16777216
100
AcDbPoint
 10
570.1315416069901
 20
-439.300000009
 30
0.0
  0
ENDBLK
  5
367
330
365
100
AcDbEntity
  8
0
100
AcDbBlockEnd
  0
ENDSEC
  0
SECTION
  2
ENTITIES
  0
LINE
  5
134
330
1F
100
AcDbEntity
  8
HEWI
100
AcDbLine
 10
-175.0
 20
41.07690969934139
 30
-0.0000000000000214
 11
-175.0
 21
-99.99999999499999
 31
-0.0000000000000214
210
0.0
220
1.0
230
0.0
  0
SPLINE
  5
135
330
1F
100
AcDbEntity
  8
HEWI
100
AcDbSpline
210
-0.0000000000000001
220
0.0
230
1.0
 70
     8
 71
     3
 72
    42
 73
    38
 74
     0
 42
0.000000001
 43
0.0000000001
 40
60.51354121548342
 40
60.51354121548342
 40
60.51354121548342
 40
60.51354121548342
 40
61.46082082917963
 40
61.46082082917963
 40
62.40810044287586
 40
62.40810044287586
 40
63.38499014799821
 40
63.38499014799821
 40
64.36187985312057
 40
64.36187985312057
 40
65.36144482065886
 40
65.36144482065886
 40
66.36100978819714
 40
66.36100978819714
 40
67.37731493076896
 40
67.37731493076896
 40
68.3936200733408
 40
68.3936200733408
 40
69.42059214515372
 40
69.42059214515372
 40
70.44756421696668
 40
70.44756421696668
 40
71.47523872954579
 40
71.47523872954579
 40
72.50291324212489
 40
72.50291324212489
 40
73.5275559613646
 40
73.5275559613646
 40
74.55219868060432
 40
74.55219868060432
 40
75.62284745251872
 40
75.62284745251872
 40
76.69349622443316
 40
76.69349622443316
 40
77.85805876772167
 40
77.85805876772167
 40
79.0226213110102
 40
79.0226213110102
 40
79.0226213110102
 40
79.0226213110102
 10
-175.0
 20
41.07690969934139
 30
-0.0000000000000214
 10
-175.0
 20
41.38458030651531
 30
-0.0000000000000214
 10
-174.9924272456301
 20
41.72286606872567
 30
-0.0000000000000214
 10
-174.9591515381301
 20
42.3985286614205
 30
-0.0000000000000214
 10
-174.9334487151679
 20
42.73590549844479
 30
-0.0000000000000214
 10
-174.8720471750822
 20
43.35778565008649
 30
-0.0000000000000214
 10
-174.8297611375579
 20
43.7041121182329
 30
-0.0000000000000214
 10
-174.7261132836663
 20
44.39384714861581
 30
-0.0000000000000214
 10
-174.6647518881631
 20
44.73725577537768
 30
-0.0000000000000214
 10
-174.537333174095
 20
45.3661913487466
 30
-0.0000000000000214
 10
-174.458231910035
 20
45.71419811277681
 30
-0.0000000000000214
 10
-174.2804990276008
 20
46.4050979599765
 30
-0.0000000000000213
 10
-174.1818681281239
 20
46.74799123192579
 30
-0.0000000000000213
 10
-173.9862362473381
 20
47.3722745021835
 30
-0.0000000000000213
 10
-173.8695096274406
 20
47.71565899339299
 30
-0.0000000000000213
 10
-173.6165608796466
 20
48.39504107174478
 30
-0.0000000000000213
 10
-173.4803397304131
 20
48.73103903106221
 30
-0.0000000000000212
 10
-173.2166960205649
 20
49.33904811671129
 30
-0.0000000000000212
 10
-173.0628908685847
 20
49.67143973784169
 30
-0.0000000000000212
 10
-172.7363206475357
 20
50.32660715390079
 30
-0.0000000000000212
 10
-172.5635567365064
 20
50.6493835389643
 30
-0.0000000000000211
 10
-172.2351992713568
 20
51.228699606612
 30
-0.0000000000000211
 10
-172.0469470204406
 20
51.54283260475061
 30
-0.0000000000000211
 10
-171.6526252776348
 20
52.15950940980479
 30
-0.000000000000021
 10
-171.4465570019825
 20
52.46205401285081
 30
-0.000000000000021
 10
-171.0592447814578
 20
53.00212470051349
 30
-0.0000000000000209
 10
-170.8395314568597
 20
53.29338108536489
 30
-0.0000000000000209
 10
-170.3837481059738
 20
53.86257448887531
 30
-0.0000000000000209
 10
-170.1476792505502
 20
54.14051246905851
 30
-0.0000000000000208
 10
-169.6964882117594
 20
54.6464796667443
 30
-0.0000000000000208
 10
-169.4359147177567
 20
54.9242641455327
 30
-0.0000000000000207
 10
-168.8986185196654
 20
55.46347503445929
 30
-0.0000000000000207
 10
-168.6218970181583
 20
55.72490267670922
 30
-0.0000000000000206
 10
-168.0843594224963
 20
56.20771435575349
 30
-0.0000000000000206
 10
-167.7689875837544
 20
56.47574025237071
 30
-0.0000000000000205
 10
-167.1215215660378
 20
56.99041783674051
 30
-0.0000000000000205
 10
-166.7894286552652
 20
57.237071171534
 30
-0.0000000000000204
 10
-166.4814814814812
 20
57.45297708410753
 30
-0.0000000000000204
  0
SPLINE
  5
136
330
1F
100
AcDbEntity
  8
HEWI
100
AcDbSpline
210
-0.0000000000000001
220
0.0
230
1.0
 70
     8
 71
     3
 72
    70
 73
    66
 74
     0
 42
0.000000001
 43
0.0000000001
 40
39.62778323717639
 40
39.62778323717639
 40
39.62778323717639
 40
39.62778323717639
 40
50.02619892778175
 40
50.02619892778175
 40
60.42461461838712
 40
60.42461461838712
 40
70.82303030899248
 40
70.82303030899248
 40
81.22144599959787
 40
81.22144599959787
 40
92.03651776576299
 40
92.03651776576299
 40
102.8515895319281
 40
102.8515895319281
 40
113.6666612980933
 40
113.6666612980933
 40
124.4817330642584
 40
124.4817330642584
 40
135.213537418722
 40
135.213537418722
 40
145.9453417731855
 40
145.9453417731855
 40
156.6771461276492
 40
156.6771461276492
 40
167.4089504821127
 40
167.4089504821127
 40
177.8320782282138
 40
177.8320782282138
 40
188.2552059743149
 40
188.2552059743149
 40
198.6783337204161
 40
198.6783337204161
 40
209.1014614665172
 40
209.1014614665172
 40
219.5245892126253
 40
219.5245892126253
 40
229.9477169587333
 40
229.9477169587333
 40
240.3708447048412
 40
240.3708447048412
 40
250.793972450949
 40
250.793972450949
 40
261.5257768054156
 40
261.5257768054156
 40
272.2575811598825
 40
272.2575811598825
 40
282.9893855143491
 40
282.9893855143491
 40
293.7211898688159
 40
293.7211898688159
 40
304.5362616349811
 40
304.5362616349811
 40
315.3513334011463
 40
315.3513334011463
 40
326.1664051673113
 40
326.1664051673113
 40
336.9814769334764
 40
336.9814769334764
 40
347.3798926240776
 40
347.3798926240776
 40
357.7783083146787
 40
357.7783083146787
 40
368.1767240052796
 40
368.1767240052796
 40
378.5751396958808
 40
378.5751396958808
 40
378.5751396958808
 40
378.5751396958808
 10
-166.4814814814812
 20
57.45297708410753
 30
-0.0000000000000204
 10
-163.7042957039283
 20
59.40009945032781
 30
-0.00000000000002
 10
-160.7545959552943
 20
61.39436485385489
 30
-0.0000000000000197
 10
-154.6381300516079
 20
65.3575518261616
 30
-0.0000000000000189
 10
-151.4713108789659
 20
67.32639720564939
 30
-0.0000000000000185
 10
-145.0618836489641
 20
71.1393133031377
 30
-0.0000000000000178
 10
-141.8190710117444
 20
72.98350257301752
 30
-0.0000000000000174
 10
-135.412045195947
 20
76.47003624718379
 30
-0.0000000000000166
 10
-132.2478735075766
 20
78.1124585073413
 30
-0.0000000000000162
 10
-126.0431532476612
 20
81.20032203835069
 30
-0.0000000000000154
 10
-122.6935734603967
 20
82.79402600536021
 30
-0.000000000000015
 10
-115.7721143288855
 20
85.91583370765723
 30
-0.0000000000000142
 10
-112.200190820674
 20
87.44384665488707
 30
-0.0000000000000137
 10
-104.9953911697748
 20
90.35358656191991
 30
-0.0000000000000129
 10
-101.3622611285009
 20
91.7354121853422
 30
-0.0000000000000124
 10
-94.20678897629548
 20
94.29823755799379
 30
-0.0000000000000115
 10
-90.68447891342643
 20
95.47932661518792
 30
-0.0000000000000111
 10
-83.9582800483655
 20
97.60286212014632
 30
-0.0000000000000103
 10
-80.42236108754893
 20
98.65119889057552
 30
-0.0000000000000098
 10
-73.1427796660958
 20
100.6499253318769
 30
-0.000000000000009
 10
-69.39908902013911
 20
101.600219414938
 30
-0.0000000000000085
 10
-61.87500415223778
 20
103.3485503625251
 30
-0.0000000000000076
 10
-58.09434391210781
 20
104.1466461866852
 30
-0.0000000000000071
 10
-50.67342462376402
 20
105.5634314309755
 30
-0.0000000000000062
 10
-47.03318384620922
 20
106.1822140515106
 30
-0.0000000000000058
 10
-40.17600645934422
 20
107.2238962923556
 30
-0.0000000000000049
 10
-36.62075731967882
 20
107.7019227518466
 30
-0.0000000000000045
 10
-29.32637687269295
 20
108.5367218246327
 30
-0.0000000000000036
 10
-25.58723427455734
 20
108.8934016176893
 30
-0.0000000000000031
 10
-18.09749659756649
 20
109.4591243560433
 30
-0.0000000000000022
 10
-14.34664900851631
 20
109.668185414453
 30
-0.0000000000000018
 10
-7.007521476594551
 20
109.9385773260146
 30
-0.0000000000000009
 10
-3.41924507816318
 20
110.0000000049996
 30
-0.0000000000000004
 10
3.419245078146147
 20
110.000000005
 30
0.0000000000000004
 10
7.007521476579872
 20
109.9385773260148
 30
0.0000000000000009
 10
14.34664900850642
 20
109.6681854144536
 30
0.0000000000000018
 10
18.09749659755904
 20
109.4591243560437
 30
0.0000000000000022
 10
25.58723427455474
 20
108.8934016176895
 30
0.0000000000000031
 10
29.32637687269277
 20
108.5367218246327
 30
0.0000000000000036
 10
36.62075731968332
 20
107.701922751846
 30
0.0000000000000045
 10
40.17600645935099
 20
107.2238962923548
 30
0.0000000000000049
 10
47.0331838462191
 20
106.1822140515091
 30
0.0000000000000058
 10
50.67342462377485
 20
105.5634314309735
 30
0.0000000000000062
 10
58.09434391212054
 20
104.1466461866827
 30
0.0000000000000071
 10
61.87500415225152
 20
103.3485503625221
 30
0.0000000000000076
 10
69.3990890201548
 20
101.6002194149341
 30
0.0000000000000085
 10
73.14277966611242
 20
100.6499253318726
 30
0.000000000000009
 10
80.42236108756737
 20
98.65119889057012
 30
0.0000000000000098
 10
83.95828004838483
 20
97.6028621201404
 30
0.0000000000000103
 10
90.68447891344645
 20
95.4793266151813
 30
0.0000000000000111
 10
94.2067889763153
 20
94.29823755798691
 30
0.0000000000000115
 10
101.3622611285203
 20
91.73541218533493
 30
0.0000000000000124
 10
104.995391169794
 20
90.3535865619124
 30
0.0000000000000129
 10
112.2001908206927
 20
87.44384665487919
 30
0.0000000000000137
 10
115.7721143289039
 20
85.91583370764912
 30
0.0000000000000142
 10
122.6935734604148
 20
82.79402600535181
 30
0.000000000000015
 10
126.043153247679
 20
81.20032203834211
 30
0.0000000000000154
 10
132.2478735075926
 20
78.1124585073331
 30
0.0000000000000162
 10
135.4120451959617
 20
76.47003624717609
 30
0.0000000000000166
 10
141.8190710117559
 20
72.98350257301102
 30
0.0000000000000174
 10
145.061883648974
 20
71.1393133031319
 30
0.0000000000000178
 10
151.4713108789728
 20
67.3263972056451
 30
0.0000000000000185
 10
154.6381300516135
 20
65.3575518261581
 30
0.0000000000000189
 10
160.7545959552971
 20
61.39436485385299
 30
0.0000000000000197
 10
163.7042957039296
 20
59.40009945032677
 30
0.00000000000002
 10
166.4814814814814
 20
57.45297708410738
 30
0.0000000000000204
  0
SPLINE
  5
137
330
1F
100
AcDbEntity
  8
HEWI
100
AcDbSpline
210
-0.0000000000000001
220
0.0
230
1.0
 70
     8
 71
     3
 72
    42
 73
    38
 74
     0
 42
0.000000001
 43
0.0000000001
 40
-18.5090800955268
 40
-18.5090800955268
 40
-18.5090800955268
 40
-18.5090800955268
 40
-17.39023921816369
 40
-17.39023921816369
 40
-16.27139834080058
 40
-16.27139834080058
 40
-15.15255746343747
 40
-15.15255746343747
 40
-14.03371658607436
 40
-14.03371658607436
 40
-13.00943448790905
 40
-13.00943448790905
 40
-11.98515238974376
 40
-11.98515238974376
 40
-10.95783956527315
 40
-10.95783956527315
 40
-9.930526740802564
 40
-9.930526740802564
 40
-8.903916109875456
 40
-8.903916109875456
 40
-7.87730547894835
 40
-7.87730547894835
 40
-6.861358023056821
 40
-6.861358023056821
 40
-5.845410567165286
 40
-5.845410567165286
 40
-4.846197394634281
 40
-4.846197394634281
 40
-3.846984222103277
 40
-3.846984222103277
 40
-2.870438331472341
 40
-2.870438331472341
 40
-1.893892440841405
 40
-1.893892440841405
 40
-0.9469462204207026
 40
-0.9469462204207026
 40
0.0
 40
0.0
 40
0.0
 40
0.0
 10
166.4814814814814
 20
57.45297708410738
 30
0.0000000000000204
 10
166.777442563476
 20
57.2454747819783
 30
0.0000000000000204
 10
167.0821763701874
 20
57.01966618809501
 30
0.0000000000000205
 10
167.6912847130423
 20
56.53917869947552
 30
0.0000000000000205
 10
167.9956508718982
 20
56.28448913281939
 30
0.0000000000000206
 10
168.5885560062152
 20
55.75711948925121
 30
0.0000000000000206
 10
168.8771388709315
 20
55.48439973435449
 30
0.0000000000000207
 10
169.4258693218093
 20
54.93494154597101
 30
0.0000000000000207
 10
169.686025908054
 20
54.65821213045082
 30
0.0000000000000208
 10
170.147679250555
 20
54.14051246905279
 30
0.0000000000000208
 10
170.3837481059786
 20
53.8625744888696
 30
0.0000000000000209
 10
170.839531456864
 20
53.2933810853593
 30
0.0000000000000209
 10
171.0592447814621
 20
53.00212470050779
 30
0.0000000000000209
 10
171.4465570019864
 20
52.4620540128452
 30
0.000000000000021
 10
171.6526252776384
 20
52.15950940979929
 30
0.000000000000021
 10
172.046947020444
 20
51.54283260474521
 30
0.0000000000000211
 10
172.2351992713601
 20
51.22869960660671
 30
0.0000000000000211
 10
172.5635567365092
 20
50.64938353895911
 30
0.0000000000000211
 10
172.7363206475382
 20
50.32660715389578
 30
0.0000000000000212
 10
173.062890868587
 20
49.67143973783681
 30
0.0000000000000212
 10
173.2166960205671
 20
49.33904811670661
 30
0.0000000000000212
 10
173.480339730415
 20
48.73103903105769
 30
0.0000000000000212
 10
173.6165608796484
 20
48.3950410717405
 30
0.0000000000000213
 10
173.8695096274421
 20
47.71565899338908
 30
0.0000000000000213
 10
173.9862362473392
 20
47.3722745021796
 30
0.0000000000000213
 10
174.1818681281251
 20
46.74799123192229
 30
0.0000000000000213
 10
174.2804990276017
 20
46.40509795997329
 30
0.0000000000000213
 10
174.4582319100356
 20
45.714198112774
 30
0.0000000000000214
 10
174.5373331740956
 20
45.36619134874397
 30
0.0000000000000214
 10
174.6647518881636
 20
44.73725577537542
 30
0.0000000000000214
 10
174.7261132836666
 20
44.3938471486137
 30
0.0000000000000214
 10
174.8297611375583
 20
43.70411211823131
 30
0.0000000000000214
 10
174.8720471750825
 20
43.35778565008499
 30
0.0000000000000214
 10
174.933448715168
 20
42.7359054984438
 30
0.0000000000000214
 10
174.9591515381301
 20
42.3985286614197
 30
0.0000000000000214
 10
174.9924272456301
 20
41.72286606872527
 30
0.0000000000000214
 10
175.0
 20
41.3845803065152
 30
0.0000000000000214
 10
175.0
 20
41.07690969934139
 30
0.0000000000000214
  0
LINE
  5
138
330
1F
100
AcDbEntity
  8
HEWI
100
AcDbLine
 10
175.0
 20
-99.99999999499999
 30
0.0000000000000214
 11
175.0
 21
41.07690969934139
 31
0.0000000000000214
210
0.0
220
1.0
230
0.0
  0
LINE
  5
139
330
1F
100
AcDbEntity
  8
HEWI
100
AcDbLine
 10
-164.9999999999998
 20
-109.999999995
 30
-0.0000000000000202
 11
164.9999999999998
 21
-109.999999995
 31
0.0000000000000202
210
0.0
220
1.0
230
0.0
  0
ARC
  5
13A
330
1F
100
AcDbEntity
  8
HEWI
100
AcDbCircle
 10
-165.0
 20
-99.99999999499999
 30
-0.0000000000000202
 40
10.0
100
AcDbArc
 50
180.0
 51
270.0
  0
ARC
  5
13B
330
1F
100
AcDbEntity
  8
HEWI
100
AcDbCircle
 10
165.0
 20
-99.99999999499999
 30
0.0000000000000202
 40
10.0
100
AcDbArc
 50
270.0
 51
0.0
  0
ARC
  5
148
330
1F
100
AcDbEntity
  8
HEWI
100
AcDbCircle
 10
-217.5
 20
-49.99999999499999
 30
0.0
 40
35.0
100
AcDbArc
 50
28.12706821860506
 51
331.8729317813949
  0
LINE
  5
154
330
1F
100
AcDbEntity
  8
HEWI
100
AcDbLine
 10
-175.0
 20
-33.499999995
 30
-0.0000000000000211
 11
-217.5
 21
-33.499999995
 31
-0.0000000000000263
210
0.0
220
1.0
230
0.0
  0
LINE
  5
155
330
1F
100
AcDbEntity
  8
HEWI
100
AcDbLine
 10
-175.0
 20
-66.499999995
 30
-0.0000000000000211
 11
-217.5
 21
-66.499999995
 31
-0.0000000000000263
210
0.0
220
1.0
230
0.0
  0
ARC
  5
15B
330
1F
100
AcDbEntity
  8
HEWI
100
AcDbCircle
 10
556.3050708211529
 20
-107.9999999949999
 30
0.0000000000000004
 40
2.0
100
AcDbArc
 50
180.0
 51
270.0
  0
LINE
  5
15C
330
1F
100
AcDbEntity
  8
HEWI
100
AcDbLine
 10
554.3050708211527
 20
-99.99999999500014
 30
0.0
 11
554.3050708211527
 21
-107.9999999949999
 31
0.0
210
0.0000000000000002
220
1.0
230
0.0
  0
LINE
  5
15D
330
1F
100
AcDbEntity
  8
HEWI
100
AcDbLine
 10
554.3050708211531
 20
41.07690969934146
 30
0.0
 11
554.3050708211527
 21
-33.499999995
 31
0.0
210
0.0000000000000002
220
1.0
230
0.0
  0
LINE
  5
15E
330
1F
100
AcDbEntity
  8
HEWI
100
AcDbLine
 10
554.3050708211527
 20
-66.499999995
 30
0.0
 11
554.3050708211527
 21
-99.99999999500014
 31
0.0
210
0.0000000000000002
220
1.0
230
0.0
  0
LINE
  5
15F
330
1F
100
AcDbEntity
  8
HEWI
100
AcDbLine
 10
554.3050708211531
 20
55.81537034563092
 30
0.0
 11
554.3050708211531
 21
41.07690969934146
 31
0.0
210
0.0000000000000002
220
1.0
230
0.0
  0
LINE
  5
160
330
1F
100
AcDbEntity
  8
HEWI
100
AcDbLine
 10
554.3050708211531
 20
108.0000000049998
 30
0.0
 11
554.3050708211531
 21
55.81537034563092
 31
0.0
210
0.0000000000000002
220
1.0
230
0.0
  0
LINE
  5
161
330
1F
100
AcDbEntity
  8
HEWI
100
AcDbLine
 10
556.3050708211529
 20
-109.9999999949998
 30
0.0000000000000004
 11
600.3319222128992
 21
-109.9999999949998
 31
0.0000000000000085
210
0.0000000000000002
220
1.0
230
0.0
  0
ARC
  5
162
330
1F
100
AcDbEntity
  8
HEWI
100
AcDbCircle
 10
576.3050708211529
 20
-49.99999999499999
 30
0.000000000000004
 40
16.5
100
AcDbArc
 50
270.0
 51
0.0
  0
ARC
  5
163
330
1F
100
AcDbEntity
  8
HEWI
100
AcDbCircle
 10
576.3050708211529
 20
-49.99999999499999
 30
0.000000000000004
 40
16.5
100
AcDbArc
 50
0.0
 51
90.0
  0
LINE
  5
167
330
1F
100
AcDbEntity
  8
HEWI
100
AcDbLine
 10
449.3050708211531
 20
-14.99999999499999
 30
0.0
 11
449.3050708211531
 21
-84.99999999499998
 31
0.0
210
0.0000000000000002
220
1.0
230
0.0
  0
LINE
  5
168
330
1F
100
AcDbEntity
  8
HEWI
100
AcDbLine
 10
461.305070821153
 20
-82.999999995
 30
0.0000000000000022
 11
461.305070821153
 21
-16.99999999499999
 31
0.0000000000000022
210
0.0000000000000002
220
1.0
230
0.0
  0
LINE
  5
169
330
1F
100
AcDbEntity
  8
HEWI
100
AcDbLine
 10
449.3050708211531
 20
-84.99999999499998
 30
0.0
 11
459.305070821153
 21
-84.99999999499998
 31
0.0000000000000018
210
0.0000000000000002
220
1.0
230
0.0
  0
LINE
  5
16A
330
1F
100
AcDbEntity
  8
HEWI
100
AcDbLine
 10
449.3050708211531
 20
-14.99999999499999
 30
0.0
 11
459.305070821153
 21
-14.99999999499999
 31
0.0000000000000018
210
0.0000000000000002
220
1.0
230
0.0
  0
LINE
  5
16B
330
1F
100
AcDbEntity
  8
HEWI
100
AcDbLine
 10
465.605070821153
 20
-33.499999995
 30
0.000000000000003
 11
461.305070821153
 21
-33.499999995
 31
0.0000000000000022
210
0.0000000000000002
220
1.0
230
0.0
  0
LINE
  5
16C
330
1F
100
AcDbEntity
  8
HEWI
100
AcDbLine
 10
465.605070821153
 20
-66.499999995
 30
0.000000000000003
 11
461.305070821153
 21
-66.499999995
 31
0.0000000000000022
210
0.0000000000000002
220
1.0
230
0.0
  0
LINE
  5
16D
330
1F
100
AcDbEntity
  8
HEWI
100
AcDbLine
 10
475.6050708211778
 20
-33.499999995
 30
0.0000000000000048
 11
465.605070821153
 21
-33.499999995
 31
0.000000000000003
210
0.0000000000000002
220
1.0
230
0.0
  0
LINE
  5
16E
330
1F
100
AcDbEntity
  8
HEWI
100
AcDbLine
 10
475.6050708211778
 20
-66.499999995
 30
0.0000000000000048
 11
465.605070821153
 21
-66.499999995
 31
0.000000000000003
210
0.0000000000000002
220
1.0
230
0.0
  0
ARC
  5
16F
330
1F
100
AcDbEntity
  8
HEWI
100
AcDbCircle
 10
600.3319222128992
 20
-99.99999999500014
 30
0.0000000000000085
 40
10.0
100
AcDbArc
 50
270.0
 51
0.0
  0
LINE
  5
170
330
1F
100
AcDbEntity
  8
HEWI
100
AcDbLine
 10
610.3319222128994
 20
-99.99999999500014
 30
0.0000000000000103
 11
610.3319222128996
 21
41.07690969934146
 31
0.0000000000000103
210
0.0000000000000002
220
1.0
230
0.0
  0
LINE
  5
171
330
1F
100
AcDbEntity
  8
HEWI
100
AcDbLine
 10
556.3050708211529
 20
110.0000000049998
 30
0.0000000000000004
 11
589.3050708211529
 21
110.0000000049998
 31
0.0000000000000064
210
0.0000000000000002
220
1.0
230
0.0
  0
ARC
  5
172
330
1F
100
AcDbEntity
  8
HEWI
100
AcDbCircle
 10
459.305070821153
 20
-82.999999995
 30
0.0000000000000018
 40
2.0
100
AcDbArc
 50
270.0
 51
0.0
  0
ARC
  5
173
330
1F
100
AcDbEntity
  8
HEWI
100
AcDbCircle
 10
459.305070821153
 20
-16.99999999499999
 30
0.0000000000000018
 40
2.0
100
AcDbArc
 50
359.9999999999935
 51
90.0
  0
LINE
  5
174
330
1F
100
AcDbEntity
  8
HEWI
100
AcDbLine
 10
475.6050708211778
 20
-66.499999995
 30
0.0000000000000048
 11
576.3050708211529
 21
-66.499999995
 31
0.000000000000004
210
0.0000000000000002
220
1.0
230
0.0
  0
LINE
  5
175
330
1F
100
AcDbEntity
  8
HEWI
100
AcDbLine
 10
576.3050708211529
 20
-33.499999995
 30
0.000000000000004
 11
475.6050708211778
 21
-33.499999995
 31
0.0000000000000048
210
0.0000000000000002
220
1.0
230
0.0
  0
SPLINE
  5
176
330
1F
100
AcDbEntity
  8
HEWI
100
AcDbSpline
210
-0.0000000000000001
220
0.0
230
1.0
 70
     8
 71
     3
 72
    16
 73
    12
 74
     0
 42
0.000000001
 43
0.0000000001
 40
-0.1936408705407412
 40
-0.1936408705407412
 40
-0.1936408705407412
 40
-0.1936408705407412
 40
0.0
 40
0.0
 40
32.46195476316743
 40
32.46195476316743
 40
64.42507095731454
 40
64.42507095731454
 40
128.8555692693452
 40
128.8555692693452
 40
171.7002331170188
 40
171.7002331170188
 40
171.7002331170188
 40
171.7002331170188
 10
599.05948084183
 20
102.2026087193462
 30
0.0000000000000082
 10
599.05948084183
 20
102.2026087193462
 30
0.0000000000000082
 10
599.059485919592
 20
102.2025862321168
 30
0.0000000000000082
 10
599.061197917533
 20
102.1950045252188
 30
0.0000000000000082
 10
599.2059706250586
 20
101.5558673223019
 30
0.0000000000000082
 10
599.770067324556
 20
99.04152356583253
 30
0.0000000000000084
 10
600.1844778998122
 20
97.18825349290757
 30
0.0000000000000084
 10
601.8097679942005
 20
89.80473555745897
 30
0.0000000000000087
 10
603.3992063304201
 20
82.48247860635904
 30
0.000000000000009
 10
606.6309785650209
 20
66.59364257688861
 30
0.0000000000000096
 10
608.0706440931054
 20
59.28994845680751
 30
0.0000000000000099
 10
609.5981520129996
 20
51.09799285085529
 30
0.0000000000000102
  0
SPLINE
  5
177
330
1F
100
AcDbEntity
  8
HEWI
100
AcDbSpline
210
-0.0000000000000002
220
0.0
230
1.0
 70
     8
 71
     3
 72
    16
 73
    12
 74
     0
 42
0.000000001
 43
0.0000000001
 40
0.4701890350314119
 40
0.4701890350314119
 40
0.4701890350314119
 40
0.4701890350314119
 40
3.906444733869268
 40
3.906444733869268
 40
7.812889467738544
 40
7.812889467738544
 40
10.8981949613966
 40
10.8981949613966
 40
13.98363613685651
 40
13.98363613685651
 40
13.99363535444767
 40
13.99363535444767
 40
13.99363535444767
 40
13.99363535444767
 10
589.3050708211568
 20
109.9999996801245
 30
0.0000000000000064
 10
590.4481889621141
 20
109.9999976307317
 30
0.0000000000000066
 10
591.5841091413068
 20
109.8039771585455
 30
0.0000000000000068
 10
593.8895583566871
 20
108.9820968697359
 30
0.0000000000000073
 10
595.018965621013
 20
108.3094522292505
 30
0.0000000000000075
 10
596.7527515830895
 20
106.7520167523106
 30
0.0000000000000078
 10
597.4072539079778
 20
105.9508241592877
 30
0.0000000000000079
 10
598.4488772271649
 20
104.1771493111338
 30
0.0000000000000081
 10
598.8297564136013
 20
103.2152680425503
 30
0.0000000000000082
 10
599.0580106605042
 20
102.209111952684
 30
0.0000000000000082
 10
599.0587467615192
 20
102.2058596464376
 30
0.0000000000000082
 10
599.05948084183
 20
102.2026087193462
 30
0.0000000000000082
  0
SPLINE
  5
178
330
1F
100
AcDbEntity
  8
HEWI
100
AcDbSpline
210
0.0000000000000002
220
0.0
230
1.0
 70
     8
 71
     3
 72
    12
 73
     8
 74
     0
 42
0.000000001
 43
0.0000000001
 40
0.0
 40
0.0
 40
0.0
 40
0.0
 40
1.69743596530351
 40
1.69743596530351
 40
5.618528910870818
 40
5.618528910870818
 40
9.327267464330523
 40
9.327267464330523
 40
9.327267464330523
 40
9.327267464330523
 10
609.5981520129996
 20
51.09799285085529
 30
0.0000000000000102
 10
609.6769939198856
 20
50.67516728465982
 30
0.0000000000000102
 10
609.7459868780271
 20
50.24759672127487
 30
0.0000000000000102
 10
609.9553253748961
 20
48.76836265886146
 30
0.0000000000000102
 10
610.0932868696088
 20
47.4623578752126
 30
0.0000000000000102
 10
610.2853026973331
 20
44.31855271369449
 30
0.0000000000000103
 10
610.3319222128996
 20
42.71420637283079
 30
0.0000000000000103
 10
610.3319222128996
 20
41.07690969934146
 30
0.0000000000000103
  0
ARC
  5
179
330
1F
100
AcDbEntity
  8
HEWI
100
AcDbCircle
 10
556.3050708211529
 20
108.0000000049998
 30
0.0000000000000004
 40
2.0
100
AcDbArc
 50
90.0
 51
180.0
  0
LINE
  5
17B
330
1F
100
AcDbEntity
  8
HEWI
100
AcDbLine
 10
-175.0
 20
-396.3000000089999
 30
0.0
 11
-175.0
 21
-440.3268514007462
 31
0.0
  0
ARC
  5
17C
330
1F
100
AcDbEntity
  8
HEWI
100
AcDbCircle
 10
-173.0
 20
-396.3000000089999
 30
0.0
 40
1.999999999999998
100
AcDbArc
 50
90.0
 51
180.0
  0
LINE
  5
17D
330
1F
100
AcDbEntity
  8
HEWI
100
AcDbLine
 10
-165.333333333333
 20
-394.3000000089999
 30
0.0
 11
-172.9999999999998
 21
-394.3000000089999
 31
0.0
  0
LINE
  5
17E
330
1F
100
AcDbEntity
  8
HEWI
100
AcDbLine
 10
173.0
 20
-394.3000000089998
 30
0.0
 11
165.3333333333332
 21
-394.3000000089998
 31
0.0
  0
ARC
  5
17F
330
1F
100
AcDbEntity
  8
HEWI
100
AcDbCircle
 10
173.0
 20
-396.3000000089998
 30
0.0
 40
1.999999999999998
100
AcDbArc
 50
0.0
 51
90.0
  0
LINE
  5
180
330
1F
100
AcDbEntity
  8
HEWI
100
AcDbLine
 10
165.3333333333332
 20
-394.3000000089999
 30
0.0
 11
-165.333333333333
 21
-394.3000000089999
 31
0.0
  0
LINE
  5
181
330
1F
100
AcDbEntity
  8
HEWI
100
AcDbLine
 10
175.0
 20
-396.3000000089999
 30
0.0
 11
175.0
 21
-440.3268514008149
 31
0.0
  0
SPLINE
  5
182
330
1F
100
AcDbEntity
  8
HEWI
100
AcDbSpline
210
0.0
220
0.0
230
1.0
 70
     8
 71
     3
 72
    42
 73
    38
 74
     0
 42
0.000000001
 43
0.0000000001
 40
60.51354121548342
 40
60.51354121548342
 40
60.51354121548342
 40
60.51354121548342
 40
61.46082082917963
 40
61.46082082917963
 40
62.40810044287586
 40
62.40810044287586
 40
63.38499014799821
 40
63.38499014799821
 40
64.36187985312057
 40
64.36187985312057
 40
65.36144482065886
 40
65.36144482065886
 40
66.36100978819714
 40
66.36100978819714
 40
67.37731493076896
 40
67.37731493076896
 40
68.3936200733408
 40
68.3936200733408
 40
69.42059214515372
 40
69.42059214515372
 40
70.44756421696668
 40
70.44756421696668
 40
71.47523872954579
 40
71.47523872954579
 40
72.50291324212489
 40
72.50291324212489
 40
73.5275559613646
 40
73.5275559613646
 40
74.55219868060432
 40
74.55219868060432
 40
75.62284745251872
 40
75.62284745251872
 40
76.69349622443316
 40
76.69349622443316
 40
77.85805876772167
 40
77.85805876772167
 40
79.0226213110102
 40
79.0226213110102
 40
79.0226213110102
 40
79.0226213110102
 10
-163.6693548387117
 20
-450.2379251798451
 30
0.0
 10
-163.6693548387117
 20
-450.2379251798451
 30
0.0
 10
-163.6655989967945
 20
-450.2374209038812
 30
0.0
 10
-163.6490953192871
 20
-450.235205311613
 30
0.0
 10
-163.6363475486892
 20
-450.2334940341104
 30
0.0
 10
-163.6058943655015
 20
-450.2294066583551
 30
0.0
 10
-163.5849218544348
 20
-450.2265920410886
 30
0.0
 10
-163.5335158624795
 20
-450.2196950814388
 30
0.0
 10
-163.5030825902773
 20
-450.2156128656219
 30
0.0
 10
-163.4398870183805
 20
-450.2071387505436
 30
0.0
 10
-163.4006553421972
 20
-450.2018793430303
 30
0.0
 10
-163.3125055663223
 20
-450.19006751595
 30
0.0
 10
-163.2635878216118
 20
-450.1835153169822
 30
0.0
 10
-163.1665607194478
 20
-450.1705253842683
 30
0.0
 10
-163.1086680806286
 20
-450.1627778710963
 30
0.0
 10
-162.9832136627411
 20
-450.1459998640937
 30
0.0
 10
-162.9156523662955
 20
-450.1369696805823
 30
0.0
 10
-162.7848935908468
 20
-450.1195036037406
 30
0.0
 10
-162.7086111954729
 20
-450.1093198781001
 30
0.0
 10
-162.5466429031886
 20
-450.0877151479471
 30
0.0
 10
-162.4609575749628
 20
-450.0762945277967
 30
0.0
 10
-162.298102864425
 20
-450.0546052835058
 30
0.0
 10
-162.2047358182551
 20
-450.0421792798369
 30
0.0
 10
-162.0091649585621
 20
-450.0161773489407
 30
0.0
 10
-161.9069617388884
 20
-450.0026018505994
 30
0.0
 10
-161.7148673714509
 20
-449.9771096182199
 30
0.0
 10
-161.6058966466129
 20
-449.9626606445832
 30
0.0
 10
-161.3798428139448
 20
-449.9327217320253
 30
0.0
 10
-161.2627602734604
 20
-449.9172322393993
 30
0.0
 10
-161.0389840727698
 20
-449.8876583821042
 30
0.0
 10
-160.9097480203631
 20
-449.8705961262616
 30
0.0
 10
-160.6432664481575
 20
-449.8354621864958
 30
0.0
 10
-160.5060215049757
 20
-449.8173910103964
 30
0.0
 10
-160.2394201974497
 20
-449.7823298450358
 30
0.0
 10
-160.0830059310913
 20
-449.7617851771244
 30
0.0
 10
-159.7618836875136
 20
-449.7196759860726
 30
0.0
 10
-159.5971763088631
 20
-449.6981120799822
 30
0.0
 10
-159.444444444446
 20
-449.6781450326786
 30
0.0
  0
ARC
  5
183
330
1F
100
AcDbEntity
  8
HEWI
100
AcDbCircle
 10
-165.0
 20
-440.3268514007462
 30
0.0
 40
10.0
100
AcDbArc
 50
180.0
 51
277.646715092455
  0
SPLINE
  5
184
330
1F
100
AcDbEntity
  8
HEWI
100
AcDbSpline
210
0.0
220
0.0
230
1.0
 70
     8
 71
     3
 72
    70
 73
    66
 74
     0
 42
0.000000001
 43
0.0000000001
 40
39.62778323717639
 40
39.62778323717639
 40
39.62778323717639
 40
39.62778323717639
 40
50.02619892778175
 40
50.02619892778175
 40
60.42461461838712
 40
60.42461461838712
 40
70.82303030899248
 40
70.82303030899248
 40
81.22144599959787
 40
81.22144599959787
 40
92.03651776576299
 40
92.03651776576299
 40
102.8515895319281
 40
102.8515895319281
 40
113.6666612980933
 40
113.6666612980933
 40
124.4817330642584
 40
124.4817330642584
 40
135.213537418722
 40
135.213537418722
 40
145.9453417731855
 40
145.9453417731855
 40
156.6771461276492
 40
156.6771461276492
 40
167.4089504821127
 40
167.4089504821127
 40
177.8320782282138
 40
177.8320782282138
 40
188.2552059743149
 40
188.2552059743149
 40
198.6783337204161
 40
198.6783337204161
 40
209.1014614665172
 40
209.1014614665172
 40
219.5245892126253
 40
219.5245892126253
 40
229.9477169587333
 40
229.9477169587333
 40
240.3708447048412
 40
240.3708447048412
 40
250.793972450949
 40
250.793972450949
 40
261.5257768054156
 40
261.5257768054156
 40
272.2575811598825
 40
272.2575811598825
 40
282.9893855143491
 40
282.9893855143491
 40
293.7211898688159
 40
293.7211898688159
 40
304.5362616349811
 40
304.5362616349811
 40
315.3513334011463
 40
315.3513334011463
 40
326.1664051673113
 40
326.1664051673113
 40
336.9814769334764
 40
336.9814769334764
 40
347.3798926240776
 40
347.3798926240776
 40
357.7783083146787
 40
357.7783083146787
 40
368.1767240052796
 40
368.1767240052796
 40
378.5751396958808
 40
378.5751396958808
 40
378.5751396958808
 40
378.5751396958808
 10
-159.4444444444462
 20
-449.6781450326786
 30
0.0
 10
-156.7846480545985
 20
-449.3304226989211
 30
0.0
 10
-153.9596296721379
 20
-448.9700681523511
 30
0.0
 10
-148.1017019093162
 20
-448.24529359917
 30
0.0
 10
-145.0687409985555
 20
-447.8809040615574
 30
0.0
 10
-138.9302361303888
 20
-447.1674633957547
 30
0.0
 10
-135.8244942907907
 20
-446.8184128433826
 30
0.0
 10
-129.6882877500071
 20
-446.1522279762072
 30
0.0
 10
-126.6578632814562
 20
-445.8351017692985
 30
0.0
 10
-120.7154115086118
 20
-445.2342086184644
 30
0.0
 10
-117.5074156703119
 20
-444.9213460242344
 30
0.0
 10
-110.8785211333195
 20
-444.3032511878667
 30
0.0
 10
-107.4575794044803
 20
-443.9980544696873
 30
0.0
 10
-100.5573216755382
 20
-443.4124789976581
 30
0.0
 10
-97.07776088186195
 20
-443.1321005096227
 30
0.0
 10
-90.22474427961986
 20
-442.6087980595343
 30
0.0
 10
-86.85131962676555
 20
-442.3658731546717
 30
0.0
 10
-80.40943172596746
 20
-441.926924885608
 30
0.0
 10
-77.02297311077396
 20
-441.70900257567
 30
0.0
 10
-70.05109384013036
 20
-441.2914334191825
 30
0.0
 10
-66.46564568034955
 20
-441.0918198856696
 30
0.0
 10
-59.25959816450089
 20
-440.7230525600634
 30
0.0
 10
-55.63874329284667
 20
-440.5538988324063
 30
0.0
 10
-48.53149998788647
 20
-440.2526679583546
 30
0.0
 10
-45.0451293566051
 20
-440.1205792115087
 30
0.0
 10
-38.47779928976331
 20
-439.8977301597246
 30
0.0
 10
-35.07282759741755
 20
-439.7951785275952
 30
0.0
 10
-28.08677478259776
 20
-439.6157550241309
 30
0.0
 10
-24.50568263661915
 20
-439.5389098904323
 30
0.0
 10
-17.33253013394969
 20
-439.4168955432761
 30
0.0
 10
-13.74022782616234
 20
-439.3717263352415
 30
0.0
 10
-6.711319212418378
 20
-439.3132885209238
 30
0.0
 10
-3.274716365183917
 20
-439.3000000089993
 30
0.0
 10
3.274716365163504
 20
-439.3000000090006
 30
0.0
 10
6.711319212400223
 20
-439.3132885209265
 30
0.0
 10
13.74022782614876
 20
-439.3717263352471
 30
0.0
 10
17.33253013393845
 20
-439.4168955432831
 30
0.0
 10
24.50568263661256
 20
-439.5389098904423
 30
0.0
 10
28.08677478259346
 20
-439.6157550241424
 30
0.0
 10
35.07282759741775
 20
-439.7951785276096
 30
0.0
 10
38.47779928976571
 20
-439.8977301597406
 30
0.0
 10
45.04512935661046
 20
-440.1205792115276
 30
0.0
 10
48.53149998789271
 20
-440.252667958375
 30
0.0
 10
55.63874329285479
 20
-440.5538988324296
 30
0.0
 10
59.25959816450999
 20
-440.7230525600882
 30
0.0
 10
66.46564568036049
 20
-441.0918198856975
 30
0.0
 10
70.05109384014217
 20
-441.2914334192121
 30
0.0
 10
77.02297311078756
 20
-441.7090025757028
 30
0.0
 10
80.4094317259819
 20
-441.9269248856426
 30
0.0
 10
86.85131962678058
 20
-442.365873154709
 30
0.0
 10
90.22474427963471
 20
-442.6087980595728
 30
0.0
 10
97.0777608818765
 20
-443.1321005096641
 30
0.0
 10
100.5573216755525
 20
-443.4124789977007
 30
0.0
 10
107.4575794044942
 20
-443.9980544697331
 30
0.0
 10
110.8785211333332
 20
-444.3032511879138
 30
0.0
 10
117.507415670325
 20
-444.9213460242844
 30
0.0
 10
120.7154115086247
 20
-445.2342086185157
 30
0.0
 10
126.6578632814675
 20
-445.835101769352
 30
0.0
 10
129.6882877500169
 20
-446.1522279762625
 30
0.0
 10
135.8244942907977
 20
-446.8184128434399
 30
0.0
 10
138.9302361303943
 20
-447.1674633958132
 30
0.0
 10
145.0687409985581
 20
-447.8809040616181
 30
0.0
 10
148.1017019093175
 20
-448.2452935992315
 30
0.0
 10
153.9596296721366
 20
-448.970068152415
 30
0.0
 10
156.7846480545956
 20
-449.3304226989861
 30
0.0
 10
159.4444444444422
 20
-449.6781450327445
 30
0.0
  0
SPLINE
  5
185
330
1F
100
AcDbEntity
  8
HEWI
100
AcDbSpline
210
0.0
220
0.0
230
1.0
 70
     8
 71
     3
 72
    38
 73
    34
 74
     0
 42
0.000000001
 43
0.0000000001
 40
-18.5090800955268
 40
-18.5090800955268
 40
-18.5090800955268
 40
-18.5090800955268
 40
-16.27139834080058
 40
-16.27139834080058
 40
-14.03371658607436
 40
-14.03371658607436
 40
-13.00943448790905
 40
-13.00943448790905
 40
-11.98515238974376
 40
-11.98515238974376
 40
-10.95783956527315
 40
-10.95783956527315
 40
-9.930526740802564
 40
-9.930526740802564
 40
-8.903916109875456
 40
-8.903916109875456
 40
-7.87730547894835
 40
-7.87730547894835
 40
-6.861358023056821
 40
-6.861358023056821
 40
-5.845410567165286
 40
-5.845410567165286
 40
-4.846197394634281
 40
-4.846197394634281
 40
-3.846984222103277
 40
-3.846984222103277
 40
-2.870438331472341
 40
-2.870438331472341
 40
-1.893892440841405
 40
-1.893892440841405
 40
-0.9469462204207026
 40
-0.9469462204207026
 40
0.0
 40
0.0
 40
0.0
 40
0.0
 10
159.4444444444423
 20
-449.6781450327445
 30
0.0
 10
159.7380187435176
 20
-449.716524790231
 30
0.0
 10
160.0483927574605
 20
-449.7572168550503
 30
0.0
 10
160.6365162983138
 20
-449.8345443282458
 30
0.0
 10
160.9142613291327
 20
-449.8711752503173
 30
0.0
 10
161.2627602734586
 20
-449.9172322394663
 30
0.0
 10
161.3798428139431
 20
-449.9327217320923
 30
0.0
 10
161.605896646611
 20
-449.9626606446503
 30
0.0
 10
161.7148673714488
 20
-449.9771096182871
 30
0.0
 10
161.9069617388863
 20
-450.0026018506665
 30
0.0
 10
162.0091649585598
 20
-450.0161773490078
 30
0.0
 10
162.2047358182526
 20
-450.0421792799043
 30
0.0
 10
162.2981028644223
 20
-450.0546052835733
 30
0.0
 10
162.4609575749601
 20
-450.0762945278643
 30
0.0
 10
162.5466429031858
 20
-450.0877151480145
 30
0.0
 10
162.70861119547
 20
-450.1093198781677
 30
0.0
 10
162.7848935908436
 20
-450.1195036038081
 30
0.0
 10
162.9156523662925
 20
-450.1369696806499
 30
0.0
 10
162.983213662738
 20
-450.1459998641613
 30
0.0
 10
163.1086680806252
 20
-450.162777871164
 30
0.0
 10
163.1665607194443
 20
-450.170525384336
 30
0.0
 10
163.2635878216083
 20
-450.18351531705
 30
0.0
 10
163.3125055663185
 20
-450.1900675160178
 30
0.0
 10
163.4006553421935
 20
-450.201879343098
 30
0.0
 10
163.4398870183769
 20
-450.2071387506113
 30
0.0
 10
163.5030825902735
 20
-450.2156128656896
 30
0.0
 10
163.5335158624755
 20
-450.2196950815063
 30
0.0
 10
163.584921854431
 20
-450.2265920411561
 30
0.0
 10
163.6058943654975
 20
-450.2294066584227
 30
0.0
 10
163.6363475486851
 20
-450.2334940341781
 30
0.0
 10
163.6490953192831
 20
-450.2352053116807
 30
0.0
 10
163.6655989967904
 20
-450.237420903949
 30
0.0
 10
163.6693548387075
 20
-450.2379251799133
 30
0.0
 10
163.6693548387075
 20
-450.2379251799133
 30
0.0
  0
ARC
  5
186
330
1F
100
AcDbEntity
  8
HEWI
100
AcDbCircle
 10
165.0
 20
-440.3268514008149
 30
0.0
 40
10.0
100
AcDbArc
 50
262.3532849075207
 51
0.0
  0
LINE
  5
18E
330
1F
100
AcDbEntity
  8
HEWI
100
AcDbLine
 10
-182.5
 20
-289.3000000089998
 30
0.0
 11
-252.5
 21
-289.3000000089998
 31
0.0
  0
LINE
  5
18F
330
1F
100
AcDbEntity
  8
HEWI
100
AcDbLine
 10
-250.5
 20
-301.3000000089999
 30
0.0
 11
-184.5
 21
-301.3000000089999
 31
0.0
  0
LINE
  5
197
330
1F
100
AcDbEntity
  8
HEWI
100
AcDbLine
 10
-252.5
 20
-289.3000000089998
 30
0.0
 11
-252.5
 21
-299.3000000089999
 31
0.0
  0
LINE
  5
198
330
1F
100
AcDbEntity
  8
HEWI
100
AcDbLine
 10
-182.5
 20
-289.3000000089998
 30
0.0
 11
-182.5
 21
-299.3000000089999
 31
0.0
  0
LINE
  5
199
330
1F
100
AcDbEntity
  8
HEWI
100
AcDbLine
 10
-200.9999999999998
 20
-305.6000000089999
 30
0.0
 11
-200.9999999999998
 21
-301.3000000089999
 31
0.0
  0
LINE
  5
19A
330
1F
100
AcDbEntity
  8
HEWI
100
AcDbLine
 10
-233.9999999999999
 20
-305.6000000089999
 30
0.0
 11
-233.9999999999999
 21
-301.3000000089999
 31
0.0
  0
LINE
  5
19F
330
1F
100
AcDbEntity
  8
HEWI
100
AcDbLine
 10
-200.9999999999998
 20
-355.8078735441562
 30
0.0
 11
-200.9999999999998
 21
-305.6000000089965
 31
0.0
  0
LINE
  5
1A0
330
1F
100
AcDbEntity
  8
HEWI
100
AcDbLine
 10
-233.9999999999999
 20
-355.8078735441562
 30
0.0
 11
-233.9999999999999
 21
-305.6000000090035
 31
0.0
  0
ARC
  5
1A9
330
1F
100
AcDbEntity
  8
HEWI
100
AcDbCircle
 10
-250.5
 20
-299.3000000089999
 30
0.0
 40
2.0
100
AcDbArc
 50
180.0
 51
270.0
  0
ARC
  5
1AA
330
1F
100
AcDbEntity
  8
HEWI
100
AcDbCircle
 10
-184.5
 20
-299.3000000089999
 30
0.0
 40
2.0
100
AcDbArc
 50
270.0
 51
0.0
  0
ARC
  5
1AF
330
1F
100
AcDbEntity
  8
HEWI
100
AcDbCircle
 10
165.0
 20
-440.3268514008149
 30
0.0
 40
10.0
100
AcDbArc
 50
262.3532849075207
 51
0.0
  0
ARC
  5
1B0
330
1F
100
AcDbEntity
  8
HEWI
100
AcDbCircle
 10
-165.0
 20
-440.3268514007462
 30
0.0
 40
10.0
100
AcDbArc
 50
180.0
 51
277.6467150924553
  0
ARC
  5
264
330
1F
100
AcDbEntity
  8
HEWI
100
AcDbCircle
 10
-217.5
 20
-49.99999999499999
 30
0.0000000000000002
 40
16.5
100
AcDbArc
 50
90.0
 51
270.0
  0
ARC
  5
266
330
1F
100
AcDbEntity
  8
HEWI
100
AcDbCircle
 10
217.5
 20
-49.99999999499999
 30
0.0
 40
35.0
100
AcDbArc
 50
208.1270682186051
 51
151.8729317813949
  0
LINE
  5
267
330
1F
100
AcDbEntity
  8
HEWI
100
AcDbLine
 10
175.0
 20
-33.49999999499999
 30
-0.0000000000000211
 11
217.5
 21
-33.49999999499999
 31
-0.0000000000000263
210
0.0
220
1.0
230
0.0
  0
LINE
  5
268
330
1F
100
AcDbEntity
  8
HEWI
100
AcDbLine
 10
175.0
 20
-66.499999995
 30
-0.0000000000000211
 11
217.5
 21
-66.499999995
 31
-0.0000000000000263
210
0.0
220
1.0
230
0.0
  0
ARC
  5
269
330
1F
100
AcDbEntity
  8
HEWI
100
AcDbCircle
 10
217.5
 20
-49.99999999499999
 30
0.0000000000000002
 40
16.5
100
AcDbArc
 50
270.0
 51
90.0
  0
LINE
  5
279
330
1F
100
AcDbEntity
  8
HEWI
100
AcDbLine
 10
252.5
 20
-289.3000000089998
 30
0.0
 11
182.5
 21
-289.3000000089998
 31
0.0
  0
LINE
  5
27A
330
1F
100
AcDbEntity
  8
HEWI
100
AcDbLine
 10
184.4999999999999
 20
-301.3000000089999
 30
0.0
 11
250.5
 21
-301.3000000089999
 31
0.0
  0
LINE
  5
27B
330
1F
100
AcDbEntity
  8
HEWI
100
AcDbLine
 10
182.5
 20
-289.3000000089998
 30
0.0
 11
182.5
 21
-299.3000000089999
 31
0.0
  0
LINE
  5
27C
330
1F
100
AcDbEntity
  8
HEWI
100
AcDbLine
 10
252.5
 20
-289.3000000089998
 30
0.0
 11
252.5
 21
-299.3000000089999
 31
0.0
  0
LINE
  5
27D
330
1F
100
AcDbEntity
  8
HEWI
100
AcDbLine
 10
234.0000000000002
 20
-305.6000000089999
 30
0.0
 11
234.0000000000002
 21
-301.3000000089999
 31
0.0
  0
LINE
  5
27E
330
1F
100
AcDbEntity
  8
HEWI
100
AcDbLine
 10
201.0000000000001
 20
-355.8078735441562
 30
0.0
 11
201.0000000000001
 21
-301.3000000089999
 31
0.0
  0
LINE
  5
27F
330
1F
100
AcDbEntity
  8
HEWI
100
AcDbLine
 10
233.9960479736328
 20
-375.0278442472812
 30
0.0
 11
234.0000000000002
 21
-305.6000000089965
 31
0.0
  0
ARC
  5
281
330
1F
100
AcDbEntity
  8
HEWI
100
AcDbCircle
 10
184.4999999999999
 20
-299.3000000089999
 30
0.0
 40
2.0
100
AcDbArc
 50
180.0
 51
270.0
  0
ARC
  5
282
330
1F
100
AcDbEntity
  8
HEWI
100
AcDbCircle
 10
250.5
 20
-299.3000000089999
 30
0.0
 40
2.0
100
AcDbArc
 50
270.0
 51
0.0
  0
LINE
  5
295
330
1F
100
AcDbEntity
  8
HEWI
  6
VOLLINIE_SCHMAL_0_18
 62
     7
100
AcDbLine
 10
201.0039520263671
 20
-355.8078735441562
 30
0.0
 11
233.9960479736328
 21
-355.8078735441562
 31
0.0
  0
LINE
  5
299
330
1F
100
AcDbEntity
  8
HEWI
  6
VOLLINIE_SCHMAL_0_18
 62
     7
100
AcDbLine
 10
233.9960479736328
 20
-375.0278442472812
 30
0.0
 11
233.9960479736328
 21
-355.8078735441562
 31
0.0
  0
LINE
  5
29A
330
1F
100
AcDbEntity
  8
HEWI
  6
VOLLINIE_SCHMAL_0_18
 62
     7
100
AcDbLine
 10
201.0039520263671
 20
-373.5874145597812
 30
0.0
 11
201.0039520263671
 21
-355.8078735441562
 31
0.0
  0
LINE
  5
29C
330
1F
100
AcDbEntity
  8
HEWI
  6
VOLLINIE_SCHMAL_0_18
 62
     7
100
AcDbLine
 10
175.0
 20
-438.6197231231483
 30
0.0
 11
177.800674437025
 21
-438.3747070402498
 31
0.0
  0
LINE
  5
29D
330
1F
100
AcDbEntity
  8
HEWI
  6
VOLLINIE_SCHMAL_0_18
 62
     7
100
AcDbLine
 10
233.0707550048828
 20
-385.6046264738436
 30
0.0
 11
233.9960479736328
 21
-375.0278442472812
 31
0.0
  0
LINE
  5
29E
330
1F
100
AcDbEntity
  8
HEWI
  6
VOLLINIE_SCHMAL_0_18
 62
     7
100
AcDbLine
 10
200.4557037353515
 20
-379.8535888761874
 30
0.0
 11
201.0039520263671
 21
-373.5874145597812
 31
0.0
  0
ARC
  5
29F
330
1F
100
AcDbEntity
  8
HEWI
  6
VOLLINIE_SCHMAL_0_18
 62
     7
100
AcDbCircle
 10
169.0039499611373
 20
-374.3079346612972
 30
0.0
 40
31.93692371135533
100
AcDbArc
 50
280.8213096567192
 51
350.0002448149948
  0
ARC
  5
2A0
330
1F
100
AcDbEntity
  8
HEWI
  6
VOLLINIE_SCHMAL_0_18
 62
     7
100
AcDbCircle
 10
169.0036899515976
 20
-374.3076419869648
 30
0.0
 40
65.05544314689321
100
AcDbArc
 50
275.2885904910189
 51
349.9997984789648
  0
LINE
  5
2A7
330
1F
100
AcDbEntity
  8
HEWI
100
AcDbLine
 10
-173.000000002903
 20
-394.3000000089998
 30
0.0
 11
-165.3333333362362
 21
-394.3000000089998
 31
0.0
  0
ARC
  5
2A8
330
1F
100
AcDbEntity
  8
HEWI
100
AcDbCircle
 10
-173.000000002903
 20
-396.3000000089998
 30
0.0
 40
1.999999999999998
100
AcDbArc
 50
90.0
 51
180.0
  0
LINE
  5
2A9
330
1F
100
AcDbEntity
  8
HEWI
  6
VOLLINIE_SCHMAL_0_18
 62
     7
100
AcDbLine
 10
-201.0039520263672
 20
-355.8078735441562
 30
0.0
 11
-233.9960479736329
 21
-355.8078735441562
 31
0.0
  0
LINE
  5
2AD
330
1F
100
AcDbEntity
  8
HEWI
  6
VOLLINIE_SCHMAL_0_18
 62
     7
100
AcDbLine
 10
-233.9960479736329
 20
-375.0278442472812
 30
0.0
 11
-233.9960479736329
 21
-355.8078735441562
 31
0.0
  0
LINE
  5
2AE
330
1F
100
AcDbEntity
  8
HEWI
  6
VOLLINIE_SCHMAL_0_18
 62
     7
100
AcDbLine
 10
-201.0039520263672
 20
-373.5874145597812
 30
0.0
 11
-201.0039520263672
 21
-355.8078735441562
 31
0.0
  0
LINE
  5
2B0
330
1F
100
AcDbEntity
  8
HEWI
  6
VOLLINIE_SCHMAL_0_18
 62
     7
100
AcDbLine
 10
-175.0
 20
-438.6197231234024
 30
0.0
 11
-177.8006744399281
 21
-438.3747070402498
 31
0.0
  0
LINE
  5
2B1
330
1F
100
AcDbEntity
  8
HEWI
  6
VOLLINIE_SCHMAL_0_18
 62
     7
100
AcDbLine
 10
-233.0707550048828
 20
-385.6046264738436
 30
0.0
 11
-233.9960479736329
 21
-375.0278442472812
 31
0.0
  0
LINE
  5
2B2
330
1F
100
AcDbEntity
  8
HEWI
  6
VOLLINIE_SCHMAL_0_18
 62
     7
100
AcDbLine
 10
-200.4557037353516
 20
-379.8535888761874
 30
0.0
 11
-201.0039520263672
 21
-373.5874145597812
 31
0.0
  0
ARC
  5
2B3
330
1F
100
AcDbEntity
  8
HEWI
  6
VOLLINIE_SCHMAL_0_18
 62
     7
100
AcDbCircle
 10
-169.0039499611373
 20
-374.3079346612972
 30
0.0
 40
31.93692371135533
100
AcDbArc
 50
189.9997551850051
 51
259.1786903432808
  0
ARC
  5
2B4
330
1F
100
AcDbEntity
  8
HEWI
  6
VOLLINIE_SCHMAL_0_18
 62
     7
100
AcDbCircle
 10
-169.0036899515977
 20
-374.3076419869648
 30
0.0
 40
65.05544314689321
100
AcDbArc
 50
190.000201521035
 51
264.7114095089811
  0
ENDSEC
  0
SECTION
  2
OBJECTS
  0
DICTIONARY
  5
C
330
0
100
AcDbDictionary
281
     1
  3
ACAD_CIP_PREVIOUS_PRODUCT_INFO
350
228
  3
ACAD_COLOR
350
208
  3
ACAD_DETAILVIEWSTYLE
350
222
  3
ACAD_GROUP
350
D
  3
ACAD_LAYOUT
350
1A
  3
ACAD_MATERIAL
350
1D6
  3
ACAD_MLEADERSTYLE
350
21D
  3
ACAD_MLINESTYLE
350
17
  3
ACAD_PLOTSETTINGS
350
19
  3
ACAD_PLOTSTYLENAME
350
10D
  3
ACAD_SCALELIST
350
20B
  3
ACAD_SECTIONVIEWSTYLE
350
21F
  3
ACAD_TABLESTYLE
350
209
  3
ACAD_VISUALSTYLE
350
1EF
  3
ACDB_RECOMPOSE_DATA
350
378
  3
AcDbVariableDictionary
350
2CF
  0
DICTIONARY
  5
2BF
330
2
100
AcDbDictionary
280
     1
281
     1
  3
ACAD_LAYERSTATES
360
2C0
  0
DICTIONARY
  5
229
330
10
100
AcDbDictionary
280
     1
281
     1
  3
ADSK_XREC_LAYER_RECONCILED
360
22A
  0
DICTIONARY
  5
22B
330
72
100
AcDbDictionary
280
     1
281
     1
  3
ADSK_XREC_LAYER_RECONCILED
360
22C
  0
DICTIONARY
  5
107
330
1F
100
AcDbDictionary
281
     1
  3
ACAD_LAYOUTSELFREF
350
1D3
  3
ACAD_SORTENTS
350
265
  0
DICTIONARY
  5
105
330
1B
100
AcDbDictionary
281
     1
  3
ACAD_LAYOUTSELFREF
350
1D2
  0
XRECORD
  5
228
102
{ACAD_REACTORS
330
C
102
}
330
C
100
AcDbXrecord
280
     1
300
ACDLT
300
2016
300
ACDLT_F_S
  0
DICTIONARY
  5
208
102
{ACAD_REACTORS
330
C
102
}
330
C
100
AcDbDictionary
281
     1
  0
DICTIONARY
  5
222
102
{ACAD_REACTORS
330
C
102
}
330
C
100
AcDbDictionary
281
     1
  3
Imperial24
350
223
  0
DICTIONARY
  5
D
102
{ACAD_REACTORS
330
C
102
}
330
C
100
AcDbDictionary
281
     1
  0
DICTIONARY
  5
1A
102
{ACAD_REACTORS
330
C
102
}
330
C
100
AcDbDictionary
281
     1
  3
Layout1
350
225
  3
Model
350
224
  0
DICTIONARY
  5
1D6
102
{ACAD_REACTORS
330
C
102
}
330
C
100
AcDbDictionary
281
     1
  3
ByBlock
350
1DF
  3
ByLayer
350
1D7
  3
Global
350
1E7
  0
DICTIONARY
  5
21D
102
{ACAD_REACTORS
330
C
102
}
330
C
100
AcDbDictionary
281
     1
  3
Standard
350
21E
  0
DICTIONARY
  5
17
102
{ACAD_REACTORS
330
C
102
}
330
C
100
AcDbDictionary
281
     1
  3
STANDARD
350
18
  0
DICTIONARY
  5
19
102
{ACAD_REACTORS
330
C
102
}
330
C
100
AcDbDictionary
281
     1
  0
ACDBDICTIONARYWDFLT
  5
10D
102
{ACAD_REACTORS
330
C
102
}
330
C
100
AcDbDictionary
281
     1
  3
Normal
350
10E
100
AcDbDictionaryWithDefault
340
10E
  0
DICTIONARY
  5
20B
102
{ACAD_REACTORS
330
C
102
}
330
C
100
AcDbDictionary
281
     1
  3
A0
350
20C
  3
A1
350
20D
  3
A2
350
20E
  3
A3
350
20F
  3
A4
350
210
  3
A5
350
211
  3
A6
350
212
  3
A7
350
213
  3
A8
350
214
  3
A9
350
215
  3
B0
350
216
  3
B1
350
217
  3
B2
350
218
  3
B3
350
219
  3
B4
350
21A
  3
B5
350
21B
  3
B6
350
21C
  0
DICTIONARY
  5
21F
102
{ACAD_REACTORS
330
C
102
}
330
C
100
AcDbDictionary
281
     1
  3
Imperial24
350
221
  0
DICTIONARY
  5
209
102
{ACAD_REACTORS
330
C
102
}
330
C
100
AcDbDictionary
281
     1
  3
Standard
350
20A
  0
DICTIONARY
  5
1EF
102
{ACAD_REACTORS
330
C
102
}
330
C
100
AcDbDictionary
281
     1
  3
2dWireframe
350
1F5
  3
Basic
350
1F4
  3
Brighten
350
1FB
  3
ColorChange
350
1FF
  3
Conceptual
350
1F8
  3
Dim
350
1FA
  3
EdgeColorOff
350
207
  3
Facepattern
350
1FE
  3
Flat
350
1F0
  3
FlatWithEdges
350
1F1
  3
Gouraud
350
1F2
  3
GouraudWithEdges
350
1F3
  3
Hidden
350
1F7
  3
JitterOff
350
205
  3
Linepattern
350
1FD
  3
OverhangOff
350
206
  3
Realistic
350
1F9
  3
Shaded
350
204
  3
Shaded with edges
350
203
  3
Shades of Gray
350
200
  3
Sketchy
350
201
  3
Thicken
350
1FC
  3
Wireframe
350
1F6
  3
X-Ray
350
202
  0
XRECORD
  5
378
102
{ACAD_REACTORS
330
C
102
}
330
C
100
AcDbXrecord
280
     1
 90
        1
330
20A
  0
DICTIONARY
  5
2CF
102
{ACAD_REACTORS
330
C
102
}
330
C
100
AcDbDictionary
281
     1
  3
CANNOSCALE
350
2D5
  3
CMLEADERSTYLE
350
2D1
  3
CTABLESTYLE
350
2D0
  3
CVIEWDETAILSTYLE
350
2D2
  3
CVIEWSECTIONSTYLE
350
2D3
  3
LAYEREVAL
350
2D7
  3
LAYERNOTIFY
350
2D8
  3
LIGHTINGUNITS
350
2D6
  3
MSLTSCALE
350
2D4
  0
DICTIONARY
  5
2C0
102
{ACAD_REACTORS
330
2BF
102
}
330
2BF
100
AcDbDictionary
281
     1
  0
XRECORD
  5
22A
102
{ACAD_REACTORS
330
229
102
}
330
229
100
AcDbXrecord
280
     1
290
     1
  0
XRECORD
  5
22C
102
{ACAD_REACTORS
330
22B
102
}
330
22B
100
AcDbXrecord
280
     1
290
     1
  0
XRECORD
  5
1D3
102
{ACAD_REACTORS
330
107
102
}
330
107
100
AcDbXrecord
280
     1
340
1F
  0
SORTENTSTABLE
  5
265
102
{ACAD_REACTORS
330
107
102
}
330
107
100
AcDbSortentsTable
330
1F
331
1B0
  5
263
331
170
  5
171
331
180
  5
181
331
1A0
  5
1A1
331
161
  5
162
331
138
  5
138
331
181
  5
182
331
162
  5
163
331
139
  5
139
331
172
  5
173
331
163
  5
164
331
13A
  5
13A
331
173
  5
174
331
154
  5
154
331
13B
  5
13B
331
174
  5
175
331
155
  5
155
331
175
  5
176
331
176
  5
177
331
167
  5
168
331
177
  5
178
331
186
  5
187
331
148
  5
148
331
168
  5
169
331
178
  5
179
331
169
  5
16A
331
179
  5
17B
331
199
  5
19A
331
16A
  5
16B
331
19A
  5
19B
331
15B
  5
15C
331
16B
  5
16C
331
15C
  5
15D
331
16C
  5
16D
331
264
  5
156
331
134
  5
134
331
15D
  5
15E
331
16D
  5
16E
331
135
  5
135
331
15E
  5
15F
331
16E
  5
16F
331
17E
  5
17F
331
15F
  5
160
331
136
  5
136
331
16F
  5
170
331
17F
  5
180
331
18F
  5
190
331
19F
  5
1A0
331
18E
  5
18F
331
17D
  5
17E
331
1AF
  5
1B0
331
17C
  5
17D
331
17B
  5
17C
331
1AA
  5
1AB
331
1A9
  5
1AA
331
198
  5
199
331
197
  5
198
331
185
  5
186
331
184
  5
185
331
183
  5
184
331
182
  5
183
331
137
  5
137
331
171
  5
172
331
160
  5
161
  0
XRECORD
  5
1D2
102
{ACAD_REACTORS
330
105
102
}
330
105
100
AcDbXrecord
280
     1
340
1B
  0
ACDBDETAILVIEWSTYLE
  5
223
102
{ACAD_XDICTIONARY
360
3AB
102
}
102
{ACAD_REACTORS
330
222
102
}
330
222
100
AcDbModelDocViewStyle
 70
     0
  3
Imperial24
290
     0
100
AcDbDetailViewStyle
 70
     0
 71
     0
 90
        3
 71
     1
340
11
 62
   256
 40
0.24
340
0
 62
   256
 40
0.24
300

 40
0.36
280
     3
 71
     2
340
16
 90
       25
 62
   256
 71
     3
340
11
 62
   256
 40
0.24
 90
        1
 40
0.75
 90
        1
300
%<\AcVar ViewType \f "%tc1">% %<\AcVar ViewDetailId>%\PVARIA %<\AcVar ViewScale \f "%sn">%
 71
     4
340
16
 90
       25
 62
   256
340
16
 90
       25
 62
   256
280
     0
  0
LAYOUT
  5
225
102
{ACAD_REACTORS
330
1A
102
}
330
1A
100
AcDbPlotSettings
  1

  2
\\srvadruck01\MFSA15
  4

  6

 40
0.0
 41
0.0
 42
0.0
 43
0.0
 44
0.0
 45
0.0
 46
0.0
 47
0.0
 48
0.0
 49
0.0
140
0.0
141
0.0
142
1.0
143
1.0
 70
   688
 72
     0
 73
     0
 74
     5
  7

 75
    16
147
1.0
 76
     0
 77
     2
 78
   300
148
0.0
149
0.0
100
AcDbLayout
  1
Layout1
 70
     1
 71
     1
 10
0.0
 20
0.0
 11
12.0
 21
9.0
 12
0.0
 22
0.0
 32
0.0
 14
1.000000000000000E+20
 24
1.000000000000000E+20
 34
1.000000000000000E+20
 15
-1.000000000000000E+20
 25
-1.000000000000000E+20
 35
-1.000000000000000E+20
146
0.0
 13
0.0
 23
0.0
 33
0.0
 16
1.0
 26
0.0
 36
0.0
 17
0.0
 27
1.0
 37
0.0
 76
     0
330
1B
  0
LAYOUT
  5
224
102
{ACAD_REACTORS
330
1A
102
}
330
1A
100
AcDbPlotSettings
  1

  2
\\srvadruck01\MFSA15
  4

  6

 40
0.0
 41
0.0
 42
0.0
 43
0.0
 44
0.0
 45
0.0
 46
0.0
 47
0.0
 48
0.0
 49
0.0
140
0.0
141
0.0
142
1.0
143
1.0
 70
  1712
 72
     0
 73
     0
 74
     0
  7

 75
     0
147
1.0
 76
     0
 77
     2
 78
   300
148
0.0
149
0.0
100
AcDbLayout
  1
Model
 70
     1
 71
     0
 10
0.0
 20
0.0
 11
12.0
 21
9.0
 12
0.0
 22
0.0
 32
0.0
 14
0.0
 24
0.0
 34
0.0
 15
0.0
 25
0.0
 35
0.0
146
0.0
 13
0.0
 23
0.0
 33
0.0
 16
1.0
 26
0.0
 36
0.0
 17
0.0
 27
1.0
 37
0.0
 76
     0
330
1F
331
1B1
  0
MATERIAL
  5
1DF
102
{ACAD_XDICTIONARY
360
1E0
102
}
102
{ACAD_REACTORS
330
1D6
102
}
330
1D6
100
AcDbMaterial
  1
ByBlock
 72
     0
 43
0.0208333333333333
 43
0.0
 43
0.0
 43
0.0
 43
0.0
 43
0.0208333333333333
 43
0.0
 43
0.0
 43
0.0
 43
0.0
 43
1.0
 43
0.0
 43
0.0
 43
0.0
 43
0.0
 43
1.0
 77
     0
 47
0.0208333333333333
 47
0.0
 47
0.0
 47
0.0
 47
0.0
 47
0.0208333333333333
 47
0.0
 47
0.0
 47
0.0
 47
0.0
 47
1.0
 47
0.0
 47
0.0
 47
0.0
 47
0.0
 47
1.0
171
     0
 49
0.0208333333333333
 49
0.0
 49
0.0
 49
0.0
 49
0.0
 49
0.0208333333333333
 49
0.0
 49
0.0
 49
0.0
 49
0.0
 49
1.0
 49
0.0
 49
0.0
 49
0.0
 49
0.0
 49
1.0
175
     0
142
0.0208333333333333
142
0.0
142
0.0
142
0.0
142
0.0
142
0.0208333333333333
142
0.0
142
0.0
142
0.0
142
0.0
142
1.0
142
0.0
142
0.0
142
0.0
142
0.0
142
1.0
179
     0
144
0.0208333333333333
144
0.0
144
0.0
144
0.0
144
0.0
144
0.0208333333333333
144
0.0
144
0.0
144
0.0
144
0.0
144
1.0
144
0.0
144
0.0
144
0.0
144
0.0
144
1.0
147
0.0208333333333333
147
0.0
147
0.0
147
0.0
147
0.0
147
0.0208333333333333
147
0.0
147
0.0
147
0.0
147
0.0
147
1.0
147
0.0
147
0.0
147
0.0
147
0.0
147
1.0
  0
MATERIAL
  5
1D7
102
{ACAD_XDICTIONARY
360
1D8
102
}
102
{ACAD_REACTORS
330
1D6
102
}
330
1D6
100
AcDbMaterial
  1
ByLayer
 72
     0
 43
0.0208333333333333
 43
0.0
 43
0.0
 43
0.0
 43
0.0
 43
0.0208333333333333
 43
0.0
 43
0.0
 43
0.0
 43
0.0
 43
1.0
 43
0.0
 43
0.0
 43
0.0
 43
0.0
 43
1.0
 77
     0
 47
0.0208333333333333
 47
0.0
 47
0.0
 47
0.0
 47
0.0
 47
0.0208333333333333
 47
0.0
 47
0.0
 47
0.0
 47
0.0
 47
1.0
 47
0.0
 47
0.0
 47
0.0
 47
0.0
 47
1.0
171
     0
 49
0.0208333333333333
 49
0.0
 49
0.0
 49
0.0
 49
0.0
 49
0.0208333333333333
 49
0.0
 49
0.0
 49
0.0
 49
0.0
 49
1.0
 49
0.0
 49
0.0
 49
0.0
 49
0.0
 49
1.0
175
     0
142
0.0208333333333333
142
0.0
142
0.0
142
0.0
142
0.0
142
0.0208333333333333
142
0.0
142
0.0
142
0.0
142
0.0
142
1.0
142
0.0
142
0.0
142
0.0
142
0.0
142
1.0
179
     0
144
0.0208333333333333
144
0.0
144
0.0
144
0.0
144
0.0
144
0.0208333333333333
144
0.0
144
0.0
144
0.0
144
0.0
144
1.0
144
0.0
144
0.0
144
0.0
144
0.0
144
1.0
147
0.0208333333333333
147
0.0
147
0.0
147
0.0
147
0.0
147
0.0208333333333333
147
0.0
147
0.0
147
0.0
147
0.0
147
1.0
147
0.0
147
0.0
147
0.0
147
0.0
147
1.0
  0
MATERIAL
  5
1E7
102
{ACAD_XDICTIONARY
360
1E8
102
}
102
{ACAD_REACTORS
330
1D6
102
}
330
1D6
100
AcDbMaterial
  1
Global
 72
     0
 43
0.0208333333333333
 43
0.0
 43
0.0
 43
0.0
 43
0.0
 43
0.0208333333333333
 43
0.0
 43
0.0
 43
0.0
 43
0.0
 43
1.0
 43
0.0
 43
0.0
 43
0.0
 43
0.0
 43
1.0
 77
     0
 47
0.0208333333333333
 47
0.0
 47
0.0
 47
0.0
 47
0.0
 47
0.0208333333333333
 47
0.0
 47
0.0
 47
0.0
 47
0.0
 47
1.0
 47
0.0
 47
0.0
 47
0.0
 47
0.0
 47
1.0
171
     0
 49
0.0208333333333333
 49
0.0
 49
0.0
 49
0.0
 49
0.0
 49
0.0208333333333333
 49
0.0
 49
0.0
 49
0.0
 49
0.0
 49
1.0
 49
0.0
 49
0.0
 49
0.0
 49
0.0
 49
1.0
175
     0
142
0.0208333333333333
142
0.0
142
0.0
142
0.0
142
0.0
142
0.0208333333333333
142
0.0
142
0.0
142
0.0
142
0.0
142
1.0
142
0.0
142
0.0
142
0.0
142
0.0
142
1.0
179
     0
144
0.0208333333333333
144
0.0
144
0.0
144
0.0
144
0.0
144
0.0208333333333333
144
0.0
144
0.0
144
0.0
144
0.0
144
1.0
144
0.0
144
0.0
144
0.0
144
0.0
144
1.0
147
0.0208333333333333
147
0.0
147
0.0
147
0.0
147
0.0
147
0.0208333333333333
147
0.0
147
0.0
147
0.0
147
0.0
147
1.0
147
0.0
147
0.0
147
0.0
147
0.0
147
1.0
  0
MLEADERSTYLE
  5
21E
102
{ACAD_REACTORS
330
21D
102
}
330
21D
100
AcDbMLeaderStyle
179
     2
170
     2
171
     1
172
     0
 90
        2
 40
0.0
 41
0.0
173
     1
 91
-1056964608
340
14
 92
       -2
290
     1
 42
0.09
291
     1
 43
0.36
  3
Standard
 44
0.18
300

342
11
174
     1
178
     6
175
     1
176
     0
 93
-1056964608
 45
0.18
292
     0
297
     0
 46
0.18
 94
-1056964608
 47
1.0
 49
1.0
140
1.0
293
     1
141
0.0
294
     1
177
     0
142
1.0
295
     0
296
     0
143
0.125
271
     0
272
     9
273
     9
  0
MLINESTYLE
  5
18
102
{ACAD_REACTORS
330
17
102
}
330
17
100
AcDbMlineStyle
  2
STANDARD
 70
     0
  3

 62
   256
 51
90.0
 52
90.0
 71
     2
 49
0.5
 62
   256
  6
BYLAYER
 49
-0.5
 62
   256
  6
BYLAYER
  0
ACDBPLACEHOLDER
  5
10E
102
{ACAD_REACTORS
330
10D
102
}
330
10D
  0
SCALE
  5
20C
102
{ACAD_REACTORS
330
20B
102
}
330
20B
100
AcDbScale
 70
     0
300
1:1
140
1.0
141
1.0
290
     1
  0
SCALE
  5
20D
102
{ACAD_REACTORS
330
20B
102
}
330
20B
100
AcDbScale
 70
     0
300
1/128" = 1'-0"
140
0.0078125
141
12.0
290
     0
  0
SCALE
  5
20E
102
{ACAD_REACTORS
330
20B
102
}
330
20B
100
AcDbScale
 70
     0
300
1/64" = 1'-0"
140
0.015625
141
12.0
290
     0
  0
SCALE
  5
20F
102
{ACAD_REACTORS
330
20B
102
}
330
20B
100
AcDbScale
 70
     0
300
1/32" = 1'-0"
140
0.03125
141
12.0
290
     0
  0
SCALE
  5
210
102
{ACAD_REACTORS
330
20B
102
}
330
20B
100
AcDbScale
 70
     0
300
1/16" = 1'-0"
140
0.0625
141
12.0
290
     0
  0
SCALE
  5
211
102
{ACAD_REACTORS
330
20B
102
}
330
20B
100
AcDbScale
 70
     0
300
3/32" = 1'-0"
140
0.09375
141
12.0
290
     0
  0
SCALE
  5
212
102
{ACAD_REACTORS
330
20B
102
}
330
20B
100
AcDbScale
 70
     0
300
1/8" = 1'-0"
140
0.125
141
12.0
290
     0
  0
SCALE
  5
213
102
{ACAD_REACTORS
330
20B
102
}
330
20B
100
AcDbScale
 70
     0
300
3/16" = 1'-0"
140
0.1875
141
12.0
290
     0
  0
SCALE
  5
214
102
{ACAD_REACTORS
330
20B
102
}
330
20B
100
AcDbScale
 70
     0
300
1/4" = 1'-0"
140
0.25
141
12.0
290
     0
  0
SCALE
  5
215
102
{ACAD_REACTORS
330
20B
102
}
330
20B
100
AcDbScale
 70
     0
300
3/8" = 1'-0"
140
0.375
141
12.0
290
     0
  0
SCALE
  5
216
102
{ACAD_REACTORS
330
20B
102
}
330
20B
100
AcDbScale
 70
     0
300
1/2" = 1'-0"
140
0.5
141
12.0
290
     0
  0
SCALE
  5
217
102
{ACAD_REACTORS
330
20B
102
}
330
20B
100
AcDbScale
 70
     0
300
3/4" = 1'-0"
140
0.75
141
12.0
290
     0
  0
SCALE
  5
218
102
{ACAD_REACTORS
330
20B
102
}
330
20B
100
AcDbScale
 70
     0
300
1" = 1'-0"
140
1.0
141
12.0
290
     0
  0
SCALE
  5
219
102
{ACAD_REACTORS
330
20B
102
}
330
20B
100
AcDbScale
 70
     0
300
1-1/2" = 1'-0"
140
1.5
141
12.0
290
     0
  0
SCALE
  5
21A
102
{ACAD_REACTORS
330
20B
102
}
330
20B
100
AcDbScale
 70
     0
300
3" = 1'-0"
140
3.0
141
12.0
290
     0
  0
SCALE
  5
21B
102
{ACAD_REACTORS
330
20B
102
}
330
20B
100
AcDbScale
 70
     0
300
6" = 1'-0"
140
6.0
141
12.0
290
     0
  0
SCALE
  5
21C
102
{ACAD_REACTORS
330
20B
102
}
330
20B
100
AcDbScale
 70
     0
300
1'-0" = 1'-0"
140
12.0
141
12.0
290
     0
  0
ACDBSECTIONVIEWSTYLE
  5
221
102
{ACAD_XDICTIONARY
360
3A9
102
}
102
{ACAD_REACTORS
330
21F
102
}
330
21F
100
AcDbModelDocViewStyle
 70
     0
  3
Imperial24
290
     0
100
AcDbSectionViewStyle
 70
     0
 71
     0
 90
       78
 71
     1
340
11
 62
   256
 40
0.24
340
0
340
0
 62
   256
 40
0.24
300
I, O, Q, S, X, Z
 40
0.48
 90
        3
 40
0.18
 90
        1
 71
     2
340
220
 90
       25
 62
   256
340
16
 90
       50
 62
   256
 40
0.24
 40
0.0
 40
0.24
 71
     3
340
11
 62
   256
 40
0.24
 90
        1
 40
0.75
 90
        1
300
%<\AcVar ViewType \f "%tc1">% %<\AcVar ViewSectionStartId>%-%<\AcVar ViewSectionEndId>%\PVARIA %<\AcVar ViewScale \f "%sn">%
 71
     4
 62
   256
 62
   257
300
ANSI31
 40
1.0
 90
        0
290
     0
290
     0
 90
        6
 40
0.0
 40
1.570796326794896
 40
0.2617993877991494
 40
1.308996938995747
 40
-0.2617993877991494
 40
1.832595714594045
  0
TABLESTYLE
  5
20A
102
{ACAD_XDICTIONARY
360
2D9
102
}
102
{ACAD_REACTORS
330
209
102
}
330
209
100
AcDbTableStyle
280
     0
  3
Standard
 70
     0
 71
     0
 40
0.06
 41
0.06
280
     0
281
     0
  7
STANDARD
140
0.18
170
     2
 62
     0
 63
     7
283
     0
 90
      512
 91
        0
  1

274
    -2
284
     1
 64
     0
275
    -2
285
     1
 65
     0
276
    -2
286
     1
 66
     0
277
    -2
287
     1
 67
     0
278
    -2
288
     1
 68
     0
279
    -2
289
     1
 69
     0
  7
STANDARD
140
0.25
170
     5
 62
     0
 63
     7
283
     0
 90
      512
 91
        0
  1

274
    -2
284
     1
 64
     0
275
    -2
285
     1
 65
     0
276
    -2
286
     1
 66
     0
277
    -2
287
     1
 67
     0
278
    -2
288
     1
 68
     0
279
    -2
289
     1
 69
     0
  7
STANDARD
140
0.18
170
     5
 62
     0
 63
     7
283
     0
 90
      512
 91
        0
  1

274
    -2
284
     1
 64
     0
275
    -2
285
     1
 65
     0
276
    -2
286
     1
 66
     0
277
    -2
287
     1
 67
     0
278
    -2
288
     1
 68
     0
279
    -2
289
     1
 69
     0
  0
VISUALSTYLE
  5
1F5
102
{ACAD_XDICTIONARY
360
383
102
}
102
{ACAD_REACTORS
330
1EF
102
}
330
1EF
100
AcDbVisualStyle
  2
2dWireframe
 70
     4
177
     2
291
     0
 71
     0
176
     1
 72
     2
176
     1
 73
     0
176
     1
 90
        0
176
     1
 40
0.6
176
     1
 41
30.0
176
     1
 63
     7
421
 16777215
176
     1
 74
     1
176
     1
 91
        4
176
     1
 64
     7
176
     1
 65
   257
176
     1
 75
     1
176
     1
175
     1
176
     1
 42
1.0
176
     1
 92
        0
176
     1
 66
   257
176
     1
 43
1.0
176
     1
 76
     1
176
     1
 77
     6
176
     1
 78
     2
176
     1
 67
     7
176
     1
 79
     5
176
     1
170
     0
176
     1
171
     0
176
     1
290
     0
176
     1
 93
        1
176
     1
 44
0.0
176
     1
173
     0
176
     1
1001
ACAD
1000
AcDbSavedByObjectVersion
1070
     0
  0
VISUALSTYLE
  5
1F4
102
{ACAD_XDICTIONARY
360
381
102
}
102
{ACAD_REACTORS
330
1EF
102
}
330
1EF
100
AcDbVisualStyle
  2
Basic
 70
     7
177
     2
291
     1
 71
     1
176
     1
 72
     0
176
     1
 73
     1
176
     1
 90
        0
176
     1
 40
0.6
176
     1
 41
30.0
176
     1
 63
     7
421
 16777215
176
     1
 74
     0
176
     1
 91
        4
176
     1
 64
     7
176
     1
 65
   257
176
     1
 75
     1
176
     1
175
     1
176
     1
 42
1.0
176
     1
 92
        8
176
     1
 66
     7
176
     1
 43
1.0
176
     1
 76
     1
176
     1
 77
     6
176
     1
 78
     2
176
     1
 67
     7
176
     1
 79
     5
176
     1
170
     0
176
     1
171
     0
176
     1
290
     0
176
     1
 93
        1
176
     1
 44
0.0
176
     1
173
     0
176
     1
1001
ACAD
1000
AcDbSavedByObjectVersion
1070
     0
  0
VISUALSTYLE
  5
1FB
102
{ACAD_XDICTIONARY
360
38F
102
}
102
{ACAD_REACTORS
330
1EF
102
}
330
1EF
100
AcDbVisualStyle
  2
Brighten
 70
    12
177
     2
291
     1
 71
     2
176
     1
 72
     2
176
     1
 73
     0
176
     1
 90
        0
176
     1
 40
0.6
176
     1
 41
30.0
176
     1
 63
     7
421
 16777215
176
     1
 74
     1
176
     1
 91
        4
176
     1
 64
     7
176
     1
 65
   257
176
     1
 75
     1
176
     1
175
     1
176
     1
 42
1.0
176
     1
 92
        8
176
     1
 66
     7
176
     1
 43
1.0
176
     1
 76
     1
176
     1
 77
     6
176
     1
 78
     2
176
     1
 67
     7
176
     1
 79
     5
176
     1
170
     0
176
     1
171
     0
176
     1
290
     0
176
     1
 93
        1
176
     1
 44
50.0
176
     1
173
     0
176
     1
1001
ACAD
1000
AcDbSavedByObjectVersion
1070
     0
  0
VISUALSTYLE
  5
1FF
102
{ACAD_XDICTIONARY
360
397
102
}
102
{ACAD_REACTORS
330
1EF
102
}
330
1EF
100
AcDbVisualStyle
  2
ColorChange
 70
    16
177
     2
291
     1
 71
     2
176
     1
 72
     2
176
     1
 73
     3
176
     1
 90
        0
176
     1
 40
0.6
176
     1
 41
30.0
176
     1
 63
     8
421
  8421504
176
     1
 74
     1
176
     1
 91
        4
176
     1
 64
     7
176
     1
 65
   257
176
     1
 75
     1
176
     1
175
     1
176
     1
 42
1.0
176
     1
 92
        8
176
     1
 66
     8
424
  8421504
176
     1
 43
1.0
176
     1
 76
     1
176
     1
 77
     6
176
     1
 78
     2
176
     1
 67
     7
176
     1
 79
     5
176
     1
170
     0
176
     1
171
     0
176
     1
290
     0
176
     1
 93
        1
176
     1
 44
0.0
176
     1
173
     0
176
     1
1001
ACAD
1000
AcDbSavedByObjectVersion
1070
     0
  0
VISUALSTYLE
  5
1F8
102
{ACAD_XDICTIONARY
360
389
102
}
102
{ACAD_REACTORS
330
1EF
102
}
330
1EF
100
AcDbVisualStyle
  2
Conceptual
 70
     9
177
     2
291
     0
 71
     3
176
     1
 72
     2
176
     1
 73
     0
176
     1
 90
        0
176
     1
 40
0.6
176
     1
 41
30.0
176
     1
 63
     7
421
 16777215
176
     1
 74
     2
176
     1
 91
        2
176
     1
 64
     7
176
     1
 65
   257
176
     1
 75
     1
176
     1
175
     1
176
     1
 42
179.0
176
     1
 92
        8
176
     1
 66
     7
176
     1
 43
1.0
176
     1
 76
     1
176
     1
 77
     6
176
     1
 78
     2
176
     1
 67
     7
176
     1
 79
     3
176
     1
170
     0
176
     1
171
     0
176
     1
290
     0
176
     1
 93
        1
176
     1
 44
0.0
176
     1
173
     0
176
     1
1001
ACAD
1000
AcDbSavedByObjectVersion
1070
     0
  0
VISUALSTYLE
  5
1FA
102
{ACAD_XDICTIONARY
360
38D
102
}
102
{ACAD_REACTORS
330
1EF
102
}
330
1EF
100
AcDbVisualStyle
  2
Dim
 70
    11
177
     2
291
     1
 71
     2
176
     1
 72
     2
176
     1
 73
     0
176
     1
 90
        0
176
     1
 40
0.6
176
     1
 41
30.0
176
     1
 63
     7
421
 16777215
176
     1
 74
     1
176
     1
 91
        4
176
     1
 64
     7
176
     1
 65
   257
176
     1
 75
     1
176
     1
175
     1
176
     1
 42
1.0
176
     1
 92
        8
176
     1
 66
     7
176
     1
 43
1.0
176
     1
 76
     1
176
     1
 77
     6
176
     1
 78
     2
176
     1
 67
     7
176
     1
 79
     5
176
     1
170
     0
176
     1
171
     0
176
     1
290
     0
176
     1
 93
        1
176
     1
 44
-50.0
176
     1
173
     0
176
     1
1001
ACAD
1000
AcDbSavedByObjectVersion
1070
     0
  0
VISUALSTYLE
  5
207
102
{ACAD_XDICTIONARY
360
3A7
102
}
102
{ACAD_REACTORS
330
1EF
102
}
330
1EF
100
AcDbVisualStyle
  2
EdgeColorOff
 70
    22
177
     2
291
     1
 71
     2
176
     0
 72
     2
176
     0
 73
     0
176
     0
 90
        0
176
     0
 40
0.6
176
     0
 41
30.0
176
     0
 63
     7
421
 16777215
176
     0
 74
     1
176
     0
 91
        4
176
     0
 64
     7
176
     0
 65
   257
176
     0
 75
     1
176
     0
175
     1
176
     0
 42
1.0
176
     0
 92
        8
176
     2
 66
     7
176
     0
 43
1.0
176
     0
 76
     1
176
     0
 77
     6
176
     0
 78
     2
176
     0
 67
     7
176
     0
 79
     5
176
     0
170
     0
176
     0
171
     0
176
     0
290
     0
176
     0
 93
        1
176
     0
 44
0.0
176
     0
173
     0
176
     0
1001
ACAD
1000
AcDbSavedByObjectVersion
1070
     0
  0
VISUALSTYLE
  5
1FE
102
{ACAD_XDICTIONARY
360
395
102
}
102
{ACAD_REACTORS
330
1EF
102
}
330
1EF
100
AcDbVisualStyle
  2
Facepattern
 70
    15
177
     2
291
     1
 71
     2
176
     1
 72
     2
176
     1
 73
     0
176
     1
 90
        0
176
     1
 40
0.6
176
     1
 41
30.0
176
     1
 63
     7
421
 16777215
176
     1
 74
     1
176
     1
 91
        4
176
     1
 64
     7
176
     1
 65
   257
176
     1
 75
     1
176
     1
175
     1
176
     1
 42
1.0
176
     1
 92
        8
176
     1
 66
     7
176
     1
 43
1.0
176
     1
 76
     1
176
     1
 77
     6
176
     1
 78
     2
176
     1
 67
     7
176
     1
 79
     5
176
     1
170
     0
176
     1
171
     0
176
     1
290
     0
176
     1
 93
        1
176
     1
 44
0.0
176
     1
173
     0
176
     1
1001
ACAD
1000
AcDbSavedByObjectVersion
1070
     0
  0
VISUALSTYLE
  5
1F0
102
{ACAD_XDICTIONARY
360
379
102
}
102
{ACAD_REACTORS
330
1EF
102
}
330
1EF
100
AcDbVisualStyle
  2
Flat
 70
     0
177
     2
291
     1
 71
     2
176
     1
 72
     1
176
     1
 73
     1
176
     1
 90
        2
176
     1
 40
0.6
176
     1
 41
30.0
176
     1
 63
     7
421
 16777215
176
     1
 74
     0
176
     1
 91
        0
176
     1
 64
     7
176
     1
 65
   257
176
     1
 75
     1
176
     1
175
     1
176
     1
 42
1.0
176
     1
 92
        8
176
     1
 66
     7
176
     1
 43
1.0
176
     1
 76
     1
176
     1
 77
     6
176
     1
 78
     2
176
     1
 67
     7
176
     1
 79
     5
176
     1
170
     0
176
     1
171
     0
176
     1
290
     0
176
     1
 93
       13
176
     1
 44
0.0
176
     1
173
     0
176
     1
1001
ACAD
1000
AcDbSavedByObjectVersion
1070
     0
  0
VISUALSTYLE
  5
1F1
102
{ACAD_XDICTIONARY
360
37B
102
}
102
{ACAD_REACTORS
330
1EF
102
}
330
1EF
100
AcDbVisualStyle
  2
FlatWithEdges
 70
     1
177
     2
291
     1
 71
     2
176
     1
 72
     1
176
     1
 73
     1
176
     1
 90
        2
176
     1
 40
0.6
176
     1
 41
30.0
176
     1
 63
     7
421
 16777215
176
     1
 74
     1
176
     1
 91
        0
176
     1
 64
     7
176
     1
 65
   257
176
     1
 75
     1
176
     1
175
     1
176
     1
 42
1.0
176
     1
 92
        0
176
     1
 66
   257
176
     1
 43
1.0
176
     1
 76
     1
176
     1
 77
     6
176
     1
 78
     2
176
     1
 67
     7
176
     1
 79
     5
176
     1
170
     0
176
     1
171
     0
176
     1
290
     0
176
     1
 93
       13
176
     1
 44
0.0
176
     1
173
     0
176
     1
1001
ACAD
1000
AcDbSavedByObjectVersion
1070
     0
  0
VISUALSTYLE
  5
1F2
102
{ACAD_XDICTIONARY
360
37D
102
}
102
{ACAD_REACTORS
330
1EF
102
}
330
1EF
100
AcDbVisualStyle
  2
Gouraud
 70
     2
177
     2
291
     1
 71
     2
176
     1
 72
     2
176
     1
 73
     1
176
     1
 90
        2
176
     1
 40
0.6
176
     1
 41
30.0
176
     1
 63
     7
421
 16777215
176
     1
 74
     0
176
     1
 91
        0
176
     1
 64
     7
176
     1
 65
   257
176
     1
 75
     1
176
     1
175
     1
176
     1
 42
1.0
176
     1
 92
        0
176
     1
 66
     7
176
     1
 43
1.0
176
     1
 76
     1
176
     1
 77
     6
176
     1
 78
     2
176
     1
 67
     7
176
     1
 79
     5
176
     1
170
     0
176
     1
171
     0
176
     1
290
     0
176
     1
 93
       13
176
     1
 44
0.0
176
     1
173
     0
176
     1
1001
ACAD
1000
AcDbSavedByObjectVersion
1070
     0
  0
VISUALSTYLE
  5
1F3
102
{ACAD_XDICTIONARY
360
37F
102
}
102
{ACAD_REACTORS
330
1EF
102
}
330
1EF
100
AcDbVisualStyle
  2
GouraudWithEdges
 70
     3
177
     2
291
     1
 71
     2
176
     1
 72
     2
176
     1
 73
     1
176
     1
 90
        2
176
     1
 40
0.6
176
     1
 41
30.0
176
     1
 63
     7
421
 16777215
176
     1
 74
     1
176
     1
 91
        0
176
     1
 64
     7
176
     1
 65
   257
176
     1
 75
     1
176
     1
175
     1
176
     1
 42
1.0
176
     1
 92
        0
176
     1
 66
   257
176
     1
 43
1.0
176
     1
 76
     1
176
     1
 77
     6
176
     1
 78
     2
176
     1
 67
     7
176
     1
 79
     5
176
     1
170
     0
176
     1
171
     0
176
     1
290
     0
176
     1
 93
       13
176
     1
 44
0.0
176
     1
173
     0
176
     1
1001
ACAD
1000
AcDbSavedByObjectVersion
1070
     0
  0
VISUALSTYLE
  5
1F7
102
{ACAD_XDICTIONARY
360
387
102
}
102
{ACAD_REACTORS
330
1EF
102
}
330
1EF
100
AcDbVisualStyle
  2
Hidden
 70
     6
177
     2
291
     0
 71
     1
176
     1
 72
     2
176
     1
 73
     2
176
     1
 90
        0
176
     1
 40
0.6
176
     1
 41
30.0
176
     1
 63
     7
421
 16777215
176
     1
 74
     2
176
     1
 91
        2
176
     1
 64
     7
176
     1
 65
   257
176
     1
 75
     2
176
     1
175
     1
176
     1
 42
40.0
176
     1
 92
        0
176
     1
 66
   257
176
     1
 43
1.0
176
     1
 76
     1
176
     1
 77
     6
176
     1
 78
     2
176
     1
 67
     7
176
     1
 79
     3
176
     1
170
     0
176
     1
171
     0
176
     1
290
     0
176
     1
 93
        1
176
     1
 44
0.0
176
     1
173
     0
176
     1
1001
ACAD
1000
AcDbSavedByObjectVersion
1070
     0
  0
VISUALSTYLE
  5
205
102
{ACAD_XDICTIONARY
360
3A3
102
}
102
{ACAD_REACTORS
330
1EF
102
}
330
1EF
100
AcDbVisualStyle
  2
JitterOff
 70
    20
177
     2
291
     1
 71
     2
176
     0
 72
     2
176
     0
 73
     0
176
     0
 90
        0
176
     0
 40
0.6
176
     0
 41
30.0
176
     0
 63
     7
421
 16777215
176
     0
 74
     1
176
     0
 91
        4
176
     0
 64
     7
176
     0
 65
   257
176
     0
 75
     1
176
     0
175
     1
176
     0
 42
1.0
176
     0
 92
       10
176
     2
 66
     7
176
     0
 43
1.0
176
     0
 76
     1
176
     0
 77
     6
176
     0
 78
     2
176
     0
 67
     7
176
     0
 79
     5
176
     0
170
     0
176
     0
171
     0
176
     0
290
     0
176
     0
 93
        1
176
     0
 44
0.0
176
     0
173
     0
176
     0
1001
ACAD
1000
AcDbSavedByObjectVersion
1070
     0
  0
VISUALSTYLE
  5
1FD
102
{ACAD_XDICTIONARY
360
393
102
}
102
{ACAD_REACTORS
330
1EF
102
}
330
1EF
100
AcDbVisualStyle
  2
Linepattern
 70
    14
177
     2
291
     1
 71
     2
176
     1
 72
     2
176
     1
 73
     0
176
     1
 90
        0
176
     1
 40
0.6
176
     1
 41
30.0
176
     1
 63
     7
421
 16777215
176
     1
 74
     1
176
     1
 91
        4
176
     1
 64
     7
176
     1
 65
   257
176
     1
 75
     7
176
     1
175
     7
176
     1
 42
1.0
176
     1
 92
        8
176
     1
 66
     7
176
     1
 43
1.0
176
     1
 76
     1
176
     1
 77
     6
176
     1
 78
     2
176
     1
 67
     7
176
     1
 79
     5
176
     1
170
     0
176
     1
171
     0
176
     1
290
     0
176
     1
 93
        1
176
     1
 44
0.0
176
     1
173
     0
176
     1
1001
ACAD
1000
AcDbSavedByObjectVersion
1070
     0
  0
VISUALSTYLE
  5
206
102
{ACAD_XDICTIONARY
360
3A5
102
}
102
{ACAD_REACTORS
330
1EF
102
}
330
1EF
100
AcDbVisualStyle
  2
OverhangOff
 70
    21
177
     2
291
     1
 71
     2
176
     0
 72
     2
176
     0
 73
     0
176
     0
 90
        0
176
     0
 40
0.6
176
     0
 41
30.0
176
     0
 63
     7
421
 16777215
176
     0
 74
     1
176
     0
 91
        4
176
     0
 64
     7
176
     0
 65
   257
176
     0
 75
     1
176
     0
175
     1
176
     0
 42
1.0
176
     0
 92
        9
176
     2
 66
     7
176
     0
 43
1.0
176
     0
 76
     1
176
     0
 77
     6
176
     0
 78
     2
176
     0
 67
     7
176
     0
 79
     5
176
     0
170
     0
176
     0
171
     0
176
     0
290
     0
176
     0
 93
        1
176
     0
 44
0.0
176
     0
173
     0
176
     0
1001
ACAD
1000
AcDbSavedByObjectVersion
1070
     0
  0
VISUALSTYLE
  5
1F9
102
{ACAD_XDICTIONARY
360
38B
102
}
102
{ACAD_REACTORS
330
1EF
102
}
330
1EF
100
AcDbVisualStyle
  2
Realistic
 70
     8
177
     2
291
     0
 71
     2
176
     1
 72
     3
176
     1
 73
     0
176
     1
 90
        2
176
     1
 40
0.6
176
     1
 41
30.0
176
     1
 63
     7
421
 16777215
176
     1
 74
     0
176
     1
 91
        0
176
     1
 64
     7
176
     1
 65
   257
176
     1
 75
     1
176
     1
175
     1
176
     1
 42
1.0
176
     1
 92
        8
176
     1
 66
   257
176
     1
 43
1.0
176
     1
 76
     1
176
     1
 77
     6
176
     1
 78
     2
176
     1
 67
     7
176
     1
 79
     3
176
     1
170
     0
176
     1
171
     0
176
     1
290
     0
176
     1
 93
       13
176
     1
 44
0.0
176
     1
173
     0
176
     1
1001
ACAD
1000
AcDbSavedByObjectVersion
1070
     0
  0
VISUALSTYLE
  5
204
102
{ACAD_XDICTIONARY
360
3A1
102
}
102
{ACAD_REACTORS
330
1EF
102
}
330
1EF
100
AcDbVisualStyle
  2
Shaded
 70
    27
177
     2
291
     0
 71
     2
176
     1
 72
     2
176
     1
 73
     1
176
     1
 90
        2
176
     1
 40
0.6
176
     1
 41
30.0
176
     1
 63
     7
421
 16777215
176
     1
 74
     0
176
     1
 91
        4
176
     1
 64
     7
176
     1
 65
   257
176
     1
 75
     1
176
     1
175
     1
176
     1
 42
1.0
176
     1
 92
        8
176
     1
 66
   257
176
     1
 43
1.0
176
     1
 76
     1
176
     1
 77
     6
176
     1
 78
     2
176
     1
 67
     8
425
  7895160
176
     1
 79
     3
176
     1
170
     0
176
     1
171
     0
176
     1
290
     0
176
     1
 93
        5
176
     1
 44
0.0
176
     1
173
     0
176
     1
1001
ACAD
1000
AcDbSavedByObjectVersion
1070
     0
  0
VISUALSTYLE
  5
203
102
{ACAD_XDICTIONARY
360
39F
102
}
102
{ACAD_REACTORS
330
1EF
102
}
330
1EF
100
AcDbVisualStyle
  2
Shaded with edges
 70
    26
177
     2
291
     0
 71
     2
176
     1
 72
     2
176
     1
 73
     1
176
     1
 90
        2
176
     1
 40
0.6
176
     1
 41
30.0
176
     1
 63
     7
421
 16777215
176
     1
 74
     1
176
     1
 91
       10
176
     1
 64
     7
176
     1
 65
   257
176
     1
 75
     2
176
     1
175
     1
176
     1
 42
1.0
176
     1
 92
        8
176
     1
 66
   257
176
     1
 43
1.0
176
     1
 76
     1
176
     1
 77
     6
176
     1
 78
     2
176
     1
 67
     7
176
     1
 79
     3
176
     1
170
     0
176
     1
171
     0
176
     1
290
     0
176
     1
 93
        5
176
     1
 44
0.0
176
     1
173
     0
176
     1
1001
ACAD
1000
AcDbSavedByObjectVersion
1070
     0
  0
VISUALSTYLE
  5
200
102
{ACAD_XDICTIONARY
360
399
102
}
102
{ACAD_REACTORS
330
1EF
102
}
330
1EF
100
AcDbVisualStyle
  2
Shades of Gray
 70
    23
177
     2
291
     0
 71
     2
176
     1
 72
     2
176
     1
 73
     3
176
     1
 90
        0
176
     1
 40
0.6
176
     1
 41
30.0
176
     1
 63
     7
421
 16777215
176
     1
 74
     2
176
     1
 91
        2
176
     1
 64
     7
176
     1
 65
     7
176
     1
 75
     1
176
     1
175
     1
176
     1
 42
40.0
176
     1
 92
        8
176
     1
 66
     7
176
     1
 43
1.0
176
     1
 76
     1
176
     1
 77
     6
176
     1
 78
     2
176
     1
 67
     7
176
     1
 79
     3
176
     1
170
     0
176
     1
171
     0
176
     1
290
     0
176
     1
 93
        1
176
     1
 44
0.0
176
     1
173
     0
176
     1
1001
ACAD
1000
AcDbSavedByObjectVersion
1070
     0
  0
VISUALSTYLE
  5
201
102
{ACAD_XDICTIONARY
360
39B
102
}
102
{ACAD_REACTORS
330
1EF
102
}
330
1EF
100
AcDbVisualStyle
  2
Sketchy
 70
    24
177
     2
291
     0
 71
     1
176
     1
 72
     2
176
     1
 73
     2
176
     1
 90
        0
176
     1
 40
0.6
176
     1
 41
30.0
176
     1
 63
     7
421
 16777215
176
     1
 74
     2
176
     1
 91
        2
176
     1
 64
     7
176
     1
 65
     7
176
     1
 75
     1
176
     1
175
     1
176
     1
 42
40.0
176
     1
 92
       11
176
     1
 66
     7
176
     1
 43
1.0
176
     1
 76
     1
176
     1
 77
     6
176
     1
 78
     2
176
     1
 67
     7
176
     1
 79
     6
176
     1
170
     0
176
     1
171
     0
176
     1
290
     0
176
     1
 93
        1
176
     1
 44
0.0
176
     1
173
     0
176
     1
1001
ACAD
1000
AcDbSavedByObjectVersion
1070
     0
  0
VISUALSTYLE
  5
1FC
102
{ACAD_XDICTIONARY
360
391
102
}
102
{ACAD_REACTORS
330
1EF
102
}
330
1EF
100
AcDbVisualStyle
  2
Thicken
 70
    13
177
     2
291
     1
 71
     2
176
     1
 72
     2
176
     1
 73
     0
176
     1
 90
        0
176
     1
 40
0.6
176
     1
 41
30.0
176
     1
 63
     7
421
 16777215
176
     1
 74
     1
176
     1
 91
        4
176
     1
 64
     7
176
     1
 65
   257
176
     1
 75
     1
176
     1
175
     1
176
     1
 42
1.0
176
     1
 92
       12
176
     1
 66
     7
176
     1
 43
1.0
176
     1
 76
     1
176
     1
 77
     6
176
     1
 78
     2
176
     1
 67
     7
176
     1
 79
     5
176
     1
170
     0
176
     1
171
     0
176
     1
290
     0
176
     1
 93
        1
176
     1
 44
0.0
176
     1
173
     0
176
     1
1001
ACAD
1000
AcDbSavedByObjectVersion
1070
     0
  0
VISUALSTYLE
  5
1F6
102
{ACAD_XDICTIONARY
360
385
102
}
102
{ACAD_REACTORS
330
1EF
102
}
330
1EF
100
AcDbVisualStyle
  2
Wireframe
 70
     5
177
     2
291
     0
 71
     0
176
     1
 72
     2
176
     1
 73
     0
176
     1
 90
        0
176
     1
 40
0.6
176
     1
 41
30.0
176
     1
 63
     7
421
 16777215
176
     1
 74
     1
176
     1
 91
        4
176
     1
 64
     7
176
     1
 65
   257
176
     1
 75
     1
176
     1
175
     1
176
     1
 42
1.0
176
     1
 92
        0
176
     1
 66
   257
176
     1
 43
1.0
176
     1
 76
     1
176
     1
 77
     6
176
     1
 78
     2
176
     1
 67
     7
176
     1
 79
     3
176
     1
170
     0
176
     1
171
     0
176
     1
290
     0
176
     1
 93
        1
176
     1
 44
0.0
176
     1
173
     0
176
     1
1001
ACAD
1000
AcDbSavedByObjectVersion
1070
     0
  0
VISUALSTYLE
  5
202
102
{ACAD_XDICTIONARY
360
39D
102
}
102
{ACAD_REACTORS
330
1EF
102
}
330
1EF
100
AcDbVisualStyle
  2
X-Ray
 70
    25
177
     2
291
     0
 71
     2
176
     1
 72
     2
176
     1
 73
     1
176
     1
 90
        1
176
     1
 40
0.5
176
     1
 41
30.0
176
     1
 63
     7
421
 16777215
176
     1
 74
     1
176
     1
 91
        0
176
     1
 64
     7
176
     1
 65
   257
176
     1
 75
     1
176
     1
175
     1
176
     1
 42
1.0
176
     1
 92
        8
176
     1
 66
     7
176
     1
 43
1.0
176
     1
 76
     1
176
     1
 77
     6
176
     1
 78
     2
176
     1
 67
     7
176
     1
 79
     3
176
     1
170
     0
176
     1
171
     0
176
     1
290
     0
176
     1
 93
       13
176
     1
 44
0.0
176
     1
173
     0
176
     1
1001
ACAD
1000
AcDbSavedByObjectVersion
1070
     0
  0
DICTIONARYVAR
  5
2D5
102
{ACAD_REACTORS
330
2CF
102
}
330
2CF
100
DictionaryVariables
280
     0
  1
1:1
  0
DICTIONARYVAR
  5
2D1
102
{ACAD_REACTORS
330
2CF
102
}
330
2CF
100
DictionaryVariables
280
     0
  1
STANDARD
  0
DICTIONARYVAR
  5
2D0
102
{ACAD_REACTORS
330
2CF
102
}
330
2CF
100
DictionaryVariables
280
     0
  1
STANDARD
  0
DICTIONARYVAR
  5
2D2
102
{ACAD_REACTORS
330
2CF
102
}
330
2CF
100
DictionaryVariables
280
     0
  1
Imperial24
  0
DICTIONARYVAR
  5
2D3
102
{ACAD_REACTORS
330
2CF
102
}
330
2CF
100
DictionaryVariables
280
     0
  1
Imperial24
  0
DICTIONARYVAR
  5
2D7
102
{ACAD_REACTORS
330
2CF
102
}
330
2CF
100
DictionaryVariables
280
     0
  1
1
  0
DICTIONARYVAR
  5
2D8
102
{ACAD_REACTORS
330
2CF
102
}
330
2CF
100
DictionaryVariables
280
     0
  1
15
  0
DICTIONARYVAR
  5
2D6
102
{ACAD_REACTORS
330
2CF
102
}
330
2CF
100
DictionaryVariables
280
     0
  1
0
  0
DICTIONARYVAR
  5
2D4
102
{ACAD_REACTORS
330
2CF
102
}
330
2CF
100
DictionaryVariables
280
     0
  1
0
  0
DICTIONARY
  5
3AB
330
223
100
AcDbDictionary
280
     1
281
     1
  3
ACAD_XREC_ROUNDTRIP
360
3AC
  0
DICTIONARY
  5
1E0
330
1DF
100
AcDbDictionary
280
     1
281
     1
  3
BUMPTILE
360
1E2
  3
DIFFUSETILE
360
1E1
  3
OPACITYTILE
360
1E5
  3
REFLECTIONTILE
360
1E4
  3
REFRACTIONTILE
360
1E6
  3
SPECULARTILE
360
1E3
  0
DICTIONARY
  5
1D8
330
1D7
100
AcDbDictionary
280
     1
281
     1
  3
BUMPTILE
360
1DA
  3
DIFFUSETILE
360
1D9
  3
OPACITYTILE
360
1DD
  3
REFLECTIONTILE
360
1DC
  3
REFRACTIONTILE
360
1DE
  3
SPECULARTILE
360
1DB
  0
DICTIONARY
  5
1E8
330
1E7
100
AcDbDictionary
280
     1
281
     1
  3
BUMPTILE
360
1EA
  3
DIFFUSETILE
360
1E9
  3
OPACITYTILE
360
1ED
  3
REFLECTIONTILE
360
1EC
  3
REFRACTIONTILE
360
1EE
  3
SPECULARTILE
360
1EB
  0
DICTIONARY
  5
3A9
330
221
100
AcDbDictionary
280
     1
281
     1
  3
ACAD_XREC_ROUNDTRIP
360
3AA
  0
DICTIONARY
  5
2D9
330
20A
100
AcDbDictionary
280
     1
281
     1
  3
ACAD_ROUNDTRIP_2008_TABLESTYLE_CELLSTYLEMAP
360
377
  0
DICTIONARY
  5
383
330
1F5
100
AcDbDictionary
280
     1
281
     1
  3
ACAD_XREC_ROUNDTRIP
360
384
  0
DICTIONARY
  5
381
330
1F4
100
AcDbDictionary
280
     1
281
     1
  3
ACAD_XREC_ROUNDTRIP
360
382
  0
DICTIONARY
  5
38F
330
1FB
100
AcDbDictionary
280
     1
281
     1
  3
ACAD_XREC_ROUNDTRIP
360
390
  0
DICTIONARY
  5
397
330
1FF
100
AcDbDictionary
280
     1
281
     1
  3
ACAD_XREC_ROUNDTRIP
360
398
  0
DICTIONARY
  5
389
330
1F8
100
AcDbDictionary
280
     1
281
     1
  3
ACAD_XREC_ROUNDTRIP
360
38A
  0
DICTIONARY
  5
38D
330
1FA
100
AcDbDictionary
280
     1
281
     1
  3
ACAD_XREC_ROUNDTRIP
360
38E
  0
DICTIONARY
  5
3A7
330
207
100
AcDbDictionary
280
     1
281
     1
  3
ACAD_XREC_ROUNDTRIP
360
3A8
  0
DICTIONARY
  5
395
330
1FE
100
AcDbDictionary
280
     1
281
     1
  3
ACAD_XREC_ROUNDTRIP
360
396
  0
DICTIONARY
  5
379
330
1F0
100
AcDbDictionary
280
     1
281
     1
  3
ACAD_XREC_ROUNDTRIP
360
37A
  0
DICTIONARY
  5
37B
330
1F1
100
AcDbDictionary
280
     1
281
     1
  3
ACAD_XREC_ROUNDTRIP
360
37C
  0
DICTIONARY
  5
37D
330
1F2
100
AcDbDictionary
280
     1
281
     1
  3
ACAD_XREC_ROUNDTRIP
360
37E
  0
DICTIONARY
  5
37F
330
1F3
100
AcDbDictionary
280
     1
281
     1
  3
ACAD_XREC_ROUNDTRIP
360
380
  0
DICTIONARY
  5
387
330
1F7
100
AcDbDictionary
280
     1
281
     1
  3
ACAD_XREC_ROUNDTRIP
360
388
  0
DICTIONARY
  5
3A3
330
205
100
AcDbDictionary
280
     1
281
     1
  3
ACAD_XREC_ROUNDTRIP
360
3A4
  0
DICTIONARY
  5
393
330
1FD
100
AcDbDictionary
280
     1
281
     1
  3
ACAD_XREC_ROUNDTRIP
360
394
  0
DICTIONARY
  5
3A5
330
206
100
AcDbDictionary
280
     1
281
     1
  3
ACAD_XREC_ROUNDTRIP
360
3A6
  0
DICTIONARY
  5
38B
330
1F9
100
AcDbDictionary
280
     1
281
     1
  3
ACAD_XREC_ROUNDTRIP
360
38C
  0
DICTIONARY
  5
3A1
330
204
100
AcDbDictionary
280
     1
281
     1
  3
ACAD_XREC_ROUNDTRIP
360
3A2
  0
DICTIONARY
  5
39F
330
203
100
AcDbDictionary
280
     1
281
     1
  3
ACAD_XREC_ROUNDTRIP
360
3A0
  0
DICTIONARY
  5
399
330
200
100
AcDbDictionary
280
     1
281
     1
  3
ACAD_XREC_ROUNDTRIP
360
39A
  0
DICTIONARY
  5
39B
330
201
100
AcDbDictionary
280
     1
281
     1
  3
ACAD_XREC_ROUNDTRIP
360
39C
  0
DICTIONARY
  5
391
330
1FC
100
AcDbDictionary
280
     1
281
     1
  3
ACAD_XREC_ROUNDTRIP
360
392
  0
DICTIONARY
  5
385
330
1F6
100
AcDbDictionary
280
     1
281
     1
  3
ACAD_XREC_ROUNDTRIP
360
386
  0
DICTIONARY
  5
39D
330
202
100
AcDbDictionary
280
     1
281
     1
  3
ACAD_XREC_ROUNDTRIP
360
39E
  0
XRECORD
  5
3AC
102
{ACAD_REACTORS
330
3AB
102
}
330
3AB
100
AcDbXrecord
280
     1
102
DISPLAYNAME
  1
Imperial24
102
FLAGS
 90
        0
  0
XRECORD
  5
1E2
102
{ACAD_REACTORS
330
1E0
102
}
330
1E0
100
AcDbXrecord
280
     1
270
     1
271
     1
  0
XRECORD
  5
1E1
102
{ACAD_REACTORS
330
1E0
102
}
330
1E0
100
AcDbXrecord
280
     1
270
     1
271
     1
  0
XRECORD
  5
1E5
102
{ACAD_REACTORS
330
1E0
102
}
330
1E0
100
AcDbXrecord
280
     1
270
     1
271
     1
  0
XRECORD
  5
1E4
102
{ACAD_REACTORS
330
1E0
102
}
330
1E0
100
AcDbXrecord
280
     1
270
     1
271
     1
  0
XRECORD
  5
1E6
102
{ACAD_REACTORS
330
1E0
102
}
330
1E0
100
AcDbXrecord
280
     1
270
     1
271
     1
  0
XRECORD
  5
1E3
102
{ACAD_REACTORS
330
1E0
102
}
330
1E0
100
AcDbXrecord
280
     1
270
     1
271
     1
  0
XRECORD
  5
1DA
102
{ACAD_REACTORS
330
1D8
102
}
330
1D8
100
AcDbXrecord
280
     1
270
     1
271
     1
  0
XRECORD
  5
1D9
102
{ACAD_REACTORS
330
1D8
102
}
330
1D8
100
AcDbXrecord
280
     1
270
     1
271
     1
  0
XRECORD
  5
1DD
102
{ACAD_REACTORS
330
1D8
102
}
330
1D8
100
AcDbXrecord
280
     1
270
     1
271
     1
  0
XRECORD
  5
1DC
102
{ACAD_REACTORS
330
1D8
102
}
330
1D8
100
AcDbXrecord
280
     1
270
     1
271
     1
  0
XRECORD
  5
1DE
102
{ACAD_REACTORS
330
1D8
102
}
330
1D8
100
AcDbXrecord
280
     1
270
     1
271
     1
  0
XRECORD
  5
1DB
102
{ACAD_REACTORS
330
1D8
102
}
330
1D8
100
AcDbXrecord
280
     1
270
     1
271
     1
  0
XRECORD
  5
1EA
102
{ACAD_REACTORS
330
1E8
102
}
330
1E8
100
AcDbXrecord
280
     1
270
     1
271
     1
  0
XRECORD
  5
1E9
102
{ACAD_REACTORS
330
1E8
102
}
330
1E8
100
AcDbXrecord
280
     1
270
     1
271
     1
  0
XRECORD
  5
1ED
102
{ACAD_REACTORS
330
1E8
102
}
330
1E8
100
AcDbXrecord
280
     1
270
     1
271
     1
  0
XRECORD
  5
1EC
102
{ACAD_REACTORS
330
1E8
102
}
330
1E8
100
AcDbXrecord
280
     1
270
     1
271
     1
  0
XRECORD
  5
1EE
102
{ACAD_REACTORS
330
1E8
102
}
330
1E8
100
AcDbXrecord
280
     1
270
     1
271
     1
  0
XRECORD
  5
1EB
102
{ACAD_REACTORS
330
1E8
102
}
330
1E8
100
AcDbXrecord
280
     1
270
     1
271
     1
  0
XRECORD
  5
3AA
102
{ACAD_REACTORS
330
3A9
102
}
330
3A9
100
AcDbXrecord
280
     1
102
DISPLAYNAME
  1
Imperial24
102
FLAGS
 90
        0
  0
CELLSTYLEMAP
  5
377
102
{ACAD_REACTORS
330
2D9
102
}
330
2D9
100
AcDbCellStyleMap
 90
        3
300
CELLSTYLE
  1
TABLEFORMAT_BEGIN
 90
        5
170
     1
 91
        0
 92
    32768
 62
   257
 93
        1
300
CONTENTFORMAT
  1
CONTENTFORMAT_BEGIN
 90
        0
 91
        0
 92
      512
 93
        0
300

 40
0.0
140
1.0
 94
        5
 62
     0
340
11
144
0.25
309
CONTENTFORMAT_END
171
     1
301
MARGIN
  1
CELLMARGIN_BEGIN
 40
0.06
 40
0.06
 40
0.06
 40
0.06
 40
0.18
 40
0.18
309
CELLMARGIN_END
 94
        6
 95
        1
302
GRIDFORMAT
  1
GRIDFORMAT_BEGIN
 90
        0
 91
        1
 62
     0
 92
       -2
340
0
 93
        0
 40
0.045
309
GRIDFORMAT_END
 95
        2
302
GRIDFORMAT
  1
GRIDFORMAT_BEGIN
 90
        0
 91
        1
 62
     0
 92
       -2
340
0
 93
        0
 40
0.045
309
GRIDFORMAT_END
 95
        4
302
GRIDFORMAT
  1
GRIDFORMAT_BEGIN
 90
        0
 91
        1
 62
     0
 92
       -2
340
0
 93
        0
 40
0.045
309
GRIDFORMAT_END
 95
        8
302
GRIDFORMAT
  1
GRIDFORMAT_BEGIN
 90
        0
 91
        1
 62
     0
 92
       -2
340
0
 93
        0
 40
0.045
309
GRIDFORMAT_END
 95
       16
302
GRIDFORMAT
  1
GRIDFORMAT_BEGIN
 90
        0
 91
        1
 62
     0
 92
       -2
340
0
 93
        0
 40
0.045
309
GRIDFORMAT_END
 95
       32
302
GRIDFORMAT
  1
GRIDFORMAT_BEGIN
 90
        0
 91
        1
 62
     0
 92
       -2
340
0
 93
        0
 40
0.045
309
GRIDFORMAT_END
309
TABLEFORMAT_END
  1
CELLSTYLE_BEGIN
 90
        1
 91
        1
300
_TITLE
309
CELLSTYLE_END
300
CELLSTYLE
  1
TABLEFORMAT_BEGIN
 90
        5
170
     1
 91
        0
 92
        0
 62
   257
 93
        1
300
CONTENTFORMAT
  1
CONTENTFORMAT_BEGIN
 90
        0
 91
        0
 92
      512
 93
        0
300

 40
0.0
140
1.0
 94
        5
 62
     0
340
11
144
0.18
309
CONTENTFORMAT_END
171
     1
301
MARGIN
  1
CELLMARGIN_BEGIN
 40
0.06
 40
0.06
 40
0.06
 40
0.06
 40
0.18
 40
0.18
309
CELLMARGIN_END
 94
        6
 95
        1
302
GRIDFORMAT
  1
GRIDFORMAT_BEGIN
 90
        0
 91
        1
 62
     0
 92
       -2
340
0
 93
        0
 40
0.045
309
GRIDFORMAT_END
 95
        2
302
GRIDFORMAT
  1
GRIDFORMAT_BEGIN
 90
        0
 91
        1
 62
     0
 92
       -2
340
0
 93
        0
 40
0.045
309
GRIDFORMAT_END
 95
        4
302
GRIDFORMAT
  1
GRIDFORMAT_BEGIN
 90
        0
 91
        1
 62
     0
 92
       -2
340
0
 93
        0
 40
0.045
309
GRIDFORMAT_END
 95
        8
302
GRIDFORMAT
  1
GRIDFORMAT_BEGIN
 90
        0
 91
        1
 62
     0
 92
       -2
340
0
 93
        0
 40
0.045
309
GRIDFORMAT_END
 95
       16
302
GRIDFORMAT
  1
GRIDFORMAT_BEGIN
 90
        0
 91
        1
 62
     0
 92
       -2
340
0
 93
        0
 40
0.045
309
GRIDFORMAT_END
 95
       32
302
GRIDFORMAT
  1
GRIDFORMAT_BEGIN
 90
        0
 91
        1
 62
     0
 92
       -2
340
0
 93
        0
 40
0.045
309
GRIDFORMAT_END
309
TABLEFORMAT_END
  1
CELLSTYLE_BEGIN
 90
        2
 91
        1
300
_HEADER
309
CELLSTYLE_END
300
CELLSTYLE
  1
TABLEFORMAT_BEGIN
 90
        5
170
     1
 91
        0
 92
        0
 62
   257
 93
        1
300
CONTENTFORMAT
  1
CONTENTFORMAT_BEGIN
 90
        0
 91
        0
 92
      512
 93
        0
300

 40
0.0
140
1.0
 94
        2
 62
     0
340
11
144
0.18
309
CONTENTFORMAT_END
171
     1
301
MARGIN
  1
CELLMARGIN_BEGIN
 40
0.06
 40
0.06
 40
0.06
 40
0.06
 40
0.18
 40
0.18
309
CELLMARGIN_END
 94
        6
 95
        1
302
GRIDFORMAT
  1
GRIDFORMAT_BEGIN
 90
        0
 91
        1
 62
     0
 92
       -2
340
0
 93
        0
 40
0.045
309
GRIDFORMAT_END
 95
        2
302
GRIDFORMAT
  1
GRIDFORMAT_BEGIN
 90
        0
 91
        1
 62
     0
 92
       -2
340
0
 93
        0
 40
0.045
309
GRIDFORMAT_END
 95
        4
302
GRIDFORMAT
  1
GRIDFORMAT_BEGIN
 90
        0
 91
        1
 62
     0
 92
       -2
340
0
 93
        0
 40
0.045
309
GRIDFORMAT_END
 95
        8
302
GRIDFORMAT
  1
GRIDFORMAT_BEGIN
 90
        0
 91
        1
 62
     0
 92
       -2
340
0
 93
        0
 40
0.045
309
GRIDFORMAT_END
 95
       16
302
GRIDFORMAT
  1
GRIDFORMAT_BEGIN
 90
        0
 91
        1
 62
     0
 92
       -2
340
0
 93
        0
 40
0.045
309
GRIDFORMAT_END
 95
       32
302
GRIDFORMAT
  1
GRIDFORMAT_BEGIN
 90
        0
 91
        1
 62
     0
 92
       -2
340
0
 93
        0
 40
0.045
309
GRIDFORMAT_END
309
TABLEFORMAT_END
  1
CELLSTYLE_BEGIN
 90
        3
 91
        2
300
_DATA
309
CELLSTYLE_END
  0
XRECORD
  5
384
102
{ACAD_REACTORS
330
383
102
}
330
383
100
AcDbXrecord
280
     1
102
RTVSPost2010Prop28
280
     1
102
RTVSPost2010PropOp28
 70
     1
102
RTVSPost2010Prop29
280
     1
102
RTVSPost2010PropOp29
 70
     1
102
RTVSPost2010Prop30
280
     0
102
RTVSPost2010PropOp30
 70
     1
102
RTVSPost2010Prop31
280
     0
102
RTVSPost2010PropOp31
 70
     1
102
RTVSPost2010Prop32
280
     0
102
RTVSPost2010PropOp32
 70
     1
102
RTVSPost2010Prop33
280
     0
102
RTVSPost2010PropOp33
 70
     1
102
RTVSPost2010Prop34
280
     0
102
RTVSPost2010PropOp34
 70
     1
102
RTVSPost2010Prop35
280
     0
102
RTVSPost2010PropOp35
 70
     1
102
RTVSPost2010Prop36
280
     0
102
RTVSPost2010PropOp36
 70
     1
102
RTVSPost2010Prop37
 90
       50
102
RTVSPost2010PropOp37
 70
     1
102
RTVSPost2010Prop38
140
0.0
102
RTVSPost2010PropOp38
 70
     1
102
RTVSPost2010Prop39
140
1.0
102
RTVSPost2010PropOp39
 70
     1
102
RTVSPost2010Prop40
 90
        0
102
RTVSPost2010PropOp40
 70
     1
102
RTVSPost2010Prop41ColorIndex
 90
       18
102
RTVSPost2010Prop41ColorRGB
 90
        0
102
RTVSPost2010PropOp41
 70
     1
102
RTVSPost2010Prop42
 90
       50
102
RTVSPost2010PropOp42
 70
     1
102
RTVSPost2010Prop43
 90
        3
102
RTVSPost2010PropOp43
 70
     1
102
RTVSPost2010Prop44ColorIndex
 90
        5
102
RTVSPost2010Prop44ColorRGB
 90
      255
102
RTVSPost2010PropOp44
 70
     1
102
RTVSPost2010Prop45
280
     0
102
RTVSPost2010PropOp45
 70
     1
102
RTVSPost2010Prop46
 90
       50
102
RTVSPost2010PropOp46
 70
     1
102
RTVSPost2010Prop47
 90
       50
102
RTVSPost2010PropOp47
 70
     1
102
RTVSPost2010Prop48
 90
       50
102
RTVSPost2010PropOp48
 70
     1
102
RTVSPost2010Prop49
280
     0
102
RTVSPost2010PropOp49
 70
     1
102
RTVSPost2010Prop50
 90
       50
102
RTVSPost2010PropOp50
 70
     1
102
RTVSPost2010Prop51ColorIndex
 90
      256
102
RTVSPost2010Prop51ColorRGB
 90
-16777216
102
RTVSPost2010PropOp51
 70
     0
102
RTVSPost2010Prop52
140
1.0
102
RTVSPost2010PropOp52
 70
     0
102
RTVSPost2010Prop53
 90
        2
102
RTVSPost2010PropOp53
 70
     1
102
RTVSPost2010Prop54
  1
strokes_ogs.tif
102
RTVSPost2010PropOp54
 70
     1
102
RTVSPost2010Prop55
280
     0
102
RTVSPost2010PropOp55
 70
     1
102
RTVSPost2010Prop56
140
1.0
102
RTVSPost2010PropOp56
 70
     1
102
RTVSPost2010Prop57
140
1.0
102
RTVSPost2010PropOp57
 70
     1
  0
XRECORD
  5
382
102
{ACAD_REACTORS
330
381
102
}
330
381
100
AcDbXrecord
280
     1
102
RTVSPost2010Prop28
280
     0
102
RTVSPost2010PropOp28
 70
     1
102
RTVSPost2010Prop29
280
     1
102
RTVSPost2010PropOp29
 70
     1
102
RTVSPost2010Prop30
280
     1
102
RTVSPost2010PropOp30
 70
     1
102
RTVSPost2010Prop31
280
     0
102
RTVSPost2010PropOp31
 70
     1
102
RTVSPost2010Prop32
280
     0
102
RTVSPost2010PropOp32
 70
     1
102
RTVSPost2010Prop33
280
     0
102
RTVSPost2010PropOp33
 70
     1
102
RTVSPost2010Prop34
280
     0
102
RTVSPost2010PropOp34
 70
     1
102
RTVSPost2010Prop35
280
     0
102
RTVSPost2010PropOp35
 70
     1
102
RTVSPost2010Prop36
280
     0
102
RTVSPost2010PropOp36
 70
     1
102
RTVSPost2010Prop37
 90
       50
102
RTVSPost2010PropOp37
 70
     1
102
RTVSPost2010Prop38
140
0.0
102
RTVSPost2010PropOp38
 70
     1
102
RTVSPost2010Prop39
140
1.0
102
RTVSPost2010PropOp39
 70
     1
102
RTVSPost2010Prop40
 90
        0
102
RTVSPost2010PropOp40
 70
     1
102
RTVSPost2010Prop41ColorIndex
 90
       18
102
RTVSPost2010Prop41ColorRGB
 90
        0
102
RTVSPost2010PropOp41
 70
     1
102
RTVSPost2010Prop42
 90
       50
102
RTVSPost2010PropOp42
 70
     1
102
RTVSPost2010Prop43
 90
        3
102
RTVSPost2010PropOp43
 70
     1
102
RTVSPost2010Prop44ColorIndex
 90
        5
102
RTVSPost2010Prop44ColorRGB
 90
      255
102
RTVSPost2010PropOp44
 70
     1
102
RTVSPost2010Prop45
280
     0
102
RTVSPost2010PropOp45
 70
     1
102
RTVSPost2010Prop46
 90
       50
102
RTVSPost2010PropOp46
 70
     1
102
RTVSPost2010Prop47
 90
       50
102
RTVSPost2010PropOp47
 70
     1
102
RTVSPost2010Prop48
 90
       50
102
RTVSPost2010PropOp48
 70
     1
102
RTVSPost2010Prop49
280
     0
102
RTVSPost2010PropOp49
 70
     1
102
RTVSPost2010Prop50
 90
       50
102
RTVSPost2010PropOp50
 70
     1
102
RTVSPost2010Prop51ColorIndex
 90
      256
102
RTVSPost2010Prop51ColorRGB
 90
-16777216
102
RTVSPost2010PropOp51
 70
     0
102
RTVSPost2010Prop52
140
1.0
102
RTVSPost2010PropOp52
 70
     0
102
RTVSPost2010Prop53
 90
        2
102
RTVSPost2010PropOp53
 70
     1
102
RTVSPost2010Prop54
  1
strokes_ogs.tif
102
RTVSPost2010PropOp54
 70
     1
102
RTVSPost2010Prop55
280
     0
102
RTVSPost2010PropOp55
 70
     1
102
RTVSPost2010Prop56
140
1.0
102
RTVSPost2010PropOp56
 70
     1
102
RTVSPost2010Prop57
140
1.0
102
RTVSPost2010PropOp57
 70
     1
  0
XRECORD
  5
390
102
{ACAD_REACTORS
330
38F
102
}
330
38F
100
AcDbXrecord
280
     1
102
RTVSPost2010Prop28
280
     0
102
RTVSPost2010PropOp28
 70
     1
102
RTVSPost2010Prop29
280
     1
102
RTVSPost2010PropOp29
 70
     1
102
RTVSPost2010Prop30
280
     1
102
RTVSPost2010PropOp30
 70
     1
102
RTVSPost2010Prop31
280
     0
102
RTVSPost2010PropOp31
 70
     1
102
RTVSPost2010Prop32
280
     0
102
RTVSPost2010PropOp32
 70
     1
102
RTVSPost2010Prop33
280
     0
102
RTVSPost2010PropOp33
 70
     1
102
RTVSPost2010Prop34
280
     0
102
RTVSPost2010PropOp34
 70
     1
102
RTVSPost2010Prop35
280
     0
102
RTVSPost2010PropOp35
 70
     1
102
RTVSPost2010Prop36
280
     0
102
RTVSPost2010PropOp36
 70
     1
102
RTVSPost2010Prop37
 90
       50
102
RTVSPost2010PropOp37
 70
     1
102
RTVSPost2010Prop38
140
0.0
102
RTVSPost2010PropOp38
 70
     1
102
RTVSPost2010Prop39
140
1.0
102
RTVSPost2010PropOp39
 70
     1
102
RTVSPost2010Prop40
 90
        0
102
RTVSPost2010PropOp40
 70
     1
102
RTVSPost2010Prop41ColorIndex
 90
       18
102
RTVSPost2010Prop41ColorRGB
 90
        0
102
RTVSPost2010PropOp41
 70
     1
102
RTVSPost2010Prop42
 90
       50
102
RTVSPost2010PropOp42
 70
     1
102
RTVSPost2010Prop43
 90
        3
102
RTVSPost2010PropOp43
 70
     1
102
RTVSPost2010Prop44ColorIndex
 90
        5
102
RTVSPost2010Prop44ColorRGB
 90
      255
102
RTVSPost2010PropOp44
 70
     1
102
RTVSPost2010Prop45
280
     0
102
RTVSPost2010PropOp45
 70
     1
102
RTVSPost2010Prop46
 90
       50
102
RTVSPost2010PropOp46
 70
     1
102
RTVSPost2010Prop47
 90
       50
102
RTVSPost2010PropOp47
 70
     1
102
RTVSPost2010Prop48
 90
       50
102
RTVSPost2010PropOp48
 70
     1
102
RTVSPost2010Prop49
280
     0
102
RTVSPost2010PropOp49
 70
     1
102
RTVSPost2010Prop50
 90
       50
102
RTVSPost2010PropOp50
 70
     1
102
RTVSPost2010Prop51ColorIndex
 90
      256
102
RTVSPost2010Prop51ColorRGB
 90
-16777216
102
RTVSPost2010PropOp51
 70
     0
102
RTVSPost2010Prop52
140
1.0
102
RTVSPost2010PropOp52
 70
     0
102
RTVSPost2010Prop53
 90
        2
102
RTVSPost2010PropOp53
 70
     1
102
RTVSPost2010Prop54
  1
strokes_ogs.tif
102
RTVSPost2010PropOp54
 70
     1
102
RTVSPost2010Prop55
280
     0
102
RTVSPost2010PropOp55
 70
     1
102
RTVSPost2010Prop56
140
1.0
102
RTVSPost2010PropOp56
 70
     1
102
RTVSPost2010Prop57
140
1.0
102
RTVSPost2010PropOp57
 70
     1
  0
XRECORD
  5
398
102
{ACAD_REACTORS
330
397
102
}
330
397
100
AcDbXrecord
280
     1
102
RTVSPost2010Prop28
280
     0
102
RTVSPost2010PropOp28
 70
     1
102
RTVSPost2010Prop29
280
     1
102
RTVSPost2010PropOp29
 70
     1
102
RTVSPost2010Prop30
280
     1
102
RTVSPost2010PropOp30
 70
     1
102
RTVSPost2010Prop31
280
     0
102
RTVSPost2010PropOp31
 70
     1
102
RTVSPost2010Prop32
280
     0
102
RTVSPost2010PropOp32
 70
     1
102
RTVSPost2010Prop33
280
     0
102
RTVSPost2010PropOp33
 70
     1
102
RTVSPost2010Prop34
280
     0
102
RTVSPost2010PropOp34
 70
     1
102
RTVSPost2010Prop35
280
     0
102
RTVSPost2010PropOp35
 70
     1
102
RTVSPost2010Prop36
280
     0
102
RTVSPost2010PropOp36
 70
     1
102
RTVSPost2010Prop37
 90
       50
102
RTVSPost2010PropOp37
 70
     1
102
RTVSPost2010Prop38
140
0.0
102
RTVSPost2010PropOp38
 70
     1
102
RTVSPost2010Prop39
140
1.0
102
RTVSPost2010PropOp39
 70
     1
102
RTVSPost2010Prop40
 90
        0
102
RTVSPost2010PropOp40
 70
     1
102
RTVSPost2010Prop41ColorIndex
 90
       18
102
RTVSPost2010Prop41ColorRGB
 90
        0
102
RTVSPost2010PropOp41
 70
     1
102
RTVSPost2010Prop42
 90
       50
102
RTVSPost2010PropOp42
 70
     1
102
RTVSPost2010Prop43
 90
        3
102
RTVSPost2010PropOp43
 70
     1
102
RTVSPost2010Prop44ColorIndex
 90
        5
102
RTVSPost2010Prop44ColorRGB
 90
      255
102
RTVSPost2010PropOp44
 70
     1
102
RTVSPost2010Prop45
280
     0
102
RTVSPost2010PropOp45
 70
     1
102
RTVSPost2010Prop46
 90
       50
102
RTVSPost2010PropOp46
 70
     1
102
RTVSPost2010Prop47
 90
       50
102
RTVSPost2010PropOp47
 70
     1
102
RTVSPost2010Prop48
 90
       50
102
RTVSPost2010PropOp48
 70
     1
102
RTVSPost2010Prop49
280
     0
102
RTVSPost2010PropOp49
 70
     1
102
RTVSPost2010Prop50
 90
       50
102
RTVSPost2010PropOp50
 70
     1
102
RTVSPost2010Prop51ColorIndex
 90
      256
102
RTVSPost2010Prop51ColorRGB
 90
-16777216
102
RTVSPost2010PropOp51
 70
     0
102
RTVSPost2010Prop52
140
1.0
102
RTVSPost2010PropOp52
 70
     0
102
RTVSPost2010Prop53
 90
        2
102
RTVSPost2010PropOp53
 70
     1
102
RTVSPost2010Prop54
  1
strokes_ogs.tif
102
RTVSPost2010PropOp54
 70
     1
102
RTVSPost2010Prop55
280
     0
102
RTVSPost2010PropOp55
 70
     1
102
RTVSPost2010Prop56
140
1.0
102
RTVSPost2010PropOp56
 70
     1
102
RTVSPost2010Prop57
140
1.0
102
RTVSPost2010PropOp57
 70
     1
  0
XRECORD
  5
38A
102
{ACAD_REACTORS
330
389
102
}
330
389
100
AcDbXrecord
280
     1
102
RTVSPost2010Prop28
280
     0
102
RTVSPost2010PropOp28
 70
     1
102
RTVSPost2010Prop29
280
     1
102
RTVSPost2010PropOp29
 70
     1
102
RTVSPost2010Prop30
280
     1
102
RTVSPost2010PropOp30
 70
     1
102
RTVSPost2010Prop31
280
     0
102
RTVSPost2010PropOp31
 70
     1
102
RTVSPost2010Prop32
280
     0
102
RTVSPost2010PropOp32
 70
     1
102
RTVSPost2010Prop33
280
     0
102
RTVSPost2010PropOp33
 70
     1
102
RTVSPost2010Prop34
280
     0
102
RTVSPost2010PropOp34
 70
     1
102
RTVSPost2010Prop35
280
     0
102
RTVSPost2010PropOp35
 70
     1
102
RTVSPost2010Prop36
280
     0
102
RTVSPost2010PropOp36
 70
     1
102
RTVSPost2010Prop37
 90
       50
102
RTVSPost2010PropOp37
 70
     1
102
RTVSPost2010Prop38
140
0.0
102
RTVSPost2010PropOp38
 70
     1
102
RTVSPost2010Prop39
140
1.0
102
RTVSPost2010PropOp39
 70
     1
102
RTVSPost2010Prop40
 90
        0
102
RTVSPost2010PropOp40
 70
     1
102
RTVSPost2010Prop41ColorIndex
 90
       18
102
RTVSPost2010Prop41ColorRGB
 90
        0
102
RTVSPost2010PropOp41
 70
     1
102
RTVSPost2010Prop42
 90
       50
102
RTVSPost2010PropOp42
 70
     1
102
RTVSPost2010Prop43
 90
        3
102
RTVSPost2010PropOp43
 70
     1
102
RTVSPost2010Prop44ColorIndex
 90
        5
102
RTVSPost2010Prop44ColorRGB
 90
      255
102
RTVSPost2010PropOp44
 70
     1
102
RTVSPost2010Prop45
280
     0
102
RTVSPost2010PropOp45
 70
     1
102
RTVSPost2010Prop46
 90
       50
102
RTVSPost2010PropOp46
 70
     1
102
RTVSPost2010Prop47
 90
       50
102
RTVSPost2010PropOp47
 70
     1
102
RTVSPost2010Prop48
 90
       50
102
RTVSPost2010PropOp48
 70
     1
102
RTVSPost2010Prop49
280
     0
102
RTVSPost2010PropOp49
 70
     1
102
RTVSPost2010Prop50
 90
       50
102
RTVSPost2010PropOp50
 70
     1
102
RTVSPost2010Prop51ColorIndex
 90
      256
102
RTVSPost2010Prop51ColorRGB
 90
-16777216
102
RTVSPost2010PropOp51
 70
     0
102
RTVSPost2010Prop52
140
1.0
102
RTVSPost2010PropOp52
 70
     0
102
RTVSPost2010Prop53
 90
        2
102
RTVSPost2010PropOp53
 70
     1
102
RTVSPost2010Prop54
  1
strokes_ogs.tif
102
RTVSPost2010PropOp54
 70
     1
102
RTVSPost2010Prop55
280
     0
102
RTVSPost2010PropOp55
 70
     1
102
RTVSPost2010Prop56
140
1.0
102
RTVSPost2010PropOp56
 70
     1
102
RTVSPost2010Prop57
140
1.0
102
RTVSPost2010PropOp57
 70
     1
  0
XRECORD
  5
38E
102
{ACAD_REACTORS
330
38D
102
}
330
38D
100
AcDbXrecord
280
     1
102
RTVSPost2010Prop28
280
     0
102
RTVSPost2010PropOp28
 70
     1
102
RTVSPost2010Prop29
280
     1
102
RTVSPost2010PropOp29
 70
     1
102
RTVSPost2010Prop30
280
     1
102
RTVSPost2010PropOp30
 70
     1
102
RTVSPost2010Prop31
280
     0
102
RTVSPost2010PropOp31
 70
     1
102
RTVSPost2010Prop32
280
     0
102
RTVSPost2010PropOp32
 70
     1
102
RTVSPost2010Prop33
280
     0
102
RTVSPost2010PropOp33
 70
     1
102
RTVSPost2010Prop34
280
     0
102
RTVSPost2010PropOp34
 70
     1
102
RTVSPost2010Prop35
280
     0
102
RTVSPost2010PropOp35
 70
     1
102
RTVSPost2010Prop36
280
     0
102
RTVSPost2010PropOp36
 70
     1
102
RTVSPost2010Prop37
 90
       50
102
RTVSPost2010PropOp37
 70
     1
102
RTVSPost2010Prop38
140
0.0
102
RTVSPost2010PropOp38
 70
     1
102
RTVSPost2010Prop39
140
1.0
102
RTVSPost2010PropOp39
 70
     1
102
RTVSPost2010Prop40
 90
        0
102
RTVSPost2010PropOp40
 70
     1
102
RTVSPost2010Prop41ColorIndex
 90
       18
102
RTVSPost2010Prop41ColorRGB
 90
        0
102
RTVSPost2010PropOp41
 70
     1
102
RTVSPost2010Prop42
 90
       50
102
RTVSPost2010PropOp42
 70
     1
102
RTVSPost2010Prop43
 90
        3
102
RTVSPost2010PropOp43
 70
     1
102
RTVSPost2010Prop44ColorIndex
 90
        5
102
RTVSPost2010Prop44ColorRGB
 90
      255
102
RTVSPost2010PropOp44
 70
     1
102
RTVSPost2010Prop45
280
     0
102
RTVSPost2010PropOp45
 70
     1
102
RTVSPost2010Prop46
 90
       50
102
RTVSPost2010PropOp46
 70
     1
102
RTVSPost2010Prop47
 90
       50
102
RTVSPost2010PropOp47
 70
     1
102
RTVSPost2010Prop48
 90
       50
102
RTVSPost2010PropOp48
 70
     1
102
RTVSPost2010Prop49
280
     0
102
RTVSPost2010PropOp49
 70
     1
102
RTVSPost2010Prop50
 90
       50
102
RTVSPost2010PropOp50
 70
     1
102
RTVSPost2010Prop51ColorIndex
 90
      256
102
RTVSPost2010Prop51ColorRGB
 90
-16777216
102
RTVSPost2010PropOp51
 70
     0
102
RTVSPost2010Prop52
140
1.0
102
RTVSPost2010PropOp52
 70
     0
102
RTVSPost2010Prop53
 90
        2
102
RTVSPost2010PropOp53
 70
     1
102
RTVSPost2010Prop54
  1
strokes_ogs.tif
102
RTVSPost2010PropOp54
 70
     1
102
RTVSPost2010Prop55
280
     0
102
RTVSPost2010PropOp55
 70
     1
102
RTVSPost2010Prop56
140
1.0
102
RTVSPost2010PropOp56
 70
     1
102
RTVSPost2010Prop57
140
1.0
102
RTVSPost2010PropOp57
 70
     1
  0
XRECORD
  5
3A8
102
{ACAD_REACTORS
330
3A7
102
}
330
3A7
100
AcDbXrecord
280
     1
102
RTVSPost2010Prop28
280
     0
102
RTVSPost2010PropOp28
 70
     1
102
RTVSPost2010Prop29
280
     1
102
RTVSPost2010PropOp29
 70
     1
102
RTVSPost2010Prop30
280
     1
102
RTVSPost2010PropOp30
 70
     1
102
RTVSPost2010Prop31
280
     0
102
RTVSPost2010PropOp31
 70
     1
102
RTVSPost2010Prop32
280
     0
102
RTVSPost2010PropOp32
 70
     1
102
RTVSPost2010Prop33
280
     0
102
RTVSPost2010PropOp33
 70
     1
102
RTVSPost2010Prop34
280
     0
102
RTVSPost2010PropOp34
 70
     1
102
RTVSPost2010Prop35
280
     0
102
RTVSPost2010PropOp35
 70
     1
102
RTVSPost2010Prop36
280
     0
102
RTVSPost2010PropOp36
 70
     1
102
RTVSPost2010Prop37
 90
       50
102
RTVSPost2010PropOp37
 70
     0
102
RTVSPost2010Prop38
140
0.0
102
RTVSPost2010PropOp38
 70
     0
102
RTVSPost2010Prop39
140
1.0
102
RTVSPost2010PropOp39
 70
     0
102
RTVSPost2010Prop40
 90
        0
102
RTVSPost2010PropOp40
 70
     0
102
RTVSPost2010Prop41ColorIndex
 90
       18
102
RTVSPost2010Prop41ColorRGB
 90
        0
102
RTVSPost2010PropOp41
 70
     0
102
RTVSPost2010Prop42
 90
       50
102
RTVSPost2010PropOp42
 70
     0
102
RTVSPost2010Prop43
 90
        3
102
RTVSPost2010PropOp43
 70
     0
102
RTVSPost2010Prop44ColorIndex
 90
        5
102
RTVSPost2010Prop44ColorRGB
 90
      255
102
RTVSPost2010PropOp44
 70
     0
102
RTVSPost2010Prop45
280
     0
102
RTVSPost2010PropOp45
 70
     1
102
RTVSPost2010Prop46
 90
       50
102
RTVSPost2010PropOp46
 70
     0
102
RTVSPost2010Prop47
 90
       50
102
RTVSPost2010PropOp47
 70
     0
102
RTVSPost2010Prop48
 90
       50
102
RTVSPost2010PropOp48
 70
     0
102
RTVSPost2010Prop49
280
     0
102
RTVSPost2010PropOp49
 70
     1
102
RTVSPost2010Prop50
 90
       50
102
RTVSPost2010PropOp50
 70
     0
102
RTVSPost2010Prop51ColorIndex
 90
      256
102
RTVSPost2010Prop51ColorRGB
 90
-16777216
102
RTVSPost2010PropOp51
 70
     0
102
RTVSPost2010Prop52
140
1.0
102
RTVSPost2010PropOp52
 70
     0
102
RTVSPost2010Prop53
 90
        2
102
RTVSPost2010PropOp53
 70
     0
102
RTVSPost2010Prop54
  1
strokes_ogs.tif
102
RTVSPost2010PropOp54
 70
     0
102
RTVSPost2010Prop55
280
     0
102
RTVSPost2010PropOp55
 70
     1
102
RTVSPost2010Prop56
140
1.0
102
RTVSPost2010PropOp56
 70
     0
102
RTVSPost2010Prop57
140
1.0
102
RTVSPost2010PropOp57
 70
     0
  0
XRECORD
  5
396
102
{ACAD_REACTORS
330
395
102
}
330
395
100
AcDbXrecord
280
     1
102
RTVSPost2010Prop28
280
     0
102
RTVSPost2010PropOp28
 70
     1
102
RTVSPost2010Prop29
280
     1
102
RTVSPost2010PropOp29
 70
     1
102
RTVSPost2010Prop30
280
     1
102
RTVSPost2010PropOp30
 70
     1
102
RTVSPost2010Prop31
280
     0
102
RTVSPost2010PropOp31
 70
     1
102
RTVSPost2010Prop32
280
     0
102
RTVSPost2010PropOp32
 70
     1
102
RTVSPost2010Prop33
280
     0
102
RTVSPost2010PropOp33
 70
     1
102
RTVSPost2010Prop34
280
     0
102
RTVSPost2010PropOp34
 70
     1
102
RTVSPost2010Prop35
280
     0
102
RTVSPost2010PropOp35
 70
     1
102
RTVSPost2010Prop36
280
     0
102
RTVSPost2010PropOp36
 70
     1
102
RTVSPost2010Prop37
 90
       50
102
RTVSPost2010PropOp37
 70
     1
102
RTVSPost2010Prop38
140
0.0
102
RTVSPost2010PropOp38
 70
     1
102
RTVSPost2010Prop39
140
1.0
102
RTVSPost2010PropOp39
 70
     1
102
RTVSPost2010Prop40
 90
        0
102
RTVSPost2010PropOp40
 70
     1
102
RTVSPost2010Prop41ColorIndex
 90
       18
102
RTVSPost2010Prop41ColorRGB
 90
        0
102
RTVSPost2010PropOp41
 70
     1
102
RTVSPost2010Prop42
 90
       50
102
RTVSPost2010PropOp42
 70
     1
102
RTVSPost2010Prop43
 90
        3
102
RTVSPost2010PropOp43
 70
     1
102
RTVSPost2010Prop44ColorIndex
 90
        5
102
RTVSPost2010Prop44ColorRGB
 90
      255
102
RTVSPost2010PropOp44
 70
     1
102
RTVSPost2010Prop45
280
     0
102
RTVSPost2010PropOp45
 70
     1
102
RTVSPost2010Prop46
 90
       50
102
RTVSPost2010PropOp46
 70
     1
102
RTVSPost2010Prop47
 90
       50
102
RTVSPost2010PropOp47
 70
     1
102
RTVSPost2010Prop48
 90
       50
102
RTVSPost2010PropOp48
 70
     1
102
RTVSPost2010Prop49
280
     0
102
RTVSPost2010PropOp49
 70
     1
102
RTVSPost2010Prop50
 90
       50
102
RTVSPost2010PropOp50
 70
     1
102
RTVSPost2010Prop51ColorIndex
 90
      256
102
RTVSPost2010Prop51ColorRGB
 90
-16777216
102
RTVSPost2010PropOp51
 70
     0
102
RTVSPost2010Prop52
140
1.0
102
RTVSPost2010PropOp52
 70
     0
102
RTVSPost2010Prop53
 90
        2
102
RTVSPost2010PropOp53
 70
     1
102
RTVSPost2010Prop54
  1
strokes_ogs.tif
102
RTVSPost2010PropOp54
 70
     1
102
RTVSPost2010Prop55
280
     0
102
RTVSPost2010PropOp55
 70
     1
102
RTVSPost2010Prop56
140
1.0
102
RTVSPost2010PropOp56
 70
     1
102
RTVSPost2010Prop57
140
1.0
102
RTVSPost2010PropOp57
 70
     1
  0
XRECORD
  5
37A
102
{ACAD_REACTORS
330
379
102
}
330
379
100
AcDbXrecord
280
     1
102
RTVSPost2010Prop28
280
     0
102
RTVSPost2010PropOp28
 70
     1
102
RTVSPost2010Prop29
280
     1
102
RTVSPost2010PropOp29
 70
     1
102
RTVSPost2010Prop30
280
     1
102
RTVSPost2010PropOp30
 70
     1
102
RTVSPost2010Prop31
280
     0
102
RTVSPost2010PropOp31
 70
     1
102
RTVSPost2010Prop32
280
     0
102
RTVSPost2010PropOp32
 70
     1
102
RTVSPost2010Prop33
280
     0
102
RTVSPost2010PropOp33
 70
     1
102
RTVSPost2010Prop34
280
     0
102
RTVSPost2010PropOp34
 70
     1
102
RTVSPost2010Prop35
280
     0
102
RTVSPost2010PropOp35
 70
     1
102
RTVSPost2010Prop36
280
     0
102
RTVSPost2010PropOp36
 70
     1
102
RTVSPost2010Prop37
 90
       50
102
RTVSPost2010PropOp37
 70
     1
102
RTVSPost2010Prop38
140
0.0
102
RTVSPost2010PropOp38
 70
     1
102
RTVSPost2010Prop39
140
1.0
102
RTVSPost2010PropOp39
 70
     1
102
RTVSPost2010Prop40
 90
        0
102
RTVSPost2010PropOp40
 70
     1
102
RTVSPost2010Prop41ColorIndex
 90
       18
102
RTVSPost2010Prop41ColorRGB
 90
        0
102
RTVSPost2010PropOp41
 70
     1
102
RTVSPost2010Prop42
 90
       50
102
RTVSPost2010PropOp42
 70
     1
102
RTVSPost2010Prop43
 90
        3
102
RTVSPost2010PropOp43
 70
     1
102
RTVSPost2010Prop44ColorIndex
 90
        5
102
RTVSPost2010Prop44ColorRGB
 90
      255
102
RTVSPost2010PropOp44
 70
     1
102
RTVSPost2010Prop45
280
     0
102
RTVSPost2010PropOp45
 70
     1
102
RTVSPost2010Prop46
 90
       50
102
RTVSPost2010PropOp46
 70
     1
102
RTVSPost2010Prop47
 90
       50
102
RTVSPost2010PropOp47
 70
     1
102
RTVSPost2010Prop48
 90
       50
102
RTVSPost2010PropOp48
 70
     1
102
RTVSPost2010Prop49
280
     0
102
RTVSPost2010PropOp49
 70
     1
102
RTVSPost2010Prop50
 90
       50
102
RTVSPost2010PropOp50
 70
     1
102
RTVSPost2010Prop51ColorIndex
 90
      256
102
RTVSPost2010Prop51ColorRGB
 90
-16777216
102
RTVSPost2010PropOp51
 70
     0
102
RTVSPost2010Prop52
140
1.0
102
RTVSPost2010PropOp52
 70
     0
102
RTVSPost2010Prop53
 90
        2
102
RTVSPost2010PropOp53
 70
     1
102
RTVSPost2010Prop54
  1
strokes_ogs.tif
102
RTVSPost2010PropOp54
 70
     1
102
RTVSPost2010Prop55
280
     0
102
RTVSPost2010PropOp55
 70
     1
102
RTVSPost2010Prop56
140
1.0
102
RTVSPost2010PropOp56
 70
     1
102
RTVSPost2010Prop57
140
1.0
102
RTVSPost2010PropOp57
 70
     1
  0
XRECORD
  5
37C
102
{ACAD_REACTORS
330
37B
102
}
330
37B
100
AcDbXrecord
280
     1
102
RTVSPost2010Prop28
280
     0
102
RTVSPost2010PropOp28
 70
     1
102
RTVSPost2010Prop29
280
     1
102
RTVSPost2010PropOp29
 70
     1
102
RTVSPost2010Prop30
280
     1
102
RTVSPost2010PropOp30
 70
     1
102
RTVSPost2010Prop31
280
     0
102
RTVSPost2010PropOp31
 70
     1
102
RTVSPost2010Prop32
280
     0
102
RTVSPost2010PropOp32
 70
     1
102
RTVSPost2010Prop33
280
     0
102
RTVSPost2010PropOp33
 70
     1
102
RTVSPost2010Prop34
280
     0
102
RTVSPost2010PropOp34
 70
     1
102
RTVSPost2010Prop35
280
     0
102
RTVSPost2010PropOp35
 70
     1
102
RTVSPost2010Prop36
280
     0
102
RTVSPost2010PropOp36
 70
     1
102
RTVSPost2010Prop37
 90
       50
102
RTVSPost2010PropOp37
 70
     1
102
RTVSPost2010Prop38
140
0.0
102
RTVSPost2010PropOp38
 70
     1
102
RTVSPost2010Prop39
140
1.0
102
RTVSPost2010PropOp39
 70
     1
102
RTVSPost2010Prop40
 90
        0
102
RTVSPost2010PropOp40
 70
     1
102
RTVSPost2010Prop41ColorIndex
 90
       18
102
RTVSPost2010Prop41ColorRGB
 90
        0
102
RTVSPost2010PropOp41
 70
     1
102
RTVSPost2010Prop42
 90
       50
102
RTVSPost2010PropOp42
 70
     1
102
RTVSPost2010Prop43
 90
        3
102
RTVSPost2010PropOp43
 70
     1
102
RTVSPost2010Prop44ColorIndex
 90
        5
102
RTVSPost2010Prop44ColorRGB
 90
      255
102
RTVSPost2010PropOp44
 70
     1
102
RTVSPost2010Prop45
280
     0
102
RTVSPost2010PropOp45
 70
     1
102
RTVSPost2010Prop46
 90
       50
102
RTVSPost2010PropOp46
 70
     1
102
RTVSPost2010Prop47
 90
       50
102
RTVSPost2010PropOp47
 70
     1
102
RTVSPost2010Prop48
 90
       50
102
RTVSPost2010PropOp48
 70
     1
102
RTVSPost2010Prop49
280
     0
102
RTVSPost2010PropOp49
 70
     1
102
RTVSPost2010Prop50
 90
       50
102
RTVSPost2010PropOp50
 70
     1
102
RTVSPost2010Prop51ColorIndex
 90
      256
102
RTVSPost2010Prop51ColorRGB
 90
-16777216
102
RTVSPost2010PropOp51
 70
     0
102
RTVSPost2010Prop52
140
1.0
102
RTVSPost2010PropOp52
 70
     0
102
RTVSPost2010Prop53
 90
        2
102
RTVSPost2010PropOp53
 70
     1
102
RTVSPost2010Prop54
  1
strokes_ogs.tif
102
RTVSPost2010PropOp54
 70
     1
102
RTVSPost2010Prop55
280
     0
102
RTVSPost2010PropOp55
 70
     1
102
RTVSPost2010Prop56
140
1.0
102
RTVSPost2010PropOp56
 70
     1
102
RTVSPost2010Prop57
140
1.0
102
RTVSPost2010PropOp57
 70
     1
  0
XRECORD
  5
37E
102
{ACAD_REACTORS
330
37D
102
}
330
37D
100
AcDbXrecord
280
     1
102
RTVSPost2010Prop28
280
     0
102
RTVSPost2010PropOp28
 70
     1
102
RTVSPost2010Prop29
280
     1
102
RTVSPost2010PropOp29
 70
     1
102
RTVSPost2010Prop30
280
     1
102
RTVSPost2010PropOp30
 70
     1
102
RTVSPost2010Prop31
280
     0
102
RTVSPost2010PropOp31
 70
     1
102
RTVSPost2010Prop32
280
     0
102
RTVSPost2010PropOp32
 70
     1
102
RTVSPost2010Prop33
280
     0
102
RTVSPost2010PropOp33
 70
     1
102
RTVSPost2010Prop34
280
     0
102
RTVSPost2010PropOp34
 70
     1
102
RTVSPost2010Prop35
280
     0
102
RTVSPost2010PropOp35
 70
     1
102
RTVSPost2010Prop36
280
     0
102
RTVSPost2010PropOp36
 70
     1
102
RTVSPost2010Prop37
 90
       50
102
RTVSPost2010PropOp37
 70
     1
102
RTVSPost2010Prop38
140
0.0
102
RTVSPost2010PropOp38
 70
     1
102
RTVSPost2010Prop39
140
1.0
102
RTVSPost2010PropOp39
 70
     1
102
RTVSPost2010Prop40
 90
        0
102
RTVSPost2010PropOp40
 70
     1
102
RTVSPost2010Prop41ColorIndex
 90
       18
102
RTVSPost2010Prop41ColorRGB
 90
        0
102
RTVSPost2010PropOp41
 70
     1
102
RTVSPost2010Prop42
 90
       50
102
RTVSPost2010PropOp42
 70
     1
102
RTVSPost2010Prop43
 90
        3
102
RTVSPost2010PropOp43
 70
     1
102
RTVSPost2010Prop44ColorIndex
 90
        5
102
RTVSPost2010Prop44ColorRGB
 90
      255
102
RTVSPost2010PropOp44
 70
     1
102
RTVSPost2010Prop45
280
     0
102
RTVSPost2010PropOp45
 70
     1
102
RTVSPost2010Prop46
 90
       50
102
RTVSPost2010PropOp46
 70
     1
102
RTVSPost2010Prop47
 90
       50
102
RTVSPost2010PropOp47
 70
     1
102
RTVSPost2010Prop48
 90
       50
102
RTVSPost2010PropOp48
 70
     1
102
RTVSPost2010Prop49
280
     0
102
RTVSPost2010PropOp49
 70
     1
102
RTVSPost2010Prop50
 90
       50
102
RTVSPost2010PropOp50
 70
     1
102
RTVSPost2010Prop51ColorIndex
 90
      256
102
RTVSPost2010Prop51ColorRGB
 90
-16777216
102
RTVSPost2010PropOp51
 70
     0
102
RTVSPost2010Prop52
140
1.0
102
RTVSPost2010PropOp52
 70
     0
102
RTVSPost2010Prop53
 90
        2
102
RTVSPost2010PropOp53
 70
     1
102
RTVSPost2010Prop54
  1
strokes_ogs.tif
102
RTVSPost2010PropOp54
 70
     1
102
RTVSPost2010Prop55
280
     0
102
RTVSPost2010PropOp55
 70
     1
102
RTVSPost2010Prop56
140
1.0
102
RTVSPost2010PropOp56
 70
     1
102
RTVSPost2010Prop57
140
1.0
102
RTVSPost2010PropOp57
 70
     1
  0
XRECORD
  5
380
102
{ACAD_REACTORS
330
37F
102
}
330
37F
100
AcDbXrecord
280
     1
102
RTVSPost2010Prop28
280
     0
102
RTVSPost2010PropOp28
 70
     1
102
RTVSPost2010Prop29
280
     1
102
RTVSPost2010PropOp29
 70
     1
102
RTVSPost2010Prop30
280
     1
102
RTVSPost2010PropOp30
 70
     1
102
RTVSPost2010Prop31
280
     0
102
RTVSPost2010PropOp31
 70
     1
102
RTVSPost2010Prop32
280
     0
102
RTVSPost2010PropOp32
 70
     1
102
RTVSPost2010Prop33
280
     0
102
RTVSPost2010PropOp33
 70
     1
102
RTVSPost2010Prop34
280
     0
102
RTVSPost2010PropOp34
 70
     1
102
RTVSPost2010Prop35
280
     0
102
RTVSPost2010PropOp35
 70
     1
102
RTVSPost2010Prop36
280
     0
102
RTVSPost2010PropOp36
 70
     1
102
RTVSPost2010Prop37
 90
       50
102
RTVSPost2010PropOp37
 70
     1
102
RTVSPost2010Prop38
140
0.0
102
RTVSPost2010PropOp38
 70
     1
102
RTVSPost2010Prop39
140
1.0
102
RTVSPost2010PropOp39
 70
     1
102
RTVSPost2010Prop40
 90
        0
102
RTVSPost2010PropOp40
 70
     1
102
RTVSPost2010Prop41ColorIndex
 90
       18
102
RTVSPost2010Prop41ColorRGB
 90
        0
102
RTVSPost2010PropOp41
 70
     1
102
RTVSPost2010Prop42
 90
       50
102
RTVSPost2010PropOp42
 70
     1
102
RTVSPost2010Prop43
 90
        3
102
RTVSPost2010PropOp43
 70
     1
102
RTVSPost2010Prop44ColorIndex
 90
        5
102
RTVSPost2010Prop44ColorRGB
 90
      255
102
RTVSPost2010PropOp44
 70
     1
102
RTVSPost2010Prop45
280
     0
102
RTVSPost2010PropOp45
 70
     1
102
RTVSPost2010Prop46
 90
       50
102
RTVSPost2010PropOp46
 70
     1
102
RTVSPost2010Prop47
 90
       50
102
RTVSPost2010PropOp47
 70
     1
102
RTVSPost2010Prop48
 90
       50
102
RTVSPost2010PropOp48
 70
     1
102
RTVSPost2010Prop49
280
     0
102
RTVSPost2010PropOp49
 70
     1
102
RTVSPost2010Prop50
 90
       50
102
RTVSPost2010PropOp50
 70
     1
102
RTVSPost2010Prop51ColorIndex
 90
      256
102
RTVSPost2010Prop51ColorRGB
 90
-16777216
102
RTVSPost2010PropOp51
 70
     0
102
RTVSPost2010Prop52
140
1.0
102
RTVSPost2010PropOp52
 70
     0
102
RTVSPost2010Prop53
 90
        2
102
RTVSPost2010PropOp53
 70
     1
102
RTVSPost2010Prop54
  1
strokes_ogs.tif
102
RTVSPost2010PropOp54
 70
     1
102
RTVSPost2010Prop55
280
     0
102
RTVSPost2010PropOp55
 70
     1
102
RTVSPost2010Prop56
140
1.0
102
RTVSPost2010PropOp56
 70
     1
102
RTVSPost2010Prop57
140
1.0
102
RTVSPost2010PropOp57
 70
     1
  0
XRECORD
  5
388
102
{ACAD_REACTORS
330
387
102
}
330
387
100
AcDbXrecord
280
     1
102
RTVSPost2010Prop28
280
     0
102
RTVSPost2010PropOp28
 70
     1
102
RTVSPost2010Prop29
280
     1
102
RTVSPost2010PropOp29
 70
     1
102
RTVSPost2010Prop30
280
     1
102
RTVSPost2010PropOp30
 70
     1
102
RTVSPost2010Prop31
280
     0
102
RTVSPost2010PropOp31
 70
     1
102
RTVSPost2010Prop32
280
     0
102
RTVSPost2010PropOp32
 70
     1
102
RTVSPost2010Prop33
280
     0
102
RTVSPost2010PropOp33
 70
     1
102
RTVSPost2010Prop34
280
     0
102
RTVSPost2010PropOp34
 70
     1
102
RTVSPost2010Prop35
280
     0
102
RTVSPost2010PropOp35
 70
     1
102
RTVSPost2010Prop36
280
     0
102
RTVSPost2010PropOp36
 70
     1
102
RTVSPost2010Prop37
 90
       50
102
RTVSPost2010PropOp37
 70
     1
102
RTVSPost2010Prop38
140
0.0
102
RTVSPost2010PropOp38
 70
     1
102
RTVSPost2010Prop39
140
1.0
102
RTVSPost2010PropOp39
 70
     1
102
RTVSPost2010Prop40
 90
        0
102
RTVSPost2010PropOp40
 70
     1
102
RTVSPost2010Prop41ColorIndex
 90
       18
102
RTVSPost2010Prop41ColorRGB
 90
        0
102
RTVSPost2010PropOp41
 70
     1
102
RTVSPost2010Prop42
 90
       50
102
RTVSPost2010PropOp42
 70
     1
102
RTVSPost2010Prop43
 90
        3
102
RTVSPost2010PropOp43
 70
     1
102
RTVSPost2010Prop44ColorIndex
 90
        5
102
RTVSPost2010Prop44ColorRGB
 90
      255
102
RTVSPost2010PropOp44
 70
     1
102
RTVSPost2010Prop45
280
     0
102
RTVSPost2010PropOp45
 70
     1
102
RTVSPost2010Prop46
 90
       50
102
RTVSPost2010PropOp46
 70
     1
102
RTVSPost2010Prop47
 90
       50
102
RTVSPost2010PropOp47
 70
     1
102
RTVSPost2010Prop48
 90
       50
102
RTVSPost2010PropOp48
 70
     1
102
RTVSPost2010Prop49
280
     0
102
RTVSPost2010PropOp49
 70
     1
102
RTVSPost2010Prop50
 90
       50
102
RTVSPost2010PropOp50
 70
     1
102
RTVSPost2010Prop51ColorIndex
 90
      256
102
RTVSPost2010Prop51ColorRGB
 90
-16777216
102
RTVSPost2010PropOp51
 70
     0
102
RTVSPost2010Prop52
140
1.0
102
RTVSPost2010PropOp52
 70
     0
102
RTVSPost2010Prop53
 90
        2
102
RTVSPost2010PropOp53
 70
     1
102
RTVSPost2010Prop54
  1
strokes_ogs.tif
102
RTVSPost2010PropOp54
 70
     1
102
RTVSPost2010Prop55
280
     0
102
RTVSPost2010PropOp55
 70
     1
102
RTVSPost2010Prop56
140
1.0
102
RTVSPost2010PropOp56
 70
     1
102
RTVSPost2010Prop57
140
1.0
102
RTVSPost2010PropOp57
 70
     1
  0
XRECORD
  5
3A4
102
{ACAD_REACTORS
330
3A3
102
}
330
3A3
100
AcDbXrecord
280
     1
102
RTVSPost2010Prop28
280
     0
102
RTVSPost2010PropOp28
 70
     1
102
RTVSPost2010Prop29
280
     1
102
RTVSPost2010PropOp29
 70
     1
102
RTVSPost2010Prop30
280
     1
102
RTVSPost2010PropOp30
 70
     1
102
RTVSPost2010Prop31
280
     0
102
RTVSPost2010PropOp31
 70
     1
102
RTVSPost2010Prop32
280
     0
102
RTVSPost2010PropOp32
 70
     1
102
RTVSPost2010Prop33
280
     0
102
RTVSPost2010PropOp33
 70
     1
102
RTVSPost2010Prop34
280
     0
102
RTVSPost2010PropOp34
 70
     1
102
RTVSPost2010Prop35
280
     0
102
RTVSPost2010PropOp35
 70
     1
102
RTVSPost2010Prop36
280
     0
102
RTVSPost2010PropOp36
 70
     1
102
RTVSPost2010Prop37
 90
       50
102
RTVSPost2010PropOp37
 70
     0
102
RTVSPost2010Prop38
140
0.0
102
RTVSPost2010PropOp38
 70
     0
102
RTVSPost2010Prop39
140
1.0
102
RTVSPost2010PropOp39
 70
     0
102
RTVSPost2010Prop40
 90
        0
102
RTVSPost2010PropOp40
 70
     0
102
RTVSPost2010Prop41ColorIndex
 90
       18
102
RTVSPost2010Prop41ColorRGB
 90
        0
102
RTVSPost2010PropOp41
 70
     0
102
RTVSPost2010Prop42
 90
       50
102
RTVSPost2010PropOp42
 70
     0
102
RTVSPost2010Prop43
 90
        3
102
RTVSPost2010PropOp43
 70
     0
102
RTVSPost2010Prop44ColorIndex
 90
        5
102
RTVSPost2010Prop44ColorRGB
 90
      255
102
RTVSPost2010PropOp44
 70
     0
102
RTVSPost2010Prop45
280
     0
102
RTVSPost2010PropOp45
 70
     1
102
RTVSPost2010Prop46
 90
       50
102
RTVSPost2010PropOp46
 70
     0
102
RTVSPost2010Prop47
 90
       50
102
RTVSPost2010PropOp47
 70
     0
102
RTVSPost2010Prop48
 90
       50
102
RTVSPost2010PropOp48
 70
     0
102
RTVSPost2010Prop49
280
     0
102
RTVSPost2010PropOp49
 70
     1
102
RTVSPost2010Prop50
 90
       50
102
RTVSPost2010PropOp50
 70
     0
102
RTVSPost2010Prop51ColorIndex
 90
      256
102
RTVSPost2010Prop51ColorRGB
 90
-16777216
102
RTVSPost2010PropOp51
 70
     0
102
RTVSPost2010Prop52
140
1.0
102
RTVSPost2010PropOp52
 70
     0
102
RTVSPost2010Prop53
 90
        2
102
RTVSPost2010PropOp53
 70
     0
102
RTVSPost2010Prop54
  1
strokes_ogs.tif
102
RTVSPost2010PropOp54
 70
     0
102
RTVSPost2010Prop55
280
     0
102
RTVSPost2010PropOp55
 70
     1
102
RTVSPost2010Prop56
140
1.0
102
RTVSPost2010PropOp56
 70
     0
102
RTVSPost2010Prop57
140
1.0
102
RTVSPost2010PropOp57
 70
     0
  0
XRECORD
  5
394
102
{ACAD_REACTORS
330
393
102
}
330
393
100
AcDbXrecord
280
     1
102
RTVSPost2010Prop28
280
     0
102
RTVSPost2010PropOp28
 70
     1
102
RTVSPost2010Prop29
280
     1
102
RTVSPost2010PropOp29
 70
     1
102
RTVSPost2010Prop30
280
     1
102
RTVSPost2010PropOp30
 70
     1
102
RTVSPost2010Prop31
280
     0
102
RTVSPost2010PropOp31
 70
     1
102
RTVSPost2010Prop32
280
     0
102
RTVSPost2010PropOp32
 70
     1
102
RTVSPost2010Prop33
280
     0
102
RTVSPost2010PropOp33
 70
     1
102
RTVSPost2010Prop34
280
     0
102
RTVSPost2010PropOp34
 70
     1
102
RTVSPost2010Prop35
280
     0
102
RTVSPost2010PropOp35
 70
     1
102
RTVSPost2010Prop36
280
     0
102
RTVSPost2010PropOp36
 70
     1
102
RTVSPost2010Prop37
 90
       50
102
RTVSPost2010PropOp37
 70
     1
102
RTVSPost2010Prop38
140
0.0
102
RTVSPost2010PropOp38
 70
     1
102
RTVSPost2010Prop39
140
1.0
102
RTVSPost2010PropOp39
 70
     1
102
RTVSPost2010Prop40
 90
        0
102
RTVSPost2010PropOp40
 70
     1
102
RTVSPost2010Prop41ColorIndex
 90
       18
102
RTVSPost2010Prop41ColorRGB
 90
        0
102
RTVSPost2010PropOp41
 70
     1
102
RTVSPost2010Prop42
 90
       50
102
RTVSPost2010PropOp42
 70
     1
102
RTVSPost2010Prop43
 90
        3
102
RTVSPost2010PropOp43
 70
     1
102
RTVSPost2010Prop44ColorIndex
 90
        5
102
RTVSPost2010Prop44ColorRGB
 90
      255
102
RTVSPost2010PropOp44
 70
     1
102
RTVSPost2010Prop45
280
     0
102
RTVSPost2010PropOp45
 70
     1
102
RTVSPost2010Prop46
 90
       50
102
RTVSPost2010PropOp46
 70
     1
102
RTVSPost2010Prop47
 90
       50
102
RTVSPost2010PropOp47
 70
     1
102
RTVSPost2010Prop48
 90
       50
102
RTVSPost2010PropOp48
 70
     1
102
RTVSPost2010Prop49
280
     0
102
RTVSPost2010PropOp49
 70
     1
102
RTVSPost2010Prop50
 90
       50
102
RTVSPost2010PropOp50
 70
     1
102
RTVSPost2010Prop51ColorIndex
 90
      256
102
RTVSPost2010Prop51ColorRGB
 90
-16777216
102
RTVSPost2010PropOp51
 70
     0
102
RTVSPost2010Prop52
140
1.0
102
RTVSPost2010PropOp52
 70
     0
102
RTVSPost2010Prop53
 90
        2
102
RTVSPost2010PropOp53
 70
     1
102
RTVSPost2010Prop54
  1
strokes_ogs.tif
102
RTVSPost2010PropOp54
 70
     1
102
RTVSPost2010Prop55
280
     0
102
RTVSPost2010PropOp55
 70
     1
102
RTVSPost2010Prop56
140
1.0
102
RTVSPost2010PropOp56
 70
     1
102
RTVSPost2010Prop57
140
1.0
102
RTVSPost2010PropOp57
 70
     1
  0
XRECORD
  5
3A6
102
{ACAD_REACTORS
330
3A5
102
}
330
3A5
100
AcDbXrecord
280
     1
102
RTVSPost2010Prop28
280
     0
102
RTVSPost2010PropOp28
 70
     1
102
RTVSPost2010Prop29
280
     1
102
RTVSPost2010PropOp29
 70
     1
102
RTVSPost2010Prop30
280
     1
102
RTVSPost2010PropOp30
 70
     1
102
RTVSPost2010Prop31
280
     0
102
RTVSPost2010PropOp31
 70
     1
102
RTVSPost2010Prop32
280
     0
102
RTVSPost2010PropOp32
 70
     1
102
RTVSPost2010Prop33
280
     0
102
RTVSPost2010PropOp33
 70
     1
102
RTVSPost2010Prop34
280
     0
102
RTVSPost2010PropOp34
 70
     1
102
RTVSPost2010Prop35
280
     0
102
RTVSPost2010PropOp35
 70
     1
102
RTVSPost2010Prop36
280
     0
102
RTVSPost2010PropOp36
 70
     1
102
RTVSPost2010Prop37
 90
       50
102
RTVSPost2010PropOp37
 70
     0
102
RTVSPost2010Prop38
140
0.0
102
RTVSPost2010PropOp38
 70
     0
102
RTVSPost2010Prop39
140
1.0
102
RTVSPost2010PropOp39
 70
     0
102
RTVSPost2010Prop40
 90
        0
102
RTVSPost2010PropOp40
 70
     0
102
RTVSPost2010Prop41ColorIndex
 90
       18
102
RTVSPost2010Prop41ColorRGB
 90
        0
102
RTVSPost2010PropOp41
 70
     0
102
RTVSPost2010Prop42
 90
       50
102
RTVSPost2010PropOp42
 70
     0
102
RTVSPost2010Prop43
 90
        3
102
RTVSPost2010PropOp43
 70
     0
102
RTVSPost2010Prop44ColorIndex
 90
        5
102
RTVSPost2010Prop44ColorRGB
 90
      255
102
RTVSPost2010PropOp44
 70
     0
102
RTVSPost2010Prop45
280
     0
102
RTVSPost2010PropOp45
 70
     1
102
RTVSPost2010Prop46
 90
       50
102
RTVSPost2010PropOp46
 70
     0
102
RTVSPost2010Prop47
 90
       50
102
RTVSPost2010PropOp47
 70
     0
102
RTVSPost2010Prop48
 90
       50
102
RTVSPost2010PropOp48
 70
     0
102
RTVSPost2010Prop49
280
     0
102
RTVSPost2010PropOp49
 70
     1
102
RTVSPost2010Prop50
 90
       50
102
RTVSPost2010PropOp50
 70
     0
102
RTVSPost2010Prop51ColorIndex
 90
      256
102
RTVSPost2010Prop51ColorRGB
 90
-16777216
102
RTVSPost2010PropOp51
 70
     0
102
RTVSPost2010Prop52
140
1.0
102
RTVSPost2010PropOp52
 70
     0
102
RTVSPost2010Prop53
 90
        2
102
RTVSPost2010PropOp53
 70
     0
102
RTVSPost2010Prop54
  1
strokes_ogs.tif
102
RTVSPost2010PropOp54
 70
     0
102
RTVSPost2010Prop55
280
     0
102
RTVSPost2010PropOp55
 70
     1
102
RTVSPost2010Prop56
140
1.0
102
RTVSPost2010PropOp56
 70
     0
102
RTVSPost2010Prop57
140
1.0
102
RTVSPost2010PropOp57
 70
     0
  0
XRECORD
  5
38C
102
{ACAD_REACTORS
330
38B
102
}
330
38B
100
AcDbXrecord
280
     1
102
RTVSPost2010Prop28
280
     0
102
RTVSPost2010PropOp28
 70
     1
102
RTVSPost2010Prop29
280
     1
102
RTVSPost2010PropOp29
 70
     1
102
RTVSPost2010Prop30
280
     1
102
RTVSPost2010PropOp30
 70
     1
102
RTVSPost2010Prop31
280
     0
102
RTVSPost2010PropOp31
 70
     1
102
RTVSPost2010Prop32
280
     0
102
RTVSPost2010PropOp32
 70
     1
102
RTVSPost2010Prop33
280
     0
102
RTVSPost2010PropOp33
 70
     1
102
RTVSPost2010Prop34
280
     0
102
RTVSPost2010PropOp34
 70
     1
102
RTVSPost2010Prop35
280
     0
102
RTVSPost2010PropOp35
 70
     1
102
RTVSPost2010Prop36
280
     0
102
RTVSPost2010PropOp36
 70
     1
102
RTVSPost2010Prop37
 90
       50
102
RTVSPost2010PropOp37
 70
     1
102
RTVSPost2010Prop38
140
0.0
102
RTVSPost2010PropOp38
 70
     1
102
RTVSPost2010Prop39
140
1.0
102
RTVSPost2010PropOp39
 70
     1
102
RTVSPost2010Prop40
 90
        0
102
RTVSPost2010PropOp40
 70
     1
102
RTVSPost2010Prop41ColorIndex
 90
       18
102
RTVSPost2010Prop41ColorRGB
 90
        0
102
RTVSPost2010PropOp41
 70
     1
102
RTVSPost2010Prop42
 90
       50
102
RTVSPost2010PropOp42
 70
     1
102
RTVSPost2010Prop43
 90
        3
102
RTVSPost2010PropOp43
 70
     1
102
RTVSPost2010Prop44ColorIndex
 90
        5
102
RTVSPost2010Prop44ColorRGB
 90
      255
102
RTVSPost2010PropOp44
 70
     1
102
RTVSPost2010Prop45
280
     0
102
RTVSPost2010PropOp45
 70
     1
102
RTVSPost2010Prop46
 90
       50
102
RTVSPost2010PropOp46
 70
     1
102
RTVSPost2010Prop47
 90
       50
102
RTVSPost2010PropOp47
 70
     1
102
RTVSPost2010Prop48
 90
       50
102
RTVSPost2010PropOp48
 70
     1
102
RTVSPost2010Prop49
280
     0
102
RTVSPost2010PropOp49
 70
     1
102
RTVSPost2010Prop50
 90
       50
102
RTVSPost2010PropOp50
 70
     1
102
RTVSPost2010Prop51ColorIndex
 90
      256
102
RTVSPost2010Prop51ColorRGB
 90
-16777216
102
RTVSPost2010PropOp51
 70
     0
102
RTVSPost2010Prop52
140
1.0
102
RTVSPost2010PropOp52
 70
     0
102
RTVSPost2010Prop53
 90
        2
102
RTVSPost2010PropOp53
 70
     1
102
RTVSPost2010Prop54
  1
strokes_ogs.tif
102
RTVSPost2010PropOp54
 70
     1
102
RTVSPost2010Prop55
280
     0
102
RTVSPost2010PropOp55
 70
     1
102
RTVSPost2010Prop56
140
1.0
102
RTVSPost2010PropOp56
 70
     1
102
RTVSPost2010Prop57
140
1.0
102
RTVSPost2010PropOp57
 70
     1
  0
XRECORD
  5
3A2
102
{ACAD_REACTORS
330
3A1
102
}
330
3A1
100
AcDbXrecord
280
     1
102
RTVSPost2010Prop28
280
     0
102
RTVSPost2010PropOp28
 70
     1
102
RTVSPost2010Prop29
280
     1
102
RTVSPost2010PropOp29
 70
     1
102
RTVSPost2010Prop30
280
     1
102
RTVSPost2010PropOp30
 70
     1
102
RTVSPost2010Prop31
280
     0
102
RTVSPost2010PropOp31
 70
     1
102
RTVSPost2010Prop32
280
     0
102
RTVSPost2010PropOp32
 70
     1
102
RTVSPost2010Prop33
280
     0
102
RTVSPost2010PropOp33
 70
     1
102
RTVSPost2010Prop34
280
     0
102
RTVSPost2010PropOp34
 70
     1
102
RTVSPost2010Prop35
280
     0
102
RTVSPost2010PropOp35
 70
     1
102
RTVSPost2010Prop36
280
     0
102
RTVSPost2010PropOp36
 70
     1
102
RTVSPost2010Prop37
 90
       50
102
RTVSPost2010PropOp37
 70
     1
102
RTVSPost2010Prop38
140
0.0
102
RTVSPost2010PropOp38
 70
     1
102
RTVSPost2010Prop39
140
1.0
102
RTVSPost2010PropOp39
 70
     1
102
RTVSPost2010Prop40
 90
        0
102
RTVSPost2010PropOp40
 70
     1
102
RTVSPost2010Prop41ColorIndex
 90
       18
102
RTVSPost2010Prop41ColorRGB
 90
        0
102
RTVSPost2010PropOp41
 70
     1
102
RTVSPost2010Prop42
 90
       50
102
RTVSPost2010PropOp42
 70
     1
102
RTVSPost2010Prop43
 90
        3
102
RTVSPost2010PropOp43
 70
     1
102
RTVSPost2010Prop44ColorIndex
 90
        5
102
RTVSPost2010Prop44ColorRGB
 90
      255
102
RTVSPost2010PropOp44
 70
     1
102
RTVSPost2010Prop45
280
     0
102
RTVSPost2010PropOp45
 70
     1
102
RTVSPost2010Prop46
 90
       50
102
RTVSPost2010PropOp46
 70
     1
102
RTVSPost2010Prop47
 90
       50
102
RTVSPost2010PropOp47
 70
     1
102
RTVSPost2010Prop48
 90
       50
102
RTVSPost2010PropOp48
 70
     1
102
RTVSPost2010Prop49
280
     0
102
RTVSPost2010PropOp49
 70
     1
102
RTVSPost2010Prop50
 90
       50
102
RTVSPost2010PropOp50
 70
     1
102
RTVSPost2010Prop51ColorIndex
 90
      256
102
RTVSPost2010Prop51ColorRGB
 90
-16777216
102
RTVSPost2010PropOp51
 70
     0
102
RTVSPost2010Prop52
140
1.0
102
RTVSPost2010PropOp52
 70
     0
102
RTVSPost2010Prop53
 90
        2
102
RTVSPost2010PropOp53
 70
     1
102
RTVSPost2010Prop54
  1
strokes_ogs.tif
102
RTVSPost2010PropOp54
 70
     1
102
RTVSPost2010Prop55
280
     0
102
RTVSPost2010PropOp55
 70
     1
102
RTVSPost2010Prop56
140
1.0
102
RTVSPost2010PropOp56
 70
     1
102
RTVSPost2010Prop57
140
1.0
102
RTVSPost2010PropOp57
 70
     1
  0
XRECORD
  5
3A0
102
{ACAD_REACTORS
330
39F
102
}
330
39F
100
AcDbXrecord
280
     1
102
RTVSPost2010Prop28
280
     0
102
RTVSPost2010PropOp28
 70
     1
102
RTVSPost2010Prop29
280
     1
102
RTVSPost2010PropOp29
 70
     1
102
RTVSPost2010Prop30
280
     1
102
RTVSPost2010PropOp30
 70
     1
102
RTVSPost2010Prop31
280
     0
102
RTVSPost2010PropOp31
 70
     1
102
RTVSPost2010Prop32
280
     0
102
RTVSPost2010PropOp32
 70
     1
102
RTVSPost2010Prop33
280
     0
102
RTVSPost2010PropOp33
 70
     1
102
RTVSPost2010Prop34
280
     0
102
RTVSPost2010PropOp34
 70
     1
102
RTVSPost2010Prop35
280
     0
102
RTVSPost2010PropOp35
 70
     1
102
RTVSPost2010Prop36
280
     0
102
RTVSPost2010PropOp36
 70
     1
102
RTVSPost2010Prop37
 90
       50
102
RTVSPost2010PropOp37
 70
     1
102
RTVSPost2010Prop38
140
0.0
102
RTVSPost2010PropOp38
 70
     1
102
RTVSPost2010Prop39
140
1.0
102
RTVSPost2010PropOp39
 70
     1
102
RTVSPost2010Prop40
 90
        0
102
RTVSPost2010PropOp40
 70
     1
102
RTVSPost2010Prop41ColorIndex
 90
       18
102
RTVSPost2010Prop41ColorRGB
 90
        0
102
RTVSPost2010PropOp41
 70
     1
102
RTVSPost2010Prop42
 90
       50
102
RTVSPost2010PropOp42
 70
     1
102
RTVSPost2010Prop43
 90
        3
102
RTVSPost2010PropOp43
 70
     1
102
RTVSPost2010Prop44ColorIndex
 90
        5
102
RTVSPost2010Prop44ColorRGB
 90
      255
102
RTVSPost2010PropOp44
 70
     1
102
RTVSPost2010Prop45
280
     0
102
RTVSPost2010PropOp45
 70
     1
102
RTVSPost2010Prop46
 90
       50
102
RTVSPost2010PropOp46
 70
     1
102
RTVSPost2010Prop47
 90
       50
102
RTVSPost2010PropOp47
 70
     1
102
RTVSPost2010Prop48
 90
       50
102
RTVSPost2010PropOp48
 70
     1
102
RTVSPost2010Prop49
280
     0
102
RTVSPost2010PropOp49
 70
     1
102
RTVSPost2010Prop50
 90
       50
102
RTVSPost2010PropOp50
 70
     1
102
RTVSPost2010Prop51ColorIndex
 90
      256
102
RTVSPost2010Prop51ColorRGB
 90
-16777216
102
RTVSPost2010PropOp51
 70
     0
102
RTVSPost2010Prop52
140
1.0
102
RTVSPost2010PropOp52
 70
     0
102
RTVSPost2010Prop53
 90
        2
102
RTVSPost2010PropOp53
 70
     1
102
RTVSPost2010Prop54
  1
strokes_ogs.tif
102
RTVSPost2010PropOp54
 70
     1
102
RTVSPost2010Prop55
280
     0
102
RTVSPost2010PropOp55
 70
     1
102
RTVSPost2010Prop56
140
1.0
102
RTVSPost2010PropOp56
 70
     1
102
RTVSPost2010Prop57
140
1.0
102
RTVSPost2010PropOp57
 70
     1
  0
XRECORD
  5
39A
102
{ACAD_REACTORS
330
399
102
}
330
399
100
AcDbXrecord
280
     1
102
RTVSPost2010Prop28
280
     0
102
RTVSPost2010PropOp28
 70
     1
102
RTVSPost2010Prop29
280
     1
102
RTVSPost2010PropOp29
 70
     1
102
RTVSPost2010Prop30
280
     1
102
RTVSPost2010PropOp30
 70
     1
102
RTVSPost2010Prop31
280
     0
102
RTVSPost2010PropOp31
 70
     1
102
RTVSPost2010Prop32
280
     0
102
RTVSPost2010PropOp32
 70
     1
102
RTVSPost2010Prop33
280
     0
102
RTVSPost2010PropOp33
 70
     1
102
RTVSPost2010Prop34
280
     0
102
RTVSPost2010PropOp34
 70
     1
102
RTVSPost2010Prop35
280
     0
102
RTVSPost2010PropOp35
 70
     1
102
RTVSPost2010Prop36
280
     0
102
RTVSPost2010PropOp36
 70
     1
102
RTVSPost2010Prop37
 90
       50
102
RTVSPost2010PropOp37
 70
     1
102
RTVSPost2010Prop38
140
0.0
102
RTVSPost2010PropOp38
 70
     1
102
RTVSPost2010Prop39
140
1.0
102
RTVSPost2010PropOp39
 70
     1
102
RTVSPost2010Prop40
 90
        0
102
RTVSPost2010PropOp40
 70
     1
102
RTVSPost2010Prop41ColorIndex
 90
       18
102
RTVSPost2010Prop41ColorRGB
 90
        0
102
RTVSPost2010PropOp41
 70
     1
102
RTVSPost2010Prop42
 90
       50
102
RTVSPost2010PropOp42
 70
     1
102
RTVSPost2010Prop43
 90
        3
102
RTVSPost2010PropOp43
 70
     1
102
RTVSPost2010Prop44ColorIndex
 90
        5
102
RTVSPost2010Prop44ColorRGB
 90
      255
102
RTVSPost2010PropOp44
 70
     1
102
RTVSPost2010Prop45
280
     0
102
RTVSPost2010PropOp45
 70
     1
102
RTVSPost2010Prop46
 90
       50
102
RTVSPost2010PropOp46
 70
     1
102
RTVSPost2010Prop47
 90
       50
102
RTVSPost2010PropOp47
 70
     1
102
RTVSPost2010Prop48
 90
       50
102
RTVSPost2010PropOp48
 70
     1
102
RTVSPost2010Prop49
280
     0
102
RTVSPost2010PropOp49
 70
     1
102
RTVSPost2010Prop50
 90
       50
102
RTVSPost2010PropOp50
 70
     1
102
RTVSPost2010Prop51ColorIndex
 90
      256
102
RTVSPost2010Prop51ColorRGB
 90
-16777216
102
RTVSPost2010PropOp51
 70
     0
102
RTVSPost2010Prop52
140
1.0
102
RTVSPost2010PropOp52
 70
     0
102
RTVSPost2010Prop53
 90
        2
102
RTVSPost2010PropOp53
 70
     1
102
RTVSPost2010Prop54
  1
strokes_ogs.tif
102
RTVSPost2010PropOp54
 70
     1
102
RTVSPost2010Prop55
280
     0
102
RTVSPost2010PropOp55
 70
     1
102
RTVSPost2010Prop56
140
1.0
102
RTVSPost2010PropOp56
 70
     1
102
RTVSPost2010Prop57
140
1.0
102
RTVSPost2010PropOp57
 70
     1
  0
XRECORD
  5
39C
102
{ACAD_REACTORS
330
39B
102
}
330
39B
100
AcDbXrecord
280
     1
102
RTVSPost2010Prop28
280
     0
102
RTVSPost2010PropOp28
 70
     1
102
RTVSPost2010Prop29
280
     1
102
RTVSPost2010PropOp29
 70
     1
102
RTVSPost2010Prop30
280
     1
102
RTVSPost2010PropOp30
 70
     1
102
RTVSPost2010Prop31
280
     0
102
RTVSPost2010PropOp31
 70
     1
102
RTVSPost2010Prop32
280
     0
102
RTVSPost2010PropOp32
 70
     1
102
RTVSPost2010Prop33
280
     0
102
RTVSPost2010PropOp33
 70
     1
102
RTVSPost2010Prop34
280
     0
102
RTVSPost2010PropOp34
 70
     1
102
RTVSPost2010Prop35
280
     0
102
RTVSPost2010PropOp35
 70
     1
102
RTVSPost2010Prop36
280
     0
102
RTVSPost2010PropOp36
 70
     1
102
RTVSPost2010Prop37
 90
       50
102
RTVSPost2010PropOp37
 70
     1
102
RTVSPost2010Prop38
140
0.0
102
RTVSPost2010PropOp38
 70
     1
102
RTVSPost2010Prop39
140
1.0
102
RTVSPost2010PropOp39
 70
     1
102
RTVSPost2010Prop40
 90
        0
102
RTVSPost2010PropOp40
 70
     1
102
RTVSPost2010Prop41ColorIndex
 90
       18
102
RTVSPost2010Prop41ColorRGB
 90
        0
102
RTVSPost2010PropOp41
 70
     1
102
RTVSPost2010Prop42
 90
       50
102
RTVSPost2010PropOp42
 70
     1
102
RTVSPost2010Prop43
 90
        3
102
RTVSPost2010PropOp43
 70
     1
102
RTVSPost2010Prop44ColorIndex
 90
        5
102
RTVSPost2010Prop44ColorRGB
 90
      255
102
RTVSPost2010PropOp44
 70
     1
102
RTVSPost2010Prop45
280
     0
102
RTVSPost2010PropOp45
 70
     1
102
RTVSPost2010Prop46
 90
       50
102
RTVSPost2010PropOp46
 70
     1
102
RTVSPost2010Prop47
 90
       50
102
RTVSPost2010PropOp47
 70
     1
102
RTVSPost2010Prop48
 90
       50
102
RTVSPost2010PropOp48
 70
     1
102
RTVSPost2010Prop49
280
     0
102
RTVSPost2010PropOp49
 70
     1
102
RTVSPost2010Prop50
 90
       50
102
RTVSPost2010PropOp50
 70
     1
102
RTVSPost2010Prop51ColorIndex
 90
      256
102
RTVSPost2010Prop51ColorRGB
 90
-16777216
102
RTVSPost2010PropOp51
 70
     0
102
RTVSPost2010Prop52
140
1.0
102
RTVSPost2010PropOp52
 70
     0
102
RTVSPost2010Prop53
 90
        2
102
RTVSPost2010PropOp53
 70
     1
102
RTVSPost2010Prop54
  1
strokes_ogs.tif
102
RTVSPost2010PropOp54
 70
     1
102
RTVSPost2010Prop55
280
     0
102
RTVSPost2010PropOp55
 70
     1
102
RTVSPost2010Prop56
140
1.0
102
RTVSPost2010PropOp56
 70
     1
102
RTVSPost2010Prop57
140
1.0
102
RTVSPost2010PropOp57
 70
     1
  0
XRECORD
  5
392
102
{ACAD_REACTORS
330
391
102
}
330
391
100
AcDbXrecord
280
     1
102
RTVSPost2010Prop28
280
     0
102
RTVSPost2010PropOp28
 70
     1
102
RTVSPost2010Prop29
280
     1
102
RTVSPost2010PropOp29
 70
     1
102
RTVSPost2010Prop30
280
     1
102
RTVSPost2010PropOp30
 70
     1
102
RTVSPost2010Prop31
280
     0
102
RTVSPost2010PropOp31
 70
     1
102
RTVSPost2010Prop32
280
     0
102
RTVSPost2010PropOp32
 70
     1
102
RTVSPost2010Prop33
280
     0
102
RTVSPost2010PropOp33
 70
     1
102
RTVSPost2010Prop34
280
     0
102
RTVSPost2010PropOp34
 70
     1
102
RTVSPost2010Prop35
280
     0
102
RTVSPost2010PropOp35
 70
     1
102
RTVSPost2010Prop36
280
     0
102
RTVSPost2010PropOp36
 70
     1
102
RTVSPost2010Prop37
 90
       50
102
RTVSPost2010PropOp37
 70
     1
102
RTVSPost2010Prop38
140
0.0
102
RTVSPost2010PropOp38
 70
     1
102
RTVSPost2010Prop39
140
1.0
102
RTVSPost2010PropOp39
 70
     1
102
RTVSPost2010Prop40
 90
        0
102
RTVSPost2010PropOp40
 70
     1
102
RTVSPost2010Prop41ColorIndex
 90
       18
102
RTVSPost2010Prop41ColorRGB
 90
        0
102
RTVSPost2010PropOp41
 70
     1
102
RTVSPost2010Prop42
 90
       50
102
RTVSPost2010PropOp42
 70
     1
102
RTVSPost2010Prop43
 90
        3
102
RTVSPost2010PropOp43
 70
     1
102
RTVSPost2010Prop44ColorIndex
 90
        5
102
RTVSPost2010Prop44ColorRGB
 90
      255
102
RTVSPost2010PropOp44
 70
     1
102
RTVSPost2010Prop45
280
     0
102
RTVSPost2010PropOp45
 70
     1
102
RTVSPost2010Prop46
 90
       50
102
RTVSPost2010PropOp46
 70
     1
102
RTVSPost2010Prop47
 90
       50
102
RTVSPost2010PropOp47
 70
     1
102
RTVSPost2010Prop48
 90
       50
102
RTVSPost2010PropOp48
 70
     1
102
RTVSPost2010Prop49
280
     0
102
RTVSPost2010PropOp49
 70
     1
102
RTVSPost2010Prop50
 90
       50
102
RTVSPost2010PropOp50
 70
     1
102
RTVSPost2010Prop51ColorIndex
 90
      256
102
RTVSPost2010Prop51ColorRGB
 90
-16777216
102
RTVSPost2010PropOp51
 70
     0
102
RTVSPost2010Prop52
140
1.0
102
RTVSPost2010PropOp52
 70
     0
102
RTVSPost2010Prop53
 90
        2
102
RTVSPost2010PropOp53
 70
     1
102
RTVSPost2010Prop54
  1
strokes_ogs.tif
102
RTVSPost2010PropOp54
 70
     1
102
RTVSPost2010Prop55
280
     0
102
RTVSPost2010PropOp55
 70
     1
102
RTVSPost2010Prop56
140
1.0
102
RTVSPost2010PropOp56
 70
     1
102
RTVSPost2010Prop57
140
1.0
102
RTVSPost2010PropOp57
 70
     1
  0
XRECORD
  5
386
102
{ACAD_REACTORS
330
385
102
}
330
385
100
AcDbXrecord
280
     1
102
RTVSPost2010Prop28
280
     0
102
RTVSPost2010PropOp28
 70
     1
102
RTVSPost2010Prop29
280
     1
102
RTVSPost2010PropOp29
 70
     1
102
RTVSPost2010Prop30
280
     1
102
RTVSPost2010PropOp30
 70
     1
102
RTVSPost2010Prop31
280
     0
102
RTVSPost2010PropOp31
 70
     1
102
RTVSPost2010Prop32
280
     0
102
RTVSPost2010PropOp32
 70
     1
102
RTVSPost2010Prop33
280
     0
102
RTVSPost2010PropOp33
 70
     1
102
RTVSPost2010Prop34
280
     0
102
RTVSPost2010PropOp34
 70
     1
102
RTVSPost2010Prop35
280
     0
102
RTVSPost2010PropOp35
 70
     1
102
RTVSPost2010Prop36
280
     0
102
RTVSPost2010PropOp36
 70
     1
102
RTVSPost2010Prop37
 90
       50
102
RTVSPost2010PropOp37
 70
     1
102
RTVSPost2010Prop38
140
0.0
102
RTVSPost2010PropOp38
 70
     1
102
RTVSPost2010Prop39
140
1.0
102
RTVSPost2010PropOp39
 70
     1
102
RTVSPost2010Prop40
 90
        0
102
RTVSPost2010PropOp40
 70
     1
102
RTVSPost2010Prop41ColorIndex
 90
       18
102
RTVSPost2010Prop41ColorRGB
 90
        0
102
RTVSPost2010PropOp41
 70
     1
102
RTVSPost2010Prop42
 90
       50
102
RTVSPost2010PropOp42
 70
     1
102
RTVSPost2010Prop43
 90
        3
102
RTVSPost2010PropOp43
 70
     1
102
RTVSPost2010Prop44ColorIndex
 90
        5
102
RTVSPost2010Prop44ColorRGB
 90
      255
102
RTVSPost2010PropOp44
 70
     1
102
RTVSPost2010Prop45
280
     0
102
RTVSPost2010PropOp45
 70
     1
102
RTVSPost2010Prop46
 90
       50
102
RTVSPost2010PropOp46
 70
     1
102
RTVSPost2010Prop47
 90
       50
102
RTVSPost2010PropOp47
 70
     1
102
RTVSPost2010Prop48
 90
       50
102
RTVSPost2010PropOp48
 70
     1
102
RTVSPost2010Prop49
280
     0
102
RTVSPost2010PropOp49
 70
     1
102
RTVSPost2010Prop50
 90
       50
102
RTVSPost2010PropOp50
 70
     1
102
RTVSPost2010Prop51ColorIndex
 90
      256
102
RTVSPost2010Prop51ColorRGB
 90
-16777216
102
RTVSPost2010PropOp51
 70
     0
102
RTVSPost2010Prop52
140
1.0
102
RTVSPost2010PropOp52
 70
     0
102
RTVSPost2010Prop53
 90
        2
102
RTVSPost2010PropOp53
 70
     1
102
RTVSPost2010Prop54
  1
strokes_ogs.tif
102
RTVSPost2010PropOp54
 70
     1
102
RTVSPost2010Prop55
280
     0
102
RTVSPost2010PropOp55
 70
     1
102
RTVSPost2010Prop56
140
1.0
102
RTVSPost2010PropOp56
 70
     1
102
RTVSPost2010Prop57
140
1.0
102
RTVSPost2010PropOp57
 70
     1
  0
XRECORD
  5
39E
102
{ACAD_REACTORS
330
39D
102
}
330
39D
100
AcDbXrecord
280
     1
102
RTVSPost2010Prop28
280
     0
102
RTVSPost2010PropOp28
 70
     1
102
RTVSPost2010Prop29
280
     1
102
RTVSPost2010PropOp29
 70
     1
102
RTVSPost2010Prop30
280
     1
102
RTVSPost2010PropOp30
 70
     1
102
RTVSPost2010Prop31
280
     0
102
RTVSPost2010PropOp31
 70
     1
102
RTVSPost2010Prop32
280
     0
102
RTVSPost2010PropOp32
 70
     1
102
RTVSPost2010Prop33
280
     0
102
RTVSPost2010PropOp33
 70
     1
102
RTVSPost2010Prop34
280
     0
102
RTVSPost2010PropOp34
 70
     1
102
RTVSPost2010Prop35
280
     0
102
RTVSPost2010PropOp35
 70
     1
102
RTVSPost2010Prop36
280
     0
102
RTVSPost2010PropOp36
 70
     1
102
RTVSPost2010Prop37
 90
       50
102
RTVSPost2010PropOp37
 70
     1
102
RTVSPost2010Prop38
140
0.0
102
RTVSPost2010PropOp38
 70
     1
102
RTVSPost2010Prop39
140
1.0
102
RTVSPost2010PropOp39
 70
     1
102
RTVSPost2010Prop40
 90
        0
102
RTVSPost2010PropOp40
 70
     1
102
RTVSPost2010Prop41ColorIndex
 90
       18
102
RTVSPost2010Prop41ColorRGB
 90
        0
102
RTVSPost2010PropOp41
 70
     1
102
RTVSPost2010Prop42
 90
       50
102
RTVSPost2010PropOp42
 70
     1
102
RTVSPost2010Prop43
 90
        3
102
RTVSPost2010PropOp43
 70
     1
102
RTVSPost2010Prop44ColorIndex
 90
        5
102
RTVSPost2010Prop44ColorRGB
 90
      255
102
RTVSPost2010PropOp44
 70
     1
102
RTVSPost2010Prop45
280
     0
102
RTVSPost2010PropOp45
 70
     1
102
RTVSPost2010Prop46
 90
       50
102
RTVSPost2010PropOp46
 70
     1
102
RTVSPost2010Prop47
 90
       50
102
RTVSPost2010PropOp47
 70
     1
102
RTVSPost2010Prop48
 90
       50
102
RTVSPost2010PropOp48
 70
     1
102
RTVSPost2010Prop49
280
     0
102
RTVSPost2010PropOp49
 70
     1
102
RTVSPost2010Prop50
 90
       50
102
RTVSPost2010PropOp50
 70
     1
102
RTVSPost2010Prop51ColorIndex
 90
      256
102
RTVSPost2010Prop51ColorRGB
 90
-16777216
102
RTVSPost2010PropOp51
 70
     0
102
RTVSPost2010Prop52
140
1.0
102
RTVSPost2010PropOp52
 70
     0
102
RTVSPost2010Prop53
 90
        2
102
RTVSPost2010PropOp53
 70
     1
102
RTVSPost2010Prop54
  1
strokes_ogs.tif
102
RTVSPost2010PropOp54
 70
     1
102
RTVSPost2010Prop55
280
     0
102
RTVSPost2010PropOp55
 70
     1
102
RTVSPost2010Prop56
140
1.0
102
RTVSPost2010PropOp56
 70
     1
102
RTVSPost2010Prop57
140
1.0
102
RTVSPost2010PropOp57
 70
     1
  0
ENDSEC
  0
EOF
