  0
SECTION
  2
HEADER
  9
$ACADVER
  1
AC1014
  9
$ACADMAINTVER
 70
     9
  9
$DWGCODEPAGE
  3
ANSI_1252
  9
$INSBASE
 10
0.0
 20
0.0
 30
0.0
  9
$EXTMIN
 10
-157.6110129411803
 20
-189.500000014
 30
-0.0000000100000061
  9
$EXTMAX
 10
157.6110129411803
 20
82.49999999999998
 30
0.0000000100000061
  9
$LIMMIN
 10
0.0
 20
0.0
  9
$LIMMAX
 10
12.0
 20
9.0
  9
$ORTHOMODE
 70
     0
  9
$REGENMODE
 70
     1
  9
$FILLMODE
 70
     1
  9
$QTEXTMODE
 70
     0
  9
$MIRRTEXT
 70
     1
  9
$DRAGMODE
 70
     2
  9
$LTSCALE
 40
1.0
  9
$OSMODE
 70
  2223
  9
$ATTMODE
 70
     1
  9
$TEXTSIZE
 40
0.2
  9
$TRACEWID
 40
0.05
  9
$TEXTSTYLE
  7
STANDARD
  9
$CLAYER
  8
0
  9
$CELTYPE
  6
BYLAYER
  9
$CECOLOR
 62
   256
  9
$CELTSCALE
 40
1.0
  9
$DELOBJ
 70
     1
  9
$DISPSILH
 70
     0
  9
$DIMSCALE
 40
1.0
  9
$DIMASZ
 40
0.18
  9
$DIMEXO
 40
0.0625
  9
$DIMDLI
 40
0.38
  9
$DIMRND
 40
0.0
  9
$DIMDLE
 40
0.0
  9
$DIMEXE
 40
0.18
  9
$DIMTP
 40
0.0
  9
$DIMTM
 40
0.0
  9
$DIMTXT
 40
0.18
  9
$DIMCEN
 40
0.09
  9
$DIMTSZ
 40
0.0
  9
$DIMTOL
 70
     0
  9
$DIMLIM
 70
     0
  9
$DIMTIH
 70
     1
  9
$DIMTOH
 70
     1
  9
$DIMSE1
 70
     0
  9
$DIMSE2
 70
     0
  9
$DIMTAD
 70
     0
  9
$DIMZIN
 70
     0
  9
$DIMBLK
  1

  9
$DIMASO
 70
     1
  9
$DIMSHO
 70
     1
  9
$DIMPOST
  1

  9
$DIMAPOST
  1

  9
$DIMALT
 70
     0
  9
$DIMALTD
 70
     2
  9
$DIMALTF
 40
25.4
  9
$DIMLFAC
 40
1.0
  9
$DIMTOFL
 70
     0
  9
$DIMTVP
 40
0.0
  9
$DIMTIX
 70
     0
  9
$DIMSOXD
 70
     0
  9
$DIMSAH
 70
     0
  9
$DIMBLK1
  1

  9
$DIMBLK2
  1

  9
$DIMSTYLE
  2
STANDARD
  9
$DIMCLRD
 70
     0
  9
$DIMCLRE
 70
     0
  9
$DIMCLRT
 70
     0
  9
$DIMTFAC
 40
1.0
  9
$DIMGAP
 40
0.09
  9
$DIMJUST
 70
     0
  9
$DIMSD1
 70
     0
  9
$DIMSD2
 70
     0
  9
$DIMTOLJ
 70
     1
  9
$DIMTZIN
 70
     0
  9
$DIMALTZ
 70
     0
  9
$DIMALTTZ
 70
     0
  9
$DIMFIT
 70
     3
  9
$DIMUPT
 70
     0
  9
$DIMUNIT
 70
     2
  9
$DIMDEC
 70
     4
  9
$DIMTDEC
 70
     4
  9
$DIMALTU
 70
     2
  9
$DIMALTTD
 70
     2
  9
$DIMTXSTY
  7
STANDARD
  9
$DIMAUNIT
 70
     0
  9
$LUNITS
 70
     2
  9
$LUPREC
 70
     4
  9
$SKETCHINC
 40
0.1
  9
$FILLETRAD
 40
0.5
  9
$AUNITS
 70
     0
  9
$AUPREC
 70
     0
  9
$MENU
  1
.
  9
$ELEVATION
 40
0.0
  9
$PELEVATION
 40
0.0
  9
$THICKNESS
 40
0.0
  9
$LIMCHECK
 70
     0
  9
$BLIPMODE
 70
     0
  9
$CHAMFERA
 40
0.5
  9
$CHAMFERB
 40
0.5
  9
$CHAMFERC
 40
1.0
  9
$CHAMFERD
 40
0.0
  9
$SKPOLY
 70
     0
  9
$TDCREATE
 40
2451762.574615278
  9
$TDUPDATE
 40
2453620.432483889
  9
$TDINDWG
 40
0.0010044097
  9
$TDUSRTIMER
 40
0.0010041204
  9
$USRTIMER
 70
     1
  9
$ANGBASE
 50
0.0
  9
$ANGDIR
 70
     0
  9
$PDMODE
 70
     0
  9
$PDSIZE
 40
0.0
  9
$PLINEWID
 40
0.0
  9
$COORDS
 70
     1
  9
$SPLFRAME
 70
     0
  9
$SPLINETYPE
 70
     6
  9
$SPLINESEGS
 70
     8
  9
$ATTDIA
 70
     0
  9
$ATTREQ
 70
     1
  9
$HANDLING
 70
 10241
  9
$HANDSEED
  5
1CB
  9
$SURFTAB1
 70
     6
  9
$SURFTAB2
 70
     6
  9
$SURFTYPE
 70
     6
  9
$SURFU
 70
     6
  9
$SURFV
 70
     6
  9
$UCSNAME
  2

  9
$UCSORG
 10
0.0
 20
0.0
 30
0.0
  9
$UCSXDIR
 10
1.0
 20
0.0
 30
0.0
  9
$UCSYDIR
 10
0.0
 20
1.0
 30
0.0
  9
$PUCSNAME
  2

  9
$PUCSORG
 10
0.0
 20
0.0
 30
0.0
  9
$PUCSXDIR
 10
1.0
 20
0.0
 30
0.0
  9
$PUCSYDIR
 10
0.0
 20
1.0
 30
0.0
  9
$USERI1
 70
     0
  9
$USERI2
 70
     0
  9
$USERI3
 70
     0
  9
$USERI4
 70
     0
  9
$USERI5
 70
     0
  9
$USERR1
 40
0.0
  9
$USERR2
 40
0.0
  9
$USERR3
 40
0.0
  9
$USERR4
 40
0.0
  9
$USERR5
 40
0.0
  9
$WORLDVIEW
 70
     1
  9
$SHADEDGE
 70
     3
  9
$SHADEDIF
 70
    70
  9
$TILEMODE
 70
     1
  9
$MAXACTVP
 70
    64
  9
$PINSBASE
 10
0.0
 20
0.0
 30
0.0
  9
$PLIMCHECK
 70
     0
  9
$PEXTMIN
 10
1.000000000000000E+20
 20
1.000000000000000E+20
 30
1.000000000000000E+20
  9
$PEXTMAX
 10
-1.000000000000000E+20
 20
-1.000000000000000E+20
 30
-1.000000000000000E+20
  9
$PLIMMIN
 10
0.0
 20
0.0
  9
$PLIMMAX
 10
12.0
 20
9.0
  9
$UNITMODE
 70
     0
  9
$VISRETAIN
 70
     1
  9
$PLINEGEN
 70
     0
  9
$PSLTSCALE
 70
     1
  9
$TREEDEPTH
 70
  3020
  9
$PICKSTYLE
 70
     1
  9
$CMLSTYLE
  2
STANDARD
  9
$CMLJUST
 70
     0
  9
$CMLSCALE
 40
1.0
  9
$PROXYGRAPHICS
 70
     1
  9
$MEASUREMENT
 70
     0
  0
ENDSEC
  0
SECTION
  2
CLASSES
  0
CLASS
  1
ACDBDICTIONARYWDFLT
  2
AcDbDictionaryWithDefault
  3
AutoCAD 2000
 90
        0
280
     0
281
     0
  0
CLASS
  1
ACDBPLACEHOLDER
  2
AcDbPlaceHolder
  3
AutoCAD 2000
 90
        0
280
     0
281
     0
  0
CLASS
  1
LAYOUT
  2
AcDbLayout
  3
AutoCAD 2000
 90
        0
280
     0
281
     0
  0
CLASS
  1
LONG_TRANSACTION
  2
AcDbLongTransaction
  3
AutoCAD 2000
 90
        0
280
     0
281
     0
  0
CLASS
  1
LWPOLYLINE
  2
AcDbPolyline
  3
AutoCAD 2000
 90
        0
280
     0
281
     1
  0
CLASS
  1
HATCH
  2
AcDbHatch
  3
AutoCAD 2000
 90
        0
280
     0
281
     1
  0
CLASS
  1
XRECORD
  2
AcDbXrecord
  3
AutoCAD 2000
 90
        0
280
     0
281
     0
  0
CLASS
  1
LONG_TRANSACTION
  2
AcDbLongTransaction
  3
AutoCAD 2000
 90
        0
280
     0
281
     0
  0
CLASS
  1
LWPOLYLINE
  2
AcDbPolyline
  3
AutoCAD 2000
 90
        0
280
     0
281
     1
  0
CLASS
  1
HATCH
  2
AcDbHatch
  3
AutoCAD 2000
 90
        0
280
     0
281
     1
  0
CLASS
  1
XRECORD
  2
AcDbXrecord
  3
AutoCAD 2000
 90
        0
280
     0
281
     0
  0
CLASS
  1
LONG_TRANSACTION
  2
AcDbLongTransaction
  3
AutoCAD 2000
 90
        0
280
     0
281
     0
  0
CLASS
  1
LWPOLYLINE
  2
AcDbPolyline
  3
AutoCAD 2000
 90
        0
280
     0
281
     1
  0
CLASS
  1
HATCH
  2
AcDbHatch
  3
AutoCAD 2000
 90
        0
280
     0
281
     1
  0
CLASS
  1
XRECORD
  2
AcDbXrecord
  3
AutoCAD 2000
 90
        0
280
     0
281
     0
  0
ENDSEC
  0
SECTION
  2
TABLES
  0
TABLE
  2
VPORT
  5
8
330
0
100
AcDbSymbolTable
 70
     2
  0
VPORT
  5
1A8
330
8
100
AcDbSymbolTableRecord
100
AcDbViewportTableRecord
  2
*ACTIVE
 70
     0
 10
0.0
 20
0.0
 11
1.0
 21
1.0
 12
0.0000000000001137
 22
-40.88125234229886
 13
0.0
 23
0.0
 14
0.5
 24
0.5
 15
0.5
 25
0.5
 16
0.0
 26
0.0
 36
1.0
 17
0.0
 27
0.0
 37
0.0
 40
375.1556255117825
 41
1.525316455696202
 42
50.0
 43
0.0
 44
0.0
 50
0.0
 51
0.0
 71
     0
 72
   100
 73
     1
 74
     3
 75
     0
 76
     0
 77
     0
 78
     0
  0
ENDTAB
  0
TABLE
  2
LTYPE
  5
5
330
0
100
AcDbSymbolTable
 70
     1
  0
LTYPE
  5
14
330
5
100
AcDbSymbolTableRecord
100
AcDbLinetypeTableRecord
  2
BYBLOCK
 70
     0
  3

 72
    65
 73
     0
 40
0.0
  0
LTYPE
  5
15
330
5
100
AcDbSymbolTableRecord
100
AcDbLinetypeTableRecord
  2
BYLAYER
 70
     0
  3

 72
    65
 73
     0
 40
0.0
  0
LTYPE
  5
16
330
5
100
AcDbSymbolTableRecord
100
AcDbLinetypeTableRecord
  2
CONTINUOUS
 70
     0
  3
Solid line
 72
    65
 73
     0
 40
0.0
  0
ENDTAB
  0
TABLE
  2
LAYER
  5
2
330
0
100
AcDbSymbolTable
 70
     2
  0
LAYER
  5
10
330
2
100
AcDbSymbolTableRecord
100
AcDbLayerTableRecord
  2
0
 70
     0
 62
     7
  6
CONTINUOUS
  0
ENDTAB
  0
TABLE
  2
STYLE
  5
3
330
0
100
AcDbSymbolTable
 70
     1
  0
STYLE
  5
11
330
3
100
AcDbSymbolTableRecord
100
AcDbTextStyleTableRecord
  2
STANDARD
 70
     0
 40
0.0
 41
1.0
 50
0.0
 71
     0
 42
0.2
  3
txt
  4

  0
ENDTAB
  0
TABLE
  2
VIEW
  5
6
330
0
100
AcDbSymbolTable
 70
     0
  0
ENDTAB
  0
TABLE
  2
UCS
  5
7
330
0
100
AcDbSymbolTable
 70
     0
  0
ENDTAB
  0
TABLE
  2
APPID
  5
9
330
0
100
AcDbSymbolTable
 70
     1
  0
APPID
  5
12
330
9
100
AcDbSymbolTableRecord
100
AcDbRegAppTableRecord
  2
ACAD
 70
     0
  0
ENDTAB
  0
TABLE
  2
DIMSTYLE
  5
A
330
0
100
AcDbSymbolTable
 70
     1
  0
DIMSTYLE
105
27
330
A
100
AcDbSymbolTableRecord
100
AcDbDimStyleTableRecord
  2
STANDARD
 70
     0
  3

  4

  5

  6

  7

 40
1.0
 41
0.18
 42
0.0625
 43
0.38
 44
0.18
 45
0.0
 46
0.0
 47
0.0
 48
0.0
140
0.18
141
0.09
142
0.0
143
25.4
144
1.0
145
0.0
146
1.0
147
0.09
 71
     0
 72
     0
 73
     1
 74
     1
 75
     0
 76
     0
 77
     0
 78
     0
170
     0
171
     2
172
     0
173
     0
174
     0
175
     0
176
     0
177
     0
178
     0
270
     2
271
     4
272
     4
273
     2
274
     2
340
11
275
     0
280
     0
281
     0
282
     0
283
     1
284
     0
285
     0
286
     0
287
     3
288
     0
  0
ENDTAB
  0
TABLE
  2
BLOCK_RECORD
  5
1
330
0
100
AcDbSymbolTable
 70
     8
  0
BLOCK_RECORD
  5
1F
102
{ACAD_XDICTIONARY
360
EE
102
}
330
1
100
AcDbSymbolTableRecord
100
AcDbBlockTableRecord
  2
*MODEL_SPACE
  0
BLOCK_RECORD
  5
1B
102
{ACAD_XDICTIONARY
360
EC
102
}
330
1
100
AcDbSymbolTableRecord
100
AcDbBlockTableRecord
  2
*PAPER_SPACE
  0
ENDTAB
  0
ENDSEC
  0
SECTION
  2
BLOCKS
  0
BLOCK
  5
20
330
1F
100
AcDbEntity
  8
0
100
AcDbBlockBegin
  2
*MODEL_SPACE
 70
     0
 10
0.0
 20
0.0
 30
0.0
  3
*MODEL_SPACE
  1

  0
ENDBLK
  5
21
330
1F
100
AcDbEntity
  8
0
100
AcDbBlockEnd
  0
BLOCK
  5
1C
330
1B
100
AcDbEntity
 67
     1
  8
0
100
AcDbBlockBegin
  2
*PAPER_SPACE
 70
     0
 10
0.0
 20
0.0
 30
0.0
  3
*PAPER_SPACE
  1

  0
ENDBLK
  5
1D
330
1B
100
AcDbEntity
 67
     1
  8
0
100
AcDbBlockEnd
  0
ENDSEC
  0
SECTION
  2
ENTITIES
  0
LINE
  5
FB
330
1F
100
AcDbEntity
  8
0
100
AcDbLine
 10
-129.5000000139999
 20
0.9999999999999864
 30
-0.0000000000000009
 11
-129.5000000139999
 21
-16.00000000000001
 31
-0.0000000000000009
210
0.0
220
1.0
230
0.0
  0
LINE
  5
FC
330
1F
100
AcDbEntity
  8
0
100
AcDbLine
 10
-114.500000014
 20
1.867496997597744
 30
0.0
 11
-114.500000014
 21
-16.86749699759786
 31
0.0
210
0.0
220
1.0
230
0.0
  0
SPLINE
  5
FD
330
1F
100
AcDbEntity
  8
0
100
AcDbSpline
210
0.0
220
0.0
230
1.0
 70
     8
 71
     3
 72
    22
 73
    18
 74
     0
 42
0.0000000001
 43
0.0000000001
 40
0.849153320940822
 40
0.849153320940822
 40
0.849153320940822
 40
0.849153320940822
 40
0.9688463024268491
 40
0.9688463024268491
 40
1.088539283912876
 40
1.088539283912876
 40
1.201304818718401
 40
1.201304818718401
 40
1.314070353523927
 40
1.314070353523927
 40
1.417935445569119
 40
1.417935445569119
 40
1.52180053761431
 40
1.52180053761431
 40
1.618959684010556
 40
1.618959684010556
 40
1.695598073890943
 40
1.695598073890943
 40
1.695598073890943
 40
1.695598073890943
 10
-114.500000014
 20
1.867496997597743
 30
0.0
 10
-114.500000014
 20
1.907394658093082
 30
0.0
 10
-114.5030894840818
 20
1.951091269704638
 30
0.0
 10
-114.5167672013802
 20
2.037264264674083
 30
0.0
 10
-114.5273756354272
 20
2.079737442031283
 30
0.0
 10
-114.552043706723
 20
2.153192024928456
 30
0.0
 10
-114.568052129009
 20
2.191225428468704
 30
0.0
 10
-114.6070553087302
 20
2.263442665278841
 30
0.0
 10
-114.630083711741
 20
2.297608267031712
 30
0.0
 10
-114.6758060754968
 20
2.353491173878524
 30
0.0
 10
-114.7022675321037
 20
2.380736468906293
 30
0.0
 10
-114.760501790631
 20
2.428615736846142
 30
0.0
 10
-114.7923007491557
 20
2.449217482279363
 30
0.0
 10
-114.8520588622542
 20
2.479423569922314
 30
0.0
 10
-114.8851420037749
 20
2.49218336268006
 30
0.0
 10
-114.9461587685288
 20
2.507215270458175
 30
0.0
 10
-114.9737050157908
 20
2.511179087702076
 30
0.0
 10
-115.0000000139999
 20
2.512492197250185
 30
0.0
  0
SPLINE
  5
FE
330
1F
100
AcDbEntity
  8
0
100
AcDbSpline
210
-0.0000000000000018
220
-0.0000000000000047
230
-1.0
 70
     8
 71
     3
 72
    22
 73
    18
 74
     0
 42
0.0000000001
 43
0.0000000001
 40
0.4970986494124121
 40
0.4970986494124121
 40
0.4970986494124121
 40
0.4970986494124121
 40
1.4619988678976
 40
1.4619988678976
 40
2.9239977357952
 40
2.9239977357952
 40
4.385996603692801
 40
4.385996603692801
 40
5.8479954715904
 40
5.8479954715904
 40
7.300561363837593
 40
7.300561363837593
 40
8.753127256084789
 40
8.753127256084789
 40
10.20569314833198
 40
10.20569314833198
 40
11.65825904057917
 40
11.65825904057917
 40
11.65825904057917
 40
11.65825904057917
 10
-115.0000000139999
 20
2.512492197250185
 30
0.0
 10
-115.3249128474296
 20
2.528717569866156
 30
-0.0000000000000001
 10
-115.6516118691654
 20
2.561009802458095
 30
-0.0000000000000001
 10
-116.4647466598345
 20
2.679655720119706
 30
-0.0000000000000001
 10
-116.9467802198645
 20
2.785551382776386
 30
-0.0000000000000001
 10
-117.8645503444289
 20
3.041631878591434
 30
-0.0000000000000002
 10
-118.3012403901182
 20
3.191654646627904
 30
-0.0000000000000002
 10
-119.1070484310726
 20
3.503951370021825
 30
-0.0000000000000003
 10
-119.4761884681031
 20
3.665972298219435
 30
-0.0000000000000003
 10
-120.128302712894
 20
3.971501702589836
 30
-0.0000000000000003
 10
-120.4357072492826
 20
4.126641118364307
 30
-0.0000000000000004
 10
-120.9819322772087
 20
4.414764334889476
 30
-0.0000000000000004
 10
-121.2207916340295
 20
4.547560399867196
 30
-0.0000000000000004
 10
-121.6077700872558
 20
4.767643043760175
 30
-0.0000000000000004
 10
-121.7562023097056
 20
4.855008261539226
 30
-0.0000000000000004
 10
-121.9523548742992
 20
4.971220884496186
 30
-0.0000000000000005
 10
-122.0000000139999
 20
4.999999999999976
 30
-0.0000000000000005
 10
-122.0000000139999
 20
4.999999999999986
 30
-0.0000000000000005
  0
SPLINE
  5
FF
330
1F
100
AcDbEntity
  8
0
100
AcDbSpline
210
0.0000000000000018
220
-0.0000000000000047
230
1.0
 70
     8
 71
     3
 72
    22
 73
    18
 74
     0
 42
0.0000000001
 43
0.0000000001
 40
34.97477712173785
 40
34.97477712173785
 40
34.97477712173785
 40
34.97477712173785
 40
36.42734301398503
 40
36.42734301398503
 40
37.87990890623224
 40
37.87990890623224
 40
39.33247479847944
 40
39.33247479847944
 40
40.78504069072663
 40
40.78504069072663
 40
42.24703955862422
 40
42.24703955862422
 40
43.70903842652182
 40
43.70903842652182
 40
45.17103729441943
 40
45.17103729441943
 40
46.1359375129046
 40
46.1359375129046
 40
46.1359375129046
 40
46.1359375129046
 10
-122.0000000139999
 20
-20.00000000000001
 30
-0.0000000000000005
 10
-122.0000000139999
 20
-20.0
 30
-0.0000000000000005
 10
-121.9523548742992
 20
-19.97122088449621
 30
-0.0000000000000005
 10
-121.7562023097056
 20
-19.85500826153923
 30
-0.0000000000000004
 10
-121.6077700872558
 20
-19.76764304376019
 30
-0.0000000000000004
 10
-121.2207916340295
 20
-19.54756039986721
 30
-0.0000000000000004
 10
-120.9819322772087
 20
-19.41476433488948
 30
-0.0000000000000004
 10
-120.4357072492826
 20
-19.12664111836432
 30
-0.0000000000000004
 10
-120.128302712894
 20
-18.97150170258985
 30
-0.0000000000000003
 10
-119.4761884681031
 20
-18.66597229821946
 30
-0.0000000000000003
 10
-119.1070484310726
 20
-18.50395137002185
 30
-0.0000000000000003
 10
-118.3012403901182
 20
-18.19165464662792
 30
-0.0000000000000002
 10
-117.8645503444289
 20
-18.04163187859145
 30
-0.0000000000000002
 10
-116.9467802198645
 20
-17.78555138277641
 30
-0.0000000000000001
 10
-116.4647466598345
 20
-17.67965572011972
 30
-0.0000000000000001
 10
-115.6516118691654
 20
-17.56100980245812
 30
-0.0000000000000001
 10
-115.3249128474296
 20
-17.52871756986617
 30
-0.0000000000000001
 10
-115.0000000139999
 20
-17.51249219725021
 30
0.0
  0
SPLINE
  5
100
330
1F
100
AcDbEntity
  8
0
100
AcDbSpline
210
0.0
220
0.0
230
1.0
 70
     8
 71
     3
 72
    20
 73
    16
 74
     0
 42
0.0000000001
 43
0.0000000001
 40
-1.692675426411877
 40
-1.692675426411877
 40
-1.692675426411877
 40
-1.692675426411877
 40
-1.583756029531048
 40
-1.583756029531048
 40
-1.449608791570129
 40
-1.449608791570129
 40
-1.312576485211538
 40
-1.312576485211538
 40
-1.188347845788235
 40
-1.188347845788235
 40
-1.064119206364934
 40
-1.064119206364934
 40
-0.9558438078394724
 40
-0.9558438078394724
 40
-0.8475684093140101
 40
-0.8475684093140101
 40
-0.8475684093140101
 40
-0.8475684093140101
 10
-115.0000000139999
 20
-17.51249219725021
 30
0.0
 10
-114.9620395694165
 20
-17.51059654310958
 30
0.0
 10
-114.920490806471
 20
-17.50241347647166
 30
0.0
 10
-114.8436675513327
 20
-17.47697518774043
 30
0.0
 10
-114.7960591863212
 20
-17.45230296200235
 30
0.0
 10
-114.7224886427274
 20
-17.39984529768148
 30
0.0
 10
-114.6828063942405
 20
-17.36204712173685
 30
0.0
 10
-114.6276642928125
 20
-17.29465119850988
 30
0.0
 10
-114.6026701732925
 20
-17.25680378527674
 30
0.0
 10
-114.5611985385921
 20
-17.17659903172002
 30
0.0
 10
-114.5446793057312
 20
-17.13426333152528
 30
0.0
 10
-114.5224122448722
 20
-17.06002973295247
 30
0.0
 10
-114.5137288650176
 20
-17.02136982178759
 30
0.0
 10
-114.5025300349487
 20
-16.94314831032039
 30
0.0
 10
-114.500000014
 20
-16.90358879710625
 30
0.0
 10
-114.500000014
 20
-16.86749699759777
 30
0.0
  0
LINE
  5
101
330
1F
100
AcDbEntity
  8
0
100
AcDbLine
 10
-114.500000014
 20
1.867496997597585
 30
0.0
 11
-114.500000014
 21
-16.86749699759759
 31
0.0
210
0.0
220
1.0
230
0.0
  0
LINE
  5
102
330
1F
100
AcDbEntity
  8
0
100
AcDbLine
 10
-70.000000014
 20
4.999999999999986
 30
0.0000000000000027
 11
-70.000000014
 21
-20.0
 31
0.0000000000000027
210
0.0
220
1.0
230
0.0
  0
SPLINE
  5
103
330
1F
100
AcDbEntity
  8
0
100
AcDbSpline
210
0.0
220
0.0
230
1.0
 70
     8
 71
     3
 72
    22
 73
    18
 74
     0
 42
0.0000000001
 43
0.0000000001
 40
0.8491533209408165
 40
0.8491533209408165
 40
0.8491533209408165
 40
0.8491533209408165
 40
0.9688463024268434
 40
0.9688463024268434
 40
1.08853928391287
 40
1.08853928391287
 40
1.201304818718391
 40
1.201304818718391
 40
1.314070353523909
 40
1.314070353523909
 40
1.417935445569109
 40
1.417935445569109
 40
1.521800537614305
 40
1.521800537614305
 40
1.61895968401056
 40
1.61895968401056
 40
1.695598073890925
 40
1.695598073890925
 40
1.695598073890925
 40
1.695598073890925
 10
-114.5000000139998
 20
-16.8674969975976
 30
0.0
 10
-114.5000000139998
 20
-16.90739465809294
 30
0.0
 10
-114.496910543918
 20
-16.95109126970486
 30
0.0
 10
-114.4832328266195
 20
-17.0372642646743
 30
0.0
 10
-114.4726243925725
 20
-17.0797374420315
 30
0.0
 10
-114.4479563212768
 20
-17.15319202492867
 30
0.0
 10
-114.4319478989908
 20
-17.1912254284689
 30
0.0
 10
-114.3929447192695
 20
-17.26344266527903
 30
0.0
 10
-114.3699163162589
 20
-17.29760826703191
 30
0.0
 10
-114.3241939525029
 20
-17.35349117387875
 30
0.0
 10
-114.2977324958962
 20
-17.3807364689065
 30
0.0
 10
-114.2394982373689
 20
-17.42861573684635
 30
0.0
 10
-114.207699278844
 20
-17.44921748227957
 30
0.0
 10
-114.1479411657456
 20
-17.47942356992252
 30
0.0
 10
-114.1148580242249
 20
-17.49218336268027
 30
0.0
 10
-114.0538412594711
 20
-17.50721527045838
 30
0.0
 10
-114.026295012209
 20
-17.51117908770228
 30
0.0
 10
-114.0000000139999
 20
-17.51249219725038
 30
0.0
  0
SPLINE
  5
104
330
1F
100
AcDbEntity
  8
0
100
AcDbSpline
210
0.0000000000000018
220
0.0000000000000047
230
1.0
 70
     8
 71
     3
 72
    22
 73
    18
 74
     0
 42
0.0000000001
 43
0.0000000001
 40
0.4970986494123335
 40
0.4970986494123335
 40
0.4970986494123335
 40
0.4970986494123335
 40
1.461998867897578
 40
1.461998867897578
 40
2.923997735795156
 40
2.923997735795156
 40
4.385996603692733
 40
4.385996603692733
 40
5.847995471590312
 40
5.847995471590312
 40
7.30056136383748
 40
7.30056136383748
 40
8.753127256084646
 40
8.753127256084646
 40
10.20569314833181
 40
10.20569314833181
 40
11.65825904057897
 40
11.65825904057897
 40
11.65825904057897
 40
11.65825904057897
 10
-114.0000000139999
 20
-17.51249219725038
 30
0.0
 10
-113.6750871805703
 20
-17.52871756986635
 30
0.0000000000000001
 10
-113.3483881588345
 20
-17.56100980245831
 30
0.0000000000000001
 10
-112.5352533681653
 20
-17.6796557201199
 30
0.0000000000000001
 10
-112.0532198081352
 20
-17.78555138277657
 30
0.0000000000000001
 10
-111.135449683571
 20
-18.04163187859161
 30
0.0000000000000002
 10
-110.6987596378816
 20
-18.19165464662806
 30
0.0000000000000002
 10
-109.8929515969273
 20
-18.50395137002199
 30
0.0000000000000003
 10
-109.5238115598966
 20
-18.66597229821957
 30
0.0000000000000003
 10
-108.8716973151059
 20
-18.97150170258996
 30
0.0000000000000003
 10
-108.5642927787171
 20
-19.12664111836442
 30
0.0000000000000004
 10
-108.0180677507912
 20
-19.41476433488956
 30
0.0000000000000004
 10
-107.7792083939704
 20
-19.54756039986728
 30
0.0000000000000004
 10
-107.3922299407442
 20
-19.76764304376023
 30
0.0000000000000004
 10
-107.2437977182943
 20
-19.85500826153927
 30
0.0000000000000004
 10
-107.0476451537007
 20
-19.97122088449621
 30
0.0000000000000005
 10
-107.000000014
 20
-20.0
 30
0.0000000000000005
 10
-107.000000014
 20
-20.0
 30
0.0000000000000005
  0
SPLINE
  5
105
330
1F
100
AcDbEntity
  8
0
100
AcDbSpline
210
0.0000000000000018
220
-0.0000000000000047
230
1.0
 70
     8
 71
     3
 72
    22
 73
    18
 74
     0
 42
0.0000000001
 43
0.0000000001
 40
34.97477712173719
 40
34.97477712173719
 40
34.97477712173719
 40
34.97477712173719
 40
36.42734301398435
 40
36.42734301398435
 40
37.87990890623152
 40
37.87990890623152
 40
39.33247479847867
 40
39.33247479847867
 40
40.78504069072585
 40
40.78504069072585
 40
42.24703955862342
 40
42.24703955862342
 40
43.70903842652102
 40
43.70903842652102
 40
45.17103729441859
 40
45.17103729441859
 40
46.13593751290384
 40
46.13593751290384
 40
46.13593751290384
 40
46.13593751290384
 10
-107.000000014
 20
4.999999999999986
 30
0.0000000000000005
 10
-107.000000014
 20
4.999999999999986
 30
0.0000000000000005
 10
-107.0476451537007
 20
4.971220884496218
 30
0.0000000000000005
 10
-107.2437977182943
 20
4.855008261539266
 30
0.0000000000000004
 10
-107.3922299407442
 20
4.767643043760236
 30
0.0000000000000004
 10
-107.7792083939704
 20
4.547560399867266
 30
0.0000000000000004
 10
-108.0180677507912
 20
4.414764334889566
 30
0.0000000000000004
 10
-108.5642927787171
 20
4.126641118364406
 30
0.0000000000000004
 10
-108.8716973151059
 20
3.971501702589946
 30
0.0000000000000003
 10
-109.5238115598966
 20
3.665972298219566
 30
0.0000000000000003
 10
-109.8929515969273
 20
3.503951370021975
 30
0.0000000000000003
 10
-110.6987596378816
 20
3.191654646628066
 30
0.0000000000000002
 10
-111.135449683571
 20
3.041631878591595
 30
0.0000000000000002
 10
-112.0532198081352
 20
2.785551382776566
 30
0.0000000000000001
 10
-112.5352533681653
 20
2.679655720119896
 30
0.0000000000000001
 10
-113.3483881588345
 20
2.561009802458295
 30
0.0000000000000001
 10
-113.6750871805703
 20
2.528717569866345
 30
0.0000000000000001
 10
-114.0000000139999
 20
2.512492197250375
 30
0.0
  0
SPLINE
  5
106
330
1F
100
AcDbEntity
  8
0
100
AcDbSpline
210
0.0
220
0.0
230
1.0
 70
     8
 71
     3
 72
    20
 73
    16
 74
     0
 42
0.0000000001
 43
0.0000000001
 40
-1.694559344482428
 40
-1.694559344482428
 40
-1.694559344482428
 40
-1.694559344482428
 40
-1.611183958353318
 40
-1.611183958353318
 40
-1.463450014759175
 40
-1.463450014759175
 40
-1.30690971964215
 40
-1.30690971964215
 40
-1.20719686004198
 40
-1.20719686004198
 40
-1.10748400044181
 40
-1.10748400044181
 40
-0.9777123443493811
 40
-0.9777123443493811
 40
-0.8479406882569513
 40
-0.8479406882569513
 40
-0.8479406882569513
 40
-0.8479406882569513
 10
-114.0000000139999
 20
2.512492197250375
 30
0.0
 10
-114.0300266609431
 20
2.510992738057225
 30
0.0
 10
-114.059648644812
 20
2.506131090564104
 30
0.0
 10
-114.1340853979787
 20
2.486717439494897
 30
0.0
 10
-114.1876788958
 20
2.461936481312649
 30
0.0
 10
-114.27185798823
 20
2.405442544692345
 30
0.0
 10
-114.3174558410995
 20
2.36254514378091
 30
0.0
 10
-114.3708395477652
 20
2.295872607563622
 30
0.0
 10
-114.3912400952199
 20
2.265651386348138
 30
0.0
 10
-114.4264990252812
 20
2.202085953598009
 30
0.0
 10
-114.4413823317279
 20
2.168755612769879
 30
0.0
 10
-114.4678380995912
 20
2.096981487605703
 30
0.0
 10
-114.480302853395
 20
2.051210169245325
 30
0.0
 10
-114.4963707931818
 20
1.958094285819194
 30
0.0
 10
-114.5000000139998
 20
1.91075421629507
 30
0.0
 10
-114.5000000139998
 20
1.867496997597593
 30
0.0
  0
LINE
  5
107
330
1F
100
AcDbEntity
  8
0
100
AcDbLine
 10
-70.000000014
 20
4.999999999999986
 30
0.0000000000000027
 11
-107.000000014
 21
4.999999999999986
 31
0.0000000000000005
210
0.0
220
1.0
230
0.0
  0
LINE
  5
108
330
1F
100
AcDbEntity
  8
0
100
AcDbLine
 10
-70.000000014
 20
-20.0
 30
0.0000000000000027
 11
-107.000000014
 21
-20.0
 31
0.0000000000000005
210
0.0
220
1.0
230
0.0
  0
LINE
  5
109
330
1F
100
AcDbEntity
  8
0
100
AcDbLine
 10
-125.5000000139999
 20
-20.00000000000001
 30
-0.0000000000000007
 11
-122.0000000139999
 21
-20.00000000000001
 31
-0.0000000000000005
210
0.0
220
1.0
230
0.0
  0
LINE
  5
10A
330
1F
100
AcDbEntity
  8
0
100
AcDbLine
 10
-125.5000000139999
 20
4.999999999999986
 30
-0.0000000000000007
 11
-122.0000000139999
 21
4.999999999999986
 31
-0.0000000000000005
210
0.0
220
1.0
230
0.0
  0
ARC
  5
10B
330
1F
100
AcDbEntity
  8
0
100
AcDbCircle
 10
-149.5000000139999
 20
-67.50000000000001
 30
-0.0000000000000021
 40
15.0
100
AcDbArc
 50
71.44699546497964
 51
108.5530045350203
  0
LINE
  5
10C
330
1F
100
AcDbEntity
  8
0
100
AcDbLine
 10
-142.0000000139999
 20
-57.5
 30
-0.0000000000000017
 11
-142.0000000139999
 21
-57.07167319269291
 31
-0.0000000000000017
210
0.0
220
1.0
230
0.0
  0
LINE
  5
10D
330
1F
100
AcDbEntity
  8
0
100
AcDbLine
 10
-157.000000014
 20
-57.5
 30
-0.0000000000000026
 11
-157.000000014
 21
-57.07167319269291
 31
-0.0000000000000026
210
0.0
220
1.0
230
0.0
  0
LINE
  5
10E
330
1F
100
AcDbEntity
  8
0
100
AcDbLine
 10
-107.000000014
 20
4.999999999999986
 30
0.0000000000000005
 11
-107.000000014
 21
37.49999999999998
 31
0.0000000000000005
210
0.0
220
1.0
230
0.0
  0
LINE
  5
10F
330
1F
100
AcDbEntity
  8
0
100
AcDbLine
 10
-107.000000014
 20
-57.5
 30
0.0000000000000005
 11
-107.000000014
 21
-20.0
 31
0.0000000000000005
210
0.0
220
1.0
230
0.0
  0
LINE
  5
110
330
1F
100
AcDbEntity
  8
0
100
AcDbLine
 10
-122.0000000139998
 20
4.999999999999986
 30
-0.0000000000000005
 11
-122.0000000139998
 21
37.49999999999998
 31
-0.0000000000000005
210
0.0
220
1.0
230
0.0
  0
LINE
  5
111
330
1F
100
AcDbEntity
  8
0
100
AcDbLine
 10
-122.0000000139998
 20
-57.5
 30
-0.0000000000000005
 11
-122.0000000139998
 21
-20.00000000000001
 31
-0.0000000000000005
210
0.0
220
1.0
230
0.0
  0
ARC
  5
112
330
1F
100
AcDbEntity
  8
0
100
AcDbCircle
 10
-125.5000000139999
 20
0.9999999999999864
 30
-0.0000000000000007
 40
3.999999999999998
100
AcDbArc
 50
90.0
 51
180.0000000000011
  0
ARC
  5
113
330
1F
100
AcDbEntity
  8
0
100
AcDbCircle
 10
-125.5000000139999
 20
-16.00000000000001
 30
-0.0000000000000007
 40
3.999999999999998
100
AcDbArc
 50
179.9999999999978
 51
270.0
  0
ARC
  5
114
330
1F
100
AcDbEntity
  8
0
100
AcDbCircle
 10
-146.0000000139999
 20
-57.07167319269291
 30
-0.0000000000000019
 40
4.0
100
AcDbArc
 50
0.0000000000002036
 51
71.44699546497964
  0
ARC
  5
115
330
1F
100
AcDbEntity
  8
0
100
AcDbCircle
 10
-153.000000014
 20
-57.07167319269291
 30
-0.0000000000000024
 40
4.0
100
AcDbArc
 50
108.5530045350203
 51
179.9999999999998
  0
ARC
  5
116
330
1F
100
AcDbEntity
  8
0
100
AcDbCircle
 10
-132.000000014
 20
-57.5
 30
-0.0000000000000011
 40
10.0
100
AcDbArc
 50
179.9999999999985
 51
359.9999999999997
  0
ARC
  5
117
330
1F
100
AcDbEntity
  8
0
100
AcDbCircle
 10
-132.000000014
 20
-57.5
 30
-0.0000000000000011
 40
25.0
100
AcDbArc
 50
180.0000000000002
 51
0.0000000000014249
  0
LINE
  5
118
330
1F
100
AcDbEntity
  8
0
100
AcDbLine
 10
-122.0000000139998
 20
74.99999999999999
 30
-0.0000000000000005
 11
-122.0000000139998
 21
37.49999999999985
 31
-0.0000000000000005
210
0.0
220
1.0
230
0.0
  0
LINE
  5
119
330
1F
100
AcDbEntity
  8
0
100
AcDbLine
 10
-107.000000014
 20
37.49999999999985
 30
0.0000000000000005
 11
-107.000000014
 21
74.99999999999999
 31
0.0000000000000005
210
0.0
220
1.0
230
0.0
  0
ARC
  5
11A
330
1F
100
AcDbEntity
  8
0
100
AcDbCircle
 10
-114.500000014
 20
74.99999999999999
 30
0.0
 40
7.5
100
AcDbArc
 50
359.999999999998
 51
180.0
  0
CIRCLE
  5
11C
330
1F
100
AcDbEntity
  8
0
100
AcDbCircle
 10
-37.5
 20
-7.500000000000013
 30
0.0
 40
12.5
  0
CIRCLE
  5
11D
330
1F
100
AcDbEntity
  8
0
100
AcDbCircle
 10
37.5
 20
-7.500000000000013
 30
0.0000000000000092
 40
12.5
  0
ARC
  5
11E
330
1F
100
AcDbEntity
  8
0
100
AcDbCircle
 10
-37.5
 20
-67.50000000000001
 30
0.0
 40
15.0
100
AcDbArc
 50
71.44699546497924
 51
108.5530045350207
  0
LINE
  5
11F
330
1F
100
AcDbEntity
  8
0
100
AcDbLine
 10
-30.0
 20
-57.5
 30
0.0000000000000009
 11
-30.0
 21
-57.07167319269291
 31
0.0000000000000009
210
0.0
220
1.0
230
0.0
  0
LINE
  5
120
330
1F
100
AcDbEntity
  8
0
100
AcDbLine
 10
-45.0
 20
-57.5
 30
-0.0000000000000009
 11
-45.0
 21
-57.07167319269291
 31
-0.0000000000000009
210
0.0
220
1.0
230
0.0
  0
ARC
  5
121
330
1F
100
AcDbEntity
  8
0
100
AcDbCircle
 10
37.5
 20
-67.50000000000001
 30
0.0000000000000092
 40
15.0
100
AcDbArc
 50
71.44699546497924
 51
108.5530045350207
  0
LINE
  5
122
330
1F
100
AcDbEntity
  8
0
100
AcDbLine
 10
45.0
 20
-57.5
 30
0.0000000000000101
 11
45.0
 21
-57.07167319269291
 31
0.0000000000000101
210
0.0
220
1.0
230
0.0
  0
LINE
  5
123
330
1F
100
AcDbEntity
  8
0
100
AcDbLine
 10
30.0
 20
-57.5
 30
0.0000000000000083
 11
30.0
 21
-57.07167319269291
 31
0.0000000000000083
210
0.0
220
1.0
230
0.0
  0
LINE
  5
124
330
1F
100
AcDbEntity
  8
0
100
AcDbLine
 10
-45.0
 20
37.49999999999998
 30
-0.0000000000000009
 11
-45.0
 21
2.499999999999985
 31
-0.0000000000000009
210
0.0
220
1.0
230
0.0
  0
LINE
  5
125
330
1F
100
AcDbEntity
  8
0
100
AcDbLine
 10
-45.0
 20
-17.50000000000001
 30
-0.0000000000000009
 11
-45.0
 21
-57.07167319269291
 31
-0.0000000000000009
210
0.0
220
1.0
230
0.0
  0
LINE
  5
126
330
1F
100
AcDbEntity
  8
0
100
AcDbLine
 10
-30.0
 20
37.49999999999998
 30
0.0000000000000009
 11
-30.0
 21
2.499999999999985
 31
0.0000000000000009
210
0.0
220
1.0
230
0.0
  0
LINE
  5
127
330
1F
100
AcDbEntity
  8
0
100
AcDbLine
 10
-30.0
 20
-17.50000000000001
 30
0.0000000000000009
 11
-30.0
 21
-57.07167319269291
 31
0.0000000000000009
210
0.0
220
1.0
230
0.0
  0
LINE
  5
128
330
1F
100
AcDbEntity
  8
0
100
AcDbLine
 10
45.0
 20
-57.07167319269291
 30
0.0000000000000101
 11
45.0
 21
-17.50000000000001
 31
0.0000000000000101
210
0.0
220
1.0
230
0.0
  0
LINE
  5
129
330
1F
100
AcDbEntity
  8
0
100
AcDbLine
 10
45.0
 20
2.499999999999985
 30
0.0000000000000101
 11
45.0
 21
37.49999999999998
 31
0.0000000000000101
210
0.0
220
1.0
230
0.0
  0
LINE
  5
12A
330
1F
100
AcDbEntity
  8
0
100
AcDbLine
 10
30.0
 20
-57.07167319269291
 30
0.0000000000000083
 11
30.0
 21
-17.50000000000001
 31
0.0000000000000083
210
0.0
220
1.0
230
0.0
  0
LINE
  5
12B
330
1F
100
AcDbEntity
  8
0
100
AcDbLine
 10
30.0
 20
2.499999999999985
 30
0.0000000000000083
 11
30.0
 21
37.49999999999998
 31
0.0000000000000083
210
0.0
220
1.0
230
0.0
  0
ARC
  5
12C
330
1F
100
AcDbEntity
  8
0
100
AcDbCircle
 10
-34.0
 20
-57.07167319269291
 30
0.0000000000000004
 40
4.0
100
AcDbArc
 50
0.0000000000002036
 51
71.44699546497924
  0
ARC
  5
12D
330
1F
100
AcDbEntity
  8
0
100
AcDbCircle
 10
-41.0
 20
-57.07167319269291
 30
-0.0000000000000004
 40
4.0
100
AcDbArc
 50
108.5530045350207
 51
179.9999999999998
  0
LINE
  5
12E
330
1F
100
AcDbEntity
  8
0
100
AcDbLine
 10
-45.0
 20
-57.50000000000007
 30
-0.0000000000000009
 11
-45.0
 21
-75.00000000000001
 31
-0.0000000000000009
210
0.0
220
1.0
230
0.0
  0
LINE
  5
12F
330
1F
100
AcDbEntity
  8
0
100
AcDbLine
 10
-30.0
 20
-75.00000000000001
 30
0.0000000000000009
 11
-30.0
 21
-57.50000000000007
 31
0.0000000000000009
210
0.0
220
1.0
230
0.0
  0
ARC
  5
130
330
1F
100
AcDbEntity
  8
0
100
AcDbCircle
 10
-37.5
 20
-75.00000000000001
 30
0.0
 40
7.5
100
AcDbArc
 50
180.0
 51
0.0000000000012213
  0
ARC
  5
131
330
1F
100
AcDbEntity
  8
0
100
AcDbCircle
 10
41.0
 20
-57.07167319269291
 30
0.0000000000000096
 40
4.0
100
AcDbArc
 50
0.0000000000002036
 51
71.44699546497922
  0
ARC
  5
132
330
1F
100
AcDbEntity
  8
0
100
AcDbCircle
 10
34.0
 20
-57.07167319269291
 30
0.0000000000000088
 40
4.0
100
AcDbArc
 50
108.5530045350207
 51
179.9999999999998
  0
LINE
  5
133
330
1F
100
AcDbEntity
  8
0
100
AcDbLine
 10
30.0
 20
-57.50000000000007
 30
0.0000000000000083
 11
30.0
 21
-75.00000000000001
 31
0.0000000000000083
210
0.0
220
1.0
230
0.0
  0
LINE
  5
134
330
1F
100
AcDbEntity
  8
0
100
AcDbLine
 10
45.0
 20
-75.00000000000001
 30
0.0000000000000101
 11
45.0
 21
-57.50000000000007
 31
0.0000000000000101
210
0.0
220
1.0
230
0.0
  0
ARC
  5
135
330
1F
100
AcDbEntity
  8
0
100
AcDbCircle
 10
37.5
 20
-75.00000000000001
 30
0.0000000000000092
 40
7.5
100
AcDbArc
 50
180.0
 51
0.0000000000012213
  0
ARC
  5
136
330
1F
100
AcDbEntity
  8
0
100
AcDbCircle
 10
0.0
 20
37.49999999999998
 30
0.0000000000000046
 40
45.0
100
AcDbArc
 50
0.0000000000002036
 51
180.0000000000014
  0
ARC
  5
137
330
1F
100
AcDbEntity
  8
0
100
AcDbCircle
 10
0.0
 20
37.49999999999998
 30
0.0000000000000046
 40
30.0
100
AcDbArc
 50
359.9999999999984
 51
179.9999999999998
  0
LINE
  5
139
330
1F
100
AcDbEntity
  8
0
100
AcDbLine
 10
114.500000014
 20
-16.86749699759761
 30
0.0
 11
114.500000014
 21
1.867496997597585
 31
0.0
210
0.0
220
1.0
230
0.0
  0
LINE
  5
13A
330
1F
100
AcDbEntity
  8
0
100
AcDbLine
 10
129.5000000139999
 20
-7.500000000000013
 30
0.0000000000000028
 11
129.5000000139999
 21
0.9999999999999864
 31
0.0000000000000028
210
0.0
220
1.0
230
0.0
  0
LINE
  5
13B
330
1F
100
AcDbEntity
  8
0
100
AcDbLine
 10
129.5000000139999
 20
-16.00000000000001
 30
0.0000000000000028
 11
129.5000000139999
 21
-7.499999999999894
 31
0.0000000000000028
210
0.0
220
1.0
230
0.0
  0
SPLINE
  5
13C
330
1F
100
AcDbEntity
  8
0
100
AcDbSpline
210
0.0000000000000051
220
-0.0000000000000135
230
1.0
 70
     8
 71
     3
 72
    22
 73
    18
 74
     0
 42
0.0000000001
 43
0.0000000001
 40
11.65825904057917
 40
11.65825904057917
 40
11.65825904057917
 40
11.65825904057917
 40
13.11082493282635
 40
13.11082493282635
 40
14.56339082507354
 40
14.56339082507354
 40
16.01595671732072
 40
16.01595671732072
 40
17.4685226095679
 40
17.4685226095679
 40
18.93052147746555
 40
18.93052147746555
 40
20.39252034536321
 40
20.39252034536321
 40
21.85451921326086
 40
21.85451921326086
 40
22.81941943174499
 40
22.81941943174499
 40
22.81941943174499
 40
22.81941943174499
 10
122.0000000139999
 20
4.999999999999986
 30
0.0000000000000014
 10
122.0000000139999
 20
4.999999999999986
 30
0.0000000000000014
 10
121.9523548742992
 20
4.971220884496226
 30
0.0000000000000014
 10
121.7562023097056
 20
4.855008261539308
 30
0.0000000000000013
 10
121.6077700872558
 20
4.767643043760264
 30
0.0000000000000013
 10
121.2207916340295
 20
4.547560399867325
 30
0.0000000000000012
 10
120.9819322772089
 20
4.414764334889627
 30
0.0000000000000012
 10
120.4357072492828
 20
4.126641118364475
 30
0.0000000000000011
 10
120.128302712894
 20
3.971501702590014
 30
0.000000000000001
 10
119.4761884681032
 20
3.665972298219636
 30
0.0000000000000009
 10
119.1070484310727
 20
3.503951370022036
 30
0.0000000000000008
 10
118.3012403901185
 20
3.191654646628117
 30
0.0000000000000007
 10
117.8645503444289
 20
3.041631878591647
 30
0.0000000000000006
 10
116.9467802198645
 20
2.785551382776585
 30
0.0000000000000004
 10
116.4647466598345
 20
2.679655720119896
 30
0.0000000000000004
 10
115.6516118691658
 20
2.561009802458345
 30
0.0000000000000002
 10
115.3249128474292
 20
2.528717569874455
 30
0.0000000000000002
 10
115.0000000139999
 20
2.512492197258525
 30
0.0000000000000001
  0
SPLINE
  5
13D
330
1F
100
AcDbEntity
  8
0
100
AcDbSpline
210
0.0000000000000011
220
-0.0000000000000009
230
1.0
 70
     8
 71
     3
 72
    22
 73
    18
 74
     0
 42
0.0000000001
 43
0.0000000001
 40
-1.695598073892051
 40
-1.695598073892051
 40
-1.695598073892051
 40
-1.695598073892051
 40
-1.61895968401058
 40
-1.61895968401058
 40
-1.521800537614314
 40
-1.521800537614314
 40
-1.417935445569123
 40
-1.417935445569123
 40
-1.314070353523932
 40
-1.314070353523932
 40
-1.201304818718406
 40
-1.201304818718406
 40
-1.088539283912885
 40
-1.088539283912885
 40
-0.9688463024268624
 40
-0.9688463024268624
 40
-0.8491533209408391
 40
-0.8491533209408391
 40
-0.8491533209408391
 40
-0.8491533209408391
 10
115.0000000139999
 20
2.512492197258525
 30
0.0000000000000001
 10
114.9737050157904
 20
2.511179087710406
 30
0.0000000000000001
 10
114.9461587685292
 20
2.507215270458466
 30
0.0000000000000001
 10
114.8851420037749
 20
2.492183362680261
 30
0.0000000000000001
 10
114.8520588622542
 20
2.479423569922509
 30
0.0000000000000001
 10
114.7923007491557
 20
2.449217482279554
 30
0.0000000000000001
 10
114.760501790631
 20
2.428615736846325
 30
0.0
 10
114.7022675321037
 20
2.380736468906485
 30
0.0
 10
114.6758060754968
 20
2.353491173878722
 30
0.0
 10
114.630083711741
 20
2.297608267031903
 30
0.0
 10
114.6070553087302
 20
2.263442665279019
 30
0.0
 10
114.568052129009
 20
2.191225428468885
 30
0.0
 10
114.552043706723
 20
2.153192024928654
 30
0.0
 10
114.5273756354272
 20
2.079737442031481
 30
0.0
 10
114.5167672013802
 20
2.037264264674283
 30
0.0
 10
114.5030894840818
 20
1.951091269704841
 30
0.0
 10
114.500000014
 20
1.90739465809292
 30
0.0
 10
114.500000014
 20
1.867496997597581
 30
0.0
  0
SPLINE
  5
13E
330
1F
100
AcDbEntity
  8
0
100
AcDbSpline
210
0.0000000000000011
220
0.0000000000000009
230
1.0
 70
     8
 71
     3
 72
    20
 73
    16
 74
     0
 42
0.0000000001
 43
0.0000000001
 40
0.8479406882569598
 40
0.8479406882569598
 40
0.8479406882569598
 40
0.8479406882569598
 40
0.9777123443493959
 40
0.9777123443493959
 40
1.107484000441832
 40
1.107484000441832
 40
1.207196860041999
 40
1.207196860041999
 40
1.306909719642167
 40
1.306909719642167
 40
1.46345001475919
 40
1.46345001475919
 40
1.611183958353359
 40
1.611183958353359
 40
1.694559344483478
 40
1.694559344483478
 40
1.694559344483478
 40
1.694559344483478
 10
114.500000014
 20
-16.86749699759761
 30
0.0
 10
114.500000014
 20
-16.91075421629507
 30
0.0
 10
114.503629234818
 20
-16.95809428581921
 30
0.0
 10
114.5196971746047
 20
-17.05121016924534
 30
0.0
 10
114.5321619284085
 20
-17.09698148760572
 30
0.0
 10
114.558617696272
 20
-17.16875561276989
 30
0.0
 10
114.5735010027187
 20
-17.20208595359801
 30
0.0
 10
114.60875993278
 20
-17.26565138634816
 30
0.0
 10
114.6291604802347
 20
-17.29587260756364
 30
0.0
 10
114.6825441869002
 20
-17.36254514378093
 30
0.0
 10
114.7281420397698
 20
-17.40544254469235
 30
0.0
 10
114.8123211321997
 20
-17.46193648131268
 30
0.0000000000000001
 10
114.8659146300212
 20
-17.48671743949492
 30
0.0000000000000001
 10
114.9403513831882
 20
-17.50613109056421
 30
0.0000000000000001
 10
114.9699733670564
 20
-17.51099273806536
 30
0.0000000000000001
 10
115.0000000139999
 20
-17.51249219725855
 30
0.0000000000000001
  0
SPLINE
  5
13F
330
1F
100
AcDbEntity
  8
0
100
AcDbSpline
210
-0.0000000000000051
220
-0.0000000000000135
230
-1.0
 70
     8
 71
     3
 72
    22
 73
    18
 74
     0
 42
0.0000000001
 43
0.0000000001
 40
23.81361673057203
 40
23.81361673057203
 40
23.81361673057203
 40
23.81361673057203
 40
24.77851694905615
 40
24.77851694905615
 40
26.2405158169538
 40
26.2405158169538
 40
27.70251468485147
 40
27.70251468485147
 40
29.16451355274912
 40
29.16451355274912
 40
30.6170794449963
 40
30.6170794449963
 40
32.06964533724346
 40
32.06964533724346
 40
33.52221122949066
 40
33.52221122949066
 40
34.97477712173785
 40
34.97477712173785
 40
34.97477712173785
 40
34.97477712173785
 10
115.0000000139999
 20
-17.51249219725855
 30
0.0000000000000001
 10
115.3249128474292
 20
-17.52871756987448
 30
0.0000000000000002
 10
115.6516118691658
 20
-17.56100980245836
 30
0.0000000000000002
 10
116.4647466598345
 20
-17.67965572011992
 30
0.0000000000000004
 10
116.9467802198645
 20
-17.7855513827766
 30
0.0000000000000004
 10
117.8645503444289
 20
-18.04163187859165
 30
0.0000000000000006
 10
118.3012403901184
 20
-18.19165464662812
 30
0.0000000000000007
 10
119.1070484310727
 20
-18.50395137002205
 30
0.0000000000000008
 10
119.4761884681032
 20
-18.66597229821966
 30
0.0000000000000009
 10
120.128302712894
 20
-18.97150170259004
 30
0.000000000000001
 10
120.4357072492828
 20
-19.12664111836449
 30
0.0000000000000011
 10
120.9819322772087
 20
-19.41476433488963
 30
0.0000000000000012
 10
121.2207916340295
 20
-19.54756039986733
 30
0.0000000000000012
 10
121.6077700872558
 20
-19.76764304376029
 30
0.0000000000000013
 10
121.7562023097056
 20
-19.85500826153932
 30
0.0000000000000013
 10
121.9523548742992
 20
-19.97122088449625
 30
0.0000000000000014
 10
122.0000000139999
 20
-20.00000000000001
 30
0.0000000000000014
 10
122.0000000139999
 20
-20.00000000000001
 30
0.0000000000000014
  0
LINE
  5
140
330
1F
100
AcDbEntity
  8
0
100
AcDbLine
 10
114.500000014
 20
-16.86749699759761
 30
0.0
 11
114.500000014
 21
1.867496997597599
 31
0.0
210
0.0
220
1.0
230
0.0
  0
LINE
  5
141
330
1F
100
AcDbEntity
  8
0
100
AcDbLine
 10
70.000000014
 20
-20.0
 30
-0.0000000000000082
 11
70.000000014
 21
4.999999999999986
 31
-0.0000000000000082
210
0.0
220
1.0
230
0.0
  0
SPLINE
  5
142
330
1F
100
AcDbEntity
  8
0
100
AcDbSpline
210
-0.0000000000000051
220
0.0000000000000135
230
-1.0
 70
     8
 71
     3
 72
    22
 73
    18
 74
     0
 42
0.0000000001
 43
0.0000000001
 40
11.65825904057897
 40
11.65825904057897
 40
11.65825904057897
 40
11.65825904057897
 40
13.11082493282614
 40
13.11082493282614
 40
14.56339082507331
 40
14.56339082507331
 40
16.01595671732048
 40
16.01595671732048
 40
17.46852260956765
 40
17.46852260956765
 40
18.93052147746525
 40
18.93052147746525
 40
20.39252034536285
 40
20.39252034536285
 40
21.85451921326047
 40
21.85451921326047
 40
22.81941943174571
 40
22.81941943174571
 40
22.81941943174571
 40
22.81941943174571
 10
107.000000014
 20
-20.0
 30
-0.0000000000000014
 10
107.000000014
 20
-20.0
 30
-0.0000000000000014
 10
107.0476451537007
 20
-19.97122088449621
 30
-0.0000000000000014
 10
107.2437977182943
 20
-19.85500826153929
 30
-0.0000000000000013
 10
107.3922299407441
 20
-19.76764304376026
 30
-0.0000000000000013
 10
107.7792083939704
 20
-19.54756039986729
 30
-0.0000000000000012
 10
108.0180677507911
 20
-19.41476433488959
 30
-0.0000000000000012
 10
108.5642927787171
 20
-19.12664111836445
 30
-0.0000000000000011
 10
108.8716973151057
 20
-18.97150170258998
 30
-0.000000000000001
 10
109.5238115598966
 20
-18.66597229821961
 30
-0.0000000000000009
 10
109.8929515969272
 20
-18.50395137002199
 30
-0.0000000000000008
 10
110.6987596378815
 20
-18.19165464662808
 30
-0.0000000000000007
 10
111.1354496835708
 20
-18.04163187859162
 30
-0.0000000000000006
 10
112.0532198081352
 20
-17.78555138277657
 30
-0.0000000000000004
 10
112.5352533681653
 20
-17.6796557201199
 30
-0.0000000000000004
 10
113.3483881588345
 20
-17.5610098024583
 30
-0.0000000000000002
 10
113.6750871805703
 20
-17.52871756986635
 30
-0.0000000000000002
 10
114.0000000139999
 20
-17.51249219725038
 30
-0.0000000000000001
  0
SPLINE
  5
143
330
1F
100
AcDbEntity
  8
0
100
AcDbSpline
210
0.0000000000000011
220
-0.0000000000000009
230
1.0
 70
     8
 71
     3
 72
    22
 73
    18
 74
     0
 42
0.0000000001
 43
0.0000000001
 40
-1.695598073890935
 40
-1.695598073890935
 40
-1.695598073890935
 40
-1.695598073890935
 40
-1.618959684010565
 40
-1.618959684010565
 40
-1.521800537614313
 40
-1.521800537614313
 40
-1.417935445569111
 40
-1.417935445569111
 40
-1.314070353523913
 40
-1.314070353523913
 40
-1.201304818718399
 40
-1.201304818718399
 40
-1.088539283912884
 40
-1.088539283912884
 40
-0.9688463024268507
 40
-0.9688463024268507
 40
-0.8491533209408167
 40
-0.8491533209408167
 40
-0.8491533209408167
 40
-0.8491533209408167
 10
114.0000000139999
 20
-17.51249219725038
 30
-0.0000000000000001
 10
114.026295012209
 20
-17.51117908770228
 30
-0.0000000000000001
 10
114.0538412594711
 20
-17.50721527045838
 30
-0.0000000000000001
 10
114.1148580242249
 20
-17.49218336268025
 30
-0.0000000000000001
 10
114.1479411657456
 20
-17.47942356992252
 30
-0.0000000000000001
 10
114.207699278844
 20
-17.44921748227957
 30
-0.0000000000000001
 10
114.2394982373689
 20
-17.42861573684635
 30
0.0
 10
114.2977324958962
 20
-17.38073646890651
 30
0.0
 10
114.3241939525029
 20
-17.35349117387875
 30
0.0
 10
114.3699163162589
 20
-17.29760826703191
 30
0.0
 10
114.3929447192695
 20
-17.26344266527905
 30
0.0
 10
114.4319478989908
 20
-17.19122542846891
 30
0.0
 10
114.4479563212768
 20
-17.15319202492868
 30
0.0
 10
114.4726243925725
 20
-17.07973744203151
 30
0.0
 10
114.4832328266195
 20
-17.0372642646743
 30
0.0
 10
114.496910543918
 20
-16.95109126970486
 30
0.0
 10
114.500000014
 20
-16.90739465809294
 30
0.0
 10
114.500000014
 20
-16.8674969975976
 30
0.0
  0
SPLINE
  5
144
330
1F
100
AcDbEntity
  8
0
100
AcDbSpline
210
0.0000000000000011
220
0.0000000000000009
230
1.0
 70
     8
 71
     3
 72
    20
 73
    16
 74
     0
 42
0.0000000001
 43
0.0000000001
 40
0.8475684093140277
 40
0.8475684093140277
 40
0.8475684093140277
 40
0.8475684093140277
 40
0.9558438078394871
 40
0.9558438078394871
 40
1.064119206364944
 40
1.064119206364944
 40
1.188347845788239
 40
1.188347845788239
 40
1.312576485211532
 40
1.312576485211532
 40
1.4496087915702
 40
1.4496087915702
 40
1.58375602953107
 40
1.58375602953107
 40
1.692675426411888
 40
1.692675426411888
 40
1.692675426411888
 40
1.692675426411888
 10
114.500000014
 20
1.867496997597593
 30
0.0
 10
114.500000014
 20
1.903588797106086
 30
0.0
 10
114.497469993051
 20
1.943148310320601
 30
0.0
 10
114.4862711629822
 20
2.02136982178779
 30
0.0
 10
114.4775877831275
 20
2.060029732952664
 30
0.0
 10
114.4553207222686
 20
2.134263331525477
 30
0.0
 10
114.4388014894078
 20
2.176599031720203
 30
0.0
 10
114.3973298547074
 20
2.256803785276939
 30
0.0
 10
114.3723357351873
 20
2.294651198510059
 30
0.0
 10
114.3171936337592
 20
2.362047121737049
 30
0.0
 10
114.2775113852725
 20
2.399845297681681
 30
0.0
 10
114.2039408416787
 20
2.452302962002548
 30
-0.0000000000000001
 10
114.156332476667
 20
2.476975187740618
 30
-0.0000000000000001
 10
114.0795092215288
 20
2.502413476471835
 30
-0.0000000000000001
 10
114.0379604585832
 20
2.510596543109755
 30
-0.0000000000000001
 10
114.0000000139999
 20
2.512492197250375
 30
-0.0000000000000001
  0
SPLINE
  5
145
330
1F
100
AcDbEntity
  8
0
100
AcDbSpline
210
0.0000000000000051
220
0.0000000000000135
230
1.0
 70
     8
 71
     3
 72
    22
 73
    18
 74
     0
 42
0.0000000001
 43
0.0000000001
 40
23.81361673057042
 40
23.81361673057042
 40
23.81361673057042
 40
23.81361673057042
 40
24.77851694905569
 40
24.77851694905569
 40
26.2405158169533
 40
26.2405158169533
 40
27.70251468485091
 40
27.70251468485091
 40
29.16451355274851
 40
29.16451355274851
 40
30.61707944499568
 40
30.61707944499568
 40
32.06964533724285
 40
32.06964533724285
 40
33.52221122949002
 40
33.52221122949002
 40
34.97477712173719
 40
34.97477712173719
 40
34.97477712173719
 40
34.97477712173719
 10
114.0000000139999
 20
2.512492197250375
 30
-0.0000000000000001
 10
113.6750871805703
 20
2.528717569866345
 30
-0.0000000000000002
 10
113.3483881588345
 20
2.561009802458295
 30
-0.0000000000000002
 10
112.5352533681653
 20
2.679655720119896
 30
-0.0000000000000004
 10
112.0532198081352
 20
2.785551382776566
 30
-0.0000000000000004
 10
111.1354496835708
 20
3.041631878591616
 30
-0.0000000000000006
 10
110.6987596378815
 20
3.191654646628076
 30
-0.0000000000000007
 10
109.8929515969273
 20
3.503951370021986
 30
-0.0000000000000008
 10
109.5238115598966
 20
3.665972298219594
 30
-0.0000000000000009
 10
108.8716973151057
 20
3.971501702589985
 30
-0.000000000000001
 10
108.5642927787171
 20
4.126641118364434
 30
-0.0000000000000011
 10
108.0180677507911
 20
4.414764334889587
 30
-0.0000000000000012
 10
107.7792083939704
 20
4.547560399867287
 30
-0.0000000000000012
 10
107.3922299407441
 20
4.767643043760244
 30
-0.0000000000000013
 10
107.2437977182941
 20
4.855008261539276
 30
-0.0000000000000013
 10
107.0476451537007
 20
4.971220884496218
 30
-0.0000000000000014
 10
107.000000014
 20
4.999999999999986
 30
-0.0000000000000014
 10
107.000000014
 20
4.999999999999986
 30
-0.0000000000000014
  0
LINE
  5
146
330
1F
100
AcDbEntity
  8
0
100
AcDbLine
 10
70.000000014
 20
-20.0
 30
-0.0000000000000082
 11
107.000000014
 21
-20.0
 31
-0.0000000000000014
210
0.0
220
1.0
230
0.0
  0
LINE
  5
147
330
1F
100
AcDbEntity
  8
0
100
AcDbLine
 10
70.000000014
 20
4.999999999999986
 30
-0.0000000000000082
 11
107.000000014
 21
4.999999999999986
 31
-0.0000000000000014
210
0.0
220
1.0
230
0.0
  0
LINE
  5
148
330
1F
100
AcDbEntity
  8
0
100
AcDbLine
 10
125.5000000139999
 20
4.999999999999986
 30
0.000000000000002
 11
122.0000000139999
 21
4.999999999999986
 31
0.0000000000000014
210
0.0
220
1.0
230
0.0
  0
LINE
  5
149
330
1F
100
AcDbEntity
  8
0
100
AcDbLine
 10
125.5000000139999
 20
-20.00000000000001
 30
0.000000000000002
 11
122.0000000139999
 21
-20.00000000000001
 31
0.0000000000000014
210
0.0
220
1.0
230
0.0
  0
ARC
  5
14A
330
1F
100
AcDbEntity
  8
0
100
AcDbCircle
 10
149.5000000139999
 20
-67.50000000000001
 30
0.0000000000000064
 40
15.0
100
AcDbArc
 50
71.44699546497964
 51
108.5530045350203
  0
LINE
  5
14B
330
1F
100
AcDbEntity
  8
0
100
AcDbLine
 10
157.000000014
 20
-57.5
 30
0.0000000000000078
 11
157.000000014
 21
-57.07167319269291
 31
0.0000000000000078
210
0.0
220
1.0
230
0.0
  0
LINE
  5
14C
330
1F
100
AcDbEntity
  8
0
100
AcDbLine
 10
142.0000000139999
 20
-57.5
 30
0.0000000000000051
 11
142.0000000139999
 21
-57.07167319269291
 31
0.0000000000000051
210
0.0
220
1.0
230
0.0
  0
LINE
  5
14D
330
1F
100
AcDbEntity
  8
0
100
AcDbLine
 10
107.000000014
 20
-20.0
 30
-0.0000000000000014
 11
107.000000014
 21
-57.5
 31
-0.0000000000000014
210
0.0
220
1.0
230
0.0
  0
LINE
  5
14E
330
1F
100
AcDbEntity
  8
0
100
AcDbLine
 10
107.000000014
 20
37.49999999999998
 30
-0.0000000000000014
 11
107.000000014
 21
4.999999999999986
 31
-0.0000000000000014
210
0.0
220
1.0
230
0.0
  0
LINE
  5
14F
330
1F
100
AcDbEntity
  8
0
100
AcDbLine
 10
122.0000000139998
 20
-20.00000000000001
 30
0.0000000000000014
 11
122.0000000139998
 21
-57.5
 31
0.0000000000000014
210
0.0
220
1.0
230
0.0
  0
LINE
  5
150
330
1F
100
AcDbEntity
  8
0
100
AcDbLine
 10
122.0000000139998
 20
37.49999999999998
 30
0.0000000000000014
 11
122.0000000139998
 21
4.999999999999986
 31
0.0000000000000014
210
0.0
220
1.0
230
0.0
  0
ARC
  5
151
330
1F
100
AcDbEntity
  8
0
100
AcDbCircle
 10
125.5000000139999
 20
-16.00000000000001
 30
0.000000000000002
 40
3.999999999999998
100
AcDbArc
 50
270.0
 51
0.0000000000012213
  0
ARC
  5
152
330
1F
100
AcDbEntity
  8
0
100
AcDbCircle
 10
125.5000000139999
 20
0.9999999999999864
 30
0.000000000000002
 40
3.999999999999998
100
AcDbArc
 50
359.999999999998
 51
90.0
  0
ARC
  5
153
330
1F
100
AcDbEntity
  8
0
100
AcDbCircle
 10
153.000000014
 20
-57.07167319269291
 30
0.0000000000000071
 40
4.0
100
AcDbArc
 50
0.0000000000002036
 51
71.44699546497964
  0
ARC
  5
154
330
1F
100
AcDbEntity
  8
0
100
AcDbCircle
 10
146.0000000139999
 20
-57.07167319269291
 30
0.0000000000000058
 40
4.0
100
AcDbArc
 50
108.5530045350203
 51
179.9999999999998
  0
ARC
  5
155
330
1F
100
AcDbEntity
  8
0
100
AcDbCircle
 10
132.000000014
 20
-57.5
 30
0.0000000000000032
 40
25.0
100
AcDbArc
 50
180.0000000000002
 51
0.0000000000014249
  0
ARC
  5
156
330
1F
100
AcDbEntity
  8
0
100
AcDbCircle
 10
132.000000014
 20
-57.5
 30
0.0000000000000032
 40
10.0
100
AcDbArc
 50
179.9999999999985
 51
359.9999999999997
  0
LINE
  5
157
330
1F
100
AcDbEntity
  8
0
100
AcDbLine
 10
122.0000000139998
 20
37.50000000000012
 30
0.0000000000000014
 11
122.0000000139998
 21
74.99999999999999
 31
0.0000000000000014
210
0.0
220
1.0
230
0.0
  0
LINE
  5
158
330
1F
100
AcDbEntity
  8
0
100
AcDbLine
 10
107.000000014
 20
74.99999999999999
 30
-0.0000000000000014
 11
107.000000014
 21
37.50000000000012
 31
-0.0000000000000014
210
0.0
220
1.0
230
0.0
  0
ARC
  5
159
330
1F
100
AcDbEntity
  8
0
100
AcDbCircle
 10
114.500000014
 20
74.99999999999999
 30
0.0
 40
7.5
100
AcDbArc
 50
0.0
 51
180.0000000000011
  0
ARC
  5
15B
330
1F
100
AcDbEntity
  8
0
100
AcDbCircle
 10
37.5
 20
-147.0000000139999
 30
0.0
 40
7.5
100
AcDbArc
 50
269.9999999999996
 51
0.0
  0
ARC
  5
15C
330
1F
100
AcDbEntity
  8
0
100
AcDbCircle
 10
37.5
 20
-147.0000000139999
 30
0.0
 40
7.5
100
AcDbArc
 50
359.9999999999983
 51
89.9999999999992
  0
ARC
  5
15D
330
1F
100
AcDbEntity
  8
0
100
AcDbCircle
 10
-37.5
 20
-147.0000000139999
 30
0.0
 40
7.5
100
AcDbArc
 50
180.0
 51
270.0
  0
ARC
  5
15E
330
1F
100
AcDbEntity
  8
0
100
AcDbCircle
 10
-37.5
 20
-147.0000000139999
 30
0.0
 40
7.5
100
AcDbArc
 50
90.0000000000004
 51
180.0
  0
CIRCLE
  5
15F
330
1F
100
AcDbEntity
  8
0
100
AcDbCircle
 10
37.5
 20
-182.000000014
 30
0.0
 40
7.5
  0
CIRCLE
  5
160
330
1F
100
AcDbEntity
  8
0
100
AcDbCircle
 10
-37.5
 20
-182.000000014
 30
0.0
 40
7.5
  0
LINE
  5
161
330
1F
100
AcDbEntity
  8
0
100
AcDbLine
 10
-49.5
 20
-147.0000000139999
 30
0.0
 11
-45.0
 21
-147.0000000139999
 31
0.0
  0
LINE
  5
162
330
1F
100
AcDbEntity
  8
0
100
AcDbLine
 10
-46.0
 20
-162.0000000139999
 30
0.0
 11
-29.0
 21
-162.0000000139999
 31
0.0
  0
LINE
  5
163
330
1F
100
AcDbEntity
  8
0
100
AcDbLine
 10
-49.49999999999998
 20
-147.0000000139999
 30
0.0
 11
-44.99999999999997
 21
-147.0000000139999
 31
0.0
  0
LINE
  5
164
330
1F
100
AcDbEntity
  8
0
100
AcDbLine
 10
-50.0
 20
-102.5000000139999
 30
0.0
 11
-25.0
 21
-102.5000000139999
 31
0.0
  0
LINE
  5
165
330
1F
100
AcDbEntity
  8
0
100
AcDbLine
 10
29.0
 20
-162.0000000139999
 30
0.0
 11
45.99999999999997
 21
-162.0000000139999
 31
0.0
  0
LINE
  5
166
330
1F
100
AcDbEntity
  8
0
100
AcDbLine
 10
44.9999999999998
 20
-147.0000000139999
 30
0.0
 11
49.5
 21
-147.0000000139999
 31
0.0
  0
LINE
  5
167
330
1F
100
AcDbEntity
  8
0
100
AcDbLine
 10
45.00000000000002
 20
-147.0000000139999
 30
0.0
 11
49.50000000000001
 21
-147.0000000139999
 31
0.0
  0
LINE
  5
168
330
1F
100
AcDbEntity
  8
0
100
AcDbLine
 10
25.0
 20
-102.5000000139999
 30
0.0
 11
50.0
 21
-102.5000000139999
 31
0.0
  0
LINE
  5
169
330
1F
100
AcDbEntity
  8
0
100
AcDbLine
 10
25.0
 20
-102.5000000139999
 30
0.0
 11
25.0
 21
-139.500000014
 31
0.0
  0
LINE
  5
16A
330
1F
100
AcDbEntity
  8
0
100
AcDbLine
 10
50.0
 20
-102.5000000139999
 30
0.0
 11
50.0
 21
-146.5000000139999
 31
0.0
  0
LINE
  5
16B
330
1F
100
AcDbEntity
  8
0
100
AcDbLine
 10
50.0
 20
-158.000000014
 30
0.0
 11
50.0
 21
-147.5000000139999
 31
0.0
  0
LINE
  5
16C
330
1F
100
AcDbEntity
  8
0
100
AcDbLine
 10
25.0
 20
-158.000000014
 30
0.0
 11
25.0
 21
-154.5000000139999
 31
0.0
  0
LINE
  5
16D
330
1F
100
AcDbEntity
  8
0
100
AcDbLine
 10
-50.0
 20
-102.5000000139999
 30
0.0
 11
-49.99999999999998
 21
-146.5000000139999
 31
0.0
  0
LINE
  5
16E
330
1F
100
AcDbEntity
  8
0
100
AcDbLine
 10
-25.0
 20
-102.5000000139999
 30
0.0
 11
-24.99999999999999
 21
-139.500000014
 31
0.0
  0
LINE
  5
16F
330
1F
100
AcDbEntity
  8
0
100
AcDbLine
 10
-25.0
 20
-158.000000014
 30
0.0
 11
-25.0
 21
-154.5000000139999
 31
0.0
  0
LINE
  5
170
330
1F
100
AcDbEntity
  8
0
100
AcDbLine
 10
-50.0
 20
-158.000000014
 30
0.0
 11
-50.0
 21
-147.5000000139999
 31
0.0
  0
ARC
  5
171
330
1F
100
AcDbEntity
  8
0
100
AcDbCircle
 10
49.50000000000001
 20
-146.5000000139999
 30
0.0
 40
0.5
100
AcDbArc
 50
269.9999999999992
 51
0.0
  0
ARC
  5
172
330
1F
100
AcDbEntity
  8
0
100
AcDbCircle
 10
49.5
 20
-147.5000000139999
 30
0.0
 40
0.5
100
AcDbArc
 50
0.0
 51
90.0
  0
ARC
  5
173
330
1F
100
AcDbEntity
  8
0
100
AcDbCircle
 10
29.0
 20
-158.000000014
 30
0.0
 40
3.999999999999998
100
AcDbArc
 50
180.0
 51
270.0000000000012
  0
ARC
  5
174
330
1F
100
AcDbEntity
  8
0
100
AcDbCircle
 10
45.99999999999997
 20
-158.000000014
 30
0.0
 40
3.999999999999998
100
AcDbArc
 50
269.9999999999978
 51
0.0
  0
ARC
  5
175
330
1F
100
AcDbEntity
  8
0
100
AcDbCircle
 10
-49.49999999999998
 20
-146.5000000139999
 30
0.0
 40
0.5
100
AcDbArc
 50
180.0
 51
270.0000000000012
  0
ARC
  5
176
330
1F
100
AcDbEntity
  8
0
100
AcDbCircle
 10
-46.0
 20
-158.000000014
 30
0.0
 40
3.999999999999998
100
AcDbArc
 50
180.0
 51
270.0000000000012
  0
ARC
  5
177
330
1F
100
AcDbEntity
  8
0
100
AcDbCircle
 10
-29.0
 20
-158.000000014
 30
0.0
 40
3.999999999999998
100
AcDbArc
 50
269.9999999999978
 51
0.0
  0
ARC
  5
178
330
1F
100
AcDbEntity
  8
0
100
AcDbCircle
 10
-49.5
 20
-147.5000000139999
 30
0.0
 40
0.5
100
AcDbArc
 50
90.0
 51
180.0
  0
LINE
  5
179
330
1F
100
AcDbEntity
  8
0
100
AcDbLine
 10
-45.0
 20
-162.0000000139999
 30
0.0
 11
-45.0
 21
-182.000000014
 31
0.0
  0
LINE
  5
17A
330
1F
100
AcDbEntity
  8
0
100
AcDbLine
 10
-30.0
 20
-182.000000014
 30
0.0
 11
-30.0
 21
-162.0000000139999
 31
0.0
  0
LINE
  5
17B
330
1F
100
AcDbEntity
  8
0
100
AcDbLine
 10
30.0
 20
-162.0000000139999
 30
0.0
 11
30.0
 21
-182.000000014
 31
0.0
  0
LINE
  5
17C
330
1F
100
AcDbEntity
  8
0
100
AcDbLine
 10
45.0
 20
-182.000000014
 30
0.0
 11
45.0
 21
-162.0000000139999
 31
0.0
  0
LINE
  5
17D
330
1F
100
AcDbEntity
  8
0
100
AcDbLine
 10
-37.5
 20
-154.5000000139999
 30
0.0
 11
37.5
 21
-154.5000000139999
 31
0.0
  0
LINE
  5
17E
330
1F
100
AcDbEntity
  8
0
100
AcDbLine
 10
37.5
 20
-139.500000014
 30
0.0
 11
-37.5
 21
-139.500000014
 31
0.0
  0
ENDSEC
  0
SECTION
  2
OBJECTS
  0
DICTIONARY
  5
C
330
0
100
AcDbDictionary
  3
ACAD_GROUP
350
D
  3
ACAD_LAYOUT
350
1A
  3
ACAD_MLINESTYLE
350
17
  3
ACAD_PLOTSETTINGS
350
19
  3
ACAD_PLOTSTYLENAME
350
F4
  3
ACDBHEADERROUNDTRIPXREC
350
1A9
1001
ACAD
1000
TREAT_AS_HARD
1070
     0
  0
DICTIONARY
  5
EE
330
1F
100
AcDbDictionary
  3
ACAD_LAYOUTSELFREF
350
1CA
  0
DICTIONARY
  5
EC
330
1B
100
AcDbDictionary
  3
ACAD_LAYOUTSELFREF
350
1C9
  0
DICTIONARY
  5
D
102
{ACAD_REACTORS
330
C
102
}
330
C
100
AcDbDictionary
1001
ACAD
1000
TREAT_AS_HARD
1070
     0
  0
DICTIONARY
  5
1A
102
{ACAD_REACTORS
330
C
102
}
330
C
100
AcDbDictionary
1001
ACAD
1000
TREAT_AS_HARD
1070
     0
  0
DICTIONARY
  5
17
102
{ACAD_REACTORS
330
C
102
}
330
C
100
AcDbDictionary
  3
STANDARD
350
18
1001
ACAD
1000
TREAT_AS_HARD
1070
     0
  0
DICTIONARY
  5
19
102
{ACAD_REACTORS
330
C
102
}
330
C
100
AcDbDictionary
1001
ACAD
1000
TREAT_AS_HARD
1070
     0
  0
ACDBDICTIONARYWDFLT
  5
F4
102
{ACAD_REACTORS
330
C
102
}
330
C
100
AcDbDictionary
281
     1
  3
Normal
350
F5
100
AcDbDictionaryWithDefault
340
F5
  0
DICTIONARY
  5
1A9
102
{ACAD_REACTORS
330
C
102
}
330
C
100
AcDbDictionary
  3
TSTACKALIGN
350
1AA
  3
TSTACKSIZE
350
1AB
  3
HYPERLINKBASE
350
1AC
  3
STYLESHEET
350
1AD
  3
LAYOUTDICT
350
1AE
  3
PLOTSETDICT
350
1AF
  3
PLOTSTYLNAMDICT
350
1B0
  3
LWETCUNION
350
1B1
  3
INSUNITS
350
1B2
  3
CEPSNTYPE
350
1B3
  3
FINGERPRINTGUID
350
1B4
  3
VERSIONGUID
350
1B5
  3
PSVPSCALE
350
1B6
  3
PUCSORTHOREF
350
1B7
  3
PUCSORTHOVIEW
350
1B8
  3
PUCSBASE
350
1B9
  3
PUCSORGTOP
350
1BA
  3
PUCSORGBOTTOM
350
1BB
  3
PUCSORGLEFT
350
1BC
  3
PUCSORGRIGHT
350
1BD
  3
PUCSORGFRONT
350
1BE
  3
PUCSORGBACK
350
1BF
  3
UCSORTHOREF
350
1C0
  3
UCSORTHOVIEW
350
1C1
  3
UCSBASE
350
1C2
  3
UCSORGTOP
350
1C3
  3
UCSORGBOTTOM
350
1C4
  3
UCSORGLEFT
350
1C5
  3
UCSORGRIGHT
350
1C6
  3
UCSORGFRONT
350
1C7
  3
UCSORGBACK
350
1C8
  0
XRECORD
  5
1CA
102
{ACAD_REACTORS
330
EE
102
}
330
EE
100
AcDbXrecord
340
1F
  0
XRECORD
  5
1C9
102
{ACAD_REACTORS
330
EC
102
}
330
EC
100
AcDbXrecord
340
1B
  0
MLINESTYLE
  5
18
102
{ACAD_REACTORS
330
17
102
}
330
17
100
AcDbMlineStyle
  2
STANDARD
 70
     0
  3

 62
   256
 51
90.0
 52
90.0
 71
     2
 49
0.5
 62
   256
  6
BYLAYER
 49
-0.5
 62
   256
  6
BYLAYER
  0
ACDBPLACEHOLDER
  5
F5
102
{ACAD_REACTORS
330
F4
102
}
330
F4
100
AcDbPlaceHolder
280
     0
  0
XRECORD
  5
1AA
102
{ACAD_REACTORS
330
1A9
102
}
330
1A9
100
AcDbXrecord
 90
        1
  0
XRECORD
  5
1AB
102
{ACAD_REACTORS
330
1A9
102
}
330
1A9
100
AcDbXrecord
 90
       70
  0
XRECORD
  5
1AC
102
{ACAD_REACTORS
330
1A9
102
}
330
1A9
100
AcDbXrecord
  1

  0
XRECORD
  5
1AD
102
{ACAD_REACTORS
330
1A9
102
}
330
1A9
100
AcDbXrecord
  1

  0
XRECORD
  5
1AE
102
{ACAD_REACTORS
330
1A9
102
}
330
1A9
100
AcDbXrecord
340
1A
  0
XRECORD
  5
1AF
102
{ACAD_REACTORS
330
1A9
102
}
330
1A9
100
AcDbXrecord
340
19
  0
XRECORD
  5
1B0
102
{ACAD_REACTORS
330
1A9
102
}
330
1A9
100
AcDbXrecord
340
F4
  0
XRECORD
  5
1B1
102
{ACAD_REACTORS
330
1A9
102
}
330
1A9
100
AcDbXrecord
 90
    10781
  0
XRECORD
  5
1B2
102
{ACAD_REACTORS
330
1A9
102
}
330
1A9
100
AcDbXrecord
 90
        0
  0
XRECORD
  5
1B3
102
{ACAD_REACTORS
330
1A9
102
}
330
1A9
100
AcDbXrecord
 90
        0
  0
XRECORD
  5
1B4
102
{ACAD_REACTORS
330
1A9
102
}
330
1A9
100
AcDbXrecord
  1
{6C71F39F-BEA8-4FAB-874A-081A2453B8DA}
  0
XRECORD
  5
1B5
102
{ACAD_REACTORS
330
1A9
102
}
330
1A9
100
AcDbXrecord
  1
{12DC3996-930B-478B-B62A-7F9855048435}
  0
XRECORD
  5
1B6
102
{ACAD_REACTORS
330
1A9
102
}
330
1A9
100
AcDbXrecord
 40
0.0
  0
XRECORD
  5
1B7
102
{ACAD_REACTORS
330
1A9
102
}
330
1A9
100
AcDbXrecord
340
0
  0
XRECORD
  5
1B8
102
{ACAD_REACTORS
330
1A9
102
}
330
1A9
100
AcDbXrecord
 70
     0
  0
XRECORD
  5
1B9
102
{ACAD_REACTORS
330
1A9
102
}
330
1A9
100
AcDbXrecord
340
0
  0
XRECORD
  5
1BA
102
{ACAD_REACTORS
330
1A9
102
}
330
1A9
100
AcDbXrecord
 10
0.0
 20
0.0
 30
0.0
  0
XRECORD
  5
1BB
102
{ACAD_REACTORS
330
1A9
102
}
330
1A9
100
AcDbXrecord
 10
0.0
 20
0.0
 30
0.0
  0
XRECORD
  5
1BC
102
{ACAD_REACTORS
330
1A9
102
}
330
1A9
100
AcDbXrecord
 10
0.0
 20
0.0
 30
0.0
  0
XRECORD
  5
1BD
102
{ACAD_REACTORS
330
1A9
102
}
330
1A9
100
AcDbXrecord
 10
0.0
 20
0.0
 30
0.0
  0
XRECORD
  5
1BE
102
{ACAD_REACTORS
330
1A9
102
}
330
1A9
100
AcDbXrecord
 10
0.0
 20
0.0
 30
0.0
  0
XRECORD
  5
1BF
102
{ACAD_REACTORS
330
1A9
102
}
330
1A9
100
AcDbXrecord
 10
0.0
 20
0.0
 30
0.0
  0
XRECORD
  5
1C0
102
{ACAD_REACTORS
330
1A9
102
}
330
1A9
100
AcDbXrecord
340
0
  0
XRECORD
  5
1C1
102
{ACAD_REACTORS
330
1A9
102
}
330
1A9
100
AcDbXrecord
 70
     0
  0
XRECORD
  5
1C2
102
{ACAD_REACTORS
330
1A9
102
}
330
1A9
100
AcDbXrecord
340
0
  0
XRECORD
  5
1C3
102
{ACAD_REACTORS
330
1A9
102
}
330
1A9
100
AcDbXrecord
 10
0.0
 20
0.0
 30
0.0
  0
XRECORD
  5
1C4
102
{ACAD_REACTORS
330
1A9
102
}
330
1A9
100
AcDbXrecord
 10
0.0
 20
0.0
 30
0.0
  0
XRECORD
  5
1C5
102
{ACAD_REACTORS
330
1A9
102
}
330
1A9
100
AcDbXrecord
 10
0.0
 20
0.0
 30
0.0
  0
XRECORD
  5
1C6
102
{ACAD_REACTORS
330
1A9
102
}
330
1A9
100
AcDbXrecord
 10
0.0
 20
0.0
 30
0.0
  0
XRECORD
  5
1C7
102
{ACAD_REACTORS
330
1A9
102
}
330
1A9
100
AcDbXrecord
 10
0.0
 20
0.0
 30
0.0
  0
XRECORD
  5
1C8
102
{ACAD_REACTORS
330
1A9
102
}
330
1A9
100
AcDbXrecord
 10
0.0
 20
0.0
 30
0.0
  0
ENDSEC
  0
EOF
