  0
SECTION
  2
HEADER
  9
$ACADVER
  1
AC1014
  9
$ACADMAINTVER
 70
     9
  9
$DWGCODEPAGE
  3
ANSI_1252
  9
$INSBASE
 10
0.0
 20
0.0
 30
0.0
  9
$EXTMIN
 10
-53.39306098513294
 20
-90.97348621820328
 30
-0.0000000100000279
  9
$EXTMAX
 10
53.39306098513295
 20
73.64108540485012
 30
0.0000000100000372
  9
$LIMMIN
 10
0.0
 20
0.0
  9
$LIMMAX
 10
12.0
 20
9.0
  9
$ORTHOMODE
 70
     0
  9
$REGENMODE
 70
     1
  9
$FILLMODE
 70
     1
  9
$QTEXTMODE
 70
     0
  9
$MIRRTEXT
 70
     1
  9
$DRAGMODE
 70
     2
  9
$LTSCALE
 40
1.0
  9
$OSMODE
 70
  2223
  9
$ATTMODE
 70
     1
  9
$TEXTSIZE
 40
0.2
  9
$TRACEWID
 40
0.05
  9
$TEXTSTYLE
  7
STANDARD
  9
$CLAYER
  8
0
  9
$CELTYPE
  6
BYLAYER
  9
$CECOLOR
 62
   256
  9
$CELTSCALE
 40
1.0
  9
$DELOBJ
 70
     1
  9
$DISPSILH
 70
     0
  9
$DIMSCALE
 40
1.0
  9
$DIMASZ
 40
0.18
  9
$DIMEXO
 40
0.0625
  9
$DIMDLI
 40
0.38
  9
$DIMRND
 40
0.0
  9
$DIMDLE
 40
0.0
  9
$DIMEXE
 40
0.18
  9
$DIMTP
 40
0.0
  9
$DIMTM
 40
0.0
  9
$DIMTXT
 40
0.18
  9
$DIMCEN
 40
0.09
  9
$DIMTSZ
 40
0.0
  9
$DIMTOL
 70
     0
  9
$DIMLIM
 70
     0
  9
$DIMTIH
 70
     1
  9
$DIMTOH
 70
     1
  9
$DIMSE1
 70
     0
  9
$DIMSE2
 70
     0
  9
$DIMTAD
 70
     0
  9
$DIMZIN
 70
     0
  9
$DIMBLK
  1

  9
$DIMASO
 70
     1
  9
$DIMSHO
 70
     1
  9
$DIMPOST
  1

  9
$DIMAPOST
  1

  9
$DIMALT
 70
     0
  9
$DIMALTD
 70
     2
  9
$DIMALTF
 40
25.4
  9
$DIMLFAC
 40
1.0
  9
$DIMTOFL
 70
     0
  9
$DIMTVP
 40
0.0
  9
$DIMTIX
 70
     0
  9
$DIMSOXD
 70
     0
  9
$DIMSAH
 70
     0
  9
$DIMBLK1
  1

  9
$DIMBLK2
  1

  9
$DIMSTYLE
  2
STANDARD
  9
$DIMCLRD
 70
     0
  9
$DIMCLRE
 70
     0
  9
$DIMCLRT
 70
     0
  9
$DIMTFAC
 40
1.0
  9
$DIMGAP
 40
0.09
  9
$DIMJUST
 70
     0
  9
$DIMSD1
 70
     0
  9
$DIMSD2
 70
     0
  9
$DIMTOLJ
 70
     1
  9
$DIMTZIN
 70
     0
  9
$DIMALTZ
 70
     0
  9
$DIMALTTZ
 70
     0
  9
$DIMFIT
 70
     3
  9
$DIMUPT
 70
     0
  9
$DIMUNIT
 70
     2
  9
$DIMDEC
 70
     4
  9
$DIMTDEC
 70
     4
  9
$DIMALTU
 70
     2
  9
$DIMALTTD
 70
     2
  9
$DIMTXSTY
  7
STANDARD
  9
$DIMAUNIT
 70
     0
  9
$LUNITS
 70
     2
  9
$LUPREC
 70
     4
  9
$SKETCHINC
 40
0.1
  9
$FILLETRAD
 40
0.5
  9
$AUNITS
 70
     0
  9
$AUPREC
 70
     0
  9
$MENU
  1
.
  9
$ELEVATION
 40
0.0
  9
$PELEVATION
 40
0.0
  9
$THICKNESS
 40
0.0
  9
$LIMCHECK
 70
     0
  9
$BLIPMODE
 70
     0
  9
$CHAMFERA
 40
0.5
  9
$CHAMFERB
 40
0.5
  9
$CHAMFERC
 40
1.0
  9
$CHAMFERD
 40
0.0
  9
$SKPOLY
 70
     0
  9
$TDCREATE
 40
2451762.578786806
  9
$TDUPDATE
 40
2453620.434387314
  9
$TDINDWG
 40
0.0010116551
  9
$TDUSRTIMER
 40
0.0010115394
  9
$USRTIMER
 70
     1
  9
$ANGBASE
 50
0.0
  9
$ANGDIR
 70
     0
  9
$PDMODE
 70
     0
  9
$PDSIZE
 40
0.0
  9
$PLINEWID
 40
0.0
  9
$COORDS
 70
     1
  9
$SPLFRAME
 70
     0
  9
$SPLINETYPE
 70
     6
  9
$SPLINESEGS
 70
     8
  9
$ATTDIA
 70
     0
  9
$ATTREQ
 70
     1
  9
$HANDLING
 70
 10241
  9
$HANDSEED
  5
174
  9
$SURFTAB1
 70
     6
  9
$SURFTAB2
 70
     6
  9
$SURFTYPE
 70
     6
  9
$SURFU
 70
     6
  9
$SURFV
 70
     6
  9
$UCSNAME
  2

  9
$UCSORG
 10
0.0
 20
0.0
 30
0.0
  9
$UCSXDIR
 10
1.0
 20
0.0
 30
0.0
  9
$UCSYDIR
 10
0.0
 20
1.0
 30
0.0
  9
$PUCSNAME
  2

  9
$PUCSORG
 10
0.0
 20
0.0
 30
0.0
  9
$PUCSXDIR
 10
1.0
 20
0.0
 30
0.0
  9
$PUCSYDIR
 10
0.0
 20
1.0
 30
0.0
  9
$USERI1
 70
     0
  9
$USERI2
 70
     0
  9
$USERI3
 70
     0
  9
$USERI4
 70
     0
  9
$USERI5
 70
     0
  9
$USERR1
 40
0.0
  9
$USERR2
 40
0.0
  9
$USERR3
 40
0.0
  9
$USERR4
 40
0.0
  9
$USERR5
 40
0.0
  9
$WORLDVIEW
 70
     1
  9
$SHADEDGE
 70
     3
  9
$SHADEDIF
 70
    70
  9
$TILEMODE
 70
     1
  9
$MAXACTVP
 70
    64
  9
$PINSBASE
 10
0.0
 20
0.0
 30
0.0
  9
$PLIMCHECK
 70
     0
  9
$PEXTMIN
 10
1.000000000000000E+20
 20
1.000000000000000E+20
 30
1.000000000000000E+20
  9
$PEXTMAX
 10
-1.000000000000000E+20
 20
-1.000000000000000E+20
 30
-1.000000000000000E+20
  9
$PLIMMIN
 10
0.0
 20
0.0
  9
$PLIMMAX
 10
12.0
 20
9.0
  9
$UNITMODE
 70
     0
  9
$VISRETAIN
 70
     1
  9
$PLINEGEN
 70
     0
  9
$PSLTSCALE
 70
     1
  9
$TREEDEPTH
 70
  3020
  9
$PICKSTYLE
 70
     1
  9
$CMLSTYLE
  2
STANDARD
  9
$CMLJUST
 70
     0
  9
$CMLSCALE
 40
1.0
  9
$PROXYGRAPHICS
 70
     1
  9
$MEASUREMENT
 70
     0
  0
ENDSEC
  0
SECTION
  2
CLASSES
  0
CLASS
  1
ACDBDICTIONARYWDFLT
  2
AcDbDictionaryWithDefault
  3
AutoCAD 2000
 90
        0
280
     0
281
     0
  0
CLASS
  1
ACDBPLACEHOLDER
  2
AcDbPlaceHolder
  3
AutoCAD 2000
 90
        0
280
     0
281
     0
  0
CLASS
  1
LAYOUT
  2
AcDbLayout
  3
AutoCAD 2000
 90
        0
280
     0
281
     0
  0
CLASS
  1
LONG_TRANSACTION
  2
AcDbLongTransaction
  3
AutoCAD 2000
 90
        0
280
     0
281
     0
  0
CLASS
  1
LWPOLYLINE
  2
AcDbPolyline
  3
AutoCAD 2000
 90
        0
280
     0
281
     1
  0
CLASS
  1
HATCH
  2
AcDbHatch
  3
AutoCAD 2000
 90
        0
280
     0
281
     1
  0
CLASS
  1
XRECORD
  2
AcDbXrecord
  3
AutoCAD 2000
 90
        0
280
     0
281
     0
  0
CLASS
  1
LONG_TRANSACTION
  2
AcDbLongTransaction
  3
AutoCAD 2000
 90
        0
280
     0
281
     0
  0
CLASS
  1
LWPOLYLINE
  2
AcDbPolyline
  3
AutoCAD 2000
 90
        0
280
     0
281
     1
  0
CLASS
  1
HATCH
  2
AcDbHatch
  3
AutoCAD 2000
 90
        0
280
     0
281
     1
  0
CLASS
  1
XRECORD
  2
AcDbXrecord
  3
AutoCAD 2000
 90
        0
280
     0
281
     0
  0
CLASS
  1
LONG_TRANSACTION
  2
AcDbLongTransaction
  3
AutoCAD 2000
 90
        0
280
     0
281
     0
  0
CLASS
  1
LWPOLYLINE
  2
AcDbPolyline
  3
AutoCAD 2000
 90
        0
280
     0
281
     1
  0
CLASS
  1
HATCH
  2
AcDbHatch
  3
AutoCAD 2000
 90
        0
280
     0
281
     1
  0
CLASS
  1
XRECORD
  2
AcDbXrecord
  3
AutoCAD 2000
 90
        0
280
     0
281
     0
  0
ENDSEC
  0
SECTION
  2
TABLES
  0
TABLE
  2
VPORT
  5
8
330
0
100
AcDbSymbolTable
 70
     2
  0
VPORT
  5
151
330
8
100
AcDbSymbolTableRecord
100
AcDbViewportTableRecord
  2
*ACTIVE
 70
     0
 10
0.0
 20
0.0
 11
1.0
 21
1.0
 12
-0.0220039529768315
 22
-0.7475476352608724
 13
0.0
 23
0.0
 14
0.5
 24
0.5
 15
0.5
 25
0.5
 16
0.0
 26
0.0
 36
1.0
 17
0.0
 27
0.0
 37
0.0
 40
226.1874660305249
 41
1.525316455696202
 42
50.0
 43
0.0
 44
0.0
 50
0.0
 51
0.0
 71
     0
 72
   100
 73
     1
 74
     3
 75
     0
 76
     0
 77
     0
 78
     0
  0
ENDTAB
  0
TABLE
  2
LTYPE
  5
5
330
0
100
AcDbSymbolTable
 70
     1
  0
LTYPE
  5
14
330
5
100
AcDbSymbolTableRecord
100
AcDbLinetypeTableRecord
  2
BYBLOCK
 70
     0
  3

 72
    65
 73
     0
 40
0.0
  0
LTYPE
  5
15
330
5
100
AcDbSymbolTableRecord
100
AcDbLinetypeTableRecord
  2
BYLAYER
 70
     0
  3

 72
    65
 73
     0
 40
0.0
  0
LTYPE
  5
16
330
5
100
AcDbSymbolTableRecord
100
AcDbLinetypeTableRecord
  2
CONTINUOUS
 70
     0
  3
Solid line
 72
    65
 73
     0
 40
0.0
  0
ENDTAB
  0
TABLE
  2
LAYER
  5
2
330
0
100
AcDbSymbolTable
 70
     2
  0
LAYER
  5
10
330
2
100
AcDbSymbolTableRecord
100
AcDbLayerTableRecord
  2
0
 70
     0
 62
     7
  6
CONTINUOUS
  0
ENDTAB
  0
TABLE
  2
STYLE
  5
3
330
0
100
AcDbSymbolTable
 70
     1
  0
STYLE
  5
11
330
3
100
AcDbSymbolTableRecord
100
AcDbTextStyleTableRecord
  2
STANDARD
 70
     0
 40
0.0
 41
1.0
 50
0.0
 71
     0
 42
0.2
  3
txt
  4

  0
ENDTAB
  0
TABLE
  2
VIEW
  5
6
330
0
100
AcDbSymbolTable
 70
     0
  0
ENDTAB
  0
TABLE
  2
UCS
  5
7
330
0
100
AcDbSymbolTable
 70
     0
  0
ENDTAB
  0
TABLE
  2
APPID
  5
9
330
0
100
AcDbSymbolTable
 70
     1
  0
APPID
  5
12
330
9
100
AcDbSymbolTableRecord
100
AcDbRegAppTableRecord
  2
ACAD
 70
     0
  0
ENDTAB
  0
TABLE
  2
DIMSTYLE
  5
A
330
0
100
AcDbSymbolTable
 70
     1
  0
DIMSTYLE
105
27
330
A
100
AcDbSymbolTableRecord
100
AcDbDimStyleTableRecord
  2
STANDARD
 70
     0
  3

  4

  5

  6

  7

 40
1.0
 41
0.18
 42
0.0625
 43
0.38
 44
0.18
 45
0.0
 46
0.0
 47
0.0
 48
0.0
140
0.18
141
0.09
142
0.0
143
25.4
144
1.0
145
0.0
146
1.0
147
0.09
 71
     0
 72
     0
 73
     1
 74
     1
 75
     0
 76
     0
 77
     0
 78
     0
170
     0
171
     2
172
     0
173
     0
174
     0
175
     0
176
     0
177
     0
178
     0
270
     2
271
     4
272
     4
273
     2
274
     2
340
11
275
     0
280
     0
281
     0
282
     0
283
     1
284
     0
285
     0
286
     0
287
     3
288
     0
  0
ENDTAB
  0
TABLE
  2
BLOCK_RECORD
  5
1
330
0
100
AcDbSymbolTable
 70
     8
  0
BLOCK_RECORD
  5
1F
102
{ACAD_XDICTIONARY
360
C2
102
}
330
1
100
AcDbSymbolTableRecord
100
AcDbBlockTableRecord
  2
*MODEL_SPACE
  0
BLOCK_RECORD
  5
1B
102
{ACAD_XDICTIONARY
360
C0
102
}
330
1
100
AcDbSymbolTableRecord
100
AcDbBlockTableRecord
  2
*PAPER_SPACE
  0
ENDTAB
  0
ENDSEC
  0
SECTION
  2
BLOCKS
  0
BLOCK
  5
20
330
1F
100
AcDbEntity
  8
0
100
AcDbBlockBegin
  2
*MODEL_SPACE
 70
     0
 10
0.0
 20
0.0
 30
0.0
  3
*MODEL_SPACE
  1

  0
ENDBLK
  5
21
330
1F
100
AcDbEntity
  8
0
100
AcDbBlockEnd
  0
BLOCK
  5
1C
330
1B
100
AcDbEntity
 67
     1
  8
0
100
AcDbBlockBegin
  2
*PAPER_SPACE
 70
     0
 10
0.0
 20
0.0
 30
0.0
  3
*PAPER_SPACE
  1

  0
ENDBLK
  5
1D
330
1B
100
AcDbEntity
 67
     1
  8
0
100
AcDbBlockEnd
  0
ENDSEC
  0
SECTION
  2
ENTITIES
  0
LINE
  5
CF
330
1F
100
AcDbEntity
  8
0
100
AcDbLine
 10
-50.050000014
 20
-73.3304252330703
 30
0.0
 11
-50.050000014
 21
-69.8304252330703
 31
0.0
210
0.0
220
1.0
230
0.0
  0
LINE
  5
D0
330
1F
100
AcDbEntity
  8
0
100
AcDbLine
 10
-50.050000014
 20
-73.3304252330703
 30
0.0
 11
-51.550000014
 21
-73.3304252330703
 31
-0.0000000000000001
210
0.0
220
1.0
230
0.0
  0
LINE
  5
D1
330
1F
100
AcDbEntity
  8
0
100
AcDbLine
 10
-50.050000014
 20
-69.8304252330703
 30
0.0
 11
-50.050000014
 21
-22.38523002416476
 31
0.0
210
0.0
220
1.0
230
0.0
  0
LINE
  5
D2
330
1F
100
AcDbEntity
  8
0
100
AcDbLine
 10
-50.050000014
 20
-22.38523002416476
 30
0.0
 11
-50.050000014
 21
21.14923181322346
 31
0.0
210
0.0
220
1.0
230
0.0
  0
LINE
  5
D3
330
1F
100
AcDbEntity
  8
0
100
AcDbLine
 10
-50.050000014
 20
-22.38523002416476
 30
0.0
 11
-51.550000014
 21
-22.38523002416476
 31
-0.0000000000000001
210
0.0
220
1.0
230
0.0
  0
LINE
  5
D4
330
1F
100
AcDbEntity
  8
0
100
AcDbLine
 10
-50.050000014
 20
21.14923181322346
 30
0.0
 11
-50.050000014
 21
31.48514043335929
 31
0.0
210
0.0
220
1.0
230
0.0
  0
LINE
  5
D5
330
1F
100
AcDbEntity
  8
0
100
AcDbLine
 10
-50.050000014
 20
31.48514043335929
 30
0.0
 11
-50.050000014
 21
32.0209590188295
 31
0.0
210
0.0
220
1.0
230
0.0
  0
LINE
  5
D6
330
1F
100
AcDbEntity
  8
0
100
AcDbLine
 10
-53.05000001399999
 20
-21.90528513295503
 30
-0.0000000000000002
 11
-53.05000001399999
 21
-69.8304252330703
 31
-0.0000000000000002
210
0.0
220
1.0
230
0.0
  0
LINE
  5
D7
330
1F
100
AcDbEntity
  8
0
100
AcDbLine
 10
-53.05000001399999
 20
30.5209590188295
 30
-0.0000000000000002
 11
-53.05000001399999
 21
20.18505039869364
 31
-0.0000000000000002
210
0.0
220
1.0
230
0.0
  0
SPLINE
  5
D8
330
1F
100
AcDbEntity
  8
0
100
AcDbSpline
210
0.0000000000000004
220
0.0000000000000013
230
1.0
 70
     8
 71
     3
 72
    24
 73
    20
 74
     0
 42
0.0000000001
 43
0.0000000001
 40
2.27659053234241
 40
2.27659053234241
 40
2.27659053234241
 40
2.27659053234241
 40
2.540076539099158
 40
2.540076539099158
 40
2.803562545855904
 40
2.803562545855904
 40
3.026008056811503
 40
3.026008056811503
 40
3.241397576459283
 40
3.241397576459283
 40
3.456787096107065
 40
3.456787096107065
 40
3.623379574871115
 40
3.623379574871115
 40
3.789972053635167
 40
3.789972053635167
 40
4.171576559159992
 40
4.171576559159992
 40
4.553181064684821
 40
4.553181064684821
 40
4.553181064684821
 40
4.553181064684821
 10
-51.550000014
 20
-22.38523002416476
 30
-0.0000000000000001
 10
-51.63782868291892
 20
-22.38523002416476
 30
-0.0000000000000001
 10
-51.73375358711545
 20
-22.38262812722364
 30
-0.0000000000000001
 10
-51.92169211602521
 20
-22.37142642857453
 30
-0.0000000000000001
 10
-52.01370755759597
 20
-22.36282865895089
 30
-0.0000000000000001
 10
-52.16362578690317
 20
-22.34431098999502
 30
-0.0000000000000001
 10
-52.24297444559794
 20
-22.33214814216857
 30
-0.0000000000000001
 10
-52.36743433859237
 20
-22.30910053136944
 30
-0.0000000000000001
 10
-52.43158465673225
 20
-22.29524166767951
 30
-0.0000000000000001
 10
-52.55154068789071
 20
-22.26449613583901
 30
-0.0000000000000002
 10
-52.60735518339323
 20
-22.24761159894955
 30
-0.0000000000000002
 10
-52.69121656601864
 20
-22.21852579486753
 30
-0.0000000000000002
 10
-52.72895166773146
 20
-22.20395702025109
 30
-0.0000000000000002
 10
-52.79826790221104
 20
-22.1734897800432
 30
-0.0000000000000002
 10
-52.82985409418259
 20
-22.15759193986298
 30
-0.0000000000000002
 10
-52.91640432543008
 20
-22.10854225216376
 30
-0.0000000000000002
 10
-52.96763588438889
 20
-22.0690176714806
 30
-0.0000000000000002
 10
-53.03442052565721
 20
-21.98698122313797
 30
-0.0000000000000002
 10
-53.05000001399999
 20
-21.94446866954327
 30
-0.0000000000000002
 10
-53.05000001399999
 20
-21.90528513295503
 30
-0.0000000000000002
  0
LINE
  5
D9
330
1F
100
AcDbEntity
  8
0
100
AcDbLine
 10
-53.05000001399999
 20
20.18505039869364
 30
-0.0000000000000002
 11
-53.05000001399999
 21
-21.90528513295503
 31
-0.0000000000000002
210
0.0
220
1.0
230
0.0
  0
ARC
  5
DA
330
1F
100
AcDbEntity
  8
0
100
AcDbCircle
 10
-51.550000014
 20
-71.8304252330703
 30
-0.0000000000000001
 40
1.5
100
AcDbArc
 50
180.0
 51
270.0
  0
LINE
  5
DB
330
1F
100
AcDbEntity
  8
0
100
AcDbLine
 10
-53.05000001399999
 20
-69.8304252330703
 30
-0.0000000000000002
 11
-53.05000001399999
 21
-71.8304252330703
 31
-0.0000000000000002
210
0.0
220
1.0
230
0.0
  0
LINE
  5
DC
330
1F
100
AcDbEntity
  8
0
100
AcDbLine
 10
-53.08240081335313
 20
50.83042523307071
 30
-0.0000000000000002
 11
-53.08240081335313
 21
29.83042523307029
 31
-0.0000000000000002
210
0.0
220
1.0
230
0.0
  0
LINE
  5
DD
330
1F
100
AcDbEntity
  8
0
100
AcDbLine
 10
-53.08240081335313
 20
71.8304252330703
 30
-0.0000000000000002
 11
-53.08240081335313
 21
50.8304252330704
 31
-0.0000000000000002
210
0.0
220
1.0
230
0.0
  0
LINE
  5
DE
330
1F
100
AcDbEntity
  8
0
100
AcDbLine
 10
-50.08240081335312
 20
50.83042523307028
 30
0.0
 11
-50.08240081335312
 21
73.3304252330703
 31
0.0
210
0.0
220
1.0
230
0.0
  0
LINE
  5
DF
330
1F
100
AcDbEntity
  8
0
100
AcDbLine
 10
-50.08240081335312
 20
32.02095901882968
 30
0.0
 11
-50.08240081335312
 21
50.8304252330706
 31
0.0
210
0.0
220
1.0
230
0.0
  0
LINE
  5
E0
330
1F
100
AcDbEntity
  8
0
100
AcDbLine
 10
-50.08240081335312
 20
73.3304252330703
 30
0.0
 11
-51.58240081335312
 21
73.3304252330703
 31
-0.0000000000000001
210
0.0
220
1.0
230
0.0
  0
ARC
  5
E1
330
1F
100
AcDbEntity
  8
0
100
AcDbCircle
 10
-51.550000014
 20
30.5209590188295
 30
-0.0000000000000001
 40
1.5
100
AcDbArc
 50
90.0
 51
180.0
  0
LINE
  5
E2
330
1F
100
AcDbEntity
  8
0
100
AcDbLine
 10
-50.050000014
 20
32.0209590188295
 30
0.0
 11
-51.550000014
 21
32.0209590188295
 31
-0.0000000000000001
210
0.0
220
1.0
230
0.0
  0
ARC
  5
E3
330
1F
100
AcDbEntity
  8
0
100
AcDbCircle
 10
-51.58240081335312
 20
71.8304252330703
 30
-0.0000000000000001
 40
1.5
100
AcDbArc
 50
90.0
 51
179.999999999999
  0
ARC
  5
E4
330
1F
100
AcDbEntity
  8
0
100
AcDbCircle
 10
-51.58240081335312
 20
29.83042523307029
 30
-0.0000000000000001
 40
1.5
100
AcDbArc
 50
179.9999999999983
 51
191.9303923615974
  0
LINE
  5
E6
330
1F
100
AcDbEntity
  8
0
100
AcDbLine
 10
29.25000000000001
 20
-69.83042523307031
 30
0.0000000000000072
 11
29.25000000000001
 21
-22.38523002416476
 31
0.0000000000000072
210
0.0
220
1.0
230
0.0
  0
LINE
  5
E7
330
1F
100
AcDbEntity
  8
0
100
AcDbLine
 10
-29.24999999999998
 20
-22.85422127469896
 30
0.0
 11
-29.24999999999998
 21
-69.83042523307031
 31
0.0
210
0.0
220
1.0
230
0.0
  0
ARC
  5
E8
330
1F
100
AcDbEntity
  8
0
100
AcDbCircle
 10
-25.74999999999999
 20
-69.83042523307031
 30
0.0000000000000004
 40
3.499999999999998
100
AcDbArc
 50
180.0
 51
270.0
  0
ARC
  5
E9
330
1F
100
AcDbEntity
  8
0
100
AcDbCircle
 10
-30.74999999999999
 20
-22.85422127469896
 30
-0.0000000000000002
 40
1.5
100
AcDbArc
 50
0.0
 51
34.36044290405507
  0
LINE
  5
EA
330
1F
100
AcDbEntity
  8
0
100
AcDbLine
 10
-25.74999999999999
 20
-73.33042523307032
 30
0.0000000000000004
 11
-6.5
 21
-73.33042523307032
 31
0.0000000000000028
210
0.0
220
1.0
230
0.0
  0
ARC
  5
EB
330
1F
100
AcDbEntity
  8
0
100
AcDbCircle
 10
0.0000000000000107
 20
-1.830425233070314
 30
0.0000000000000036
 40
35.75
100
AcDbArc
 50
140.0
 51
214.3604429040544
  0
ARC
  5
EC
330
1F
100
AcDbEntity
  8
0
100
AcDbCircle
 10
-6.5
 20
-69.83042523307031
 30
0.0000000000000028
 40
3.499999999999998
100
AcDbArc
 50
269.9999999999989
 51
0.0
  0
LINE
  5
ED
330
1F
100
AcDbEntity
  8
0
100
AcDbLine
 10
-18.71323173046537
 20
31.48514043335927
 30
0.0000000000000013
 11
-27.38608884150345
 21
21.14923181322347
 31
0.0000000000000002
210
0.0
220
1.0
230
0.0
  0
LINE
  5
EE
330
1F
100
AcDbEntity
  8
0
100
AcDbLine
 10
-2.999999999999988
 20
-69.83042523307031
 30
0.0000000000000032
 11
-2.999999999999988
 21
-44.08042523307031
 31
0.0000000000000032
210
0.0
220
1.0
230
0.0
  0
ARC
  5
EF
330
1F
100
AcDbEntity
  8
0
100
AcDbCircle
 10
-17.56416506578689
 20
30.52095901882948
 30
0.0000000000000014
 40
1.5
100
AcDbArc
 50
56.11053106991486
 51
139.9999999999993
  0
ARC
  5
F0
330
1F
100
AcDbEntity
  8
0
100
AcDbCircle
 10
-2.249999999999989
 20
-44.08042523307031
 30
0.0000000000000033
 40
0.75
100
AcDbArc
 50
89.99999999999978
 51
180.0
  0
ARC
  5
F1
330
1F
100
AcDbEntity
  8
0
100
AcDbCircle
 10
0.0000000000000107
 20
56.66957476692968
 30
0.0000000000000036
 40
30.0
100
AcDbArc
 50
236.1105310699147
 51
303.8894689300851
  0
LINE
  5
F2
330
1F
100
AcDbEntity
  8
0
100
AcDbLine
 10
-2.249999999999989
 20
-43.33042523307031
 30
0.0000000000000033
 11
2.250000000000009
 21
-43.33042523307031
 31
0.0000000000000039
210
0.0
220
1.0
230
0.0
  0
ARC
  5
F3
330
1F
100
AcDbEntity
  8
0
100
AcDbCircle
 10
17.5641650657869
 20
30.52095901882948
 30
0.0000000000000057
 40
1.5
100
AcDbArc
 50
39.99999999999971
 51
123.8894689300852
  0
ARC
  5
F4
330
1F
100
AcDbEntity
  8
0
100
AcDbCircle
 10
2.250000000000009
 20
-44.08042523307031
 30
0.0000000000000039
 40
0.75
100
AcDbArc
 50
0.0
 51
90.00000000000019
  0
LINE
  5
F5
330
1F
100
AcDbEntity
  8
0
100
AcDbLine
 10
27.38608884150346
 20
21.14923181322345
 30
0.0000000000000069
 11
18.71323173046539
 21
31.48514043335927
 31
0.0000000000000059
210
0.0
220
1.0
230
0.0
  0
LINE
  5
F6
330
1F
100
AcDbEntity
  8
0
100
AcDbLine
 10
3.000000000000009
 20
-44.08042523307031
 30
0.0000000000000039
 11
3.000000000000009
 21
-69.83042523307031
 31
0.0000000000000039
210
0.0
220
1.0
230
0.0
  0
SPLINE
  5
F7
330
1F
100
AcDbEntity
  8
0
100
AcDbSpline
210
0.0000000000112255
220
0.0000000000351238
230
1.0
 70
     8
 71
     3
 72
    24
 73
    20
 74
     0
 42
0.0000000001
 43
0.0000000001
 40
2.27659053234241
 40
2.27659053234241
 40
2.27659053234241
 40
2.27659053234241
 40
2.540076539099158
 40
2.540076539099158
 40
2.803562545855904
 40
2.803562545855904
 40
3.026008056811503
 40
3.026008056811503
 40
3.241397576459283
 40
3.241397576459283
 40
3.456787096107065
 40
3.456787096107065
 40
3.623379574871115
 40
3.623379574871115
 40
3.789972053635167
 40
3.789972053635167
 40
4.171576559159992
 40
4.171576559159992
 40
4.553181064684821
 40
4.553181064684821
 40
4.553181064684821
 40
4.553181064684821
 10
29.25000000000001
 20
-22.38523002416476
 30
0.0000000000000072
 10
29.25000000000001
 20
-22.38523002416476
 30
0.0000000000000072
 10
29.241770187366
 20
-22.38262812722366
 30
0.0000000000000072
 10
29.20636144164374
 20
-22.37142642857456
 30
0.0000000000000072
 10
29.17919150963255
 20
-22.36282865895091
 30
0.0000000000000072
 10
29.12072592238791
 20
-22.34431098999503
 30
0.0000000000000071
 10
29.08234654835471
 20
-22.33214814216859
 30
0.0000000000000071
 10
29.00969334006441
 20
-22.30910053136946
 30
0.0000000000000071
 10
28.96603656789094
 20
-22.29524166767951
 30
0.0000000000000071
 10
28.86930902578329
 20
-22.26449613583902
 30
0.0000000000000071
 10
28.81624847043376
 20
-22.24761159894957
 30
0.0000000000000071
 10
28.7249602774183
 20
-22.21852579486756
 30
0.0000000000000071
 10
28.67927426311496
 20
-22.2039570202511
 30
0.0000000000000071
 10
28.58384946913194
 20
-22.17348978004321
 30
0.0000000000000071
 10
28.53411416485916
 20
-22.15759193986298
 30
0.0000000000000071
 10
28.38083569494536
 20
-22.10854225216378
 30
0.0000000000000071
 10
28.25761087294034
 20
-22.0690176714806
 30
0.000000000000007
 10
28.00269745624301
 20
-21.98698122313798
 30
0.000000000000007
 10
27.87101600113703
 20
-21.94446866954328
 30
0.000000000000007
 10
27.75000000000001
 20
-21.90528513295505
 30
0.000000000000007
  0
ARC
  5
F8
330
1F
100
AcDbEntity
  8
0
100
AcDbCircle
 10
0.0000000000000107
 20
-1.830425233070314
 30
0.0000000000000036
 40
35.75
100
AcDbArc
 50
324.9031987724153
 51
39.99999999999984
  0
ARC
  5
F9
330
1F
100
AcDbEntity
  8
0
100
AcDbCircle
 10
6.500000000000009
 20
-69.83042523307031
 30
0.0000000000000044
 40
3.5
100
AcDbArc
 50
180.0
 51
270.0000000000001
  0
LINE
  5
FA
330
1F
100
AcDbEntity
  8
0
100
AcDbLine
 10
6.500000000000009
 20
-73.33042523307032
 30
0.0000000000000044
 11
25.75000000000001
 21
-73.33042523307032
 31
0.0000000000000067
210
0.0
220
1.0
230
0.0
  0
ARC
  5
FB
330
1F
100
AcDbEntity
  8
0
100
AcDbCircle
 10
25.75000000000001
 20
-69.83042523307031
 30
0.0000000000000067
 40
3.499999999999998
100
AcDbArc
 50
269.9999999999989
 51
0.0
  0
CIRCLE
  5
FC
330
1F
100
AcDbEntity
  8
0
100
AcDbCircle
 10
0.0838242654937425
 20
50.83042523307028
 30
0.0000000000000036
 40
22.5
  0
LINE
  5
FE
330
1F
100
AcDbEntity
  8
0
100
AcDbLine
 10
50.050000014
 20
32.0209590188295
 30
0.0
 11
50.050000014
 21
31.48514043335929
 31
0.0
210
0.0
220
1.0
230
0.0
  0
LINE
  5
FF
330
1F
100
AcDbEntity
  8
0
100
AcDbLine
 10
50.050000014
 20
21.14923181322348
 30
0.0
 11
50.050000014
 21
31.48514043335929
 31
0.0
210
0.0
220
1.0
230
0.0
  0
LINE
  5
100
330
1F
100
AcDbEntity
  8
0
100
AcDbLine
 10
50.050000014
 20
21.14923181322348
 30
0.0
 11
50.050000014
 21
-22.00762546094249
 31
0.0
210
0.0
220
1.0
230
0.0
  0
LINE
  5
101
330
1F
100
AcDbEntity
  8
0
100
AcDbLine
 10
50.050000014
 20
-22.85422127469895
 30
0.0
 11
50.050000014
 21
-22.00762546094207
 31
0.0
210
0.0
220
1.0
230
0.0
  0
LINE
  5
102
330
1F
100
AcDbEntity
  8
0
100
AcDbLine
 10
50.050000014
 20
-22.85422127469895
 30
0.0
 11
50.050000014
 21
-69.8304252330703
 31
0.0
210
0.0
220
1.0
230
0.0
  0
LINE
  5
103
330
1F
100
AcDbEntity
  8
0
100
AcDbLine
 10
50.050000014
 20
-69.83042523307026
 30
0.0
 11
50.050000014
 21
-73.3304252330703
 31
0.0
210
0.0
220
1.0
230
0.0
  0
LINE
  5
104
330
1F
100
AcDbEntity
  8
0
100
AcDbLine
 10
50.050000014
 20
-73.3304252330703
 30
0.0
 11
51.550000014
 21
-73.3304252330703
 31
0.0000000000000003
210
0.0
220
1.0
230
0.0
  0
LINE
  5
105
330
1F
100
AcDbEntity
  8
0
100
AcDbLine
 10
53.05000001399999
 20
-69.8304252330703
 30
0.0000000000000006
 11
53.05000001399999
 21
-22.85422127469895
 31
0.0000000000000006
210
0.0
220
1.0
230
0.0
  0
LINE
  5
106
330
1F
100
AcDbEntity
  8
0
100
AcDbLine
 10
53.05000001399999
 20
-71.8304252330703
 30
0.0000000000000006
 11
53.05000001399999
 21
-69.8304252330703
 31
0.0000000000000006
210
0.0
220
1.0
230
0.0
  0
LINE
  5
107
330
1F
100
AcDbEntity
  8
0
100
AcDbLine
 10
53.05000001399999
 20
-22.85422127469895
 30
0.0000000000000006
 11
53.05000001399999
 21
-21.16102964718521
 31
0.0000000000000006
210
0.0
220
1.0
230
0.0
  0
ARC
  5
108
330
1F
100
AcDbEntity
  8
0
100
AcDbCircle
 10
51.550000014
 20
-71.8304252330703
 30
0.0000000000000003
 40
1.5
100
AcDbArc
 50
270.0
 51
0.0
  0
LINE
  5
109
330
1F
100
AcDbEntity
  8
0
100
AcDbLine
 10
53.05000001399999
 20
-21.16102964718521
 30
0.0000000000000006
 11
53.05000001399999
 21
20.18505039869368
 31
0.0000000000000006
210
0.0
220
1.0
230
0.0
  0
LINE
  5
10A
330
1F
100
AcDbEntity
  8
0
100
AcDbLine
 10
53.05000001399999
 20
20.18505039869368
 30
0.0000000000000006
 11
53.05000001399999
 21
30.5209590188295
 31
0.0000000000000006
210
0.0
220
1.0
230
0.0
  0
LINE
  5
10B
330
1F
100
AcDbEntity
  8
0
100
AcDbLine
 10
53.08240081335313
 20
29.83042523307029
 30
0.0000000000000006
 11
53.08240081335313
 21
71.8304252330703
 31
0.0000000000000006
210
0.0
220
1.0
230
0.0
  0
LINE
  5
10C
330
1F
100
AcDbEntity
  8
0
100
AcDbLine
 10
50.08240081335312
 20
73.3304252330703
 30
0.0
 11
50.08240081335312
 21
32.02095901882929
 31
0.0
210
0.0
220
1.0
230
0.0
  0
LINE
  5
10D
330
1F
100
AcDbEntity
  8
0
100
AcDbLine
 10
50.08240081335312
 20
73.3304252330703
 30
0.0
 11
51.58240081335312
 21
73.3304252330703
 31
0.0000000000000003
210
0.0
220
1.0
230
0.0
  0
ARC
  5
10E
330
1F
100
AcDbEntity
  8
0
100
AcDbCircle
 10
51.550000014
 20
30.5209590188295
 30
0.0000000000000003
 40
1.5
100
AcDbArc
 50
0.0
 51
90.0
  0
LINE
  5
10F
330
1F
100
AcDbEntity
  8
0
100
AcDbLine
 10
50.050000014
 20
32.0209590188295
 30
0.0
 11
51.550000014
 21
32.0209590188295
 31
0.0000000000000003
210
0.0
220
1.0
230
0.0
  0
ARC
  5
110
330
1F
100
AcDbEntity
  8
0
100
AcDbCircle
 10
51.58240081335312
 20
29.83042523307029
 30
0.0000000000000003
 40
1.5
100
AcDbArc
 50
348.0696076384024
 51
0.0000000000008142
  0
ARC
  5
111
330
1F
100
AcDbEntity
  8
0
100
AcDbCircle
 10
51.58240081335312
 20
71.8304252330703
 30
0.0000000000000003
 40
1.5
100
AcDbArc
 50
359.9999999999991
 51
89.9999999999996
  0
LINE
  5
113
330
1F
100
AcDbEntity
  8
0
100
AcDbLine
 10
35.75000000000001
 20
-87.6304252470703
 30
0.0
 11
27.38608884150346
 21
-87.6304252470703
 31
0.0
  0
LINE
  5
114
330
1F
100
AcDbEntity
  8
0
100
AcDbLine
 10
27.38608884150346
 20
-87.6304252470703
 30
0.0
 11
18.71323173046539
 21
-87.6304252470703
 31
0.0
  0
LINE
  5
115
330
1F
100
AcDbEntity
  8
0
100
AcDbLine
 10
18.71323173046539
 20
-87.6304252470703
 30
0.0
 11
16.72777625313039
 21
-87.6304252470703
 31
0.0
  0
LINE
  5
116
330
1F
100
AcDbEntity
  8
0
100
AcDbLine
 10
-16.72777625313036
 20
-87.6304252470703
 30
0.0
 11
16.72777625313039
 21
-87.6304252470703
 31
0.0
  0
LINE
  5
117
330
1F
100
AcDbEntity
  8
0
100
AcDbLine
 10
-16.72777625313039
 20
-87.6304252470703
 30
0.0
 11
-18.71323173046535
 21
-87.6304252470703
 31
0.0
  0
LINE
  5
118
330
1F
100
AcDbEntity
  8
0
100
AcDbLine
 10
-27.38608884150345
 20
-87.6304252470703
 30
0.0
 11
-18.71323173046537
 21
-87.6304252470703
 31
0.0
  0
LINE
  5
119
330
1F
100
AcDbEntity
  8
0
100
AcDbLine
 10
-27.38608884150345
 20
-87.6304252470703
 30
0.0
 11
-35.74999999999997
 21
-87.6304252470703
 31
0.0
  0
LINE
  5
11A
330
1F
100
AcDbEntity
  8
0
100
AcDbLine
 10
-34.24999999999998
 20
-90.63042524707027
 30
0.0
 11
-26.23702217682498
 21
-90.63042524707027
 31
0.0
  0
LINE
  5
11B
330
1F
100
AcDbEntity
  8
0
100
AcDbLine
 10
-26.23702217682499
 20
-90.63042524707027
 30
0.0
 11
-21.22626053945592
 21
-90.63042524707027
 31
0.0
  0
LINE
  5
11C
330
1F
100
AcDbEntity
  8
0
100
AcDbLine
 10
21.39390907044343
 20
-90.63042524707027
 30
0.0
 11
26.23702217682501
 21
-90.63042524707027
 31
0.0
  0
LINE
  5
11D
330
1F
100
AcDbEntity
  8
0
100
AcDbLine
 10
26.23702217682501
 20
-90.63042524707027
 30
0.0
 11
34.25
 21
-90.63042524707027
 31
0.0
  0
LINE
  5
11E
330
1F
100
AcDbEntity
  8
0
100
AcDbLine
 10
-20.91617573450625
 20
-90.66282604642344
 30
0.0
 11
21.08382426549375
 21
-90.66282604642344
 31
0.0
  0
LINE
  5
11F
330
1F
100
AcDbEntity
  8
0
100
AcDbLine
 10
22.58382426549375
 20
-87.66282604642343
 30
0.0
 11
-22.41617573450624
 21
-87.66282604642343
 31
0.0
  0
LINE
  5
120
330
1F
100
AcDbEntity
  8
0
100
AcDbLine
 10
-22.41617573450624
 20
-87.66282604642343
 30
0.0
 11
-22.41617573450624
 21
-89.16282604642344
 31
0.0
  0
LINE
  5
121
330
1F
100
AcDbEntity
  8
0
100
AcDbLine
 10
22.58382426549375
 20
-87.66282604642343
 30
0.0
 11
22.58382426549375
 21
-89.16282604642344
 31
0.0
  0
LINE
  5
122
330
1F
100
AcDbEntity
  8
0
100
AcDbLine
 10
-35.74999999999997
 20
-87.6304252470703
 30
0.0
 11
-35.74999999999997
 21
-89.13042524707028
 31
0.0
  0
LINE
  5
123
330
1F
100
AcDbEntity
  8
0
100
AcDbLine
 10
35.75000000000001
 20
-87.6304252470703
 30
0.0
 11
35.75000000000001
 21
-89.13042524707028
 31
0.0
  0
ARC
  5
124
330
1F
100
AcDbEntity
  8
0
100
AcDbCircle
 10
-20.91617573450625
 20
-89.16282604642344
 30
0.0
 40
1.5
100
AcDbArc
 50
180.0
 51
270.0000000000012
  0
ARC
  5
125
330
1F
100
AcDbEntity
  8
0
100
AcDbCircle
 10
21.08382426549375
 20
-89.16282604642344
 30
0.0
 40
1.5
100
AcDbArc
 50
269.9999999999978
 51
0.0
  0
ARC
  5
126
330
1F
100
AcDbEntity
  8
0
100
AcDbCircle
 10
34.25
 20
-89.13042524707028
 30
0.0
 40
1.5
100
AcDbArc
 50
269.9999999999978
 51
0.0
  0
ARC
  5
127
330
1F
100
AcDbEntity
  8
0
100
AcDbCircle
 10
-34.24999999999998
 20
-89.13042524707028
 30
0.0
 40
1.5
100
AcDbArc
 50
180.0
 51
270.0000000000012
  0
ENDSEC
  0
SECTION
  2
OBJECTS
  0
DICTIONARY
  5
C
330
0
100
AcDbDictionary
  3
ACAD_GROUP
350
D
  3
ACAD_LAYOUT
350
1A
  3
ACAD_MLINESTYLE
350
17
  3
ACAD_PLOTSETTINGS
350
19
  3
ACAD_PLOTSTYLENAME
350
C8
  3
ACDBHEADERROUNDTRIPXREC
350
152
1001
ACAD
1000
TREAT_AS_HARD
1070
     0
  0
DICTIONARY
  5
C2
330
1F
100
AcDbDictionary
  3
ACAD_LAYOUTSELFREF
350
173
  0
DICTIONARY
  5
C0
330
1B
100
AcDbDictionary
  3
ACAD_LAYOUTSELFREF
350
172
  0
DICTIONARY
  5
D
102
{ACAD_REACTORS
330
C
102
}
330
C
100
AcDbDictionary
1001
ACAD
1000
TREAT_AS_HARD
1070
     0
  0
DICTIONARY
  5
1A
102
{ACAD_REACTORS
330
C
102
}
330
C
100
AcDbDictionary
1001
ACAD
1000
TREAT_AS_HARD
1070
     0
  0
DICTIONARY
  5
17
102
{ACAD_REACTORS
330
C
102
}
330
C
100
AcDbDictionary
  3
STANDARD
350
18
1001
ACAD
1000
TREAT_AS_HARD
1070
     0
  0
DICTIONARY
  5
19
102
{ACAD_REACTORS
330
C
102
}
330
C
100
AcDbDictionary
1001
ACAD
1000
TREAT_AS_HARD
1070
     0
  0
ACDBDICTIONARYWDFLT
  5
C8
102
{ACAD_REACTORS
330
C
102
}
330
C
100
AcDbDictionary
281
     1
  3
Normal
350
C9
100
AcDbDictionaryWithDefault
340
C9
  0
DICTIONARY
  5
152
102
{ACAD_REACTORS
330
C
102
}
330
C
100
AcDbDictionary
  3
TSTACKALIGN
350
153
  3
TSTACKSIZE
350
154
  3
HYPERLINKBASE
350
155
  3
STYLESHEET
350
156
  3
LAYOUTDICT
350
157
  3
PLOTSETDICT
350
158
  3
PLOTSTYLNAMDICT
350
159
  3
LWETCUNION
350
15A
  3
INSUNITS
350
15B
  3
CEPSNTYPE
350
15C
  3
FINGERPRINTGUID
350
15D
  3
VERSIONGUID
350
15E
  3
PSVPSCALE
350
15F
  3
PUCSORTHOREF
350
160
  3
PUCSORTHOVIEW
350
161
  3
PUCSBASE
350
162
  3
PUCSORGTOP
350
163
  3
PUCSORGBOTTOM
350
164
  3
PUCSORGLEFT
350
165
  3
PUCSORGRIGHT
350
166
  3
PUCSORGFRONT
350
167
  3
PUCSORGBACK
350
168
  3
UCSORTHOREF
350
169
  3
UCSORTHOVIEW
350
16A
  3
UCSBASE
350
16B
  3
UCSORGTOP
350
16C
  3
UCSORGBOTTOM
350
16D
  3
UCSORGLEFT
350
16E
  3
UCSORGRIGHT
350
16F
  3
UCSORGFRONT
350
170
  3
UCSORGBACK
350
171
  0
XRECORD
  5
173
102
{ACAD_REACTORS
330
C2
102
}
330
C2
100
AcDbXrecord
340
1F
  0
XRECORD
  5
172
102
{ACAD_REACTORS
330
C0
102
}
330
C0
100
AcDbXrecord
340
1B
  0
MLINESTYLE
  5
18
102
{ACAD_REACTORS
330
17
102
}
330
17
100
AcDbMlineStyle
  2
STANDARD
 70
     0
  3

 62
   256
 51
90.0
 52
90.0
 71
     2
 49
0.5
 62
   256
  6
BYLAYER
 49
-0.5
 62
   256
  6
BYLAYER
  0
ACDBPLACEHOLDER
  5
C9
102
{ACAD_REACTORS
330
C8
102
}
330
C8
100
AcDbPlaceHolder
280
     0
  0
XRECORD
  5
153
102
{ACAD_REACTORS
330
152
102
}
330
152
100
AcDbXrecord
 90
        1
  0
XRECORD
  5
154
102
{ACAD_REACTORS
330
152
102
}
330
152
100
AcDbXrecord
 90
       70
  0
XRECORD
  5
155
102
{ACAD_REACTORS
330
152
102
}
330
152
100
AcDbXrecord
  1

  0
XRECORD
  5
156
102
{ACAD_REACTORS
330
152
102
}
330
152
100
AcDbXrecord
  1

  0
XRECORD
  5
157
102
{ACAD_REACTORS
330
152
102
}
330
152
100
AcDbXrecord
340
1A
  0
XRECORD
  5
158
102
{ACAD_REACTORS
330
152
102
}
330
152
100
AcDbXrecord
340
19
  0
XRECORD
  5
159
102
{ACAD_REACTORS
330
152
102
}
330
152
100
AcDbXrecord
340
C8
  0
XRECORD
  5
15A
102
{ACAD_REACTORS
330
152
102
}
330
152
100
AcDbXrecord
 90
    10781
  0
XRECORD
  5
15B
102
{ACAD_REACTORS
330
152
102
}
330
152
100
AcDbXrecord
 90
        0
  0
XRECORD
  5
15C
102
{ACAD_REACTORS
330
152
102
}
330
152
100
AcDbXrecord
 90
        0
  0
XRECORD
  5
15D
102
{ACAD_REACTORS
330
152
102
}
330
152
100
AcDbXrecord
  1
{35607334-5C64-460F-84C2-FAE739A0689E}
  0
XRECORD
  5
15E
102
{ACAD_REACTORS
330
152
102
}
330
152
100
AcDbXrecord
  1
{819530A1-49F7-4AC7-8475-C06997599B95}
  0
XRECORD
  5
15F
102
{ACAD_REACTORS
330
152
102
}
330
152
100
AcDbXrecord
 40
0.0
  0
XRECORD
  5
160
102
{ACAD_REACTORS
330
152
102
}
330
152
100
AcDbXrecord
340
0
  0
XRECORD
  5
161
102
{ACAD_REACTORS
330
152
102
}
330
152
100
AcDbXrecord
 70
     0
  0
XRECORD
  5
162
102
{ACAD_REACTORS
330
152
102
}
330
152
100
AcDbXrecord
340
0
  0
XRECORD
  5
163
102
{ACAD_REACTORS
330
152
102
}
330
152
100
AcDbXrecord
 10
0.0
 20
0.0
 30
0.0
  0
XRECORD
  5
164
102
{ACAD_REACTORS
330
152
102
}
330
152
100
AcDbXrecord
 10
0.0
 20
0.0
 30
0.0
  0
XRECORD
  5
165
102
{ACAD_REACTORS
330
152
102
}
330
152
100
AcDbXrecord
 10
0.0
 20
0.0
 30
0.0
  0
XRECORD
  5
166
102
{ACAD_REACTORS
330
152
102
}
330
152
100
AcDbXrecord
 10
0.0
 20
0.0
 30
0.0
  0
XRECORD
  5
167
102
{ACAD_REACTORS
330
152
102
}
330
152
100
AcDbXrecord
 10
0.0
 20
0.0
 30
0.0
  0
XRECORD
  5
168
102
{ACAD_REACTORS
330
152
102
}
330
152
100
AcDbXrecord
 10
0.0
 20
0.0
 30
0.0
  0
XRECORD
  5
169
102
{ACAD_REACTORS
330
152
102
}
330
152
100
AcDbXrecord
340
0
  0
XRECORD
  5
16A
102
{ACAD_REACTORS
330
152
102
}
330
152
100
AcDbXrecord
 70
     0
  0
XRECORD
  5
16B
102
{ACAD_REACTORS
330
152
102
}
330
152
100
AcDbXrecord
340
0
  0
XRECORD
  5
16C
102
{ACAD_REACTORS
330
152
102
}
330
152
100
AcDbXrecord
 10
0.0
 20
0.0
 30
0.0
  0
XRECORD
  5
16D
102
{ACAD_REACTORS
330
152
102
}
330
152
100
AcDbXrecord
 10
0.0
 20
0.0
 30
0.0
  0
XRECORD
  5
16E
102
{ACAD_REACTORS
330
152
102
}
330
152
100
AcDbXrecord
 10
0.0
 20
0.0
 30
0.0
  0
XRECORD
  5
16F
102
{ACAD_REACTORS
330
152
102
}
330
152
100
AcDbXrecord
 10
0.0
 20
0.0
 30
0.0
  0
XRECORD
  5
170
102
{ACAD_REACTORS
330
152
102
}
330
152
100
AcDbXrecord
 10
0.0
 20
0.0
 30
0.0
  0
XRECORD
  5
171
102
{ACAD_REACTORS
330
152
102
}
330
152
100
AcDbXrecord
 10
0.0
 20
0.0
 30
0.0
  0
ENDSEC
  0
EOF
