  0
SECTION
  2
HEADER
  9
$ACADVER
  1
AC1014
  9
$ACADMAINTVER
 70
     9
  9
$DWGCODEPAGE
  3
ANSI_1252
  9
$INSBASE
 10
0.0
 20
0.0
 30
0.0
  9
$EXTMIN
 10
-66.09220863521163
 20
-95.81308201525191
 30
-0.0000000000000048
  9
$EXTMAX
 10
66.09220863521163
 20
74.82381616827208
 30
0.000000000000006
  9
$LIMMIN
 10
0.0
 20
0.0
  9
$LIMMAX
 10
12.0
 20
9.0
  9
$ORTHOMODE
 70
     0
  9
$REGENMODE
 70
     1
  9
$FILLMODE
 70
     1
  9
$QTEXTMODE
 70
     0
  9
$MIRRTEXT
 70
     1
  9
$DRAGMODE
 70
     2
  9
$LTSCALE
 40
1.0
  9
$OSMODE
 70
  2223
  9
$ATTMODE
 70
     1
  9
$TEXTSIZE
 40
0.2
  9
$TRACEWID
 40
0.05
  9
$TEXTSTYLE
  7
STANDARD
  9
$CLAYER
  8
0
  9
$CELTYPE
  6
BYLAYER
  9
$CECOLOR
 62
   256
  9
$CELTSCALE
 40
1.0
  9
$DELOBJ
 70
     1
  9
$DISPSILH
 70
     0
  9
$DIMSCALE
 40
1.0
  9
$DIMASZ
 40
0.18
  9
$DIMEXO
 40
0.0625
  9
$DIMDLI
 40
0.38
  9
$DIMRND
 40
0.0
  9
$DIMDLE
 40
0.0
  9
$DIMEXE
 40
0.18
  9
$DIMTP
 40
0.0
  9
$DIMTM
 40
0.0
  9
$DIMTXT
 40
0.18
  9
$DIMCEN
 40
0.09
  9
$DIMTSZ
 40
0.0
  9
$DIMTOL
 70
     0
  9
$DIMLIM
 70
     0
  9
$DIMTIH
 70
     1
  9
$DIMTOH
 70
     1
  9
$DIMSE1
 70
     0
  9
$DIMSE2
 70
     0
  9
$DIMTAD
 70
     0
  9
$DIMZIN
 70
     0
  9
$DIMBLK
  1

  9
$DIMASO
 70
     1
  9
$DIMSHO
 70
     1
  9
$DIMPOST
  1

  9
$DIMAPOST
  1

  9
$DIMALT
 70
     0
  9
$DIMALTD
 70
     2
  9
$DIMALTF
 40
25.4
  9
$DIMLFAC
 40
1.0
  9
$DIMTOFL
 70
     0
  9
$DIMTVP
 40
0.0
  9
$DIMTIX
 70
     0
  9
$DIMSOXD
 70
     0
  9
$DIMSAH
 70
     0
  9
$DIMBLK1
  1

  9
$DIMBLK2
  1

  9
$DIMSTYLE
  2
STANDARD
  9
$DIMCLRD
 70
     0
  9
$DIMCLRE
 70
     0
  9
$DIMCLRT
 70
     0
  9
$DIMTFAC
 40
1.0
  9
$DIMGAP
 40
0.09
  9
$DIMJUST
 70
     0
  9
$DIMSD1
 70
     0
  9
$DIMSD2
 70
     0
  9
$DIMTOLJ
 70
     1
  9
$DIMTZIN
 70
     0
  9
$DIMALTZ
 70
     0
  9
$DIMALTTZ
 70
     0
  9
$DIMFIT
 70
     3
  9
$DIMUPT
 70
     0
  9
$DIMUNIT
 70
     2
  9
$DIMDEC
 70
     4
  9
$DIMTDEC
 70
     4
  9
$DIMALTU
 70
     2
  9
$DIMALTTD
 70
     2
  9
$DIMTXSTY
  7
STANDARD
  9
$DIMAUNIT
 70
     0
  9
$LUNITS
 70
     2
  9
$LUPREC
 70
     4
  9
$SKETCHINC
 40
0.1
  9
$FILLETRAD
 40
0.5
  9
$AUNITS
 70
     0
  9
$AUPREC
 70
     0
  9
$MENU
  1
.
  9
$ELEVATION
 40
0.0
  9
$PELEVATION
 40
0.0
  9
$THICKNESS
 40
0.0
  9
$LIMCHECK
 70
     0
  9
$BLIPMODE
 70
     0
  9
$CHAMFERA
 40
0.5
  9
$CHAMFERB
 40
0.5
  9
$CHAMFERC
 40
1.0
  9
$CHAMFERD
 40
0.0
  9
$SKPOLY
 70
     0
  9
$TDCREATE
 40
2451762.578929282
  9
$TDUPDATE
 40
2453620.434718229
  9
$TDINDWG
 40
0.0011289583
  9
$TDUSRTIMER
 40
0.0011288426
  9
$USRTIMER
 70
     1
  9
$ANGBASE
 50
0.0
  9
$ANGDIR
 70
     0
  9
$PDMODE
 70
     0
  9
$PDSIZE
 40
0.0
  9
$PLINEWID
 40
0.0
  9
$COORDS
 70
     1
  9
$SPLFRAME
 70
     0
  9
$SPLINETYPE
 70
     6
  9
$SPLINESEGS
 70
     8
  9
$ATTDIA
 70
     0
  9
$ATTREQ
 70
     1
  9
$HANDLING
 70
 10241
  9
$HANDSEED
  5
1BA
  9
$SURFTAB1
 70
     6
  9
$SURFTAB2
 70
     6
  9
$SURFTYPE
 70
     6
  9
$SURFU
 70
     6
  9
$SURFV
 70
     6
  9
$UCSNAME
  2

  9
$UCSORG
 10
0.0
 20
0.0
 30
0.0
  9
$UCSXDIR
 10
1.0
 20
0.0
 30
0.0
  9
$UCSYDIR
 10
0.0
 20
1.0
 30
0.0
  9
$PUCSNAME
  2

  9
$PUCSORG
 10
0.0
 20
0.0
 30
0.0
  9
$PUCSXDIR
 10
1.0
 20
0.0
 30
0.0
  9
$PUCSYDIR
 10
0.0
 20
1.0
 30
0.0
  9
$USERI1
 70
     0
  9
$USERI2
 70
     0
  9
$USERI3
 70
     0
  9
$USERI4
 70
     0
  9
$USERI5
 70
     0
  9
$USERR1
 40
0.0
  9
$USERR2
 40
0.0
  9
$USERR3
 40
0.0
  9
$USERR4
 40
0.0
  9
$USERR5
 40
0.0
  9
$WORLDVIEW
 70
     1
  9
$SHADEDGE
 70
     3
  9
$SHADEDIF
 70
    70
  9
$TILEMODE
 70
     1
  9
$MAXACTVP
 70
    64
  9
$PINSBASE
 10
0.0
 20
0.0
 30
0.0
  9
$PLIMCHECK
 70
     0
  9
$PEXTMIN
 10
1.000000000000000E+20
 20
1.000000000000000E+20
 30
1.000000000000000E+20
  9
$PEXTMAX
 10
-1.000000000000000E+20
 20
-1.000000000000000E+20
 30
-1.000000000000000E+20
  9
$PLIMMIN
 10
0.0
 20
0.0
  9
$PLIMMAX
 10
12.0
 20
9.0
  9
$UNITMODE
 70
     0
  9
$VISRETAIN
 70
     1
  9
$PLINEGEN
 70
     0
  9
$PSLTSCALE
 70
     1
  9
$TREEDEPTH
 70
  3020
  9
$PICKSTYLE
 70
     1
  9
$CMLSTYLE
  2
STANDARD
  9
$CMLJUST
 70
     0
  9
$CMLSCALE
 40
1.0
  9
$PROXYGRAPHICS
 70
     1
  9
$MEASUREMENT
 70
     0
  0
ENDSEC
  0
SECTION
  2
CLASSES
  0
CLASS
  1
ACDBDICTIONARYWDFLT
  2
AcDbDictionaryWithDefault
  3
AutoCAD 2000
 90
        0
280
     0
281
     0
  0
CLASS
  1
ACDBPLACEHOLDER
  2
AcDbPlaceHolder
  3
AutoCAD 2000
 90
        0
280
     0
281
     0
  0
CLASS
  1
LAYOUT
  2
AcDbLayout
  3
AutoCAD 2000
 90
        0
280
     0
281
     0
  0
CLASS
  1
LONG_TRANSACTION
  2
AcDbLongTransaction
  3
AutoCAD 2000
 90
        0
280
     0
281
     0
  0
CLASS
  1
LWPOLYLINE
  2
AcDbPolyline
  3
AutoCAD 2000
 90
        0
280
     0
281
     1
  0
CLASS
  1
HATCH
  2
AcDbHatch
  3
AutoCAD 2000
 90
        0
280
     0
281
     1
  0
CLASS
  1
XRECORD
  2
AcDbXrecord
  3
AutoCAD 2000
 90
        0
280
     0
281
     0
  0
CLASS
  1
LONG_TRANSACTION
  2
AcDbLongTransaction
  3
AutoCAD 2000
 90
        0
280
     0
281
     0
  0
CLASS
  1
LWPOLYLINE
  2
AcDbPolyline
  3
AutoCAD 2000
 90
        0
280
     0
281
     1
  0
CLASS
  1
HATCH
  2
AcDbHatch
  3
AutoCAD 2000
 90
        0
280
     0
281
     1
  0
CLASS
  1
XRECORD
  2
AcDbXrecord
  3
AutoCAD 2000
 90
        0
280
     0
281
     0
  0
CLASS
  1
LONG_TRANSACTION
  2
AcDbLongTransaction
  3
AutoCAD 2000
 90
        0
280
     0
281
     0
  0
CLASS
  1
LWPOLYLINE
  2
AcDbPolyline
  3
AutoCAD 2000
 90
        0
280
     0
281
     1
  0
CLASS
  1
HATCH
  2
AcDbHatch
  3
AutoCAD 2000
 90
        0
280
     0
281
     1
  0
CLASS
  1
XRECORD
  2
AcDbXrecord
  3
AutoCAD 2000
 90
        0
280
     0
281
     0
  0
ENDSEC
  0
SECTION
  2
TABLES
  0
TABLE
  2
VPORT
  5
8
330
0
100
AcDbSymbolTable
 70
     2
  0
VPORT
  5
197
330
8
100
AcDbSymbolTableRecord
100
AcDbViewportTableRecord
  2
*ACTIVE
 70
     0
 10
0.0
 20
0.0
 11
1.0
 21
1.0
 12
0.7912870524183404
 22
35.55659220238808
 13
0.0
 23
0.0
 14
0.5
 24
0.5
 15
0.5
 25
0.5
 16
0.0
 26
0.0
 36
1.0
 17
0.0
 27
0.0
 37
0.0
 40
310.3713147511856
 41
1.525316455696202
 42
50.0
 43
0.0
 44
0.0
 50
0.0
 51
0.0
 71
     0
 72
   100
 73
     1
 74
     3
 75
     0
 76
     0
 77
     0
 78
     0
  0
ENDTAB
  0
TABLE
  2
LTYPE
  5
5
330
0
100
AcDbSymbolTable
 70
     1
  0
LTYPE
  5
14
330
5
100
AcDbSymbolTableRecord
100
AcDbLinetypeTableRecord
  2
BYBLOCK
 70
     0
  3

 72
    65
 73
     0
 40
0.0
  0
LTYPE
  5
15
330
5
100
AcDbSymbolTableRecord
100
AcDbLinetypeTableRecord
  2
BYLAYER
 70
     0
  3

 72
    65
 73
     0
 40
0.0
  0
LTYPE
  5
16
330
5
100
AcDbSymbolTableRecord
100
AcDbLinetypeTableRecord
  2
CONTINUOUS
 70
     0
  3
Solid line
 72
    65
 73
     0
 40
0.0
  0
ENDTAB
  0
TABLE
  2
LAYER
  5
2
330
0
100
AcDbSymbolTable
 70
     2
  0
LAYER
  5
10
330
2
100
AcDbSymbolTableRecord
100
AcDbLayerTableRecord
  2
0
 70
     0
 62
     7
  6
CONTINUOUS
  0
ENDTAB
  0
TABLE
  2
STYLE
  5
3
330
0
100
AcDbSymbolTable
 70
     1
  0
STYLE
  5
11
330
3
100
AcDbSymbolTableRecord
100
AcDbTextStyleTableRecord
  2
STANDARD
 70
     0
 40
0.0
 41
1.0
 50
0.0
 71
     0
 42
0.2
  3
txt
  4

  0
ENDTAB
  0
TABLE
  2
VIEW
  5
6
330
0
100
AcDbSymbolTable
 70
     0
  0
ENDTAB
  0
TABLE
  2
UCS
  5
7
330
0
100
AcDbSymbolTable
 70
     0
  0
ENDTAB
  0
TABLE
  2
APPID
  5
9
330
0
100
AcDbSymbolTable
 70
     1
  0
APPID
  5
12
330
9
100
AcDbSymbolTableRecord
100
AcDbRegAppTableRecord
  2
ACAD
 70
     0
  0
ENDTAB
  0
TABLE
  2
DIMSTYLE
  5
A
330
0
100
AcDbSymbolTable
 70
     1
  0
DIMSTYLE
105
27
330
A
100
AcDbSymbolTableRecord
100
AcDbDimStyleTableRecord
  2
STANDARD
 70
     0
  3

  4

  5

  6

  7

 40
1.0
 41
0.18
 42
0.0625
 43
0.38
 44
0.18
 45
0.0
 46
0.0
 47
0.0
 48
0.0
140
0.18
141
0.09
142
0.0
143
25.4
144
1.0
145
0.0
146
1.0
147
0.09
 71
     0
 72
     0
 73
     1
 74
     1
 75
     0
 76
     0
 77
     0
 78
     0
170
     0
171
     2
172
     0
173
     0
174
     0
175
     0
176
     0
177
     0
178
     0
270
     2
271
     4
272
     4
273
     2
274
     2
340
11
275
     0
280
     0
281
     0
282
     0
283
     1
284
     0
285
     0
286
     0
287
     3
288
     0
  0
ENDTAB
  0
TABLE
  2
BLOCK_RECORD
  5
1
330
0
100
AcDbSymbolTable
 70
     8
  0
BLOCK_RECORD
  5
1F
102
{ACAD_XDICTIONARY
360
E5
102
}
330
1
100
AcDbSymbolTableRecord
100
AcDbBlockTableRecord
  2
*MODEL_SPACE
  0
BLOCK_RECORD
  5
1B
102
{ACAD_XDICTIONARY
360
E3
102
}
330
1
100
AcDbSymbolTableRecord
100
AcDbBlockTableRecord
  2
*PAPER_SPACE
  0
ENDTAB
  0
ENDSEC
  0
SECTION
  2
BLOCKS
  0
BLOCK
  5
20
330
1F
100
AcDbEntity
  8
0
100
AcDbBlockBegin
  2
*MODEL_SPACE
 70
     0
 10
0.0
 20
0.0
 30
0.0
  3
*MODEL_SPACE
  1

  0
ENDBLK
  5
21
330
1F
100
AcDbEntity
  8
0
100
AcDbBlockEnd
  0
BLOCK
  5
1C
330
1B
100
AcDbEntity
 67
     1
  8
0
100
AcDbBlockBegin
  2
*PAPER_SPACE
 70
     0
 10
0.0
 20
0.0
 30
0.0
  3
*PAPER_SPACE
  1

  0
ENDBLK
  5
1D
330
1B
100
AcDbEntity
 67
     1
  8
0
100
AcDbBlockEnd
  0
ENDSEC
  0
SECTION
  2
ENTITIES
  0
LINE
  5
F2
330
1F
100
AcDbEntity
  8
0
100
AcDbLine
 10
-62.70919567703296
 20
-33.08074073858874
 30
0.0
 11
-62.70919567703296
 21
-20.96102004755842
 31
0.0
210
0.0
220
1.0
230
0.0
  0
LINE
  5
F3
330
1F
100
AcDbEntity
  8
0
100
AcDbLine
 10
-62.70919567703296
 20
-20.96102004755842
 30
0.0
 11
-62.70919567703296
 21
-15.9186589111731
 31
0.0
210
0.0
220
1.0
230
0.0
  0
LINE
  5
F4
330
1F
100
AcDbEntity
  8
0
100
AcDbLine
 10
-62.70919567703296
 20
24.69048166075886
 30
0.0
 11
-62.70919567703296
 21
-15.9186589111731
 31
0.0
210
0.0
220
1.0
230
0.0
  0
LINE
  5
F5
330
1F
100
AcDbEntity
  8
0
100
AcDbLine
 10
-62.70919567703296
 20
24.69048166075886
 30
0.0
 11
-62.70919567703296
 21
25.22630024622905
 31
0.0
210
0.0
220
1.0
230
0.0
  0
LINE
  5
F6
330
1F
100
AcDbEntity
  8
0
100
AcDbLine
 10
-62.70919567703296
 20
-74.51315599649234
 30
0.0
 11
-62.70919567703296
 21
-68.01315599649234
 31
0.0
210
0.0
220
1.0
230
0.0
  0
LINE
  5
F7
330
1F
100
AcDbEntity
  8
0
100
AcDbLine
 10
-62.70919567703296
 20
-68.01315599649234
 30
0.0
 11
-62.70919567703296
 21
-33.80540307965222
 31
0.0
210
0.0
220
1.0
230
0.0
  0
LINE
  5
F8
330
1F
100
AcDbEntity
  8
0
100
AcDbLine
 10
-62.70919567703296
 20
-33.08074073858874
 30
0.0
 11
-62.70919567703296
 21
-33.80540307965223
 31
0.0
210
0.0
220
1.0
230
0.0
  0
LINE
  5
F9
330
1F
100
AcDbEntity
  8
0
100
AcDbLine
 10
-65.70919567703295
 20
-19.76418954649452
 30
-0.0000000000000002
 11
-65.70919567703295
 21
-31.6314160564617
 31
-0.0000000000000002
210
0.0
220
1.0
230
0.0
  0
LINE
  5
FA
330
1F
100
AcDbEntity
  8
0
100
AcDbLine
 10
-65.70919567703295
 20
-16.88284032570294
 30
-0.0000000000000002
 11
-65.70919567703295
 21
-19.76418954649452
 31
-0.0000000000000002
210
0.0
220
1.0
230
0.0
  0
LINE
  5
FB
330
1F
100
AcDbEntity
  8
0
100
AcDbLine
 10
-65.70919567703295
 20
-31.63141605646172
 30
-0.0000000000000002
 11
-65.70919567703295
 21
-33.80540307965222
 31
-0.0000000000000002
210
0.0
220
1.0
230
0.0
  0
LINE
  5
FC
330
1F
100
AcDbEntity
  8
0
100
AcDbLine
 10
-65.70919567703295
 20
13.19789103615953
 30
-0.0000000000000002
 11
-65.70919567703295
 21
-16.88284032570294
 31
-0.0000000000000002
210
0.0
220
1.0
230
0.0
  0
LINE
  5
FD
330
1F
100
AcDbEntity
  8
0
100
AcDbLine
 10
-65.70919567703295
 20
-33.80540307965222
 30
-0.0000000000000002
 11
-65.70919567703295
 21
-68.01315599649234
 31
-0.0000000000000002
210
0.0
220
1.0
230
0.0
  0
LINE
  5
FE
330
1F
100
AcDbEntity
  8
0
100
AcDbLine
 10
-65.70919567703295
 20
-68.01315599649234
 30
-0.0000000000000002
 11
-65.70919567703295
 21
-73.01315599649234
 31
-0.0000000000000002
210
0.0
220
1.0
230
0.0
  0
LINE
  5
FF
330
1F
100
AcDbEntity
  8
0
100
AcDbLine
 10
-62.78154846343181
 20
12.15813383457884
 30
0.0
 11
-62.78154846343181
 21
20.37207188301151
 31
0.0
210
0.0
220
1.0
230
0.0
  0
LINE
  5
100
330
1F
100
AcDbEntity
  8
0
100
AcDbLine
 10
-62.78154846343181
 20
37.96982818144056
 30
0.0
 11
-62.78154846343181
 21
20.37207188301151
 31
0.0
210
0.0
220
1.0
230
0.0
  0
LINE
  5
101
330
1F
100
AcDbEntity
  8
0
100
AcDbLine
 10
-62.78154846343181
 20
38.88937815024707
 30
0.0
 11
-62.78154846343181
 21
37.96982818144056
 31
0.0
210
0.0
220
1.0
230
0.0
  0
LINE
  5
102
330
1F
100
AcDbEntity
  8
0
100
AcDbLine
 10
-62.78154846343181
 20
38.88937815024707
 30
0.0
 11
-62.78154846343181
 21
74.51315599649226
 31
0.0
210
0.0
220
1.0
230
0.0
  0
LINE
  5
103
330
1F
100
AcDbEntity
  8
0
100
AcDbLine
 10
-65.7815484634318
 20
19.40789046848171
 30
-0.0000000000000002
 11
-65.7815484634318
 21
13.65813383457884
 31
-0.0000000000000002
210
0.0
220
1.0
230
0.0
  0
LINE
  5
104
330
1F
100
AcDbEntity
  8
0
100
AcDbLine
 10
-65.7815484634318
 20
37.00564676691074
 30
-0.0000000000000002
 11
-65.7815484634318
 21
19.40789046848171
 31
-0.0000000000000002
210
0.0
220
1.0
230
0.0
  0
LINE
  5
105
330
1F
100
AcDbEntity
  8
0
100
AcDbLine
 10
-65.7815484634318
 20
39.76429667333006
 30
-0.0000000000000002
 11
-65.7815484634318
 21
37.00564676691074
 31
-0.0000000000000002
210
0.0
220
1.0
230
0.0
  0
LINE
  5
106
330
1F
100
AcDbEntity
  8
0
100
AcDbLine
 10
-65.7815484634318
 20
73.01315599649226
 30
-0.0000000000000002
 11
-65.7815484634318
 21
39.76429667332974
 31
-0.0000000000000002
210
0.0
220
1.0
230
0.0
  0
LINE
  5
107
330
1F
100
AcDbEntity
  8
0
100
AcDbLine
 10
-62.78154846343181
 20
74.51315599649226
 30
0.0
 11
-64.2815484634318
 21
74.51315599649226
 31
-0.0000000000000001
210
0.0
220
1.0
230
0.0
  0
LINE
  5
108
330
1F
100
AcDbEntity
  8
0
100
AcDbLine
 10
-62.78154846343181
 20
12.15813383457884
 30
0.0
 11
-64.2815484634318
 21
12.15813383457884
 31
-0.0000000000000001
210
0.0
220
1.0
230
0.0
  0
LINE
  5
109
330
1F
100
AcDbEntity
  8
0
100
AcDbLine
 10
-62.70919567703296
 20
-74.51315599649234
 30
0.0
 11
-64.20919567703297
 21
-74.51315599649234
 31
-0.0000000000000001
210
0.0
220
1.0
230
0.0
  0
LINE
  5
10A
330
1F
100
AcDbEntity
  8
0
100
AcDbLine
 10
-62.70919567703296
 20
25.22630024622905
 30
0.0
 11
-62.78154846343181
 21
25.22630024622905
 31
0.0
210
0.0
220
1.0
230
0.0
  0
ARC
  5
10B
330
1F
100
AcDbEntity
  8
0
100
AcDbCircle
 10
-64.2815484634318
 20
73.01315599649226
 30
-0.0000000000000001
 40
1.5
100
AcDbArc
 50
90.0
 51
179.999999999999
  0
ARC
  5
10C
330
1F
100
AcDbEntity
  8
0
100
AcDbCircle
 10
-64.2815484634318
 20
13.65813383457884
 30
-0.0000000000000001
 40
1.5
100
AcDbArc
 50
179.9999999999983
 51
269.9999999999996
  0
ARC
  5
10D
330
1F
100
AcDbEntity
  8
0
100
AcDbCircle
 10
-64.20919567703297
 20
-73.01315599649234
 30
-0.0000000000000001
 40
1.5
100
AcDbArc
 50
179.9999999999974
 51
269.9999999999996
  0
ARC
  5
10F
330
1F
100
AcDbEntity
  8
0
100
AcDbCircle
 10
0.000000000000008
 20
36.48684400350755
 30
0.0000000000000006
 40
72.0
100
AcDbArc
 50
284.9355270538133
 51
307.0712031127316
  0
ARC
  5
110
330
1F
100
AcDbEntity
  8
0
100
AcDbCircle
 10
41.2922826164521
 20
-18.16841554507601
 30
0.0000000000000057
 40
3.5
100
AcDbArc
 50
307.0712031127313
 51
39.99999999999986
  0
ARC
  5
111
330
1F
100
AcDbEntity
  8
0
100
AcDbCircle
 10
18.75
 20
-33.80540307965222
 30
0.0000000000000029
 40
0.75
100
AcDbArc
 50
104.9355270538135
 51
180.0
  0
LINE
  5
112
330
1F
100
AcDbEntity
  8
0
100
AcDbLine
 10
43.97343816736853
 20
-15.9186589111731
 30
0.000000000000006
 11
9.898323291034078
 21
24.69048166075886
 31
0.0000000000000018
210
0.0
220
1.0
230
0.0
  0
LINE
  5
113
330
1F
100
AcDbEntity
  8
0
100
AcDbLine
 10
18.0
 20
-68.01315599649234
 30
0.0000000000000028
 11
18.0
 21
-33.80540307965222
 31
0.0000000000000028
210
0.0
220
1.0
230
0.0
  0
ARC
  5
114
330
1F
100
AcDbEntity
  8
0
100
AcDbCircle
 10
8.749256626355608
 20
23.72630024622905
 30
0.0000000000000017
 40
1.5
100
AcDbArc
 50
39.99999999999978
 51
106.1262126930567
  0
ARC
  5
115
330
1F
100
AcDbEntity
  8
0
100
AcDbCircle
 10
11.5
 20
-68.01315599649234
 30
0.000000000000002
 40
6.5
100
AcDbArc
 50
179.999999999999
 51
0.0
  0
ARC
  5
116
330
1F
100
AcDbEntity
  8
0
100
AcDbCircle
 10
0.000000000000008
 20
53.98684400350765
 30
0.0000000000000006
 40
30.0
100
AcDbArc
 50
253.8737873069429
 51
286.1262126930568
  0
LINE
  5
117
330
1F
100
AcDbEntity
  8
0
100
AcDbLine
 10
5.000000000000006
 20
-36.26315599649234
 30
0.0000000000000012
 11
5.000000000000006
 21
-68.01315599649234
 31
0.0000000000000012
210
0.0
220
1.0
230
0.0
  0
ARC
  5
118
330
1F
100
AcDbEntity
  8
0
100
AcDbCircle
 10
-8.749256626355593
 20
23.72630024622905
 30
-0.0000000000000005
 40
1.5
100
AcDbArc
 50
73.87378730694369
 51
140.0000000000001
  0
ARC
  5
119
330
1F
100
AcDbEntity
  8
0
100
AcDbCircle
 10
4.250000000000006
 20
-36.26315599649234
 30
0.0000000000000011
 40
0.75
100
AcDbArc
 50
0.0
 51
90.0000000000001
  0
LINE
  5
11A
330
1F
100
AcDbEntity
  8
0
100
AcDbLine
 10
-9.898323291034067
 20
24.69048166075886
 30
-0.0000000000000006
 11
-43.97343816736852
 21
-15.9186589111731
 31
-0.0000000000000048
210
0.0
220
1.0
230
0.0
  0
LINE
  5
11B
330
1F
100
AcDbEntity
  8
0
100
AcDbLine
 10
-4.249999999999992
 20
-35.51315599649234
 30
0.0000000000000001
 11
4.250000000000006
 21
-35.51315599649234
 31
0.0000000000000011
210
0.0
220
1.0
230
0.0
  0
ARC
  5
11C
330
1F
100
AcDbEntity
  8
0
100
AcDbCircle
 10
-41.29228261645208
 20
-18.16841554507601
 30
-0.0000000000000044
 40
3.5
100
AcDbArc
 50
140.0
 51
232.9287968872684
  0
ARC
  5
11D
330
1F
100
AcDbEntity
  8
0
100
AcDbCircle
 10
-4.249999999999992
 20
-36.26315599649234
 30
0.0000000000000001
 40
0.75
100
AcDbArc
 50
89.99999999999978
 51
180.0
  0
ARC
  5
11E
330
1F
100
AcDbEntity
  8
0
100
AcDbCircle
 10
0.000000000000008
 20
36.48684400350755
 30
0.0000000000000006
 40
72.0
100
AcDbArc
 50
232.9287968872681
 51
255.0644729461863
  0
LINE
  5
11F
330
1F
100
AcDbEntity
  8
0
100
AcDbLine
 10
-4.999999999999992
 20
-68.01315599649234
 30
0.0
 11
-4.999999999999992
 21
-36.26315599649234
 31
0.0
210
0.0
220
1.0
230
0.0
  0
ARC
  5
120
330
1F
100
AcDbEntity
  8
0
100
AcDbCircle
 10
-18.74999999999999
 20
-33.80540307965222
 30
-0.0000000000000017
 40
0.75
100
AcDbArc
 50
0.0
 51
75.06447294618752
  0
ARC
  5
121
330
1F
100
AcDbEntity
  8
0
100
AcDbCircle
 10
-11.49999999999999
 20
-68.01315599649234
 30
-0.0000000000000008
 40
6.5
100
AcDbArc
 50
179.999999999999
 51
0.0
  0
LINE
  5
122
330
1F
100
AcDbEntity
  8
0
100
AcDbLine
 10
-17.99999999999998
 20
-33.80540307965222
 30
-0.0000000000000016
 11
-17.99999999999998
 21
-68.01315599649234
 31
-0.0000000000000016
210
0.0
220
1.0
230
0.0
  0
ARC
  5
123
330
1F
100
AcDbEntity
  8
0
100
AcDbCircle
 10
0.4841487793835279
 20
52.01315599649226
 30
0.0000000000000007
 40
22.5
100
AcDbArc
 50
244.3184968415669
 51
295.6815031584328
  0
ARC
  5
124
330
1F
100
AcDbEntity
  8
0
100
AcDbCircle
 10
10.55995865262741
 20
31.05986137731033
 30
0.0000000000000019
 40
0.75
100
AcDbArc
 50
40.00000000000095
 51
115.6815031584337
  0
ARC
  5
125
330
1F
100
AcDbEntity
  8
0
100
AcDbCircle
 10
-9.591661093860363
 20
31.05986137731035
 30
-0.0000000000000006
 40
0.75
100
AcDbArc
 50
64.31849684156627
 51
140.0000000000001
  0
LINE
  5
126
330
1F
100
AcDbEntity
  8
0
100
AcDbLine
 10
11.13449198496664
 20
31.54195208457524
 30
0.000000000000002
 11
25.90076280452619
 21
13.94419578614614
 31
0.0000000000000038
210
0.0
220
1.0
230
0.0
  0
LINE
  5
127
330
1F
100
AcDbEntity
  8
0
100
AcDbLine
 10
-24.93246524575913
 20
13.94419578614614
 30
-0.0000000000000024
 11
-10.16619442619959
 21
31.54195208457524
 31
-0.0000000000000006
210
0.0
220
1.0
230
0.0
  0
ARC
  5
128
330
1F
100
AcDbEntity
  8
0
100
AcDbCircle
 10
29.73098502012106
 20
17.15813383457884
 30
0.0000000000000043
 40
5.0
100
AcDbArc
 50
219.9999999999999
 51
39.99999999999986
  0
ARC
  5
129
330
1F
100
AcDbEntity
  8
0
100
AcDbCircle
 10
-28.76268746135401
 20
17.15813383457884
 30
-0.0000000000000029
 40
5.0
100
AcDbArc
 50
140.0
 51
320.0
  0
LINE
  5
12A
330
1F
100
AcDbEntity
  8
0
100
AcDbLine
 10
33.56120723571596
 20
20.37207188301151
 30
0.0000000000000047
 11
18.79493641615642
 21
37.96982818144056
 31
0.0000000000000029
210
0.0
220
1.0
230
0.0
  0
LINE
  5
12B
330
1F
100
AcDbEntity
  8
0
100
AcDbLine
 10
-17.82663885738937
 20
37.96982818144056
 30
-0.0000000000000016
 11
-32.5929096769489
 21
20.37207188301151
 31
-0.0000000000000034
210
0.0
220
1.0
230
0.0
  0
ARC
  5
12C
330
1F
100
AcDbEntity
  8
0
100
AcDbCircle
 10
19.36946974849564
 20
38.45191888870556
 30
0.000000000000003
 40
0.75
100
AcDbArc
 50
144.3184968415675
 51
220.0000000000008
  0
ARC
  5
12D
330
1F
100
AcDbEntity
  8
0
100
AcDbCircle
 10
-18.40117218972861
 20
38.45191888870544
 30
-0.0000000000000016
 40
0.75
100
AcDbArc
 50
320.0000000000001
 51
35.68150315843414
  0
ARC
  5
12E
330
1F
100
AcDbEntity
  8
0
100
AcDbCircle
 10
0.4841487793835279
 20
52.01315599649226
 30
0.0000000000000007
 40
22.5
100
AcDbArc
 50
324.3184968415658
 51
215.6815031584331
  0
LINE
  5
130
330
1F
100
AcDbEntity
  8
0
100
AcDbLine
 10
62.70919567703296
 20
25.22630024622905
 30
0.0
 11
62.70919567703296
 21
24.69048166075886
 31
0.0
210
0.0
220
1.0
230
0.0
  0
LINE
  5
131
330
1F
100
AcDbEntity
  8
0
100
AcDbLine
 10
62.70919567703296
 20
24.69048166075886
 30
0.0
 11
62.70919567703296
 21
-15.9186589111731
 31
0.0
210
0.0
220
1.0
230
0.0
  0
LINE
  5
132
330
1F
100
AcDbEntity
  8
0
100
AcDbLine
 10
62.70919567703296
 20
-15.9186589111731
 30
0.0
 11
62.70919567703296
 21
-20.96102004755842
 31
0.0
210
0.0
220
1.0
230
0.0
  0
LINE
  5
133
330
1F
100
AcDbEntity
  8
0
100
AcDbLine
 10
62.70919567703296
 20
-20.96102004755842
 30
0.0
 11
62.70919567703296
 21
-33.08074073858874
 31
0.0
210
0.0
220
1.0
230
0.0
  0
LINE
  5
134
330
1F
100
AcDbEntity
  8
0
100
AcDbLine
 10
62.70919567703296
 20
-33.80540307965222
 30
0.0
 11
62.70919567703296
 21
-33.08074073858874
 31
0.0
210
0.0
220
1.0
230
0.0
  0
LINE
  5
135
330
1F
100
AcDbEntity
  8
0
100
AcDbLine
 10
62.70919567703296
 20
-68.01315599649234
 30
0.0
 11
62.70919567703296
 21
-33.80540307965222
 31
0.0
210
0.0
220
1.0
230
0.0
  0
LINE
  5
136
330
1F
100
AcDbEntity
  8
0
100
AcDbLine
 10
62.70919567703296
 20
-68.0131559964923
 30
0.0
 11
62.70919567703296
 21
-74.51315599649234
 31
0.0
210
0.0
220
1.0
230
0.0
  0
LINE
  5
137
330
1F
100
AcDbEntity
  8
0
100
AcDbLine
 10
65.70919567703295
 20
-16.88284032570294
 30
0.0000000000000006
 11
65.70919567703295
 21
13.19789103615953
 31
0.0000000000000006
210
0.0
220
1.0
230
0.0
  0
LINE
  5
138
330
1F
100
AcDbEntity
  8
0
100
AcDbLine
 10
65.70919567703295
 20
-19.76418954649452
 30
0.0000000000000006
 11
65.70919567703295
 21
-16.88284032570294
 31
0.0000000000000006
210
0.0
220
1.0
230
0.0
  0
LINE
  5
139
330
1F
100
AcDbEntity
  8
0
100
AcDbLine
 10
65.70919567703295
 20
-31.6314160564617
 30
0.0000000000000006
 11
65.70919567703295
 21
-19.76418954649452
 31
0.0000000000000006
210
0.0
220
1.0
230
0.0
  0
LINE
  5
13A
330
1F
100
AcDbEntity
  8
0
100
AcDbLine
 10
65.70919567703295
 20
-33.80540307965222
 30
0.0000000000000006
 11
65.70919567703295
 21
-31.6314160564617
 31
0.0000000000000006
210
0.0
220
1.0
230
0.0
  0
LINE
  5
13B
330
1F
100
AcDbEntity
  8
0
100
AcDbLine
 10
65.70919567703295
 20
-73.01315599649234
 30
0.0000000000000006
 11
65.70919567703295
 21
-68.01315599649234
 31
0.0000000000000006
210
0.0
220
1.0
230
0.0
  0
LINE
  5
13C
330
1F
100
AcDbEntity
  8
0
100
AcDbLine
 10
65.70919567703295
 20
-68.01315599649234
 30
0.0000000000000006
 11
65.70919567703295
 21
-33.80540307965222
 31
0.0000000000000006
210
0.0
220
1.0
230
0.0
  0
LINE
  5
13D
330
1F
100
AcDbEntity
  8
0
100
AcDbLine
 10
62.78154846343181
 20
74.51315599649226
 30
0.0
 11
62.78154846343181
 21
38.88937815024675
 31
0.0
210
0.0
220
1.0
230
0.0
  0
LINE
  5
13E
330
1F
100
AcDbEntity
  8
0
100
AcDbLine
 10
62.78154846343181
 20
37.96982818144056
 30
0.0
 11
62.78154846343181
 21
38.88937815024707
 31
0.0
210
0.0
220
1.0
230
0.0
  0
LINE
  5
13F
330
1F
100
AcDbEntity
  8
0
100
AcDbLine
 10
62.78154846343181
 20
37.96982818144056
 30
0.0
 11
62.78154846343181
 21
20.37207188301151
 31
0.0
210
0.0
220
1.0
230
0.0
  0
LINE
  5
140
330
1F
100
AcDbEntity
  8
0
100
AcDbLine
 10
62.78154846343181
 20
20.37207188301151
 30
0.0
 11
62.78154846343181
 21
12.15813383457884
 31
0.0
210
0.0
220
1.0
230
0.0
  0
LINE
  5
141
330
1F
100
AcDbEntity
  8
0
100
AcDbLine
 10
65.7815484634318
 20
13.65813383457884
 30
0.0000000000000006
 11
65.7815484634318
 21
19.40789046848171
 31
0.0000000000000006
210
0.0
220
1.0
230
0.0
  0
LINE
  5
142
330
1F
100
AcDbEntity
  8
0
100
AcDbLine
 10
65.7815484634318
 20
19.40789046848171
 30
0.0000000000000006
 11
65.7815484634318
 21
37.00564676691074
 31
0.0000000000000006
210
0.0
220
1.0
230
0.0
  0
LINE
  5
143
330
1F
100
AcDbEntity
  8
0
100
AcDbLine
 10
65.7815484634318
 20
37.00564676691074
 30
0.0000000000000006
 11
65.7815484634318
 21
39.76429667333006
 31
0.0000000000000006
210
0.0
220
1.0
230
0.0
  0
LINE
  5
144
330
1F
100
AcDbEntity
  8
0
100
AcDbLine
 10
65.7815484634318
 20
39.76429667333006
 30
0.0000000000000006
 11
65.7815484634318
 21
73.01315599649226
 31
0.0000000000000006
210
0.0
220
1.0
230
0.0
  0
LINE
  5
145
330
1F
100
AcDbEntity
  8
0
100
AcDbLine
 10
62.78154846343181
 20
12.15813383457884
 30
0.0
 11
64.2815484634318
 21
12.15813383457884
 31
0.0000000000000003
210
0.0
220
1.0
230
0.0
  0
LINE
  5
146
330
1F
100
AcDbEntity
  8
0
100
AcDbLine
 10
62.78154846343181
 20
74.51315599649226
 30
0.0
 11
64.2815484634318
 21
74.51315599649226
 31
0.0000000000000003
210
0.0
220
1.0
230
0.0
  0
LINE
  5
147
330
1F
100
AcDbEntity
  8
0
100
AcDbLine
 10
62.70919567703296
 20
-74.51315599649234
 30
0.0
 11
64.20919567703297
 21
-74.51315599649234
 31
0.0000000000000003
210
0.0
220
1.0
230
0.0
  0
LINE
  5
148
330
1F
100
AcDbEntity
  8
0
100
AcDbLine
 10
62.70919567703296
 20
25.22630024622905
 30
0.0
 11
62.78154846343181
 21
25.22630024622905
 31
0.0
210
0.0
220
1.0
230
0.0
  0
ARC
  5
149
330
1F
100
AcDbEntity
  8
0
100
AcDbCircle
 10
64.2815484634318
 20
73.01315599649226
 30
0.0000000000000003
 40
1.5
100
AcDbArc
 50
359.9999999999991
 51
89.9999999999996
  0
ARC
  5
14A
330
1F
100
AcDbEntity
  8
0
100
AcDbCircle
 10
64.2815484634318
 20
13.65813383457884
 30
0.0000000000000003
 40
1.5
100
AcDbArc
 50
270.0
 51
0.0000000000008142
  0
ARC
  5
14B
330
1F
100
AcDbEntity
  8
0
100
AcDbCircle
 10
64.20919567703297
 20
-73.01315599649234
 30
0.0000000000000003
 40
1.5
100
AcDbArc
 50
270.0
 51
0.0000000000016284
  0
LINE
  5
14D
330
1F
100
AcDbEntity
  8
0
100
AcDbLine
 10
44.79228261645212
 20
-92.43006905707321
 30
0.0
 11
43.97343816736853
 21
-92.43006905707321
 31
0.0
  0
LINE
  5
14E
330
1F
100
AcDbEntity
  8
0
100
AcDbLine
 10
9.898323291034078
 20
-92.43006905707321
 30
0.0
 11
43.97343816736853
 21
-92.43006905707321
 31
0.0
  0
LINE
  5
14F
330
1F
100
AcDbEntity
  8
0
100
AcDbLine
 10
9.898323291034078
 20
-92.43006905707321
 30
0.0
 11
8.332625358433919
 21
-92.43006905707321
 31
0.0
  0
LINE
  5
150
330
1F
100
AcDbEntity
  8
0
100
AcDbLine
 10
-8.332625358433912
 20
-92.43006905707321
 30
0.0
 11
8.332625358433926
 21
-92.43006905707321
 31
0.0
  0
LINE
  5
151
330
1F
100
AcDbEntity
  8
0
100
AcDbLine
 10
-8.332625358433915
 20
-92.43006905707321
 30
0.0
 11
-9.898323291034067
 21
-92.43006905707321
 31
0.0
  0
LINE
  5
152
330
1F
100
AcDbEntity
  8
0
100
AcDbLine
 10
-9.898323291034063
 20
-92.43006905707321
 30
0.0
 11
-43.97343816736852
 21
-92.43006905707321
 31
0.0
  0
LINE
  5
153
330
1F
100
AcDbEntity
  8
0
100
AcDbLine
 10
-43.97343816736852
 20
-92.43006905707321
 30
0.0
 11
-44.7922826164521
 21
-92.43006905707321
 31
0.0
  0
LINE
  5
154
330
1F
100
AcDbEntity
  8
0
100
AcDbLine
 10
42.82437150269006
 20
-95.4300690570732
 30
0.0
 11
43.29228261645211
 21
-95.4300690570732
 31
0.0
  0
LINE
  5
155
330
1F
100
AcDbEntity
  8
0
100
AcDbLine
 10
33.6912278185404
 20
-95.4300690570732
 30
0.0
 11
42.82437150269007
 21
-95.4300690570732
 31
0.0
  0
LINE
  5
156
330
1F
100
AcDbEntity
  8
0
100
AcDbLine
 10
-42.82437150269005
 20
-95.4300690570732
 30
0.0
 11
-32.72293025977335
 21
-95.4300690570732
 31
0.0
  0
LINE
  5
157
330
1F
100
AcDbEntity
  8
0
100
AcDbLine
 10
-43.2922826164521
 20
-95.4300690570732
 30
0.0
 11
-42.82437150269005
 21
-95.4300690570732
 31
0.0
  0
LINE
  5
158
330
1F
100
AcDbEntity
  8
0
100
AcDbLine
 10
34.73098502012106
 20
-92.50242184347206
 30
0.0
 11
33.56120723571596
 21
-92.50242184347206
 31
0.0
  0
LINE
  5
159
330
1F
100
AcDbEntity
  8
0
100
AcDbLine
 10
22.98414877938351
 20
-92.50242184347206
 30
0.0
 11
33.56120723571596
 21
-92.50242184347206
 31
0.0
  0
LINE
  5
15A
330
1F
100
AcDbEntity
  8
0
100
AcDbLine
 10
22.98414877938351
 20
-92.50242184347206
 30
0.0
 11
-22.01585122061647
 21
-92.50242184347206
 31
0.0
  0
LINE
  5
15B
330
1F
100
AcDbEntity
  8
0
100
AcDbLine
 10
-22.01585122061646
 20
-92.50242184347206
 30
0.0
 11
-32.5929096769489
 21
-92.50242184347206
 31
0.0
  0
LINE
  5
15C
330
1F
100
AcDbEntity
  8
0
100
AcDbLine
 10
-32.5929096769489
 20
-92.50242184347206
 30
0.0
 11
-33.76268746135401
 21
-92.50242184347206
 31
0.0
  0
LINE
  5
15D
330
1F
100
AcDbEntity
  8
0
100
AcDbLine
 10
32.41214057103749
 20
-95.50242184347206
 30
0.0
 11
33.23098502012106
 21
-95.50242184347206
 31
0.0
  0
LINE
  5
15E
330
1F
100
AcDbEntity
  8
0
100
AcDbLine
 10
-32.26268746135402
 20
-95.50242184347206
 30
0.0
 11
-31.44384301227045
 21
-95.50242184347206
 31
0.0
  0
LINE
  5
15F
330
1F
100
AcDbEntity
  8
0
100
AcDbLine
 10
21.48414877938351
 20
-95.50242184347206
 30
0.0
 11
32.41214057103749
 21
-95.50242184347206
 31
0.0
  0
LINE
  5
160
330
1F
100
AcDbEntity
  8
0
100
AcDbLine
 10
-31.44384301227044
 20
-95.50242184347206
 30
0.0
 11
-20.51585122061646
 21
-95.50242184347206
 31
0.0
  0
LINE
  5
161
330
1F
100
AcDbEntity
  8
0
100
AcDbLine
 10
-20.51585122061646
 20
-95.50242184347206
 30
0.0
 11
21.48414877938352
 21
-95.50242184347206
 31
0.0
  0
LINE
  5
162
330
1F
100
AcDbEntity
  8
0
100
AcDbLine
 10
-33.76268746135401
 20
-92.50242184347206
 30
0.0
 11
-33.76268746135401
 21
-94.00242184347206
 31
0.0
  0
LINE
  5
163
330
1F
100
AcDbEntity
  8
0
100
AcDbLine
 10
-22.01585122061647
 20
-92.50242184347206
 30
0.0
 11
-22.01585122061647
 21
-94.00242184347206
 31
0.0
  0
LINE
  5
164
330
1F
100
AcDbEntity
  8
0
100
AcDbLine
 10
22.98414877938351
 20
-92.50242184347206
 30
0.0
 11
22.98414877938351
 21
-94.00242184347206
 31
0.0
  0
LINE
  5
165
330
1F
100
AcDbEntity
  8
0
100
AcDbLine
 10
34.73098502012106
 20
-92.50242184347206
 30
0.0
 11
34.73098502012106
 21
-94.00242184347206
 31
0.0
  0
LINE
  5
166
330
1F
100
AcDbEntity
  8
0
100
AcDbLine
 10
-44.7922826164521
 20
-92.43006905707321
 30
0.0
 11
-44.7922826164521
 21
-93.93006905707322
 31
0.0
  0
LINE
  5
167
330
1F
100
AcDbEntity
  8
0
100
AcDbLine
 10
44.79228261645212
 20
-92.43006905707321
 30
0.0
 11
44.79228261645212
 21
-93.93006905707322
 31
0.0
  0
ARC
  5
168
330
1F
100
AcDbEntity
  8
0
100
AcDbCircle
 10
-20.51585122061646
 20
-94.00242184347206
 30
0.0
 40
1.5
100
AcDbArc
 50
180.0
 51
270.0000000000012
  0
ARC
  5
169
330
1F
100
AcDbEntity
  8
0
100
AcDbCircle
 10
21.48414877938352
 20
-94.00242184347206
 30
0.0
 40
1.5
100
AcDbArc
 50
269.9999999999978
 51
0.0
  0
ARC
  5
16A
330
1F
100
AcDbEntity
  8
0
100
AcDbCircle
 10
-32.26268746135402
 20
-94.00242184347206
 30
0.0
 40
1.5
100
AcDbArc
 50
180.0
 51
270.0000000000012
  0
ARC
  5
16B
330
1F
100
AcDbEntity
  8
0
100
AcDbCircle
 10
33.23098502012106
 20
-94.00242184347206
 30
0.0
 40
1.5
100
AcDbArc
 50
269.999999999998
 51
0.0
  0
ARC
  5
16C
330
1F
100
AcDbEntity
  8
0
100
AcDbCircle
 10
-43.2922826164521
 20
-93.93006905707322
 30
0.0
 40
1.5
100
AcDbArc
 50
180.0
 51
270.0000000000009
  0
ARC
  5
16D
330
1F
100
AcDbEntity
  8
0
100
AcDbCircle
 10
43.29228261645211
 20
-93.93006905707322
 30
0.0
 40
1.5
100
AcDbArc
 50
269.999999999998
 51
0.0
  0
ENDSEC
  0
SECTION
  2
OBJECTS
  0
DICTIONARY
  5
C
330
0
100
AcDbDictionary
  3
ACAD_GROUP
350
D
  3
ACAD_LAYOUT
350
1A
  3
ACAD_MLINESTYLE
350
17
  3
ACAD_PLOTSETTINGS
350
19
  3
ACAD_PLOTSTYLENAME
350
EB
  3
ACDBHEADERROUNDTRIPXREC
350
198
1001
ACAD
1000
TREAT_AS_HARD
1070
     0
  0
DICTIONARY
  5
E5
330
1F
100
AcDbDictionary
  3
ACAD_LAYOUTSELFREF
350
1B9
  0
DICTIONARY
  5
E3
330
1B
100
AcDbDictionary
  3
ACAD_LAYOUTSELFREF
350
1B8
  0
DICTIONARY
  5
D
102
{ACAD_REACTORS
330
C
102
}
330
C
100
AcDbDictionary
1001
ACAD
1000
TREAT_AS_HARD
1070
     0
  0
DICTIONARY
  5
1A
102
{ACAD_REACTORS
330
C
102
}
330
C
100
AcDbDictionary
1001
ACAD
1000
TREAT_AS_HARD
1070
     0
  0
DICTIONARY
  5
17
102
{ACAD_REACTORS
330
C
102
}
330
C
100
AcDbDictionary
  3
STANDARD
350
18
1001
ACAD
1000
TREAT_AS_HARD
1070
     0
  0
DICTIONARY
  5
19
102
{ACAD_REACTORS
330
C
102
}
330
C
100
AcDbDictionary
1001
ACAD
1000
TREAT_AS_HARD
1070
     0
  0
ACDBDICTIONARYWDFLT
  5
EB
102
{ACAD_REACTORS
330
C
102
}
330
C
100
AcDbDictionary
281
     1
  3
Normal
350
EC
100
AcDbDictionaryWithDefault
340
EC
  0
DICTIONARY
  5
198
102
{ACAD_REACTORS
330
C
102
}
330
C
100
AcDbDictionary
  3
TSTACKALIGN
350
199
  3
TSTACKSIZE
350
19A
  3
HYPERLINKBASE
350
19B
  3
STYLESHEET
350
19C
  3
LAYOUTDICT
350
19D
  3
PLOTSETDICT
350
19E
  3
PLOTSTYLNAMDICT
350
19F
  3
LWETCUNION
350
1A0
  3
INSUNITS
350
1A1
  3
CEPSNTYPE
350
1A2
  3
FINGERPRINTGUID
350
1A3
  3
VERSIONGUID
350
1A4
  3
PSVPSCALE
350
1A5
  3
PUCSORTHOREF
350
1A6
  3
PUCSORTHOVIEW
350
1A7
  3
PUCSBASE
350
1A8
  3
PUCSORGTOP
350
1A9
  3
PUCSORGBOTTOM
350
1AA
  3
PUCSORGLEFT
350
1AB
  3
PUCSORGRIGHT
350
1AC
  3
PUCSORGFRONT
350
1AD
  3
PUCSORGBACK
350
1AE
  3
UCSORTHOREF
350
1AF
  3
UCSORTHOVIEW
350
1B0
  3
UCSBASE
350
1B1
  3
UCSORGTOP
350
1B2
  3
UCSORGBOTTOM
350
1B3
  3
UCSORGLEFT
350
1B4
  3
UCSORGRIGHT
350
1B5
  3
UCSORGFRONT
350
1B6
  3
UCSORGBACK
350
1B7
  0
XRECORD
  5
1B9
102
{ACAD_REACTORS
330
E5
102
}
330
E5
100
AcDbXrecord
340
1F
  0
XRECORD
  5
1B8
102
{ACAD_REACTORS
330
E3
102
}
330
E3
100
AcDbXrecord
340
1B
  0
MLINESTYLE
  5
18
102
{ACAD_REACTORS
330
17
102
}
330
17
100
AcDbMlineStyle
  2
STANDARD
 70
     0
  3

 62
   256
 51
90.0
 52
90.0
 71
     2
 49
0.5
 62
   256
  6
BYLAYER
 49
-0.5
 62
   256
  6
BYLAYER
  0
ACDBPLACEHOLDER
  5
EC
102
{ACAD_REACTORS
330
EB
102
}
330
EB
100
AcDbPlaceHolder
280
     0
  0
XRECORD
  5
199
102
{ACAD_REACTORS
330
198
102
}
330
198
100
AcDbXrecord
 90
        1
  0
XRECORD
  5
19A
102
{ACAD_REACTORS
330
198
102
}
330
198
100
AcDbXrecord
 90
       70
  0
XRECORD
  5
19B
102
{ACAD_REACTORS
330
198
102
}
330
198
100
AcDbXrecord
  1

  0
XRECORD
  5
19C
102
{ACAD_REACTORS
330
198
102
}
330
198
100
AcDbXrecord
  1

  0
XRECORD
  5
19D
102
{ACAD_REACTORS
330
198
102
}
330
198
100
AcDbXrecord
340
1A
  0
XRECORD
  5
19E
102
{ACAD_REACTORS
330
198
102
}
330
198
100
AcDbXrecord
340
19
  0
XRECORD
  5
19F
102
{ACAD_REACTORS
330
198
102
}
330
198
100
AcDbXrecord
340
EB
  0
XRECORD
  5
1A0
102
{ACAD_REACTORS
330
198
102
}
330
198
100
AcDbXrecord
 90
    10781
  0
XRECORD
  5
1A1
102
{ACAD_REACTORS
330
198
102
}
330
198
100
AcDbXrecord
 90
        0
  0
XRECORD
  5
1A2
102
{ACAD_REACTORS
330
198
102
}
330
198
100
AcDbXrecord
 90
        0
  0
XRECORD
  5
1A3
102
{ACAD_REACTORS
330
198
102
}
330
198
100
AcDbXrecord
  1
{6C7184CF-6601-4381-8117-2D7FA4BD21B5}
  0
XRECORD
  5
1A4
102
{ACAD_REACTORS
330
198
102
}
330
198
100
AcDbXrecord
  1
{477C9B6D-AD6F-4CF7-8192-B46C4EABF0FC}
  0
XRECORD
  5
1A5
102
{ACAD_REACTORS
330
198
102
}
330
198
100
AcDbXrecord
 40
0.0
  0
XRECORD
  5
1A6
102
{ACAD_REACTORS
330
198
102
}
330
198
100
AcDbXrecord
340
0
  0
XRECORD
  5
1A7
102
{ACAD_REACTORS
330
198
102
}
330
198
100
AcDbXrecord
 70
     0
  0
XRECORD
  5
1A8
102
{ACAD_REACTORS
330
198
102
}
330
198
100
AcDbXrecord
340
0
  0
XRECORD
  5
1A9
102
{ACAD_REACTORS
330
198
102
}
330
198
100
AcDbXrecord
 10
0.0
 20
0.0
 30
0.0
  0
XRECORD
  5
1AA
102
{ACAD_REACTORS
330
198
102
}
330
198
100
AcDbXrecord
 10
0.0
 20
0.0
 30
0.0
  0
XRECORD
  5
1AB
102
{ACAD_REACTORS
330
198
102
}
330
198
100
AcDbXrecord
 10
0.0
 20
0.0
 30
0.0
  0
XRECORD
  5
1AC
102
{ACAD_REACTORS
330
198
102
}
330
198
100
AcDbXrecord
 10
0.0
 20
0.0
 30
0.0
  0
XRECORD
  5
1AD
102
{ACAD_REACTORS
330
198
102
}
330
198
100
AcDbXrecord
 10
0.0
 20
0.0
 30
0.0
  0
XRECORD
  5
1AE
102
{ACAD_REACTORS
330
198
102
}
330
198
100
AcDbXrecord
 10
0.0
 20
0.0
 30
0.0
  0
XRECORD
  5
1AF
102
{ACAD_REACTORS
330
198
102
}
330
198
100
AcDbXrecord
340
0
  0
XRECORD
  5
1B0
102
{ACAD_REACTORS
330
198
102
}
330
198
100
AcDbXrecord
 70
     0
  0
XRECORD
  5
1B1
102
{ACAD_REACTORS
330
198
102
}
330
198
100
AcDbXrecord
340
0
  0
XRECORD
  5
1B2
102
{ACAD_REACTORS
330
198
102
}
330
198
100
AcDbXrecord
 10
0.0
 20
0.0
 30
0.0
  0
XRECORD
  5
1B3
102
{ACAD_REACTORS
330
198
102
}
330
198
100
AcDbXrecord
 10
0.0
 20
0.0
 30
0.0
  0
XRECORD
  5
1B4
102
{ACAD_REACTORS
330
198
102
}
330
198
100
AcDbXrecord
 10
0.0
 20
0.0
 30
0.0
  0
XRECORD
  5
1B5
102
{ACAD_REACTORS
330
198
102
}
330
198
100
AcDbXrecord
 10
0.0
 20
0.0
 30
0.0
  0
XRECORD
  5
1B6
102
{ACAD_REACTORS
330
198
102
}
330
198
100
AcDbXrecord
 10
0.0
 20
0.0
 30
0.0
  0
XRECORD
  5
1B7
102
{ACAD_REACTORS
330
198
102
}
330
198
100
AcDbXrecord
 10
0.0
 20
0.0
 30
0.0
  0
ENDSEC
  0
EOF
